  0
SECTION
  2
HEADER
  9
$ACADVER
  1
AC1015
  9
$ACADMAINTVER
 70
    20
  9
$DWGCODEPAGE
  3
ANSI_932
  9
$INSBASE
 10
0.0
 20
0.0
 30
0.0
  9
$EXTMIN
 10
-1584.677785408612
 20
-706.7318236798825
 30
0.0
  9
$EXTMAX
 10
1329.654970586986
 20
766.2594309981084
 30
0.0
  9
$LIMMIN
 10
-4267.152221060483
 20
-2696.083210198413
  9
$LIMMAX
 10
7190.717422586465
 20
5141.155363923066
  9
$ORTHOMODE
 70
     0
  9
$REGENMODE
 70
     1
  9
$FILLMODE
 70
     1
  9
$QTEXTMODE
 70
     0
  9
$MIRRTEXT
 70
     0
  9
$LTSCALE
 40
20.0
  9
$ATTMODE
 70
     1
  9
$TEXTSIZE
 40
60.0
  9
$TRACEWID
 40
0.05
  9
$TEXTSTYLE
  7
STANDARD1
  9
$CLAYER
  8
NOTE
  9
$CELTYPE
  6
CONTINUOUS
  9
$CECOLOR
 62
     7
  9
$CELTSCALE
 40
1.0
  9
$DISPSILH
 70
     0
  9
$DIMSCALE
 40
1.0
  9
$DIMASZ
 40
30.0
  9
$DIMEXO
 40
20.0
  9
$DIMDLI
 40
80.0
  9
$DIMRND
 40
0.0
  9
$DIMDLE
 40
0.0
  9
$DIMEXE
 40
20.0
  9
$DIMTP
 40
0.0
  9
$DIMTM
 40
0.0
  9
$DIMTXT
 40
40.0
  9
$DIMCEN
 40
0.09
  9
$DIMTSZ
 40
0.0
  9
$DIMTOL
 70
     0
  9
$DIMLIM
 70
     0
  9
$DIMTIH
 70
     0
  9
$DIMTOH
 70
     0
  9
$DIMSE1
 70
     0
  9
$DIMSE2
 70
     0
  9
$DIMTAD
 70
     1
  9
$DIMZIN
 70
     8
  9
$DIMBLK
  1

  9
$DIMASO
 70
     1
  9
$DIMSHO
 70
     0
  9
$DIMPOST
  1

  9
$DIMAPOST
  1

  9
$DIMALT
 70
     0
  9
$DIMALTD
 70
     2
  9
$DIMALTF
 40
25.4
  9
$DIMLFAC
 40
1.0
  9
$DIMTOFL
 70
     1
  9
$DIMTVP
 40
0.0
  9
$DIMTIX
 70
     0
  9
$DIMSOXD
 70
     0
  9
$DIMSAH
 70
     0
  9
$DIMBLK1
  1

  9
$DIMBLK2
  1

  9
$DIMSTYLE
  2
Standard
  9
$DIMCLRD
 70
     0
  9
$DIMCLRE
 70
     0
  9
$DIMCLRT
 70
     0
  9
$DIMTFAC
 40
1.0
  9
$DIMGAP
 40
0.09
  9
$DIMJUST
 70
     0
  9
$DIMSD1
 70
     0
  9
$DIMSD2
 70
     0
  9
$DIMTOLJ
 70
     1
  9
$DIMTZIN
 70
     0
  9
$DIMALTZ
 70
     0
  9
$DIMALTTZ
 70
     0
  9
$DIMUPT
 70
     0
  9
$DIMDEC
 70
     4
  9
$DIMTDEC
 70
     4
  9
$DIMALTU
 70
     2
  9
$DIMALTTD
 70
     2
  9
$DIMTXSTY
  7
STANDARD
  9
$DIMAUNIT
 70
     0
  9
$DIMADEC
 70
     0
  9
$DIMALTRND
 40
0.0
  9
$DIMAZIN
 70
     0
  9
$DIMDSEP
 70
    46
  9
$DIMATFIT
 70
     3
  9
$DIMFRAC
 70
     0
  9
$DIMLDRBLK
  1

  9
$DIMLUNIT
 70
     2
  9
$DIMLWD
 70
    -2
  9
$DIMLWE
 70
    -2
  9
$DIMTMOVE
 70
     0
  9
$LUNITS
 70
     2
  9
$LUPREC
 70
     4
  9
$SKETCHINC
 40
0.1
  9
$FILLETRAD
 40
0.0
  9
$AUNITS
 70
     1
  9
$AUPREC
 70
     3
  9
$MENU
  1
ACAD
  9
$ELEVATION
 40
0.0
  9
$PELEVATION
 40
0.0
  9
$THICKNESS
 40
0.0
  9
$LIMCHECK
 70
     0
  9
$CHAMFERA
 40
0.0
  9
$CHAMFERB
 40
0.0
  9
$CHAMFERC
 40
0.0
  9
$CHAMFERD
 40
0.0
  9
$SKPOLY
 70
     0
  9
$TDCREATE
 40
2455902.607164352
  9
$TDUCREATE
 40
2455902.232164352
  9
$TDUPDATE
 40
2459096.623460649
  9
$TDUUPDATE
 40
2459096.248460648
  9
$TDINDWG
 40
1.6983085880
  9
$TDUSRTIMER
 40
1.6983049769
  9
$USRTIMER
 70
     1
  9
$ANGBASE
 50
0.0
  9
$ANGDIR
 70
     0
  9
$PDMODE
 70
     3
  9
$PDSIZE
 40
-2.0
  9
$PLINEWID
 40
0.0
  9
$SPLFRAME
 70
     0
  9
$SPLINETYPE
 70
     6
  9
$SPLINESEGS
 70
     8
  9
$HANDSEED
  5
900
  9
$SURFTAB1
 70
     6
  9
$SURFTAB2
 70
     6
  9
$SURFTYPE
 70
     6
  9
$SURFU
 70
     6
  9
$SURFV
 70
     6
  9
$UCSBASE
  2

  9
$UCSNAME
  2

  9
$UCSORG
 10
0.0
 20
0.0
 30
0.0
  9
$UCSXDIR
 10
1.0
 20
0.0
 30
0.0
  9
$UCSYDIR
 10
0.0
 20
1.0
 30
0.0
  9
$UCSORTHOREF
  2

  9
$UCSORTHOVIEW
 70
     0
  9
$UCSORGTOP
 10
0.0
 20
0.0
 30
0.0
  9
$UCSORGBOTTOM
 10
0.0
 20
0.0
 30
0.0
  9
$UCSORGLEFT
 10
0.0
 20
0.0
 30
0.0
  9
$UCSORGRIGHT
 10
0.0
 20
0.0
 30
0.0
  9
$UCSORGFRONT
 10
0.0
 20
0.0
 30
0.0
  9
$UCSORGBACK
 10
0.0
 20
0.0
 30
0.0
  9
$PUCSBASE
  2

  9
$PUCSNAME
  2

  9
$PUCSORG
 10
0.0
 20
0.0
 30
0.0
  9
$PUCSXDIR
 10
1.0
 20
0.0
 30
0.0
  9
$PUCSYDIR
 10
0.0
 20
1.0
 30
0.0
  9
$PUCSORTHOREF
  2

  9
$PUCSORTHOVIEW
 70
     0
  9
$PUCSORGTOP
 10
0.0
 20
0.0
 30
0.0
  9
$PUCSORGBOTTOM
 10
0.0
 20
0.0
 30
0.0
  9
$PUCSORGLEFT
 10
0.0
 20
0.0
 30
0.0
  9
$PUCSORGRIGHT
 10
0.0
 20
0.0
 30
0.0
  9
$PUCSORGFRONT
 10
0.0
 20
0.0
 30
0.0
  9
$PUCSORGBACK
 10
0.0
 20
0.0
 30
0.0
  9
$USERI1
 70
     0
  9
$USERI2
 70
     0
  9
$USERI3
 70
     0
  9
$USERI4
 70
     0
  9
$USERI5
 70
     0
  9
$USERR1
 40
20.0
  9
$USERR2
 40
0.0
  9
$USERR3
 40
0.0
  9
$USERR4
 40
0.0
  9
$USERR5
 40
0.0
  9
$WORLDVIEW
 70
     1
  9
$SHADEDGE
 70
     3
  9
$SHADEDIF
 70
    70
  9
$TILEMODE
 70
     1
  9
$MAXACTVP
 70
    64
  9
$PINSBASE
 10
0.0
 20
0.0
 30
0.0
  9
$PLIMCHECK
 70
     0
  9
$PEXTMIN
 10
1.000000000000000E+20
 20
1.000000000000000E+20
 30
1.000000000000000E+20
  9
$PEXTMAX
 10
-1.000000000000000E+20
 20
-1.000000000000000E+20
 30
-1.000000000000000E+20
  9
$PLIMMIN
 10
0.0
 20
0.0
  9
$PLIMMAX
 10
12.0
 20
9.0
  9
$UNITMODE
 70
     0
  9
$VISRETAIN
 70
     1
  9
$PLINEGEN
 70
     0
  9
$PSLTSCALE
 70
     1
  9
$TREEDEPTH
 70
  3020
  9
$CMLSTYLE
  2
Standard
  9
$CMLJUST
 70
     0
  9
$CMLSCALE
 40
1.0
  9
$PROXYGRAPHICS
 70
     1
  9
$MEASUREMENT
 70
     0
  9
$CELWEIGHT
370
    -1
  9
$ENDCAPS
280
     0
  9
$JOINSTYLE
280
     0
  9
$LWDISPLAY
290
     0
  9
$INSUNITS
 70
     0
  9
$HYPERLINKBASE
  1

  9
$STYLESHEET
  1

  9
$XEDIT
290
     1
  9
$CEPSNTYPE
380
     0
  9
$PSTYLEMODE
290
     1
  9
$FINGERPRINTGUID
  2
{019BE6D0-10AE-6B47-9146-3422336377DA}
  9
$VERSIONGUID
  2
{B416E4CC-BFEC-B842-A827-AFCF41A46EC7}
  9
$EXTNAMES
290
     1
  9
$PSVPSCALE
 40
0.0
  9
$OLESTARTUP
290
     0
  0
ENDSEC
  0
SECTION
  2
CLASSES
  0
CLASS
  1
ACDBDICTIONARYWDFLT
  2
AcDbDictionaryWithDefault
  3
ObjectDBX Classes
 90
        0
280
     0
281
     0
  0
CLASS
  1
MATERIAL
  2
AcDbMaterial
  3
ObjectDBX Classes
 90
     1153
280
     0
281
     0
  0
CLASS
  1
VISUALSTYLE
  2
AcDbVisualStyle
  3
ObjectDBX Classes
 90
     4095
280
     0
281
     0
  0
CLASS
  1
SCALE
  2
AcDbScale
  3
ObjectDBX Classes
 90
     1153
280
     0
281
     0
  0
CLASS
  1
TABLESTYLE
  2
AcDbTableStyle
  3
ObjectDBX Classes
 90
     4095
280
     0
281
     0
  0
CLASS
  1
MLEADERSTYLE
  2
AcDbMLeaderStyle
  3
ACDB_MLEADERSTYLE_CLASS
 90
     4095
280
     0
281
     0
  0
CLASS
  1
ACDBSECTIONVIEWSTYLE
  2
AcDbSectionViewStyle
  3
ObjectDBX Classes
 90
     1025
280
     0
281
     0
  0
CLASS
  1
ACDBDETAILVIEWSTYLE
  2
AcDbDetailViewStyle
  3
ObjectDBX Classes
 90
     1025
280
     0
281
     0
  0
CLASS
  1
DICTIONARYVAR
  2
AcDbDictionaryVar
  3
ObjectDBX Classes
 90
        0
280
     0
281
     0
  0
CLASS
  1
CELLSTYLEMAP
  2
AcDbCellStyleMap
  3
ObjectDBX Classes
 90
     1152
280
     0
281
     0
  0
CLASS
  1
ACDBPLACEHOLDER
  2
AcDbPlaceHolder
  3
ObjectDBX Classes
 90
        0
280
     0
281
     0
  0
CLASS
  1
LAYOUT
  2
AcDbLayout
  3
ObjectDBX Classes
 90
        0
280
     0
281
     0
  0
ENDSEC
  0
SECTION
  2
TABLES
  0
TABLE
  2
VPORT
  5
8
330
0
100
AcDbSymbolTable
 70
     1
  0
VPORT
  5
81
330
8
100
AcDbSymbolTableRecord
100
AcDbViewportTableRecord
  2
*ACTIVE
 70
     0
 10
0.0
 20
0.0
 11
1.0
 21
1.0
 12
220.6489890795326
 22
52.41231230769665
 13
0.0
 23
0.0
 14
50.0
 24
50.0
 15
100.0
 25
100.0
 16
0.0
 26
0.0
 36
1.0
 17
0.0
 27
0.0
 37
0.0
 40
1386.108993973595
 41
2.364406779661016
 42
50.0
 43
0.0
 44
0.0
 50
0.0
 51
0.0
 71
     0
 72
  1000
 73
     1
 74
     0
 75
     0
 76
     0
 77
     0
 78
     0
281
     0
 65
     1
110
0.0
120
0.0
130
0.0
111
1.0
121
0.0
131
0.0
112
0.0
122
1.0
132
0.0
 79
     0
146
0.0
1001
ACAD_NAV_VCDISPLAY
1070
     3
  0
ENDTAB
  0
TABLE
  2
LTYPE
  5
5
330
0
100
AcDbSymbolTable
 70
     3
  0
LTYPE
  5
5A
330
5
100
AcDbSymbolTableRecord
100
AcDbLinetypeTableRecord
  2
ByBlock
 70
     0
  3

 72
    65
 73
     0
 40
0.0
  0
LTYPE
  5
5B
330
5
100
AcDbSymbolTableRecord
100
AcDbLinetypeTableRecord
  2
ByLayer
 70
     0
  3

 72
    65
 73
     0
 40
0.0
  0
LTYPE
  5
5C
330
5
100
AcDbSymbolTableRecord
100
AcDbLinetypeTableRecord
  2
CONTINUOUS
 70
     0
  3
実線
 72
    65
 73
     0
 40
0.0
  0
LTYPE
  5
75
330
5
100
AcDbSymbolTableRecord
100
AcDbLinetypeTableRecord
  2
DASHDOT
 70
     0
  3
____ _ ____ _ ____ _ ____ _ ____ _ ____ _ ____
 72
    65
 73
     4
 40
5.5
 49
4.0
 74
     0
 49
-0.6
 74
     0
 49
0.3
 74
     0
 49
-0.6
 74
     0
  0
ENDTAB
  0
TABLE
  2
LAYER
  5
2
330
0
100
AcDbSymbolTable
 70
    12
  0
LAYER
  5
54
102
{ACAD_XDICTIONARY
360
85A
102
}
330
2
100
AcDbSymbolTableRecord
100
AcDbLayerTableRecord
  2
0
 70
     0
 62
     7
  6
CONTINUOUS
370
    -3
390
F
  0
LAYER
  5
73
102
{ACAD_XDICTIONARY
360
85C
102
}
330
2
100
AcDbSymbolTableRecord
100
AcDbLayerTableRecord
  2
NOTE
 70
     0
 62
     4
  6
CONTINUOUS
370
    -3
390
F
  0
LAYER
  5
76
102
{ACAD_XDICTIONARY
360
85E
102
}
330
2
100
AcDbSymbolTableRecord
100
AcDbLayerTableRecord
  2
OUTLINE
 70
     0
 62
     3
  6
CONTINUOUS
370
    -3
390
F
  0
LAYER
  5
77
102
{ACAD_XDICTIONARY
360
860
102
}
330
2
100
AcDbSymbolTableRecord
100
AcDbLayerTableRecord
  2
DETAIL
 70
     0
 62
     5
  6
CONTINUOUS
370
    -3
390
F
  0
LAYER
  5
78
102
{ACAD_XDICTIONARY
360
862
102
}
330
2
100
AcDbSymbolTableRecord
100
AcDbLayerTableRecord
  2
BASIS
 70
     0
 62
     6
  6
DASHDOT
370
    -3
390
F
  0
LAYER
  5
79
102
{ACAD_XDICTIONARY
360
864
102
}
330
2
100
AcDbSymbolTableRecord
100
AcDbLayerTableRecord
  2
SIZE
 70
     0
 62
    30
  6
CONTINUOUS
370
    -3
390
F
  0
LAYER
  5
7A
102
{ACAD_XDICTIONARY
360
866
102
}
330
2
100
AcDbSymbolTableRecord
100
AcDbLayerTableRecord
  2
ARRANGE
 70
     0
 62
     1
  6
CONTINUOUS
370
    -3
390
F
  0
LAYER
  5
7B
102
{ACAD_XDICTIONARY
360
868
102
}
330
2
100
AcDbSymbolTableRecord
100
AcDbLayerTableRecord
  2
FIX
 70
     0
 62
    11
  6
CONTINUOUS
370
    -3
390
F
  0
LAYER
  5
7C
102
{ACAD_XDICTIONARY
360
86A
102
}
330
2
100
AcDbSymbolTableRecord
100
AcDbLayerTableRecord
  2
SERVICESPACE
 70
     0
 62
     2
  6
DASHDOT
370
    -3
390
F
  0
LAYER
  5
7D
102
{ACAD_XDICTIONARY
360
86C
102
}
330
2
100
AcDbSymbolTableRecord
100
AcDbLayerTableRecord
  2
ETC
 70
     0
 62
    61
  6
CONTINUOUS
370
    -3
390
F
  0
LAYER
  5
7E
102
{ACAD_XDICTIONARY
360
86E
102
}
330
2
100
AcDbSymbolTableRecord
100
AcDbLayerTableRecord
  2
SYMBOLLINE
 70
     0
 62
    15
  6
CONTINUOUS
370
    -3
390
F
  0
LAYER
  5
7F
330
2
100
AcDbSymbolTableRecord
100
AcDbLayerTableRecord
  2
DEFPOINTS
 70
     0
 62
     7
  6
CONTINUOUS
290
     0
370
    -3
390
F
  0
ENDTAB
  0
TABLE
  2
STYLE
  5
3
330
0
100
AcDbSymbolTable
 70
     3
  0
STYLE
  5
55
330
3
100
AcDbSymbolTableRecord
100
AcDbTextStyleTableRecord
  2
STANDARD
 70
     0
 40
0.0
 41
0.9
 50
0.0
 71
     0
 42
64.0
  3
SIMPLEX
  4
BIGFONT
  0
STYLE
  5
59
330
3
100
AcDbSymbolTableRecord
100
AcDbTextStyleTableRecord
  2
Annotative
 70
     0
 40
0.0
 41
1.0
 50
0.0
 71
     0
 42
0.2
  3
txt
  4

1001
AcadAnnotative
1000
AnnotativeData
1002
{
1070
     1
1070
     1
1002
}
  0
STYLE
  5
74
330
3
100
AcDbSymbolTableRecord
100
AcDbTextStyleTableRecord
  2
STANDARD1
 70
     0
 40
60.0
 41
0.7
 50
0.0
 71
     0
 42
60.0
  3
MONOTXT.shx
  4
BIGFONT.shx
  0
ENDTAB
  0
TABLE
  2
VIEW
  5
6
330
0
100
AcDbSymbolTable
 70
     1
  0
VIEW
  5
80
330
6
100
AcDbSymbolTableRecord
100
AcDbViewTableRecord
  2
ALL
 70
     0
 40
9000.0
 10
241.506647
 20
0.0
 41
12483.01
 11
0.0
 21
0.0
 31
1.0
 12
0.0
 22
0.0
 32
0.0
 42
50.0
 43
0.0
 44
0.0
 50
0.0
 71
     0
281
     0
 72
     0
  0
ENDTAB
  0
TABLE
  2
UCS
  5
7
330
0
100
AcDbSymbolTable
 70
     0
  0
ENDTAB
  0
TABLE
  2
APPID
  5
9
330
0
100
AcDbSymbolTable
 70
     5
  0
APPID
  5
56
330
9
100
AcDbSymbolTableRecord
100
AcDbRegAppTableRecord
  2
ACAD
 70
     0
  0
APPID
  5
5D
330
9
100
AcDbSymbolTableRecord
100
AcDbRegAppTableRecord
  2
AcadAnnotative
 70
     0
  0
APPID
  5
858
330
9
100
AcDbSymbolTableRecord
100
AcDbRegAppTableRecord
  2
ACAD_EXEMPT_FROM_CAD_STANDARDS
 70
     0
  0
APPID
  5
87A
330
9
100
AcDbSymbolTableRecord
100
AcDbRegAppTableRecord
  2
ACAD_NAV_VCDISPLAY
 70
     0
  0
APPID
  5
8B3
330
9
100
AcDbSymbolTableRecord
100
AcDbRegAppTableRecord
  2
ACAD_MLEADERVER
 70
     0
  0
ENDTAB
  0
TABLE
  2
DIMSTYLE
  5
A
330
0
100
AcDbSymbolTable
 70
     2
100
AcDbDimStyleTable
 71
     0
  0
DIMSTYLE
105
57
330
A
100
AcDbSymbolTableRecord
100
AcDbDimStyleTableRecord
  2
Standard
 70
     0
340
55
  0
DIMSTYLE
105
58
330
A
100
AcDbSymbolTableRecord
100
AcDbDimStyleTableRecord
  2
Annotative
 70
     0
340
55
1001
AcadAnnotative
1000
AnnotativeData
1002
{
1070
     1
1070
     1
1002
}
  0
ENDTAB
  0
TABLE
  2
BLOCK_RECORD
  5
1
330
0
100
AcDbSymbolTable
 70
     0
  0
BLOCK_RECORD
  5
6F
330
1
100
AcDbSymbolTableRecord
100
AcDbBlockTableRecord
  2
*Model_Space
340
72
  0
BLOCK_RECORD
  5
6B
330
1
100
AcDbSymbolTableRecord
100
AcDbBlockTableRecord
  2
*Paper_Space
340
6E
  0
ENDTAB
  0
ENDSEC
  0
SECTION
  2
BLOCKS
  0
BLOCK
  5
70
330
6F
100
AcDbEntity
  8
0
100
AcDbBlockBegin
  2
*Model_Space
 70
     0
 10
0.0
 20
0.0
 30
0.0
  3
*Model_Space
  1

  0
ENDBLK
  5
71
330
6F
100
AcDbEntity
  8
0
100
AcDbBlockEnd
  0
BLOCK
  5
6C
330
6B
100
AcDbEntity
 67
     1
  8
0
100
AcDbBlockBegin
  2
*Paper_Space
 70
     0
 10
0.0
 20
0.0
 30
0.0
  3
*Paper_Space
  1

  0
ENDBLK
  5
6D
330
6B
100
AcDbEntity
 67
     1
  8
0
100
AcDbBlockEnd
  0
ENDSEC
  0
SECTION
  2
ENTITIES
  0
LWPOLYLINE
  5
86
330
6F
100
AcDbEntity
  8
DETAIL
  6
Continuous
 62
     5
100
AcDbPolyline
 90
        7
 70
     0
 43
0.0
 10
355.2370776911999
 20
-45.85691856480003
 10
354.9074023664999
 20
-45.92876469309999
 10
354.5960422459
 20
-46.01994655010003
 10
354.3101136865999
 20
-46.1285642117
 10
354.0548158761
 20
-46.25234196290011
 10
353.8308291804002
 20
-46.39094139940016
 10
353.6427599472
 20
-46.5418964534001
  0
LWPOLYLINE
  5
8F
330
6F
100
AcDbEntity
  8
DETAIL
  6
Continuous
 62
     5
100
AcDbPolyline
 90
        5
 70
     0
 43
0.0
 10
354.9074023664999
 20
-45.22906892740002
 10
355.2370776911999
 20
-45.15722279910003
 10
355.5827042493998
 20
-45.10505781649999
 10
355.9396138635999
 20
-45.07340504040008
 10
356.2999999999998
 20
-45.06287253980008
  0
LWPOLYLINE
  5
96
330
6F
100
AcDbEntity
  8
DETAIL
  6
Continuous
 62
     5
100
AcDbPolyline
 90
       18
 70
     0
 43
0.0
 10
529.2166650311002
 20
-218.7587796451
 10
530.1390297541996
 20
-218.7158634847001
 10
531.0535282299999
 20
-218.5880428970001
 10
531.9523613326
 20
-218.3764080089002
 10
532.8278634742002
 20
-218.0827636825002
 10
533.6725680855996
 20
-217.7096142291
 10
534.4792712332
 20
-217.2601419903001
 10
535.2410930781998
 20
-216.7381802198002
 10
535.9515365433
 20
-216.1481803853001
 10
536.6045427238002
 20
-215.4951742066
 10
537.1945425599002
 20
-214.784730743
 10
537.7165043312999
 20
-214.0229088989999
 10
538.1659765706998
 20
-213.2162057519001
 10
538.5391260239998
 20
-212.3715011404001
 10
538.8327703506996
 20
-211.4959989992001
 10
539.0444052363
 20
-210.597165894
 10
539.1722258269997
 20
-209.6826674212
 10
539.2151419826999
 20
-208.7603026935001
  0
LWPOLYLINE
  5
AA
330
6F
100
AcDbEntity
  8
DETAIL
  6
Continuous
 62
     5
100
AcDbPolyline
 90
        8
 70
     0
 43
0.0
 10
360.0
 20
-177.3883802023999
 10
360.3263154805
 20
-177.3780111686001
 10
360.6470476126997
 20
-177.3470814843
 10
360.9567085809
 20
-177.2961203649999
 10
361.2500000000002
 20
-177.2259997696001
 10
361.5219035725
 20
-177.1379194808
 10
361.7677669528999
 20
-177.0333865769
 10
361.9833833507001
 20
-176.9141896448
  0
LWPOLYLINE
  5
B4
330
6F
100
AcDbEntity
  8
DETAIL
  6
Continuous
 62
     5
100
AcDbPolyline
 90
        8
 70
     0
 43
0.0
 10
360.0
 20
-176.6886844366001
 10
360.3263154805
 20
-176.6783154029001
 10
360.6470476126997
 20
-176.6473857186
 10
360.9567085809
 20
-176.5964245993
 10
361.2500000000002
 20
-176.5263040039001
 10
361.5219035725
 20
-176.4382237151001
 10
361.7677669528999
 20
-176.3336908112001
 10
361.9833833507001
 20
-176.2144938791
  0
LWPOLYLINE
  5
BE
330
6F
100
AcDbEntity
  8
DETAIL
  6
Continuous
 62
     5
100
AcDbPolyline
 90
       10
 70
     0
 43
0.0
 10
358.0
 20
-174.9643321011
 10
357.6736845194001
 20
-174.9747011349
 10
357.3529523871999
 20
-175.0056308191998
 10
357.0432914191004
 20
-175.0565919385001
 10
356.7500000000002
 20
-175.1267125339
 10
356.4780964274
 20
-175.2147928227
 10
356.2322330469998
 20
-175.3193257266
 10
356.0166166492
 20
-175.4385226587001
 10
355.8349364904999
 20
-175.5703441263999
 10
355.6903011687001
 20
-175.7125346279001
  0
LINE
  5
CA
330
6F
100
AcDbEntity
  8
DETAIL
  6
Continuous
 62
     5
100
AcDbLine
 10
550.0
 20
-245.4000000000001
 30
0.0
 11
550.0499999999998
 21
-245.4000000000001
 31
0.0
  0
LINE
  5
CB
330
6F
100
AcDbEntity
  8
DETAIL
  6
Continuous
 62
     5
100
AcDbLine
 10
550.0
 20
-240.3
 30
0.0
 11
550.0499999999998
 21
-240.3
 31
0.0
  0
LINE
  5
CC
330
6F
100
AcDbEntity
  8
DETAIL
  6
Continuous
 62
     5
100
AcDbLine
 10
552.0499999999998
 20
-240.3
 30
0.0
 11
590.0000000000001
 21
-240.3
 31
0.0
  0
LINE
  5
CD
330
6F
100
AcDbEntity
  8
DETAIL
  6
Continuous
 62
     5
100
AcDbLine
 10
552.0499999999998
 20
-240.0285398164001
 30
0.0
 11
550.0499999999998
 21
-240.0285398164001
 31
0.0
  0
LINE
  5
CE
330
6F
100
AcDbEntity
  8
DETAIL
  6
Continuous
 62
     5
100
AcDbLine
 10
353.9999999999998
 20
-240.0285398163001
 30
0.0
 11
-549.9999999999999
 21
-240.0285398163001
 31
0.0
  0
LINE
  5
CF
330
6F
100
AcDbEntity
  8
DETAIL
  6
Continuous
 62
     5
100
AcDbLine
 10
-548.9999999999999
 20
-240.0
 30
0.0
 11
554.0000000000003
 21
-240.0
 31
0.0
  0
LINE
  5
D0
330
6F
100
AcDbEntity
  8
DETAIL
  6
Continuous
 62
     5
100
AcDbLine
 10
549.4000000000002
 20
-240.0
 30
0.0
 11
550.0
 21
-240.0
 31
0.0
  0
LINE
  5
D1
330
6F
100
AcDbEntity
  8
DETAIL
  6
Continuous
 62
     5
100
AcDbLine
 10
549.0000000000001
 20
-240.0
 30
0.0
 11
554.0
 21
-240.0
 31
0.0
  0
LINE
  5
D2
330
6F
100
AcDbEntity
  8
DETAIL
  6
Continuous
 62
     5
100
AcDbLine
 10
544.5000000000001
 20
-234.0
 30
0.0
 11
-544.4999999999999
 21
-234.0
 31
0.0
  0
LINE
  5
D3
330
6F
100
AcDbEntity
  8
DETAIL
  6
Continuous
 62
     5
100
AcDbLine
 10
-32.3499999999998
 20
-226.5
 30
0.0
 11
-31.55000000000007
 21
-226.5
 31
0.0
  0
LINE
  5
D4
330
6F
100
AcDbEntity
  8
DETAIL
  6
Continuous
 62
     5
100
AcDbLine
 10
512.65
 20
-226.5
 30
0.0
 11
513.4499999999998
 21
-226.5
 31
0.0
  0
LINE
  5
D5
330
6F
100
AcDbEntity
  8
DETAIL
  6
Continuous
 62
     5
100
AcDbLine
 10
517.35
 20
-226.5
 30
0.0
 11
516.5499999999998
 21
-226.5
 31
0.0
  0
LINE
  5
D6
330
6F
100
AcDbEntity
  8
DETAIL
  6
Continuous
 62
     5
100
AcDbLine
 10
-27.64999999999998
 20
-226.5
 30
0.0
 11
-28.45000000000016
 21
-226.5
 31
0.0
  0
LINE
  5
D7
330
6F
100
AcDbEntity
  8
DETAIL
  6
Continuous
 62
     5
100
AcDbLine
 10
-529.0166650311999
 20
-224.1245319447001
 30
0.0
 11
529.0166650310997
 21
-224.1245319446998
 31
0.0
  0
LINE
  5
D8
330
6F
100
AcDbEntity
  8
DETAIL
  6
Continuous
 62
     5
100
AcDbLine
 10
529.0166650310998
 20
-218.7587796451
 30
0.0
 11
529.2166650311002
 21
-218.7587796451
 31
0.0
  0
LINE
  5
D9
330
6F
100
AcDbEntity
  8
DETAIL
  6
Continuous
 62
     5
100
AcDbLine
 10
529.0166650310998
 20
-208.8008105292999
 30
0.0
 11
373.531000016342
 21
-208.8008105294235
 31
0.0
  0
LINE
  5
DA
330
6F
100
AcDbEntity
  8
DETAIL
  6
Continuous
 62
     5
100
AcDbLine
 10
61.36899998340014
 20
-208.8008105292999
 30
0.0
 11
53.53100001654807
 21
-208.8008105293013
 31
0.0
  0
LINE
  5
DB
330
6F
100
AcDbEntity
  8
DETAIL
  6
Continuous
 62
     5
100
AcDbLine
 10
-53.63100001651847
 20
-208.800810529319
 30
0.0
 11
-261.4689999835394
 21
-208.8008105293531
 31
0.0
  0
LINE
  5
DC
330
6F
100
AcDbEntity
  8
DETAIL
  6
Continuous
 62
     5
100
AcDbLine
 10
529.0166650310993
 20
-208.8008105292999
 30
0.0
 11
443.5310000166
 21
-208.8008105292999
 31
0.0
  0
LINE
  5
DD
330
6F
100
AcDbEntity
  8
DETAIL
  6
Continuous
 62
     5
100
AcDbLine
 10
266.3689999836431
 20
-208.8008105294148
 30
0.0
 11
53.53100001661772
 21
-208.8008105292599
 31
0.0
  0
LINE
  5
DE
330
6F
100
AcDbEntity
  8
DETAIL
  6
Continuous
 62
     5
100
AcDbLine
 10
-53.63100001674926
 20
-208.800810529182
 30
0.0
 11
-71.46899998322907
 21
-208.800810529169
 31
0.0
  0
LINE
  5
DF
330
6F
100
AcDbEntity
  8
DETAIL
  6
Continuous
 62
     5
100
AcDbLine
 10
-378.6310000165504
 20
-208.8008105292999
 30
0.0
 11
-529.0166650311999
 21
-208.8008105292999
 31
0.0
  0
LINE
  5
E0
330
6F
100
AcDbEntity
  8
DETAIL
  6
Continuous
 62
     5
100
AcDbLine
 10
550.0
 20
-207.0
 30
0.0
 11
549.5
 21
-207.0
 31
0.0
  0
LINE
  5
E1
330
6F
100
AcDbEntity
  8
DETAIL
  6
Continuous
 62
     5
100
AcDbLine
 10
554.0
 20
-200.3
 30
0.0
 11
590.0000000000001
 21
-200.3
 31
0.0
  0
LINE
  5
E2
330
6F
100
AcDbEntity
  8
DETAIL
  6
Continuous
 62
     5
100
AcDbLine
 10
-50.17376281329996
 20
-184.0
 30
0.0
 11
50.07376281320023
 21
-184.0
 31
0.0
  0
LINE
  5
E3
330
6F
100
AcDbEntity
  8
DETAIL
  6
Continuous
 62
     5
100
AcDbLine
 10
269.8262371867
 20
-184.0
 30
0.0
 11
370.0737628132003
 21
-184.0
 31
0.0
  0
LINE
  5
E4
330
6F
100
AcDbEntity
  8
DETAIL
  6
Continuous
 62
     5
100
AcDbLine
 10
358.0
 20
-177.3883802023999
 30
0.0
 11
360.0
 21
-177.3883802023999
 31
0.0
  0
LINE
  5
E5
330
6F
100
AcDbEntity
  8
DETAIL
  6
Continuous
 62
     5
100
AcDbLine
 10
554.0
 20
-177.2
 30
0.0
 11
580.0000000000001
 21
-177.2
 31
0.0
  0
LINE
  5
E6
330
6F
100
AcDbEntity
  8
DETAIL
  6
Continuous
 62
     5
100
AcDbLine
 10
358.0
 20
-176.6886844366001
 30
0.0
 11
360.0
 21
-176.6886844366001
 31
0.0
  0
LINE
  5
E7
330
6F
100
AcDbEntity
  8
DETAIL
  6
Continuous
 62
     5
100
AcDbLine
 10
362.1847952726999
 20
-176.0632741808001
 30
0.0
 11
362.0
 21
-176.0632741808001
 31
0.0
  0
LINE
  5
E8
330
6F
100
AcDbEntity
  8
DETAIL
  6
Continuous
 62
     5
100
AcDbLine
 10
360.0
 20
-174.9643321011
 30
0.0
 11
358.0
 21
-174.9643321011
 31
0.0
  0
LINE
  5
E9
330
6F
100
AcDbEntity
  8
DETAIL
  6
Continuous
 62
     5
100
AcDbLine
 10
621.5000000000001
 20
-174.95
 30
0.0
 11
603.5000000000001
 21
-174.95
 31
0.0
  0
LINE
  5
EA
330
6F
100
AcDbEntity
  8
DETAIL
  6
Continuous
 62
     5
100
AcDbLine
 10
580.0000000000001
 20
-171.4790561914
 30
0.0
 11
595.2209438086002
 21
-171.4790561914
 31
0.0
  0
LINE
  5
EB
330
6F
100
AcDbEntity
  8
DETAIL
  6
Continuous
 62
     5
100
AcDbLine
 10
597.0000000000001
 20
-169.2999999999999
 30
0.0
 11
601.5000000000001
 21
-169.2999999999999
 31
0.0
  0
LINE
  5
EC
330
6F
100
AcDbEntity
  8
DETAIL
  6
Continuous
 62
     5
100
AcDbLine
 10
621.5000000000001
 20
-166.575
 30
0.0
 11
603.5000000000001
 21
-166.575
 31
0.0
  0
LINE
  5
ED
330
6F
100
AcDbEntity
  8
DETAIL
  6
Continuous
 62
     5
100
AcDbLine
 10
580.0000000000001
 20
-164.8395280956999
 30
0.0
 11
595.2209438086002
 21
-164.8395280956999
 31
0.0
  0
LINE
  5
EE
330
6F
100
AcDbEntity
  8
DETAIL
  6
Continuous
 62
     5
100
AcDbLine
 10
580.0000000000001
 20
-151.5604719043001
 30
0.0
 11
595.2209438086002
 21
-151.5604719043001
 31
0.0
  0
LINE
  5
EF
330
6F
100
AcDbEntity
  8
DETAIL
  6
Continuous
 62
     5
100
AcDbLine
 10
621.5000000000001
 20
-149.825
 30
0.0
 11
603.5000000000001
 21
-149.825
 31
0.0
  0
LINE
  5
F0
330
6F
100
AcDbEntity
  8
DETAIL
  6
Continuous
 62
     5
100
AcDbLine
 10
597.0000000000001
 20
-147.1000000000001
 30
0.0
 11
601.5000000000001
 21
-147.1000000000001
 31
0.0
  0
LINE
  5
F1
330
6F
100
AcDbEntity
  8
DETAIL
  6
Continuous
 62
     5
100
AcDbLine
 10
580.0000000000001
 20
-144.9209438086
 30
0.0
 11
595.2209438086002
 21
-144.9209438086
 31
0.0
  0
LINE
  5
F2
330
6F
100
AcDbEntity
  8
DETAIL
  6
Continuous
 62
     5
100
AcDbLine
 10
554.0
 20
-141.6999999999999
 30
0.0
 11
573.0000000000001
 21
-141.6999999999999
 31
0.0
  0
LINE
  5
F3
330
6F
100
AcDbEntity
  8
DETAIL
  6
Continuous
 62
     5
100
AcDbLine
 10
621.5000000000001
 20
-141.45
 30
0.0
 11
603.5000000000001
 21
-141.45
 31
0.0
  0
LINE
  5
F4
330
6F
100
AcDbEntity
  8
DETAIL
  6
Continuous
 62
     5
100
AcDbLine
 10
573.0000000000001
 20
-139.2
 30
0.0
 11
580.0000000000001
 21
-139.2
 31
0.0
  0
LINE
  5
F5
330
6F
100
AcDbEntity
  8
DETAIL
  6
Continuous
 62
     5
100
AcDbLine
 10
604.7982940778001
 20
-137.9017059222001
 30
0.0
 11
590.2017059220997
 21
-137.9017059222001
 31
0.0
  0
LINE
  5
F6
330
6F
100
AcDbEntity
  8
DETAIL
  6
Continuous
 62
     5
100
AcDbLine
 10
573.0000000000001
 20
-135.0149545762001
 30
0.0
 11
585.6850454237001
 21
-135.0149545762001
 31
0.0
  0
LINE
  5
F7
330
6F
100
AcDbEntity
  8
DETAIL
  6
Continuous
 62
     5
100
AcDbLine
 10
587.0
 20
-133.1400000000001
 30
0.0
 11
588.5000000000001
 21
-133.1400000000001
 31
0.0
  0
LINE
  5
F8
330
6F
100
AcDbEntity
  8
DETAIL
  6
Continuous
 62
     5
100
AcDbLine
 10
604.7982940778001
 20
-131.5508529610999
 30
0.0
 11
590.2017059220997
 21
-131.5508529610999
 31
0.0
  0
LINE
  5
F9
330
6F
100
AcDbEntity
  8
DETAIL
  6
Continuous
 62
     5
100
AcDbLine
 10
573.0000000000001
 20
-130.1074772880999
 30
0.0
 11
585.6850454237001
 21
-130.1074772880999
 31
0.0
  0
LINE
  5
FA
330
6F
100
AcDbEntity
  8
DETAIL
  6
Continuous
 62
     5
100
AcDbLine
 10
-56.3351119601001
 20
-178.8054097013
 30
0.0
 11
54.6644480033998
 21
-180.2031819378001
 31
0.0
  0
LINE
  5
FB
330
6F
100
AcDbEntity
  8
DETAIL
  6
Continuous
 62
     5
100
AcDbLine
 10
268.4287735233998
 20
-182.8950289998998
 30
0.0
 11
356.1764705882002
 21
-184.0
 31
0.0
  0
LWPOLYLINE
  5
FC
330
6F
100
AcDbEntity
  8
DETAIL
  6
Continuous
 62
     5
100
AcDbPolyline
 90
        8
 70
     0
 43
0.0
 10
360.0
 20
-78.48721767210007
 10
360.3263154805
 20
-78.4768486383
 10
360.6470476126997
 20
-78.44591895410008
 10
360.9567085809
 20
-78.39495783480014
 10
361.2500000000002
 20
-78.32483723929998
 10
361.5219035725
 20
-78.23675695060001
 10
361.7677669528999
 20
-78.13222404659994
 10
361.9833833507001
 20
-78.01302711450012
  0
LWPOLYLINE
  5
106
330
6F
100
AcDbEntity
  8
DETAIL
  6
Continuous
 62
     5
100
AcDbPolyline
 90
        8
 70
     0
 43
0.0
 10
360.0
 20
-77.78752190640009
 10
360.3263154805
 20
-77.77715287260001
 10
360.6470476126997
 20
-77.74622318830006
 10
360.9567085809
 20
-77.69526206900014
 10
361.2500000000002
 20
-77.62514147360001
 10
361.5219035725
 20
-77.53706118479998
 10
361.7677669528999
 20
-77.43252828089999
 10
361.9833833507001
 20
-77.31333134880012
  0
LWPOLYLINE
  5
110
330
6F
100
AcDbEntity
  8
DETAIL
  6
Continuous
 62
     5
100
AcDbPolyline
 90
       10
 70
     0
 43
0.0
 10
358.0
 20
-76.06316957090005
 10
357.6736845194001
 20
-76.0735386046001
 10
357.3529523871999
 20
-76.10446828890008
 10
357.0432914191004
 20
-76.15542940819999
 10
356.7500000000002
 20
-76.22555000370017
 10
356.4780964274
 20
-76.31363029240016
 10
356.2322330469998
 20
-76.41816319630014
 10
356.0166166492
 20
-76.53736012839998
 10
355.8349364904999
 20
-76.66918159620012
 10
355.6903011687001
 20
-76.81137209770009
  0
LWPOLYLINE
  5
11C
330
6F
100
AcDbEntity
  8
DETAIL
  6
Continuous
 62
     5
100
AcDbPolyline
 90
        4
 70
     0
 43
0.0
 10
356.2999999999998
 20
-45.76256830550003
 10
355.9396138635999
 20
-45.77310080610003
 10
355.5827042493998
 20
-45.80475358219996
 10
355.2370776911999
 20
-45.85691856480003
  0
LINE
  5
122
330
6F
100
AcDbEntity
  8
DETAIL
  6
Continuous
 62
     5
100
AcDbLine
 10
553.9825475934999
 20
-60.75650151579998
 30
0.0
 11
583.0
 21
-60.25
 31
0.0
  0
LINE
  5
123
330
6F
100
AcDbEntity
  8
DETAIL
  6
Continuous
 62
     5
100
AcDbLine
 10
573.0000000000001
 20
-120.2925227119001
 30
0.0
 11
585.6850454237001
 21
-120.2925227119001
 31
0.0
  0
LINE
  5
124
330
6F
100
AcDbEntity
  8
DETAIL
  6
Continuous
 62
     5
100
AcDbLine
 10
604.7982940778001
 20
-118.8491470389001
 30
0.0
 11
590.2017059220997
 21
-118.8491470389001
 31
0.0
  0
LINE
  5
125
330
6F
100
AcDbEntity
  8
DETAIL
  6
Continuous
 62
     5
100
AcDbLine
 10
587.0
 20
-117.26
 30
0.0
 11
588.5000000000001
 21
-117.26
 31
0.0
  0
LINE
  5
126
330
6F
100
AcDbEntity
  8
DETAIL
  6
Continuous
 62
     5
100
AcDbLine
 10
573.0000000000001
 20
-115.3850454237999
 30
0.0
 11
585.6850454237001
 21
-115.3850454237999
 31
0.0
  0
LINE
  5
127
330
6F
100
AcDbEntity
  8
DETAIL
  6
Continuous
 62
     5
100
AcDbLine
 10
604.7982940778001
 20
-112.4982940778
 30
0.0
 11
590.2017059220997
 21
-112.4982940778
 31
0.0
  0
LINE
  5
128
330
6F
100
AcDbEntity
  8
DETAIL
  6
Continuous
 62
     5
100
AcDbLine
 10
554.0
 20
-108.7
 30
0.0
 11
573.0000000000001
 21
-108.7
 31
0.0
  0
LINE
  5
129
330
6F
100
AcDbEntity
  8
DETAIL
  6
Continuous
 62
     5
100
AcDbLine
 10
401.3769037773999
 20
-105.3862952848001
 30
0.0
 11
366.0000000000002
 21
-105.3862952848001
 31
0.0
  0
LINE
  5
12A
330
6F
100
AcDbEntity
  8
DETAIL
  6
Continuous
 62
     5
100
AcDbLine
 10
365.0000000000002
 20
-104.4858912405
 30
0.0
 11
365.7999999999999
 21
-104.4858912405
 31
0.0
  0
LINE
  5
12B
330
6F
100
AcDbEntity
  8
DETAIL
  6
Continuous
 62
     5
100
AcDbLine
 10
366.0000000000002
 20
-99.22246040959999
 30
0.0
 11
365.7999999999999
 21
-99.22246040959999
 31
0.0
  0
LINE
  5
12C
330
6F
100
AcDbEntity
  8
DETAIL
  6
Continuous
 62
     5
100
AcDbLine
 10
366.0000000000002
 20
-96.94234415660005
 30
0.0
 11
365.7999999999999
 21
-96.94234415660005
 31
0.0
  0
LINE
  5
12D
330
6F
100
AcDbEntity
  8
DETAIL
  6
Continuous
 62
     5
100
AcDbLine
 10
554.0
 20
-93.0
 30
0.0
 11
550.0
 21
-93.0
 31
0.0
  0
LINE
  5
12E
330
6F
100
AcDbEntity
  8
DETAIL
  6
Continuous
 62
     5
100
AcDbLine
 10
366.0000000000002
 20
-89.33234415660013
 30
0.0
 11
365.7999999999999
 21
-89.33234415660013
 31
0.0
  0
LINE
  5
12F
330
6F
100
AcDbEntity
  8
DETAIL
  6
Continuous
 62
     5
100
AcDbLine
 10
366.0000000000002
 20
-87.05222790360014
 30
0.0
 11
365.7999999999999
 21
-87.05222790360014
 31
0.0
  0
LINE
  5
130
330
6F
100
AcDbEntity
  8
DETAIL
  6
Continuous
 62
     5
100
AcDbLine
 10
366.0000000000002
 20
-79.44222790360003
 30
0.0
 11
365.7999999999999
 21
-79.44222790360003
 31
0.0
  0
LINE
  5
131
330
6F
100
AcDbEntity
  8
DETAIL
  6
Continuous
 62
     5
100
AcDbLine
 10
358.0
 20
-78.48721767210007
 30
0.0
 11
360.0
 21
-78.48721767210007
 31
0.0
  0
LINE
  5
132
330
6F
100
AcDbEntity
  8
DETAIL
  6
Continuous
 62
     5
100
AcDbLine
 10
551.5000000000001
 20
-78.0
 30
0.0
 11
550.0
 21
-78.0
 31
0.0
  0
LINE
  5
133
330
6F
100
AcDbEntity
  8
DETAIL
  6
Continuous
 62
     5
100
AcDbLine
 10
358.0
 20
-77.78752190640009
 30
0.0
 11
360.0
 21
-77.78752190640009
 31
0.0
  0
LINE
  5
134
330
6F
100
AcDbEntity
  8
DETAIL
  6
Continuous
 62
     5
100
AcDbLine
 10
366.0000000000002
 20
-77.16211165050005
 30
0.0
 11
365.7999999999999
 21
-77.16211165050005
 31
0.0
  0
LINE
  5
135
330
6F
100
AcDbEntity
  8
DETAIL
  6
Continuous
 62
     5
100
AcDbLine
 10
362.1847952726999
 20
-77.16211165050005
 30
0.0
 11
362.0
 21
-77.16211165050005
 31
0.0
  0
LINE
  5
136
330
6F
100
AcDbEntity
  8
DETAIL
  6
Continuous
 62
     5
100
AcDbLine
 10
360.0
 20
-76.06316957090005
 30
0.0
 11
358.0
 21
-76.06316957090005
 31
0.0
  0
LINE
  5
137
330
6F
100
AcDbEntity
  8
DETAIL
  6
Continuous
 62
     5
100
AcDbLine
 10
553.0000000000001
 20
-71.5
 30
0.0
 11
551.5000000000001
 21
-71.5
 31
0.0
  0
LINE
  5
138
330
6F
100
AcDbEntity
  8
DETAIL
  6
Continuous
 62
     5
100
AcDbLine
 10
366.0000000000002
 20
-69.55211165050013
 30
0.0
 11
365.7999999999999
 21
-69.55211165050013
 31
0.0
  0
LINE
  5
139
330
6F
100
AcDbEntity
  8
DETAIL
  6
Continuous
 62
     5
100
AcDbLine
 10
366.0000000000002
 20
-67.27199539749995
 30
0.0
 11
365.7999999999999
 21
-67.27199539749995
 31
0.0
  0
LINE
  5
13A
330
6F
100
AcDbEntity
  8
DETAIL
  6
Continuous
 62
     5
100
AcDbLine
 10
583.0
 20
-60.0
 30
0.0
 11
607.5000000000001
 21
-60.0
 31
0.0
  0
LINE
  5
13B
330
6F
100
AcDbEntity
  8
DETAIL
  6
Continuous
 62
     5
100
AcDbLine
 10
366.0000000000002
 20
-59.66199539750005
 30
0.0
 11
365.7999999999999
 21
-59.66199539750005
 31
0.0
  0
LINE
  5
13C
330
6F
100
AcDbEntity
  8
DETAIL
  6
Continuous
 62
     5
100
AcDbLine
 10
553.0000000000001
 20
-58.59198596450005
 30
0.0
 11
551.5000000000001
 21
-58.59198596450005
 31
0.0
  0
LINE
  5
13D
330
6F
100
AcDbEntity
  8
DETAIL
  6
Continuous
 62
     5
100
AcDbLine
 10
366.0000000000002
 20
-57.38187914450008
 30
0.0
 11
365.7999999999999
 21
-57.38187914450008
 31
0.0
  0
LINE
  5
13E
330
6F
100
AcDbEntity
  8
DETAIL
  6
Continuous
 62
     5
100
AcDbLine
 10
553.0000000000001
 20
-56.59198596450004
 30
0.0
 11
551.5000000000001
 21
-56.59198596450004
 31
0.0
  0
LINE
  5
13F
330
6F
100
AcDbEntity
  8
DETAIL
  6
Continuous
 62
     5
100
AcDbLine
 10
356.2999999999998
 20
-45.76256830550003
 30
0.0
 11
358.8125363825999
 21
-45.76256830550003
 31
0.0
  0
LINE
  5
140
330
6F
100
AcDbEntity
  8
DETAIL
  6
Continuous
 62
     5
100
AcDbLine
 10
356.2999999999998
 20
-45.06287253980008
 30
0.0
 11
357.5148694914002
 21
-45.06287253980008
 31
0.0
  0
LINE
  5
141
330
6F
100
AcDbEntity
  8
DETAIL
  6
Continuous
 62
     5
100
AcDbLine
 10
356.0
 20
-44.57806291950009
 30
0.0
 11
356.5592450248
 21
-44.57806291950009
 31
0.0
  0
LINE
  5
142
330
6F
100
AcDbEntity
  8
DETAIL
  6
Continuous
 62
     5
100
AcDbLine
 10
355.4935932698001
 20
-44.08114134519997
 30
0.0
 11
355.0000000000002
 21
-44.08114134519997
 31
0.0
  0
LINE
  5
143
330
6F
100
AcDbEntity
  8
DETAIL
  6
Continuous
 62
     5
100
AcDbLine
 10
350.3075461766999
 20
-41.82301084200003
 30
0.0
 11
289.5924538231999
 21
-41.82301084200003
 31
0.0
  0
LINE
  5
144
330
6F
100
AcDbEntity
  8
DETAIL
  6
Continuous
 62
     5
100
AcDbLine
 10
30.30754617669993
 20
-41.82301084200003
 30
0.0
 11
-30.40754617680011
 21
-41.82301084200003
 31
0.0
  0
LINE
  5
145
330
6F
100
AcDbEntity
  8
DETAIL
  6
Continuous
 62
     5
100
AcDbLine
 10
342.1857517530999
 20
-39.08114134519997
 30
0.0
 11
297.7142482467999
 21
-39.08114134519997
 31
0.0
  0
LINE
  5
146
330
6F
100
AcDbEntity
  8
DETAIL
  6
Continuous
 62
     5
100
AcDbLine
 10
22.18575175309991
 20
-39.08114134519997
 30
0.0
 11
-22.28575175320009
 21
-39.08114134519997
 31
0.0
  0
LINE
  5
147
330
6F
100
AcDbEntity
  8
DETAIL
  6
Continuous
 62
     5
100
AcDbLine
 10
597.5000000000001
 20
-30.0
 30
0.0
 11
600.0
 21
-30.0
 31
0.0
  0
LINE
  5
148
330
6F
100
AcDbEntity
  8
DETAIL
  6
Continuous
 62
     5
100
AcDbLine
 10
583.0
 20
-28.0
 30
0.0
 11
597.5000000000001
 21
-28.0
 31
0.0
  0
LINE
  5
149
330
6F
100
AcDbEntity
  8
DETAIL
  6
Continuous
 62
     5
100
AcDbLine
 10
600.0
 20
-28.0
 30
0.0
 11
607.5000000000001
 21
-28.0
 31
0.0
  0
LINE
  5
14A
330
6F
100
AcDbEntity
  8
DETAIL
  6
Continuous
 62
     5
100
AcDbLine
 10
529.0166650310998
 20
-27.83998285070016
 30
0.0
 11
372.9209470887616
 21
-27.83998285053267
 31
0.0
  0
LINE
  5
14B
330
6F
100
AcDbEntity
  8
DETAIL
  6
Continuous
 62
     5
100
AcDbLine
 10
61.97905291090012
 20
-27.83998285070016
 30
0.0
 11
52.92094708905892
 21
-27.83998285070642
 31
0.0
  0
LINE
  5
14C
330
6F
100
AcDbEntity
  8
DETAIL
  6
Continuous
 62
     5
100
AcDbLine
 10
-53.02094708918446
 20
-27.83998285077968
 30
0.0
 11
-262.0790529105682
 21
-27.83998285092427
 31
0.0
  0
LINE
  5
14D
330
6F
100
AcDbEntity
  8
DETAIL
  6
Continuous
 62
     5
100
AcDbLine
 10
529.0166650310993
 20
-27.83998285070016
 30
0.0
 11
442.920947089
 21
-27.83998285070016
 31
0.0
  0
LINE
  5
14E
330
6F
100
AcDbEntity
  8
DETAIL
  6
Continuous
 62
     5
100
AcDbLine
 10
266.9790529106626
 20
-27.83998285086902
 30
0.0
 11
52.9209470891492
 21
-27.83998285075916
 31
0.0
  0
LINE
  5
14F
330
6F
100
AcDbEntity
  8
DETAIL
  6
Continuous
 62
     5
100
AcDbLine
 10
-378.0209470893153
 20
-27.83998285085611
 30
0.0
 11
-529.0166650311999
 21
-27.83998285070016
 31
0.0
  0
LINE
  5
150
330
6F
100
AcDbEntity
  8
DETAIL
  6
Continuous
 62
     5
100
AcDbLine
 10
549.5
 20
-27.0
 30
0.0
 11
550.0
 21
-27.0
 31
0.0
  0
LINE
  5
151
330
6F
100
AcDbEntity
  8
DETAIL
  6
Continuous
 62
     5
100
AcDbLine
 10
550.0
 20
-26.40000000000009
 30
0.0
 11
549.5
 21
-26.40000000000009
 31
0.0
  0
LINE
  5
152
330
6F
100
AcDbEntity
  8
DETAIL
  6
Continuous
 62
     5
100
AcDbLine
 10
551.6999999999998
 20
-20.5
 30
0.0
 11
597.3000000000001
 21
-20.5
 31
0.0
  0
LINE
  5
153
330
6F
100
AcDbEntity
  8
DETAIL
  6
Continuous
 62
     5
100
AcDbLine
 10
529.2166650311002
 20
-18.24122035499999
 30
0.0
 11
529.0166650310998
 21
-18.24122035499999
 31
0.0
  0
LINE
  5
154
330
6F
100
AcDbEntity
  8
DETAIL
  6
Continuous
 62
     5
100
AcDbLine
 10
551.6999999999998
 20
-18.0
 30
0.0
 11
597.3000000000001
 21
-18.0
 31
0.0
  0
LINE
  5
155
330
6F
100
AcDbEntity
  8
DETAIL
  6
Continuous
 62
     5
100
AcDbLine
 10
553.0000000000001
 20
-16.5
 30
0.0
 11
550.0
 21
-16.5
 31
0.0
  0
LINE
  5
156
330
6F
100
AcDbEntity
  8
DETAIL
  6
Continuous
 62
     5
100
AcDbLine
 10
529.0166650310997
 20
-12.44083232310004
 30
0.0
 11
-529.0166650311999
 21
-12.44083232310004
 31
0.0
  0
LINE
  5
157
330
6F
100
AcDbEntity
  8
DETAIL
  6
Continuous
 62
     5
100
AcDbLine
 10
-544.4999999999999
 20
-3.0
 30
0.0
 11
544.5000000000001
 21
-3.0
 31
0.0
  0
LINE
  5
158
330
6F
100
AcDbEntity
  8
DETAIL
  6
Continuous
 62
     5
100
AcDbLine
 10
-549.9999999999999
 20
0.0
 30
0.0
 11
549.9999999999999
 21
0.0
 31
0.0
  0
LINE
  5
159
330
6F
100
AcDbEntity
  8
DETAIL
  6
Continuous
 62
     5
100
AcDbLine
 10
553.9825475934999
 20
-27.24349848420002
 30
0.0
 11
583.0
 21
-27.75
 31
0.0
  0
LINE
  5
15A
330
6F
100
AcDbEntity
  8
DETAIL
  6
Continuous
 62
     5
100
AcDbLine
 10
355.7776887781002
 20
-44.55617622070008
 30
0.0
 11
356.0
 21
-44.57806291950009
 31
0.0
  0
LWPOLYLINE
  5
15B
330
6F
100
AcDbEntity
  8
DETAIL
  6
Continuous
 62
     5
100
AcDbPolyline
 90
       23
 70
     0
 43
0.0
 10
-53.63100001659986
 20
-208.8008105292999
 10
-50.7462360743001
 20
-210.1714822135
 10
-47.57815866540012
 20
-211.5382168676001
 10
-44.06652876819986
 20
-212.8694528792
 10
-40.15226134579996
 20
-214.1269369491001
 10
-35.77657280280015
 20
-215.2652310599001
 10
-30.87164491120018
 20
-216.2440252277999
 10
-25.3851991680998
 20
-217.0296104065001
 10
-19.3901570539
 20
-217.5980807815001
 10
-13.07210033419994
 20
-217.9586161922
 10
-6.591039759699808
 20
-218.1499066293002
 10
-0.0500000000000682
 20
-218.2088645076001
 10
6.491039759600081
 20
-218.1499066293002
 10
12.97210033410022
 20
-217.9586161922
 10
19.29015705379981
 20
-217.5980807815001
 10
25.28519916810012
 20
-217.0296104065001
 10
30.7716449111
 20
-216.2440252277999
 10
35.67657280269997
 20
-215.2652310599001
 10
40.05226134570022
 20
-214.1269369491001
 10
43.96652876810015
 20
-212.8694528792
 10
47.47815866529992
 20
-211.5382168676001
 10
50.64623607419992
 20
-210.1714822135
 10
53.53100001660016
 20
-208.8008105292999
  0
LINE
  5
174
330
6F
100
AcDbEntity
  8
DETAIL
  6
Continuous
 62
     5
100
AcDbLine
 10
358.0130255875998
 20
-76.06316957090005
 30
0.0
 11
357.9746951672001
 21
-76.07842020919997
 31
0.0
  0
LINE
  5
175
330
6F
100
AcDbEntity
  8
DETAIL
  6
Continuous
 62
     5
100
AcDbLine
 10
536.3605285841
 20
-10.93564555329999
 30
0.0
 11
532.1482317184001
 21
-12.50949535890004
 31
0.0
  0
LWPOLYLINE
  5
176
330
6F
100
AcDbEntity
  8
DETAIL
  6
Continuous
 62
     5
100
AcDbPolyline
 90
        4
 70
     0
 43
0.0
 10
532.1482317184001
 20
-12.50949535890004
 10
531.7855317451999
 20
-12.64446978750014
 10
531.4084314942999
 20
-12.78378157669999
 10
531.0141405826998
 20
-12.92859046960006
  0
LWPOLYLINE
  5
17C
330
6F
100
AcDbEntity
  8
DETAIL
  6
Continuous
 62
     5
100
AcDbPolyline
 90
        3
 70
     0
 43
0.0
 10
529.7117450987999
 20
-13.40463028720001
 10
529.240504073
 20
-13.57758700199997
 10
529.0166650310998
 20
-13.66025524170004
  0
LINE
  5
181
330
6F
100
AcDbEntity
  8
DETAIL
  6
Continuous
 62
     5
100
AcDbLine
 10
531.0141405826998
 20
-12.92859046960006
 30
0.0
 11
529.7117450987999
 21
-13.40463028720001
 31
0.0
  0
LWPOLYLINE
  5
182
330
6F
100
AcDbEntity
  8
DETAIL
  6
Continuous
 62
     5
100
AcDbPolyline
 90
        5
 70
     0
 43
0.0
 10
529.7135532116
 20
-223.5960341774001
 10
531.0146427187998
 20
-224.0715923648001
 10
531.4090017994
 20
-224.2164284850001
 10
531.7860419279002
 20
-224.3557187749
 10
532.1482312658998
 20
-224.4905044968
  0
LWPOLYLINE
  5
189
330
6F
100
AcDbEntity
  8
DETAIL
  6
Continuous
 62
     5
100
AcDbPolyline
 90
        3
 70
     0
 43
0.0
 10
529.0166650310998
 20
-223.3397444243001
 10
529.2422763034002
 20
-223.4230636471
 10
529.7135532116
 20
-223.5960341774001
  0
LINE
  5
18E
330
6F
100
AcDbEntity
  8
DETAIL
  6
Continuous
 62
     5
100
AcDbLine
 10
532.1482312658998
 20
-224.4905044968
 30
0.0
 11
536.3605285841
 21
-226.0643544467
 31
0.0
  0
LINE
  5
18F
330
6F
100
AcDbEntity
  8
DETAIL
  6
Continuous
 62
     5
100
AcDbLine
 10
360.0253048327
 20
-174.9795827394
 30
0.0
 11
359.9869744122999
 21
-174.9643321011
 31
0.0
  0
LWPOLYLINE
  5
190
330
6F
100
AcDbEntity
  8
DETAIL
  6
Continuous
 62
     5
100
AcDbPolyline
 90
       23
 70
     0
 43
0.0
 10
266.3689999834003
 20
-208.8008105292999
 10
269.2537639256999
 20
-210.1714822135
 10
272.4218413345999
 20
-211.5382168676001
 10
275.9334712318
 20
-212.8694528792
 10
279.8477386542
 20
-214.1269369491001
 10
284.2234271971999
 20
-215.2652310599001
 10
289.1283550887998
 20
-216.2440252277999
 10
294.6148008319002
 20
-217.0296104065001
 10
300.6098429461
 20
-217.5980807815001
 10
306.9278996658001
 20
-217.9586161922
 10
313.4089602403002
 20
-218.1499066293002
 10
319.95
 20
-218.2088645076001
 10
326.4910397596001
 20
-218.1499066293002
 10
332.9721003341003
 20
-217.9586161922
 10
339.2901570537998
 20
-217.5980807815001
 10
345.2851991681001
 20
-217.0296104065001
 10
350.7716449111
 20
-216.2440252277999
 10
355.6765728027
 20
-215.2652310599001
 10
360.0522613457002
 20
-214.1269369491001
 10
363.9665287681002
 20
-212.8694528792
 10
367.4781586652999
 20
-211.5382168676001
 10
370.6462360741999
 20
-210.1714822135
 10
373.5310000166002
 20
-208.8008105292999
  0
LWPOLYLINE
  5
1A9
330
6F
100
AcDbEntity
  8
DETAIL
  6
Continuous
 62
     5
100
AcDbPolyline
 90
       30
 70
     0
 43
0.0
 10
-53.63100001659986
 20
-208.8008105292999
 10
-51.39480596869987
 20
-210.4095783002001
 10
-49.0013435786999
 20
-212.0143322113001
 10
-46.42644966149997
 20
-213.5940361156002
 10
-43.6439363131002
 20
-215.1245069019001
 10
-40.62827523680004
 20
-216.5794112996
 10
-37.35709785120013
 20
-217.9267759507002
 10
-33.80491936070018
 20
-219.1404107197
 10
-29.94760507499984
 20
-220.1956107061
 10
-25.77789950300019
 20
-221.073691325
 10
-21.34269946319989
 20
-221.7610883206
 10
-16.7259717454998
 20
-222.2624415714001
 10
-12.00685853319999
 20
-222.6008104315001
 10
-7.236731810099967
 20
-222.8056011453
 10
-2.446586364700009
 20
-222.9012643312001
 10
2.346586364599827
 20
-222.9012643312001
 10
7.13673181009983
 20
-222.8056011453
 10
11.9068585330998
 20
-222.6008104315001
 10
16.62597174550012
 20
-222.2624415714001
 10
21.24269946320021
 20
-221.7610883206
 10
25.67789950290002
 20
-221.073691325
 10
29.84760507500016
 20
-220.1956107061
 10
33.7049193606
 20
-219.1404107197
 10
37.2570978512
 20
-217.9267759507002
 10
40.52827523669987
 20
-216.5794112996
 10
43.54393631300001
 20
-215.1245069019001
 10
46.32644966139979
 20
-213.5940361156002
 10
48.90134357860016
 20
-212.0143322113001
 10
51.29480596870018
 20
-210.4095783002001
 10
53.53100001660016
 20
-208.8008105292999
  0
LINE
  5
1C9
330
6F
100
AcDbEntity
  8
DETAIL
  6
Continuous
 62
     5
100
AcDbLine
 10
357.9746951672001
 20
-76.07842020919997
 30
0.0
 11
357.7943690621002
 21
-76.1849464549
 31
0.0
  0
LINE
  5
1CA
330
6F
100
AcDbEntity
  8
DETAIL
  6
Continuous
 62
     5
100
AcDbLine
 10
358.0130255875998
 20
-174.9643321011
 30
0.0
 11
357.9746951672001
 21
-174.9795827394
 31
0.0
  0
LINE
  5
1CB
330
6F
100
AcDbEntity
  8
DETAIL
  6
Continuous
 62
     5
100
AcDbLine
 10
360.0253048327
 20
-76.07842020919997
 30
0.0
 11
359.9869744122999
 21
-76.06316957090005
 31
0.0
  0
LINE
  5
1CC
330
6F
100
AcDbEntity
  8
DETAIL
  6
Continuous
 62
     5
100
AcDbLine
 10
366.0000000000002
 20
-105.8315239701
 30
0.0
 11
365.8263518222999
 21
-105.7532908299001
 31
0.0
  0
LWPOLYLINE
  5
1CD
330
6F
100
AcDbEntity
  8
DETAIL
  6
Continuous
 62
     5
100
AcDbPolyline
 90
       23
 70
     0
 43
0.0
 10
52.92094708900015
 20
-27.83998285070016
 10
50.04058047560022
 20
-26.49229740360012
 10
46.87810525389989
 20
-25.14830192609998
 10
43.37501308869978
 20
-23.83864644070013
 10
39.47426179790011
 20
-22.6004370600001
 10
35.12069225180005
 20
-21.47773815179994
 10
30.25217273920009
 20
-20.50975007689999
 10
24.82584880490015
 20
-19.72943460340001
 10
18.92119219830021
 20
-19.16048772969998
 10
12.71672201490003
 20
-18.79523709390014
 10
6.361235502200202
 20
-18.59873446899996
 10
-0.0500000000000682
 20
-18.53758870399997
 10
-6.461235502299927
 20
-18.59873446899996
 10
-12.81672201499975
 20
-18.79523709390014
 10
-19.0211921982999
 20
-19.16048772969998
 10
-24.92584880499987
 20
-19.72943460340001
 10
-30.35217273929982
 20
-20.50975007689999
 10
-35.22069225189977
 20
-21.47773815179994
 10
-39.57426179799984
 20
-22.6004370600001
 10
-43.47501308869992
 20
-23.83864644070013
 10
-46.97810525390003
 20
-25.14830192609998
 10
-50.14058047569994
 20
-26.49229740360012
 10
-53.02094708909987
 20
-27.83998285070016
  0
LWPOLYLINE
  5
1E6
330
6F
100
AcDbEntity
  8
DETAIL
  6
Continuous
 62
     5
100
AcDbPolyline
 90
       30
 70
     0
 43
0.0
 10
52.92094708900015
 20
-27.83998285070016
 10
50.6889427248999
 20
-26.25875875869997
 10
48.30025414929981
 20
-24.68130461129999
 10
45.73125662460017
 20
-23.12799814289997
 10
42.95670032669988
 20
-21.62228729740014
 10
39.95203140959996
 20
-20.18977718800011
 10
36.69659331659989
 20
-18.86148752129997
 10
33.16714874620004
 20
-17.66295074690015
 10
29.34282584100003
 20
-16.61814709580017
 10
25.22064692639981
 20
-15.74553170800004
 10
20.84973582240002
 20
-15.05851559730012
 10
16.3110347093999
 20
-14.55320115960012
 10
11.67823153780011
 20
-14.20854493360002
 10
6.998560875099996
 20
-13.99774296240002
 10
2.30045545150017
 20
-13.89849488089999
 10
-2.400455451599896
 20
-13.89849488089999
 10
-7.098560875200177
 20
-13.99774296240002
 10
-11.77823153779979
 20
-14.20854493360002
 10
-16.41103470950008
 20
-14.55320115960012
 10
-20.9497358225002
 20
-15.05851559730012
 10
-25.32064692639995
 20
-15.74553170800004
 10
-29.44282584109976
 20
-16.61814709580017
 10
-33.26714874629977
 20
-17.66295074690015
 10
-36.79659331660003
 20
-18.86148752129997
 10
-40.05203140970013
 20
-20.18977718800011
 10
-43.05670032670001
 20
-21.62228729740014
 10
-45.83125662469988
 20
-23.12799814289997
 10
-48.40025414939997
 20
-24.68130461129999
 10
-50.78894272500008
 20
-26.25875875869997
 10
-53.02094708909987
 20
-27.83998285070016
  0
LWPOLYLINE
  5
206
330
6F
100
AcDbEntity
  8
DETAIL
  6
Continuous
 62
     5
100
AcDbPolyline
 90
       30
 70
     0
 43
0.0
 10
266.3689999834003
 20
-208.8008105292999
 10
268.6051940313001
 20
-210.4095783002001
 10
270.9986564213001
 20
-212.0143322113001
 10
273.5735503385
 20
-213.5940361156002
 10
276.3560636868998
 20
-215.1245069019001
 10
279.3717247631999
 20
-216.5794112996
 10
282.6429021487999
 20
-217.9267759507002
 10
286.1950806392998
 20
-219.1404107197
 10
290.0523949250001
 20
-220.1956107061
 10
294.2221004969998
 20
-221.073691325
 10
298.6573005368001
 20
-221.7610883206
 10
303.2740282545002
 20
-222.2624415714001
 10
307.9931414668
 20
-222.6008104315001
 10
312.7632681899001
 20
-222.8056011453
 10
317.5534136354
 20
-222.9012643312001
 10
322.3465863645998
 20
-222.9012643312001
 10
327.1367318100999
 20
-222.8056011453
 10
331.9068585330998
 20
-222.6008104315001
 10
336.6259717455001
 20
-222.2624415714001
 10
341.2426994632002
 20
-221.7610883206
 10
345.6778995029
 20
-221.073691325
 10
349.8476050750002
 20
-220.1956107061
 10
353.7049193606
 20
-219.1404107197
 10
357.2570978512
 20
-217.9267759507002
 10
360.5282752366999
 20
-216.5794112996
 10
363.543936313
 20
-215.1245069019001
 10
366.3264496613999
 20
-213.5940361156002
 10
368.9013435786002
 20
-212.0143322113001
 10
371.2948059687002
 20
-210.4095783002001
 10
373.5310000166002
 20
-208.8008105292999
  0
LWPOLYLINE
  5
226
330
6F
100
AcDbEntity
  8
DETAIL
  6
Continuous
 62
     5
100
AcDbPolyline
 90
        4
 70
     0
 43
0.0
 10
357.7943690621002
 20
-76.1849464549
 10
357.6603746778002
 20
-76.30648137199999
 10
357.5778613434001
 20
-76.43835444160004
 10
357.5499999999999
 20
-76.57549785579998
  0
LWPOLYLINE
  5
22C
330
6F
100
AcDbEntity
  8
DETAIL
  6
Continuous
 62
     5
100
AcDbPolyline
 90
        4
 70
     0
 43
0.0
 10
556.8597939494999
 20
-20.55857878680013
 10
556.8974099355001
 20
-20.52904862629998
 10
556.9473934279
 20
-20.50737848740005
 10
557.0012142086998
 20
-20.5000006831001
  0
LWPOLYLINE
  5
232
330
6F
100
AcDbEntity
  8
DETAIL
  6
Continuous
 62
     5
100
AcDbPolyline
 90
        4
 70
     0
 43
0.0
 10
361.9833833507001
 20
-77.31333134880012
 10
362.1650635093997
 20
-77.18150988110004
 10
362.3096988312
 20
-77.0393193796001
 10
362.3895009560002
 20
-76.92534573860005
  0
LWPOLYLINE
  5
238
330
6F
100
AcDbEntity
  8
DETAIL
  6
Continuous
 62
     5
100
AcDbPolyline
 90
        6
 70
     0
 43
0.0
 10
361.9833833507001
 20
-78.01302711450012
 10
362.1650635093997
 20
-77.88120564680001
 10
362.3096988312
 20
-77.73901514530006
 10
362.4148145657002
 20
-77.58888852890001
 10
362.4786121534
 20
-77.43339450570009
 10
362.5
 20
-77.27519362149997
  0
LWPOLYLINE
  5
240
330
6F
100
AcDbEntity
  8
DETAIL
  6
Continuous
 62
     5
100
AcDbPolyline
 90
        4
 70
     0
 43
0.0
 10
361.9833833507001
 20
-176.2144938791
 10
362.1650635093997
 20
-176.0826724113001
 10
362.3096988312
 20
-175.9404819098001
 10
362.3895009560002
 20
-175.8265082689002
  0
LWPOLYLINE
  5
246
330
6F
100
AcDbEntity
  8
DETAIL
  6
Continuous
 62
     5
100
AcDbPolyline
 90
        6
 70
     0
 43
0.0
 10
361.9833833507001
 20
-176.9141896448
 10
362.1650635093997
 20
-176.7823681770001
 10
362.3096988312
 20
-176.6401776755001
 10
362.4148145657002
 20
-176.4900510592001
 10
362.4786121534
 20
-176.3345570359001
 10
362.5
 20
-176.1763561517
  0
LINE
  5
24E
330
6F
100
AcDbEntity
  8
DETAIL
  6
Continuous
 62
     5
100
AcDbLine
 10
357.9746951672001
 20
-174.9795827394
 30
0.0
 11
357.7943690621002
 21
-175.0861089852
 31
0.0
  0
LWPOLYLINE
  5
24F
330
6F
100
AcDbEntity
  8
DETAIL
  6
Continuous
 62
     5
100
AcDbPolyline
 90
        6
 70
     0
 43
0.0
 10
627.5000000000001
 20
-165.1558976590002
 10
628.3339009919001
 20
-164.7053295634
 10
629.4962908768002
 20
-163.5748623054
 10
630.3298823676996
 20
-162.1155966535
 10
630.8320169278998
 20
-160.3248740709
 10
631.0000000000001
 20
-158.2
  0
LWPOLYLINE
  5
257
330
6F
100
AcDbEntity
  8
DETAIL
  6
Continuous
 62
     5
100
AcDbPolyline
 90
       23
 70
     0
 43
0.0
 10
372.9209470890002
 20
-27.83998285070016
 10
370.0405804756002
 20
-26.49229740360012
 10
366.8781052538998
 20
-25.14830192609998
 10
363.3750130886998
 20
-23.83864644070013
 10
359.4742617979002
 20
-22.6004370600001
 10
355.1206922518002
 20
-21.47773815179994
 10
350.2521727392001
 20
-20.50975007689999
 10
344.8258488049002
 20
-19.72943460340001
 10
338.9211921983003
 20
-19.16048772969998
 10
332.7167220149001
 20
-18.79523709390014
 10
326.3612355022002
 20
-18.59873446899996
 10
319.95
 20
-18.53758870399997
 10
313.5387644977001
 20
-18.59873446899996
 10
307.1832779850002
 20
-18.79523709390014
 10
300.9788078017002
 20
-19.16048772969998
 10
295.0741511950001
 20
-19.72943460340001
 10
289.6478272607002
 20
-20.50975007689999
 10
284.7793077481002
 20
-21.47773815179994
 10
280.4257382020002
 20
-22.6004370600001
 10
276.5249869113
 20
-23.83864644070013
 10
273.0218947461001
 20
-25.14830192609998
 10
269.8594195243
 20
-26.49229740360012
 10
266.9790529109
 20
-27.83998285070016
  0
LWPOLYLINE
  5
270
330
6F
100
AcDbEntity
  8
DETAIL
  6
Continuous
 62
     5
100
AcDbPolyline
 90
        6
 70
     0
 43
0.0
 10
627.5000000000001
 20
-151.2441023410001
 10
628.3339009919001
 20
-151.6946704366
 10
629.4962908768002
 20
-152.8251376946
 10
630.3298823676996
 20
-154.2844033466001
 10
630.8320169278998
 20
-156.0751259292001
 10
631.0000000000001
 20
-158.2
  0
LWPOLYLINE
  5
278
330
6F
100
AcDbEntity
  8
DETAIL
  6
Continuous
 62
     5
100
AcDbPolyline
 90
        9
 70
     0
 43
0.0
 10
365.8263518222999
 20
-105.7532908299001
 10
365.6579798566
 20
-105.6528206524001
 10
365.5000000000002
 20
-105.5311321408
 10
365.3572123903
 20
-105.3898887068001
 10
365.2339555568001
 20
-105.2313479284
 10
365.1339745962
 20
-105.0582929546001
 10
365.0603073792
 20
-104.8739479411001
 10
365.0151922470001
 20
-104.6818800856001
 10
365.0000000000002
 20
-104.4858912405
  0
LWPOLYLINE
  5
283
330
6F
100
AcDbEntity
  8
DETAIL
  6
Continuous
 62
     5
100
AcDbPolyline
 90
        9
 70
     0
 43
0.0
 10
362.1650635093997
 20
-175.5703441263999
 10
361.9833833507001
 20
-175.4385226587001
 10
361.7677669528999
 20
-175.3193257266
 10
361.5219035725
 20
-175.2147928227
 10
361.2500000000002
 20
-175.1267125339
 10
360.9567085809
 20
-175.0565919385001
 10
360.6470476126997
 20
-175.0056308191998
 10
360.3263154805
 20
-174.9747011349
 10
360.0
 20
-174.9643321011
  0
LWPOLYLINE
  5
28E
330
6F
100
AcDbEntity
  8
DETAIL
  6
Continuous
 62
     5
100
AcDbPolyline
 90
        5
 70
     0
 43
0.0
 10
353.6427599472
 20
-46.5418964534001
 10
353.4945523460002
 20
-46.70175983520016
 10
353.3869934351002
 20
-46.8692859903001
 10
353.3217268977003
 20
-47.04227099310013
 10
353.2999999999999
 20
-47.21699716620014
  0
LINE
  5
295
330
6F
100
AcDbEntity
  8
DETAIL
  6
Continuous
 62
     5
100
AcDbLine
 10
556.8591869263002
 20
-20.55918969210006
 30
0.0
 11
551.5590649934996
 21
-25.85931162480006
 31
0.0
  0
LWPOLYLINE
  5
296
330
6F
100
AcDbEntity
  8
DETAIL
  6
Continuous
 62
     5
100
AcDbPolyline
 90
        4
 70
     0
 43
0.0
 10
357.7943690621002
 20
-175.0861089852
 10
357.6603746778002
 20
-175.2076439022
 10
357.5778613434001
 20
-175.3395169719001
 10
357.5499999999999
 20
-175.476660386
  0
LWPOLYLINE
  5
29C
330
6F
100
AcDbEntity
  8
DETAIL
  6
Continuous
 62
     5
100
AcDbPolyline
 90
        5
 70
     0
 43
0.0
 10
606.5000000000001
 20
-129.3439573789
 10
607.2728904619999
 20
-128.8243623246001
 10
607.9776490777
 20
-127.8957876070001
 10
608.4048089793001
 20
-126.6896141752001
 10
608.5485281373999
 20
-125.2
  0
LWPOLYLINE
  5
2A3
330
6F
100
AcDbEntity
  8
DETAIL
  6
Continuous
 62
     5
100
AcDbPolyline
 90
        5
 70
     0
 43
0.0
 10
606.5000000000001
 20
-121.0560426211
 10
607.2728904619999
 20
-121.5756376754
 10
607.9776490777
 20
-122.504212393
 10
608.4048089793001
 20
-123.7103858248001
 10
608.5485281373999
 20
-125.2
  0
LWPOLYLINE
  5
2AA
330
6F
100
AcDbEntity
  8
DETAIL
  6
Continuous
 62
     5
100
AcDbPolyline
 90
       30
 70
     0
 43
0.0
 10
372.9209470890002
 20
-27.83998285070016
 10
370.6889427248999
 20
-26.25875875869997
 10
368.3002541492998
 20
-24.68130461129999
 10
365.7312566246002
 20
-23.12799814289997
 10
362.9567003266999
 20
-21.62228729740014
 10
359.9520314095999
 20
-20.18977718800011
 10
356.6965933165999
 20
-18.86148752129997
 10
353.1671487462
 20
-17.66295074690015
 10
349.342825841
 20
-16.61814709580017
 10
345.2206469263999
 20
-15.74553170800004
 10
340.8497358224
 20
-15.05851559730012
 10
336.3110347095
 20
-14.55320115960012
 10
331.6782315378
 20
-14.20854493360002
 10
326.9985608751
 20
-13.99774296240002
 10
322.3004554515002
 20
-13.89849488089999
 10
317.5995445484001
 20
-13.89849488089999
 10
312.9014391247998
 20
-13.99774296240002
 10
308.2217684622002
 20
-14.20854493360002
 10
303.5889652905
 20
-14.55320115960012
 10
299.0502641774998
 20
-15.05851559730012
 10
294.6793530736
 20
-15.74553170800004
 10
290.5571741589002
 20
-16.61814709580017
 10
286.7328512537002
 20
-17.66295074690015
 10
283.2034066834
 20
-18.86148752129997
 10
279.9479685902999
 20
-20.18977718800011
 10
276.9432996733
 20
-21.62228729740014
 10
274.1687433753001
 20
-23.12799814289997
 10
271.5997458506
 20
-24.68130461129999
 10
269.2110572749999
 20
-26.25875875869997
 10
266.9790529109
 20
-27.83998285070016
  0
LWPOLYLINE
  5
2CA
330
6F
100
AcDbEntity
  8
DETAIL
  6
Continuous
 62
     5
100
AcDbPolyline
 90
        9
 70
     0
 43
0.0
 10
362.1650635093997
 20
-76.66918159620012
 10
361.9833833507001
 20
-76.53736012839998
 10
361.7677669528999
 20
-76.41816319630014
 10
361.5219035725
 20
-76.31363029240016
 10
361.2500000000002
 20
-76.22555000370017
 10
360.9567085809
 20
-76.15542940819999
 10
360.6470476126997
 20
-76.10446828890008
 10
360.3263154805
 20
-76.0735386046001
 10
360.0
 20
-76.06316957090005
  0
LWPOLYLINE
  5
2D5
330
6F
100
AcDbEntity
  8
DETAIL
  6
Continuous
 62
     5
100
AcDbPolyline
 90
       13
 70
     0
 43
0.0
 10
357.7494927173999
 20
-175.1268125031999
 10
357.7943690621002
 20
-175.1675160212
 10
357.9746951672001
 20
-175.2740422669001
 10
358.1944231621002
 20
-175.3614660974001
 10
358.4451090230001
 20
-175.426427864
 10
358.717119033
 20
-175.4664311223
 10
359.0000000000002
 20
-175.4799385697001
 10
359.2828809669001
 20
-175.4664311223
 10
359.5548909769
 20
-175.426427864
 10
359.8055768378
 20
-175.3614660974001
 10
360.0253048327
 20
-175.2740422669001
 10
360.2056309378
 20
-175.1675160212
 10
360.2505072824998
 20
-175.1268125031999
  0
LWPOLYLINE
  5
2E4
330
6F
100
AcDbEntity
  8
DETAIL
  6
Continuous
 62
     5
100
AcDbPolyline
 90
        3
 70
     0
 43
0.0
 10
360.3396253221
 20
-175.2076439022
 10
360.2056309378
 20
-175.0861089852
 10
360.0253048327
 20
-174.9795827394
  0
LWPOLYLINE
  5
2E9
330
6F
100
AcDbEntity
  8
DETAIL
  6
Continuous
 62
     5
100
AcDbPolyline
 90
       13
 70
     0
 43
0.0
 10
357.7494927173999
 20
-76.2256499729001
 10
357.7943690621002
 20
-76.26635349089998
 10
357.9746951672001
 20
-76.3728797366
 10
358.1944231621002
 20
-76.46030356720006
 10
358.4451090230001
 20
-76.52526533380002
 10
358.717119033
 20
-76.56526859209998
 10
359.0000000000002
 20
-76.57877603940004
 10
359.2828809669001
 20
-76.56526859209998
 10
359.5548909769
 20
-76.52526533380002
 10
359.8055768378
 20
-76.46030356720006
 10
360.0253048327
 20
-76.3728797366
 10
360.2056309378
 20
-76.26635349089998
 10
360.2505072824998
 20
-76.2256499729001
  0
LWPOLYLINE
  5
2F8
330
6F
100
AcDbEntity
  8
DETAIL
  6
Continuous
 62
     5
100
AcDbPolyline
 90
        3
 70
     0
 43
0.0
 10
360.3396253221
 20
-76.30648137199999
 10
360.2056309378
 20
-76.1849464549
 10
360.0253048327
 20
-76.07842020919997
  0
LWPOLYLINE
  5
2FD
330
6F
100
AcDbEntity
  8
DETAIL
  6
Continuous
 62
     5
100
AcDbPolyline
 90
        4
 70
     0
 43
0.0
 10
355.6903011687001
 20
-76.81137209770009
 10
355.5851854342001
 20
-76.96149871410011
 10
355.5213878464998
 20
-77.11699273730004
 10
355.5000000000002
 20
-77.27519362149997
  0
LWPOLYLINE
  5
303
330
6F
100
AcDbEntity
  8
DETAIL
  6
Continuous
 62
     5
100
AcDbPolyline
 90
        4
 70
     0
 43
0.0
 10
355.6903011687001
 20
-175.7125346279001
 10
355.5851854342001
 20
-175.8626612443
 10
355.5213878464998
 20
-176.0181552675001
 10
355.5000000000002
 20
-176.1763561517
  0
LWPOLYLINE
  5
309
330
6F
100
AcDbEntity
  8
DETAIL
  6
Continuous
 62
     5
100
AcDbPolyline
 90
        5
 70
     0
 43
0.0
 10
590.2017059220997
 20
-112.4982940778
 10
589.4446509004001
 20
-113.3459165967999
 10
588.9161367735002
 20
-114.1466171867
 10
588.6036586076999
 20
-114.9168793469
 10
588.4999999843
 20
-115.6737204440001
  0
LINE
  5
310
330
6F
100
AcDbEntity
  8
DETAIL
  6
Continuous
 62
     5
100
AcDbLine
 10
588.5000000000001
 20
-114.2
 30
0.0
 11
590.2017059220997
 21
-112.4982940778
 31
0.0
  0
LINE
  5
311
330
6F
100
AcDbEntity
  8
DETAIL
  6
Continuous
 62
     5
100
AcDbLine
 10
585.6850454237001
 20
-135.0149545762001
 30
0.0
 11
587.0
 21
-133.7
 31
0.0
  0
LINE
  5
312
330
6F
100
AcDbEntity
  8
DETAIL
  6
Continuous
 62
     5
100
AcDbLine
 10
604.7982940778001
 20
-137.9017059222001
 30
0.0
 11
606.5000000000001
 21
-136.2
 31
0.0
  0
LINE
  5
313
330
6F
100
AcDbEntity
  8
DETAIL
  6
Continuous
 62
     5
100
AcDbLine
 10
601.5000000000001
 20
-143.45
 30
0.0
 11
603.5000000000001
 21
-141.45
 31
0.0
  0
LINE
  5
314
330
6F
100
AcDbEntity
  8
DETAIL
  6
Continuous
 62
     5
100
AcDbLine
 10
595.2209438086002
 20
-171.4790561914
 30
0.0
 11
597.0000000000001
 21
-169.7
 31
0.0
  0
LINE
  5
315
330
6F
100
AcDbEntity
  8
DETAIL
  6
Continuous
 62
     5
100
AcDbLine
 10
623.5000000000001
 20
-172.9499999999999
 30
0.0
 11
627.5000000000001
 21
-169.7
 31
0.0
  0
LINE
  5
316
330
6F
100
AcDbEntity
  8
DETAIL
  6
Continuous
 62
     5
100
AcDbLine
 10
623.5000000000001
 20
-143.45
 30
0.0
 11
627.5000000000001
 21
-146.7
 31
0.0
  0
LINE
  5
317
330
6F
100
AcDbEntity
  8
DETAIL
  6
Continuous
 62
     5
100
AcDbLine
 10
601.5000000000001
 20
-172.9499999999999
 30
0.0
 11
603.5000000000001
 21
-174.95
 31
0.0
  0
LINE
  5
318
330
6F
100
AcDbEntity
  8
DETAIL
  6
Continuous
 62
     5
100
AcDbLine
 10
595.2209438086002
 20
-144.9209438086
 30
0.0
 11
597.0000000000001
 21
-146.7
 31
0.0
  0
LINE
  5
319
330
6F
100
AcDbEntity
  8
DETAIL
  6
Continuous
 62
     5
100
AcDbLine
 10
588.5000000000001
 20
-136.2
 30
0.0
 11
590.2017059220997
 21
-137.9017059222001
 31
0.0
  0
LINE
  5
31A
330
6F
100
AcDbEntity
  8
DETAIL
  6
Continuous
 62
     5
100
AcDbLine
 10
585.6850454237001
 20
-115.3850454237999
 30
0.0
 11
587.0
 21
-116.7
 31
0.0
  0
LINE
  5
31B
330
6F
100
AcDbEntity
  8
DETAIL
  6
Continuous
 62
     5
100
AcDbLine
 10
621.5000000000001
 20
-141.45
 30
0.0
 11
623.5000000000001
 21
-143.45
 31
0.0
  0
LINE
  5
31C
330
6F
100
AcDbEntity
  8
DETAIL
  6
Continuous
 62
     5
100
AcDbLine
 10
604.7982940778001
 20
-112.4982940778
 30
0.0
 11
606.5000000000001
 21
-114.2
 31
0.0
  0
LWPOLYLINE
  5
31D
330
6F
100
AcDbEntity
  8
DETAIL
  6
Continuous
 62
     5
100
AcDbPolyline
 90
        6
 70
     0
 43
0.0
 10
595.2209438086002
 20
-164.8395280956999
 10
595.8831797003001
 20
-165.5643858604
 10
596.3793907372002
 20
-166.2449274381001
 10
596.7254353279002
 20
-166.8953327675001
 10
596.9314086932
 20
-167.5303436516001
 10
597.0000000000001
 20
-168.1592921435001
  0
LWPOLYLINE
  5
325
330
6F
100
AcDbEntity
  8
DETAIL
  6
Continuous
 62
     5
100
AcDbPolyline
 90
        5
 70
     0
 43
0.0
 10
355.0992600286
 20
-44.0833419153
 10
355.2178349557999
 20
-44.24839364939996
 10
355.3769287010001
 20
-44.38754017430005
 10
355.5656412725999
 20
-44.49124814230002
 10
355.7776887781002
 20
-44.55617622070008
  0
LWPOLYLINE
  5
32C
330
6F
100
AcDbEntity
  8
DETAIL
  6
Continuous
 62
     5
100
AcDbPolyline
 90
       11
 70
     0
 43
0.0
 10
355.6104990439
 20
-175.8265082689002
 10
355.6903011687001
 20
-175.9404819098001
 10
355.8349364904999
 20
-176.0826724113001
 10
356.0166166492
 20
-176.2144938791
 10
356.2322330469998
 20
-176.3336908112001
 10
356.4780964274
 20
-176.4382237151001
 10
356.7500000000002
 20
-176.5263040039001
 10
357.0432914191004
 20
-176.5964245993
 10
357.3529523871999
 20
-176.6473857186
 10
357.6736845194001
 20
-176.6783154029001
 10
358.0
 20
-176.6886844366001
  0
LWPOLYLINE
  5
339
330
6F
100
AcDbEntity
  8
DETAIL
  6
Continuous
 62
     5
100
AcDbPolyline
 90
        3
 70
     0
 43
0.0
 10
362.4148145657002
 20
-175.8626612443
 10
362.3096988312
 20
-175.7125346279001
 10
362.1650635093997
 20
-175.5703441263999
  0
LWPOLYLINE
  5
33E
330
6F
100
AcDbEntity
  8
DETAIL
  6
Continuous
 62
     5
100
AcDbPolyline
 90
       11
 70
     0
 43
0.0
 10
355.6104990439
 20
-76.92534573860005
 10
355.6903011687001
 20
-77.0393193796001
 10
355.8349364904999
 20
-77.18150988110004
 10
356.0166166492
 20
-77.31333134880012
 10
356.2322330469998
 20
-77.43252828089999
 10
356.4780964274
 20
-77.53706118479998
 10
356.7500000000002
 20
-77.62514147360001
 10
357.0432914191004
 20
-77.69526206900014
 10
357.3529523871999
 20
-77.74622318830006
 10
357.6736845194001
 20
-77.77715287260001
 10
358.0
 20
-77.78752190640009
  0
LWPOLYLINE
  5
34B
330
6F
100
AcDbEntity
  8
DETAIL
  6
Continuous
 62
     5
100
AcDbPolyline
 90
        3
 70
     0
 43
0.0
 10
362.4148145657002
 20
-76.96149871410011
 10
362.3096988312
 20
-76.81137209770009
 10
362.1650635093997
 20
-76.66918159620012
  0
LINE
  5
350
330
6F
100
AcDbEntity
  8
DETAIL
  6
Continuous
 62
     5
100
AcDbLine
 10
353.2999999999999
 20
-183.9637777777999
 30
0.0
 11
353.2999999999999
 21
-46.51730140050017
 31
0.0
  0
LINE
  5
351
330
6F
100
AcDbEntity
  8
DETAIL
  6
Continuous
 62
     5
100
AcDbLine
 10
355.0000000000002
 20
-44.08114134519997
 30
0.0
 11
355.0000000000002
 21
-45.20888912939994
 31
0.0
  0
LINE
  5
352
330
6F
100
AcDbEntity
  8
DETAIL
  6
Continuous
 62
     5
100
AcDbLine
 10
362.0
 20
-76.54941665189993
 30
0.0
 11
362.0
 21
-77.30127482540002
 31
0.0
  0
LINE
  5
353
330
6F
100
AcDbEntity
  8
DETAIL
  6
Continuous
 62
     5
100
AcDbLine
 10
362.0
 20
-175.4505791821
 30
0.0
 11
362.0
 21
-176.2024373556
 31
0.0
  0
LINE
  5
354
330
6F
100
AcDbEntity
  8
DETAIL
  6
Continuous
 62
     5
100
AcDbLine
 10
365.0000000000002
 20
-184.0
 30
0.0
 11
365.0000000000002
 21
-49.39364870220014
 31
0.0
  0
LINE
  5
355
330
6F
100
AcDbEntity
  8
DETAIL
  6
Continuous
 62
     5
100
AcDbLine
 10
365.7999999999999
 20
-49.92996652470015
 30
0.0
 11
365.7999999999999
 21
-104.4858912405
 31
0.0
  0
LINE
  5
356
330
6F
100
AcDbEntity
  8
DETAIL
  6
Continuous
 62
     5
100
AcDbLine
 10
366.0000000000002
 20
-184.0
 30
0.0
 11
366.0000000000002
 21
-106.1294401103
 31
0.0
  0
LINE
  5
357
330
6F
100
AcDbEntity
  8
DETAIL
  6
Continuous
 62
     5
100
AcDbLine
 10
366.0000000000002
 20
-106.1294401103
 30
0.0
 11
366.0000000000002
 21
-105.8315239701
 31
0.0
  0
LINE
  5
358
330
6F
100
AcDbEntity
  8
DETAIL
  6
Continuous
 62
     5
100
AcDbLine
 10
366.0000000000002
 20
-105.7151619315
 30
0.0
 11
366.0000000000002
 21
-50.07000803239996
 31
0.0
  0
LWPOLYLINE
  5
359
330
6F
100
AcDbEntity
  8
DETAIL
  6
Continuous
 62
     5
100
AcDbPolyline
 90
       10
 70
     0
 43
0.0
 10
353.2999999999999
 20
-46.51730140050017
 10
353.3217268977003
 20
-46.34257522739994
 10
353.3869934351002
 20
-46.16959022460014
 10
353.4945523460002
 20
-46.00206406949996
 10
353.6427599472
 20
-45.84220068770012
 10
353.8308291804002
 20
-45.69124563370019
 10
354.0548158761
 20
-45.55264619720015
 10
354.3101136865999
 20
-45.42886844600002
 10
354.5960422459
 20
-45.32025078440006
 10
354.9074023664999
 20
-45.22906892740002
  0
LWPOLYLINE
  5
365
330
6F
100
AcDbEntity
  8
DETAIL
  6
Continuous
 62
     5
100
AcDbPolyline
 90
        5
 70
     0
 43
0.0
 10
590.2017059220997
 20
-131.5508529610999
 10
589.4446508759997
 20
-132.3984755113999
 10
588.9161367418002
 20
-133.1991761292002
 10
588.6036585841999
 20
-133.9694383165
 10
588.5000000000001
 20
-134.7262794416001
  0
LWPOLYLINE
  5
36C
330
6F
100
AcDbEntity
  8
DETAIL
  6
Continuous
 62
     5
100
AcDbPolyline
 90
        4
 70
     0
 43
0.0
 10
603.5000000000001
 20
-141.45
 10
602.5947087037004
 20
-142.4503022141
 10
601.9348696733
 20
-143.3925951024
 10
601.5000000000001
 20
-144.3014026045999
  0
LWPOLYLINE
  5
372
330
6F
100
AcDbEntity
  8
DETAIL
  6
Continuous
 62
     5
100
AcDbPolyline
 90
        4
 70
     0
 43
0.0
 10
603.5000000000001
 20
-166.575
 10
602.5947087037004
 20
-167.5753022141
 10
601.9348696733
 20
-168.5175951024
 10
601.5000000000001
 20
-169.4264026046
  0
LINE
  5
378
330
6F
100
AcDbEntity
  8
DETAIL
  6
Continuous
 62
     5
100
AcDbLine
 10
621.5000000000001
 20
-174.95
 30
0.0
 11
623.5000000000001
 21
-172.9499999999999
 31
0.0
  0
LWPOLYLINE
  5
379
330
6F
100
AcDbEntity
  8
DETAIL
  6
Continuous
 62
     5
100
AcDbPolyline
 90
        6
 70
     0
 43
0.0
 10
595.2209438086002
 20
-144.9209438086
 10
595.8803832812001
 20
-145.6424042691001
 10
596.3766404608996
 20
-146.3219943218
 10
596.7241646533998
 20
-146.9737924971999
 10
596.9311087916
 20
-147.6103817918999
 10
597.0000000000001
 20
-148.2407078564999
  0
LWPOLYLINE
  5
381
330
6F
100
AcDbEntity
  8
DETAIL
  6
Continuous
 62
     5
100
AcDbPolyline
 90
        4
 70
     0
 43
0.0
 10
621.5000000000001
 20
-166.575
 10
622.4052912961997
 20
-167.5753022141
 10
623.0651303266
 20
-168.5175951024
 10
623.5000000000001
 20
-169.4264026046
  0
LWPOLYLINE
  5
387
330
6F
100
AcDbEntity
  8
DETAIL
  6
Continuous
 62
     5
100
AcDbPolyline
 90
        4
 70
     0
 43
0.0
 10
621.5000000000001
 20
-141.45
 10
622.4052912961997
 20
-142.4503022141
 10
623.0651303266
 20
-143.3925951024
 10
623.5000000000001
 20
-144.3014026045999
  0
LWPOLYLINE
  5
38D
330
6F
100
AcDbEntity
  8
DETAIL
  6
Continuous
 62
     5
100
AcDbPolyline
 90
        5
 70
     0
 43
0.0
 10
604.7982940778001
 20
-131.5508529610999
 10
605.5553491238997
 20
-132.3984755113999
 10
606.0838632582
 20
-133.1991761292002
 10
606.3963414156996
 20
-133.9694383165
 10
606.5000000000001
 20
-134.7262794416001
  0
LWPOLYLINE
  5
394
330
6F
100
AcDbEntity
  8
DETAIL
  6
Continuous
 62
     5
100
AcDbPolyline
 90
        5
 70
     0
 43
0.0
 10
604.7982940778001
 20
-112.4982940778
 10
605.5553491238997
 20
-113.3459166281
 10
606.0838632582
 20
-114.146617246
 10
606.3963414156996
 20
-114.9168794332001
 10
606.5000000000001
 20
-115.6737205584002
  0
LWPOLYLINE
  5
39B
330
6F
100
AcDbEntity
  8
DETAIL
  6
Continuous
 62
     5
100
AcDbPolyline
 90
        5
 70
     0
 43
0.0
 10
585.6850454237001
 20
-130.1074772880999
 10
586.2730518713997
 20
-130.7663223583001
 10
586.6802707944997
 20
-131.3846081749
 10
586.9203542014997
 20
-131.9780517127001
 10
587.0
 20
-132.5612159322002
  0
LWPOLYLINE
  5
3A2
330
6F
100
AcDbEntity
  8
DETAIL
  6
Continuous
 62
     5
100
AcDbPolyline
 90
        4
 70
     0
 43
0.0
 10
585.6850454237001
 20
-115.3850454237999
 10
586.2721148808999
 20
-116.0426866476
 10
586.679512018
 20
-116.6607551803001
 10
586.9201447544996
 20
-117.2548499892
  0
LWPOLYLINE
  5
3A8
330
6F
100
AcDbEntity
  8
DETAIL
  6
Continuous
 62
     5
100
AcDbPolyline
 90
        9
 70
     0
 43
0.0
 10
353.2471851074002
 20
-43.0336240158001
 10
353.3166321324998
 20
-43.16108237280013
 10
353.4880830510997
 20
-43.39038049060013
 10
353.6902530697
 20
-43.59261843030004
 10
353.9188647002999
 20
-43.76374244590009
 10
354.1702728621
 20
-43.90090860420015
 10
354.4378855554001
 20
-44.00052336850012
 10
354.7162712635
 20
-44.0609135554
 10
355.0000000000002
 20
-44.08114134519997
  0
LWPOLYLINE
  5
3B3
330
6F
100
AcDbEntity
  8
DETAIL
  6
Continuous
 62
     5
100
AcDbPolyline
 90
       10
 70
     0
 43
0.0
 10
366.0000000000002
 20
-105.2370081097001
 10
365.9652703644002
 20
-105.1678070013001
 10
365.9315959713
 20
-105.0941584854999
 10
365.9000000000002
 20
-105.0162663028
 10
365.8714424780002
 20
-104.9344631356
 10
365.8467911113
 20
-104.8492004995
 10
365.8267949192002
 20
-104.7610350244001
 10
365.8120614758001
 20
-104.6706115414001
 10
365.8030384494001
 20
-104.5786434899
 10
365.7999999999999
 20
-104.4858912405
  0
LWPOLYLINE
  5
3BF
330
6F
100
AcDbEntity
  8
DETAIL
  6
Continuous
 62
     5
100
AcDbPolyline
 90
       17
 70
     0
 43
0.0
 10
357.5499999999999
 20
-175.476660386
 10
357.5778613434001
 20
-175.6138038002
 10
357.6603746778002
 20
-175.7456768698
 10
357.7943690621002
 20
-175.8672117869
 10
357.9746951672001
 20
-175.9737380326001
 10
358.1944231621002
 20
-176.0611618632001
 10
358.4451090230001
 20
-176.1261236297
 10
358.717119033
 20
-176.1661268881
 10
359.0000000000002
 20
-176.1796343354001
 10
359.2828809669001
 20
-176.1661268881
 10
359.5548909769
 20
-176.1261236297
 10
359.8055768378
 20
-176.0611618632001
 10
360.0253048327
 20
-175.9737380326001
 10
360.2056309378
 20
-175.8672117869
 10
360.3396253221
 20
-175.7456768698
 10
360.4221386565001
 20
-175.6138038002
 10
360.4499999999999
 20
-175.476660386
  0
LWPOLYLINE
  5
3D2
330
6F
100
AcDbEntity
  8
DETAIL
  6
Continuous
 62
     5
100
AcDbPolyline
 90
        3
 70
     0
 43
0.0
 10
360.4499999999999
 20
-175.476660386
 10
360.4221386565001
 20
-175.3395169719001
 10
360.3396253221
 20
-175.2076439022
  0
LWPOLYLINE
  5
3D7
330
6F
100
AcDbEntity
  8
DETAIL
  6
Continuous
 62
     5
100
AcDbPolyline
 90
       17
 70
     0
 43
0.0
 10
357.5499999999999
 20
-76.57549785579998
 10
357.5778613434001
 20
-76.71264126990012
 10
357.6603746778002
 20
-76.84451433959998
 10
357.7943690621002
 20
-76.96604925660018
 10
357.9746951672001
 20
-77.07257550240001
 10
358.1944231621002
 20
-77.15999933290003
 10
358.4451090230001
 20
-77.22496109949997
 10
358.717119033
 20
-77.26496435779996
 10
359.0000000000002
 20
-77.27847180510001
 10
359.2828809669001
 20
-77.26496435779996
 10
359.5548909769
 20
-77.22496109949997
 10
359.8055768378
 20
-77.15999933290003
 10
360.0253048327
 20
-77.07257550240001
 10
360.2056309378
 20
-76.96604925660018
 10
360.3396253221
 20
-76.84451433959998
 10
360.4221386565001
 20
-76.71264126990012
 10
360.4499999999999
 20
-76.57549785579998
  0
LWPOLYLINE
  5
3EA
330
6F
100
AcDbEntity
  8
DETAIL
  6
Continuous
 62
     5
100
AcDbPolyline
 90
        3
 70
     0
 43
0.0
 10
360.4499999999999
 20
-76.57549785579998
 10
360.4221386565001
 20
-76.43835444160004
 10
360.3396253221
 20
-76.30648137199999
  0
LWPOLYLINE
  5
3EF
330
6F
100
AcDbEntity
  8
DETAIL
  6
Continuous
 62
     5
100
AcDbPolyline
 90
       13
 70
     0
 43
0.0
 10
355.5000000000002
 20
-176.1763561517
 10
355.5213878464998
 20
-176.3345570359001
 10
355.5851854342001
 20
-176.4900510592001
 10
355.6903011687001
 20
-176.6401776755001
 10
355.8349364904999
 20
-176.7823681770001
 10
356.0166166492
 20
-176.9141896448
 10
356.2322330469998
 20
-177.0333865769
 10
356.4780964274
 20
-177.1379194808
 10
356.7500000000002
 20
-177.2259997696001
 10
357.0432914191004
 20
-177.2961203649999
 10
357.3529523871999
 20
-177.3470814843
 10
357.6736845194001
 20
-177.3780111686001
 10
358.0
 20
-177.3883802023999
  0
LWPOLYLINE
  5
3FE
330
6F
100
AcDbEntity
  8
DETAIL
  6
Continuous
 62
     5
100
AcDbPolyline
 90
        3
 70
     0
 43
0.0
 10
362.5
 20
-176.1763561517
 10
362.4786121534
 20
-176.0181552675001
 10
362.4148145657002
 20
-175.8626612443
  0
LWPOLYLINE
  5
403
330
6F
100
AcDbEntity
  8
DETAIL
  6
Continuous
 62
     5
100
AcDbPolyline
 90
       13
 70
     0
 43
0.0
 10
355.5000000000002
 20
-77.27519362149997
 10
355.5213878464998
 20
-77.43339450570009
 10
355.5851854342001
 20
-77.58888852890001
 10
355.6903011687001
 20
-77.73901514530006
 10
355.8349364904999
 20
-77.88120564680001
 10
356.0166166492
 20
-78.01302711450012
 10
356.2322330469998
 20
-78.13222404659994
 10
356.4780964274
 20
-78.23675695060001
 10
356.7500000000002
 20
-78.32483723929998
 10
357.0432914191004
 20
-78.39495783480014
 10
357.3529523871999
 20
-78.44591895410008
 10
357.6736845194001
 20
-78.4768486383
 10
358.0
 20
-78.48721767210007
  0
LWPOLYLINE
  5
412
330
6F
100
AcDbEntity
  8
DETAIL
  6
Continuous
 62
     5
100
AcDbPolyline
 90
        3
 70
     0
 43
0.0
 10
362.5
 20
-77.27519362149997
 10
362.4786121534
 20
-77.11699273730004
 10
362.4148145657002
 20
-76.96149871410011
  0
LWPOLYLINE
  5
417
330
6F
100
AcDbEntity
  8
DETAIL
  6
Continuous
 62
     5
100
AcDbPolyline
 90
        4
 70
     0
 43
0.0
 10
544.1551227107999
 20
-25.76683961859999
 10
544.3161247619001
 20
-25.32651488080001
 10
544.4695318256
 20
-24.90992855560012
 10
544.6170926936997
 20
-24.51296443500019
  0
LWPOLYLINE
  5
41D
330
6F
100
AcDbEntity
  8
DETAIL
  6
Continuous
 62
     5
100
AcDbPolyline
 90
        4
 70
     0
 43
0.0
 10
543.3825059953002
 20
-27.87394166300011
 10
543.6005807799999
 20
-27.28582626050002
 10
543.8005033146001
 20
-26.74034285009998
 10
544.1551227107999
 20
-25.76683961859999
  0
LWPOLYLINE
  5
423
330
6F
100
AcDbEntity
  8
DETAIL
  6
Continuous
 62
     5
100
AcDbPolyline
 90
        3
 70
     0
 43
0.0
 10
543.2414164487
 20
-28.25149516110014
 10
543.3111751370999
 20
-28.06402079560007
 10
543.3825059953002
 20
-27.87394166300011
  0
LINE
  5
428
330
6F
100
AcDbEntity
  8
DETAIL
  6
Continuous
 62
     5
100
AcDbLine
 10
544.6170926936997
 20
-24.51296443500019
 30
0.0
 11
546.0643544466996
 21
-20.63947141590006
 31
0.0
  0
LWPOLYLINE
  5
429
330
6F
100
AcDbEntity
  8
DETAIL
  6
Continuous
 62
     5
100
AcDbPolyline
 90
        4
 70
     0
 43
0.0
 10
586.9202311843001
 20
-133.1448324436001
 10
586.6799781865998
 20
-133.7383719103
 10
586.2728678485001
 20
-134.3563459930001
 10
585.6850454237001
 20
-135.0149545762001
  0
LWPOLYLINE
  5
42F
330
6F
100
AcDbEntity
  8
DETAIL
  6
Continuous
 62
     5
100
AcDbPolyline
 90
        5
 70
     0
 43
0.0
 10
590.2017059220997
 20
-118.8491470389001
 10
589.4446508954997
 20
-120.5443920895
 10
588.9161367671001
 20
-122.1457932805001
 10
588.6036586030001
 20
-123.6863176119
 10
588.4999999875
 20
-125.1999998175001
  0
LWPOLYLINE
  5
436
330
6F
100
AcDbEntity
  8
DETAIL
  6
Continuous
 62
     5
100
AcDbPolyline
 90
        4
 70
     0
 43
0.0
 10
603.5000000000001
 20
-149.825
 10
602.5947087037004
 20
-151.8256044282
 10
601.9348696733
 20
-153.7101902048
 10
601.5000000000001
 20
-155.5278052092001
  0
LWPOLYLINE
  5
43C
330
6F
100
AcDbEntity
  8
DETAIL
  6
Continuous
 62
     5
100
AcDbPolyline
 90
        4
 70
     0
 43
0.0
 10
623.5000000000001
 20
-146.9735973954
 10
623.0621361629001
 20
-147.8874629404999
 10
622.4016468702999
 20
-148.8292245308
 10
621.5000000000001
 20
-149.825
  0
LWPOLYLINE
  5
442
330
6F
100
AcDbEntity
  8
DETAIL
  6
Continuous
 62
     5
100
AcDbPolyline
 90
        4
 70
     0
 43
0.0
 10
623.5000000000001
 20
-172.0985973954
 10
623.0621361629001
 20
-173.0124629404999
 10
622.4016468702999
 20
-173.9542245308
 10
621.5000000000001
 20
-174.95
  0
LWPOLYLINE
  5
448
330
6F
100
AcDbEntity
  8
DETAIL
  6
Continuous
 62
     5
100
AcDbPolyline
 90
        4
 70
     0
 43
0.0
 10
601.5000000000001
 20
-172.0985973954
 10
601.9378638371001
 20
-173.0124629404999
 10
602.5983531295998
 20
-173.9542245308
 10
603.5000000000001
 20
-174.95
  0
LWPOLYLINE
  5
44E
330
6F
100
AcDbEntity
  8
DETAIL
  6
Continuous
 62
     5
100
AcDbPolyline
 90
        4
 70
     0
 43
0.0
 10
601.5000000000001
 20
-146.9735973954
 10
601.9378638371001
 20
-147.8874629404999
 10
602.5983531295998
 20
-148.8292245308
 10
603.5000000000001
 20
-149.825
  0
LWPOLYLINE
  5
454
330
6F
100
AcDbEntity
  8
DETAIL
  6
Continuous
 62
     5
100
AcDbPolyline
 90
        4
 70
     0
 43
0.0
 10
621.5000000000001
 20
-149.825
 10
622.4052912961997
 20
-151.8256044282
 10
623.0651303266
 20
-153.7101902048
 10
623.5000000000001
 20
-155.5278052092001
  0
LWPOLYLINE
  5
45A
330
6F
100
AcDbEntity
  8
DETAIL
  6
Continuous
 62
     5
100
AcDbPolyline
 90
        5
 70
     0
 43
0.0
 10
604.7982940778001
 20
-118.8491470389001
 10
605.5553491238997
 20
-120.5443921394001
 10
606.0838632582
 20
-122.1457933752001
 10
606.3963414156996
 20
-123.6863177497
 10
606.5000000000001
 20
-125.2
  0
LWPOLYLINE
  5
461
330
6F
100
AcDbEntity
  8
DETAIL
  6
Continuous
 62
     5
100
AcDbPolyline
 90
        5
 70
     0
 43
0.0
 10
585.6850454237001
 20
-120.2925227119001
 10
586.2729106833
 20
-121.6098499672
 10
586.6803581651999
 20
-122.8471119675
 10
586.9203056596997
 20
-124.0333145356001
 10
587.0
 20
-125.2
  0
LWPOLYLINE
  5
468
330
6F
100
AcDbEntity
  8
DETAIL
  6
Continuous
 62
     5
100
AcDbPolyline
 90
        5
 70
     0
 43
0.0
 10
595.2209438086002
 20
-151.5604719043001
 10
596.0206365105996
 20
-153.3539177577002
 10
596.5694171670003
 20
-155.0237117993999
 10
596.8926479126
 20
-156.6250008002
 10
597.0000000000001
 20
-158.2
  0
LWPOLYLINE
  5
46F
330
6F
100
AcDbEntity
  8
DETAIL
  6
Continuous
 62
     5
100
AcDbPolyline
 90
        3
 70
     0
 43
0.0
 10
543.3825004411001
 20
-209.1260354269
 10
543.3110895993999
 20
-208.9359649949001
 10
543.2415673090998
 20
-208.7484479297
  0
LINE
  5
474
330
6F
100
AcDbEntity
  8
DETAIL
  6
Continuous
 62
     5
100
AcDbLine
 10
546.0643544466996
 20
-216.3605285841001
 30
0.0
 11
544.6170927470998
 21
-212.4870354741001
 31
0.0
  0
LWPOLYLINE
  5
475
330
6F
100
AcDbEntity
  8
DETAIL
  6
Continuous
 62
     5
100
AcDbPolyline
 90
        4
 70
     0
 43
0.0
 10
544.6170927470998
 20
-212.4870354741001
 10
544.4900707343999
 20
-212.1455656806002
 10
544.3571897919
 20
-211.7853291873
 10
544.2183778578002
 20
-211.4064539916001
  0
LWPOLYLINE
  5
47B
330
6F
100
AcDbEntity
  8
DETAIL
  6
Continuous
 62
     5
100
AcDbPolyline
 90
        3
 70
     0
 43
0.0
 10
543.7572277062001
 20
-210.1412624051002
 10
543.5798885651998
 20
-209.6578460696
 10
543.3825004411001
 20
-209.1260354269
  0
LINE
  5
480
330
6F
100
AcDbEntity
  8
DETAIL
  6
Continuous
 62
     5
100
AcDbLine
 10
544.2183778578002
 20
-211.4064539916001
 30
0.0
 11
543.7572277062001
 21
-210.1412624051002
 31
0.0
  0
LWPOLYLINE
  5
481
330
6F
100
AcDbEntity
  8
DETAIL
  6
Continuous
 62
     5
100
AcDbPolyline
 90
       23
 70
     0
 43
0.0
 10
543.2415673090998
 20
-208.7484479297
 10
543.0800588866999
 20
-208.2965364987001
 10
542.9255100084002
 20
-207.8308561670001
 10
542.7775931602999
 20
-207.349713608
 10
542.6364262985998
 20
-206.8514351850001
 10
542.502107936
 20
-206.3343907998001
 10
542.3748919316
 20
-205.7969594761
 10
542.2551699275
 20
-205.2378344466001
 10
542.1435226630002
 20
-204.6564434699001
 10
542.0403230051999
 20
-204.0510916717001
 10
541.9452872854
 20
-203.4149727686001
 10
541.8582588198002
 20
-202.7385877412001
 10
541.7797798958998
 20
-202.0133591878
 10
541.7113294494996
 20
-201.2369159569
 10
541.6547318488998
 20
-200.4151310884001
 10
541.6110354146
 20
-199.5554492545
 10
541.5806703032
 20
-198.6775269931001
 10
541.5626806452998
 20
-197.8101443154
 10
541.5546340181998
 20
-196.9761661213999
 10
541.5536041903002
 20
-196.1807539306001
 10
541.5570406253002
 20
-195.4259780643
 10
541.5628921276999
 20
-194.7098613236001
 10
541.5761168369
 20
-193.3627583355001
  0
LWPOLYLINE
  5
49A
330
6F
100
AcDbEntity
  8
DETAIL
  6
Continuous
 62
     5
100
AcDbPolyline
 90
        5
 70
     0
 43
0.0
 10
588.4999999875
 20
-125.1999998175001
 10
588.6036162899999
 20
-126.7133719691001
 10
588.9157918340997
 20
-128.2529171625001
 10
589.4440215352999
 20
-129.8539929562
 10
590.2017059220997
 20
-131.5508529610999
  0
LWPOLYLINE
  5
4A1
330
6F
100
AcDbEntity
  8
DETAIL
  6
Continuous
 62
     5
100
AcDbPolyline
 90
       18
 70
     0
 43
0.0
 10
539.2151419826999
 20
-28.23969730650015
 10
539.1722258223999
 20
-27.31733258350005
 10
539.0444052345998
 20
-26.40283410770007
 10
538.8327703464998
 20
-25.50400100499996
 10
538.5391260201
 20
-24.6284988635
 10
538.1659765666999
 20
-23.78379425210005
 10
537.7165043279001
 20
-22.97709110439996
 10
537.1945425573999
 20
-22.21526925939997
 10
536.6045427229002
 20
-21.50482579430013
 10
535.9515365441999
 20
-20.85181961379999
 10
535.2410930807001
 20
-20.26181977780016
 10
534.4792712365999
 20
-19.73985800629997
 10
533.6725680894998
 20
-19.29038576700008
 10
532.827863478
 20
-18.91723631370019
 10
531.9523613368001
 20
-18.62359198700005
 10
531.0535282316999
 20
-18.4119571013
 10
530.1390297588
 20
-18.28413651070014
 10
529.2166650311002
 20
-18.24122035499999
  0
LWPOLYLINE
  5
4B5
330
6F
100
AcDbEntity
  8
DETAIL
  6
Continuous
 62
     5
100
AcDbPolyline
 90
       23
 70
     0
 43
0.0
 10
541.5677553679
 20
-43.7021060812001
 10
541.5491518972999
 20
-42.32571252210004
 10
541.5408476266
 20
-41.59135575230016
 10
541.5353249368998
 20
-40.82344061849993
 10
541.5346824286998
 20
-40.02084550240009
 10
541.5414744208998
 20
-39.18325479169994
 10
541.5586490181
 20
-38.31402272920013
 10
541.588575246
 20
-37.43740050910015
 10
541.6318959354
 20
-36.58480415210011
 10
541.6878281523
 20
-35.77548695890005
 10
541.7554475409998
 20
-35.01152051910003
 10
541.8334943431002
 20
-34.29332321350012
 10
541.9207441047998
 20
-33.61868661600011
 10
542.0162946639997
 20
-32.98310608680004
 10
542.1195001996998
 20
-32.38179549749998
 10
542.2299825258002
 20
-31.8100057094
 10
542.3476443329001
 20
-31.26310813939995
 10
542.4727069532001
 20
-30.73649820210017
 10
542.6057452309001
 20
-30.22558198160004
 10
542.7476691112998
 20
-29.72586813330008
 10
542.8997748618
 20
-29.23306735590017
 10
543.0636094563002
 20
-28.74302570150007
 10
543.2414164487
 20
-28.25149516110014
  0
LWPOLYLINE
  5
4CE
330
6F
100
AcDbEntity
  8
DETAIL
  6
Continuous
 62
     5
100
AcDbPolyline
 90
        4
 70
     0
 43
0.0
 10
541.5848938449999
 20
-45.56920795590007
 10
541.5816461066998
 20
-44.97011059240003
 10
541.5756986310998
 20
-44.34854565530009
 10
541.5677553679
 20
-43.7021060812001
  0
LINE
  5
4D4
330
6F
100
AcDbEntity
  8
DETAIL
  6
Continuous
 62
     5
100
AcDbLine
 10
529.0166650310997
 20
-224.1245319446998
 30
0.0
 11
529.0166650310997
 21
-12.44083232310004
 31
0.0
  0
LINE
  5
4D5
330
6F
100
AcDbEntity
  8
DETAIL
  6
Continuous
 62
     5
100
AcDbLine
 10
539.2151419826999
 20
-208.7603026935001
 30
0.0
 11
539.2151419826999
 21
-28.23969730650015
 31
0.0
  0
LINE
  5
4D6
330
6F
100
AcDbEntity
  8
DETAIL
  6
Continuous
 62
     5
100
AcDbLine
 10
541.5850389176
 20
-47.6669414913001
 30
0.0
 11
541.5848938449999
 21
-45.56920795590007
 31
0.0
  0
LINE
  5
4D7
330
6F
100
AcDbEntity
  8
DETAIL
  6
Continuous
 62
     5
100
AcDbLine
 10
549.0000000000001
 20
-240.0
 30
0.0
 11
549.0000000000001
 21
-231.1781838679001
 31
0.0
  0
LINE
  5
4D8
330
6F
100
AcDbEntity
  8
DETAIL
  6
Continuous
 62
     5
100
AcDbLine
 10
549.4000000000002
 20
-240.0285398163001
 30
0.0
 11
549.4000000000002
 21
-240.0
 31
0.0
  0
LINE
  5
4D9
330
6F
100
AcDbEntity
  8
DETAIL
  6
Continuous
 62
     5
100
AcDbLine
 10
549.5
 20
-8.0
 30
0.0
 11
549.5
 21
-229.0
 31
0.0
  0
LINE
  5
4DA
330
6F
100
AcDbEntity
  8
DETAIL
  6
Continuous
 62
     5
100
AcDbLine
 10
549.9999999999999
 20
0.0
 30
0.0
 11
550.0
 21
-26.40000000000009
 31
0.0
  0
LINE
  5
4DB
330
6F
100
AcDbEntity
  8
DETAIL
  6
Continuous
 62
     5
100
AcDbLine
 10
550.0
 20
-27.0
 30
0.0
 11
550.0
 21
-207.0
 31
0.0
  0
LINE
  5
4DC
330
6F
100
AcDbEntity
  8
DETAIL
  6
Continuous
 62
     5
100
AcDbLine
 10
550.0
 20
-240.0
 30
0.0
 11
550.0
 21
-252.0
 31
0.0
  0
LINE
  5
4DD
330
6F
100
AcDbEntity
  8
DETAIL
  6
Continuous
 62
     5
100
AcDbLine
 10
550.0499999999998
 20
-240.0285398164001
 30
0.0
 11
550.0499999999998
 21
-249.9500000000001
 31
0.0
  0
LINE
  5
4DE
330
6F
100
AcDbEntity
  8
DETAIL
  6
Continuous
 62
     5
100
AcDbLine
 10
550.7999999999998
 20
-93.0
 30
0.0
 11
550.7999999999998
 21
-78.0
 31
0.0
  0
LINE
  5
4DF
330
6F
100
AcDbEntity
  8
DETAIL
  6
Continuous
 62
     5
100
AcDbLine
 10
551.5000000000001
 20
-78.0
 30
0.0
 11
551.5000000000001
 21
-20.70000000000005
 31
0.0
  0
LINE
  5
4E0
330
6F
100
AcDbEntity
  8
DETAIL
  6
Continuous
 62
     5
100
AcDbLine
 10
552.0499999999998
 20
-240.0285398164001
 30
0.0
 11
552.0499999999998
 21
-249.9500000000001
 31
0.0
  0
LINE
  5
4E1
330
6F
100
AcDbEntity
  8
DETAIL
  6
Continuous
 62
     5
100
AcDbLine
 10
552.6
 20
-93.0
 30
0.0
 11
552.6
 21
-71.5
 31
0.0
  0
LINE
  5
4E2
330
6F
100
AcDbEntity
  8
DETAIL
  6
Continuous
 62
     5
100
AcDbLine
 10
553.0000000000001
 20
-16.5
 30
0.0
 11
553.0000000000001
 21
-18.0
 31
0.0
  0
LINE
  5
4E3
330
6F
100
AcDbEntity
  8
DETAIL
  6
Continuous
 62
     5
100
AcDbLine
 10
553.0000000000001
 20
-24.41837661840009
 30
0.0
 11
553.0000000000001
 21
-71.5
 31
0.0
  0
LINE
  5
4E4
330
6F
100
AcDbEntity
  8
DETAIL
  6
Continuous
 62
     5
100
AcDbLine
 10
553.9999999999999
 20
-240.0285398163001
 30
0.0
 11
554.0
 21
-93.0
 31
0.0
  0
LINE
  5
4E5
330
6F
100
AcDbEntity
  8
DETAIL
  6
Continuous
 62
     5
100
AcDbLine
 10
573.0000000000001
 20
-108.7007413820999
 30
0.0
 11
573.0000000000001
 21
-141.6992586179001
 31
0.0
  0
LINE
  5
4E6
330
6F
100
AcDbEntity
  8
DETAIL
  6
Continuous
 62
     5
100
AcDbLine
 10
580.0000000000001
 20
-139.2
 30
0.0
 11
580.0000000000001
 21
-177.2
 31
0.0
  0
LINE
  5
4E7
330
6F
100
AcDbEntity
  8
DETAIL
  6
Continuous
 62
     5
100
AcDbLine
 10
583.0
 20
-27.75
 30
0.0
 11
583.0
 21
-60.25
 31
0.0
  0
LINE
  5
4E8
330
6F
100
AcDbEntity
  8
DETAIL
  6
Continuous
 62
     5
100
AcDbLine
 10
587.0
 20
-133.6996305151001
 30
0.0
 11
587.0
 21
-116.700369485
 31
0.0
  0
LINE
  5
4E9
330
6F
100
AcDbEntity
  8
DETAIL
  6
Continuous
 62
     5
100
AcDbLine
 10
588.5000000000001
 20
-136.1995072182001
 30
0.0
 11
588.5000000000001
 21
-114.2004927818
 31
0.0
  0
LINE
  5
4EA
330
6F
100
AcDbEntity
  8
DETAIL
  6
Continuous
 62
     5
100
AcDbLine
 10
590.0000000000001
 20
-200.3
 30
0.0
 11
590.0000000000001
 21
-240.3
 31
0.0
  0
LINE
  5
4EB
330
6F
100
AcDbEntity
  8
DETAIL
  6
Continuous
 62
     5
100
AcDbLine
 10
597.0000000000001
 20
-169.7
 30
0.0
 11
597.0000000000001
 21
-146.7
 31
0.0
  0
LINE
  5
4EC
330
6F
100
AcDbEntity
  8
DETAIL
  6
Continuous
 62
     5
100
AcDbLine
 10
597.5000000000001
 20
-30.0
 30
0.0
 11
597.5000000000001
 21
-20.70000000000005
 31
0.0
  0
LINE
  5
4ED
330
6F
100
AcDbEntity
  8
DETAIL
  6
Continuous
 62
     5
100
AcDbLine
 10
600.0
 20
-20.70000000000005
 30
0.0
 11
600.0
 21
-30.0
 31
0.0
  0
LINE
  5
4EE
330
6F
100
AcDbEntity
  8
DETAIL
  6
Continuous
 62
     5
100
AcDbLine
 10
601.5000000000001
 20
-172.9499999999999
 30
0.0
 11
601.5000000000001
 21
-143.45
 31
0.0
  0
LINE
  5
4EF
330
6F
100
AcDbEntity
  8
DETAIL
  6
Continuous
 62
     5
100
AcDbLine
 10
606.5000000000001
 20
-114.2004927818
 30
0.0
 11
606.5000000000001
 21
-136.1995072182001
 31
0.0
  0
LINE
  5
4F0
330
6F
100
AcDbEntity
  8
DETAIL
  6
Continuous
 62
     5
100
AcDbLine
 10
607.5000000000001
 20
-28.0
 30
0.0
 11
607.5000000000001
 21
-60.0
 31
0.0
  0
LINE
  5
4F1
330
6F
100
AcDbEntity
  8
DETAIL
  6
Continuous
 62
     5
100
AcDbLine
 10
608.0
 20
-28.5
 30
0.0
 11
608.0
 21
-59.5
 31
0.0
  0
LINE
  5
4F2
330
6F
100
AcDbEntity
  8
DETAIL
  6
Continuous
 62
     5
100
AcDbLine
 10
623.5000000000001
 20
-143.45
 30
0.0
 11
623.5000000000001
 21
-144.3014026045999
 31
0.0
  0
LINE
  5
4F3
330
6F
100
AcDbEntity
  8
DETAIL
  6
Continuous
 62
     5
100
AcDbLine
 10
623.5000000000001
 20
-146.9735973954
 30
0.0
 11
623.5000000000001
 21
-155.5278052092001
 31
0.0
  0
LINE
  5
4F4
330
6F
100
AcDbEntity
  8
DETAIL
  6
Continuous
 62
     5
100
AcDbLine
 10
623.5000000000001
 20
-160.8721947908
 30
0.0
 11
623.5000000000001
 21
-169.4264026046
 31
0.0
  0
LINE
  5
4F5
330
6F
100
AcDbEntity
  8
DETAIL
  6
Continuous
 62
     5
100
AcDbLine
 10
623.5000000000001
 20
-172.0985973954
 30
0.0
 11
623.5000000000001
 21
-172.9499999999999
 31
0.0
  0
LINE
  5
4F6
330
6F
100
AcDbEntity
  8
DETAIL
  6
Continuous
 62
     5
100
AcDbLine
 10
627.5000000000001
 20
-146.7
 30
0.0
 11
627.5000000000001
 21
-169.7
 31
0.0
  0
LWPOLYLINE
  5
4F7
330
6F
100
AcDbEntity
  8
DETAIL
  6
Continuous
 62
     5
100
AcDbPolyline
 90
        4
 70
     0
 43
0.0
 10
541.5761168369
 20
-193.3627583355001
 10
541.5813944378002
 20
-192.7153876196
 10
541.584719222
 20
-192.0743832052001
 10
541.5850389176
 20
-47.6669414913001
  0
LWPOLYLINE
  5
4FD
330
6F
100
AcDbEntity
  8
DETAIL
  6
Continuous
 62
     5
100
AcDbPolyline
 90
        5
 70
     0
 43
0.0
 10
597.0000000000001
 20
-158.2
 10
596.8925998181997
 20
-159.7753536047
 10
596.5695585179002
 20
-161.3757572258
 10
596.0213021639003
 20
-163.0443678313002
 10
595.2209438086002
 20
-164.8395280956999
  0
LWPOLYLINE
  5
504
330
6F
100
AcDbEntity
  8
DETAIL
  6
Continuous
 62
     5
100
AcDbPolyline
 90
        5
 70
     0
 43
0.0
 10
587.0
 20
-125.2
 10
586.9202700487
 20
-126.3669473152001
 10
586.6802888176001
 20
-127.5531479641001
 10
586.2728207474997
 20
-128.7903811716001
 10
585.6850454237001
 20
-130.1074772880999
  0
LWPOLYLINE
  5
50B
330
6F
100
AcDbEntity
  8
DETAIL
  6
Continuous
 62
     5
100
AcDbPolyline
 90
        5
 70
     0
 43
0.0
 10
606.5000000000001
 20
-125.2
 10
606.3963837269002
 20
-126.7133718443001
 10
606.0842081887
 20
-128.2529170768
 10
605.5559784823
 20
-129.8539929109001
 10
604.7982940778001
 20
-131.5508529610999
  0
LWPOLYLINE
  5
512
330
6F
100
AcDbEntity
  8
DETAIL
  6
Continuous
 62
     5
100
AcDbPolyline
 90
        6
 70
     0
 43
0.0
 10
597.0000000000001
 20
-168.1592921435001
 10
596.9312648655995
 20
-168.7889016671998
 10
596.7247694052997
 20
-169.4248014833999
 10
596.3777319111994
 20
-170.076280903
 10
595.8814768431998
 20
-170.7562676275001
 10
595.2209438086002
 20
-171.4790561914
  0
LWPOLYLINE
  5
51A
330
6F
100
AcDbEntity
  8
DETAIL
  6
Continuous
 62
     5
100
AcDbPolyline
 90
        6
 70
     0
 43
0.0
 10
597.0000000000001
 20
-148.2407078564999
 10
596.9311869500999
 20
-148.8706751934
 10
596.7246763670001
 20
-149.5064336028999
 10
596.3784431441
 20
-150.1565719312
 10
595.8825838420997
 20
-150.8363383435001
 10
595.2209438086002
 20
-151.5604719043001
  0
LWPOLYLINE
  5
522
330
6F
100
AcDbEntity
  8
DETAIL
  6
Continuous
 62
     5
100
AcDbPolyline
 90
        5
 70
     0
 43
0.0
 10
587.0
 20
-117.8387840678001
 10
586.9202158493
 20
-118.4224569370001
 10
586.6799418344997
 20
-119.0160081377
 10
586.2727497718997
 20
-119.6340658543001
 10
585.6850454237001
 20
-120.2925227119001
  0
LINE
  5
529
330
6F
100
AcDbEntity
  8
DETAIL
  6
Continuous
 62
     5
100
AcDbLine
 10
587.0
 20
-132.5612159322002
 30
0.0
 11
586.9202311843001
 21
-133.1448324436001
 31
0.0
  0
LWPOLYLINE
  5
52A
330
6F
100
AcDbEntity
  8
DETAIL
  6
Continuous
 62
     5
100
AcDbPolyline
 90
        5
 70
     0
 43
0.0
 10
606.5000000000001
 20
-115.6737205584002
 10
606.3963837269002
 20
-116.4304064805001
 10
606.0842081887
 20
-117.2001790967999
 10
605.5559784823
 20
-118.0007170138001
 10
604.7982940778001
 20
-118.8491470389001
  0
LWPOLYLINE
  5
531
330
6F
100
AcDbEntity
  8
DETAIL
  6
Continuous
 62
     5
100
AcDbPolyline
 90
        5
 70
     0
 43
0.0
 10
606.5000000000001
 20
-134.7262794416001
 10
606.3963837269002
 20
-135.4829653638001
 10
606.0842081887
 20
-136.25273798
 10
605.5559784823
 20
-137.0532758971001
 10
604.7982940778001
 20
-137.9017059222001
  0
LWPOLYLINE
  5
538
330
6F
100
AcDbEntity
  8
DETAIL
  6
Continuous
 62
     5
100
AcDbPolyline
 90
        4
 70
     0
 43
0.0
 10
623.5000000000001
 20
-160.8721947908
 10
623.0621361629001
 20
-162.6999258810001
 10
622.4016468702999
 20
-164.5834490616
 10
621.5000000000001
 20
-166.575
  0
LWPOLYLINE
  5
53E
330
6F
100
AcDbEntity
  8
DETAIL
  6
Continuous
 62
     5
100
AcDbPolyline
 90
        4
 70
     0
 43
0.0
 10
623.5000000000001
 20
-169.4264026046
 10
623.7672396146
 20
-170.3202410620999
 10
623.7672238503002
 20
-171.2048641491001
 10
623.5000000000001
 20
-172.0985973954
  0
LWPOLYLINE
  5
544
330
6F
100
AcDbEntity
  8
DETAIL
  6
Continuous
 62
     5
100
AcDbPolyline
 90
        4
 70
     0
 43
0.0
 10
623.5000000000001
 20
-144.3014026045999
 10
623.7672396146
 20
-145.1952410620999
 10
623.7672238503002
 20
-146.0798641491001
 10
623.5000000000001
 20
-146.9735973954
  0
LWPOLYLINE
  5
54A
330
6F
100
AcDbEntity
  8
DETAIL
  6
Continuous
 62
     5
100
AcDbPolyline
 90
        4
 70
     0
 43
0.0
 10
601.5000000000001
 20
-160.8721947908
 10
601.9378638371001
 20
-162.6999258810001
 10
602.5983531295998
 20
-164.5834490616
 10
603.5000000000001
 20
-166.575
  0
LWPOLYLINE
  5
550
330
6F
100
AcDbEntity
  8
DETAIL
  6
Continuous
 62
     5
100
AcDbPolyline
 90
        4
 70
     0
 43
0.0
 10
623.5000000000001
 20
-155.5278052092001
 10
623.7672396146
 20
-157.3154821243001
 10
623.7672238503002
 20
-159.0847282981001
 10
623.5000000000001
 20
-160.8721947908
  0
LWPOLYLINE
  5
556
330
6F
100
AcDbEntity
  8
DETAIL
  6
Continuous
 62
     5
100
AcDbPolyline
 90
        5
 70
     0
 43
0.0
 10
588.5000000000001
 20
-134.7262794416001
 10
588.6036162729997
 20
-135.4829653638001
 10
588.9157918112
 20
-136.25273798
 10
589.4440215177001
 20
-137.0532758971001
 10
590.2017059220997
 20
-137.9017059222001
  0
LWPOLYLINE
  5
55D
330
6F
100
AcDbEntity
  8
DETAIL
  6
Continuous
 62
     5
100
AcDbPolyline
 90
        5
 70
     0
 43
0.0
 10
588.4999999843
 20
-115.6737204440001
 10
588.6036162729997
 20
-116.4304064805001
 10
588.9157918112
 20
-117.2001790967999
 10
589.4440215177001
 20
-118.0007170138001
 10
590.2017059220997
 20
-118.8491470389001
  0
LINE
  5
564
330
6F
100
AcDbEntity
  8
DETAIL
  6
Continuous
 62
     5
100
AcDbLine
 10
586.9201447544996
 20
-117.2548499892
 30
0.0
 11
587.0
 21
-117.8387840678001
 31
0.0
  0
ARC
  5
565
330
6F
100
AcDbEntity
  8
DETAIL
  6
Continuous
 62
     5
100
AcDbCircle
 10
-0.0500000000000682
 20
-118.5
 30
0.0
 40
105.0007616402
100
AcDbArc
 50
120.296942610626
 51
239.3167491915114
  0
ARC
  5
566
330
6F
100
AcDbEntity
  8
DETAIL
  6
Continuous
 62
     5
100
AcDbCircle
 10
-0.0500000000000682
 20
-118.5
 30
0.0
 40
105.0007616402
100
AcDbArc
 50
300.6832508084887
 51
59.70305738937385
  0
CIRCLE
  5
567
330
6F
100
AcDbEntity
  8
DETAIL
  6
Continuous
 62
     5
100
AcDbCircle
 10
-0.0500000000000682
 20
-118.5
 30
0.0
 40
100.0
  0
CIRCLE
  5
568
330
6F
100
AcDbEntity
  8
DETAIL
  6
Continuous
 62
     5
100
AcDbCircle
 10
-0.0500000000000682
 20
-118.5
 30
0.0
 40
94.9847543461
  0
CIRCLE
  5
569
330
6F
100
AcDbEntity
  8
DETAIL
  6
Continuous
 62
     5
100
AcDbCircle
 10
-0.0500000000000682
 20
-118.5
 30
0.0
 40
94.9847543461
  0
CIRCLE
  5
56A
330
6F
100
AcDbEntity
  8
DETAIL
  6
Continuous
 62
     5
100
AcDbCircle
 10
-0.0500000000000682
 20
-118.5
 30
0.0
 40
82.50266545079998
  0
ARC
  5
56B
330
6F
100
AcDbEntity
  8
DETAIL
  6
Continuous
 62
     5
100
AcDbCircle
 10
-29.99999999999989
 20
-226.5
 30
0.0
 40
2.5
100
AcDbArc
 50
107.8829712887851
 51
72.1170287112149
  0
CIRCLE
  5
56C
330
6F
100
AcDbEntity
  8
DETAIL
  6
Continuous
 62
     5
100
AcDbCircle
 10
-29.99999999999989
 20
-226.5
 30
0.0
 40
1.55
  0
ARC
  5
56D
330
6F
100
AcDbEntity
  8
DETAIL
  6
Continuous
 62
     5
100
AcDbCircle
 10
319.95
 20
-118.5
 30
0.0
 40
105.0007616402
100
AcDbArc
 50
300.6832508084885
 51
59.70305738937385
  0
ARC
  5
56E
330
6F
100
AcDbEntity
  8
DETAIL
  6
Continuous
 62
     5
100
AcDbCircle
 10
319.95
 20
-118.5
 30
0.0
 40
105.0007616402
100
AcDbArc
 50
120.2969426106261
 51
239.3167491915114
  0
CIRCLE
  5
56F
330
6F
100
AcDbEntity
  8
DETAIL
  6
Continuous
 62
     5
100
AcDbCircle
 10
319.95
 20
-118.5
 30
0.0
 40
100.0
  0
CIRCLE
  5
570
330
6F
100
AcDbEntity
  8
DETAIL
  6
Continuous
 62
     5
100
AcDbCircle
 10
319.95
 20
-118.5
 30
0.0
 40
94.9847543461
  0
CIRCLE
  5
571
330
6F
100
AcDbEntity
  8
DETAIL
  6
Continuous
 62
     5
100
AcDbCircle
 10
319.95
 20
-118.5
 30
0.0
 40
94.9847543461
  0
CIRCLE
  5
572
330
6F
100
AcDbEntity
  8
DETAIL
  6
Continuous
 62
     5
100
AcDbCircle
 10
319.95
 20
-118.5
 30
0.0
 40
82.50266545079998
  0
ARC
  5
573
330
6F
100
AcDbEntity
  8
DETAIL
  6
Continuous
 62
     5
100
AcDbCircle
 10
-29.99999999999989
 20
-10.5
 30
0.0
 40
2.5
100
AcDbArc
 50
308.9093032907181
 51
231.090696709282
  0
CIRCLE
  5
574
330
6F
100
AcDbEntity
  8
DETAIL
  6
Continuous
 62
     5
100
AcDbCircle
 10
-29.99999999999989
 20
-10.5
 30
0.0
 40
1.55
  0
ARC
  5
575
330
6F
100
AcDbEntity
  8
DETAIL
  6
Continuous
 62
     5
100
AcDbCircle
 10
539.0000000000001
 20
-219.0
 30
0.0
 40
7.5413468963
100
AcDbArc
 50
249.5126848853107
 51
20.48731511468961
  0
ARC
  5
576
330
6F
100
AcDbEntity
  8
DETAIL
  6
Continuous
 62
     5
100
AcDbCircle
 10
544.5000000000001
 20
-229.0
 30
0.0
 40
5.0
100
AcDbArc
 50
270.0
 51
0.0
  0
ARC
  5
577
330
6F
100
AcDbEntity
  8
DETAIL
  6
Continuous
 62
     5
100
AcDbCircle
 10
549.6
 20
-239.0
 30
0.0
 40
3.0
100
AcDbArc
 50
324.9109090761959
 51
334.2041359795169
  0
ARC
  5
578
330
6F
100
AcDbEntity
  8
DETAIL
  6
Continuous
 62
     5
100
AcDbCircle
 10
549.6
 20
-239.0
 30
0.0
 40
3.0
100
AcDbArc
 50
277.6887463431986
 51
278.6498396361182
  0
ARC
  5
579
330
6F
100
AcDbEntity
  8
DETAIL
  6
Continuous
 62
     5
100
AcDbCircle
 10
515.0000000000001
 20
-226.5
 30
0.0
 40
2.5
100
AcDbArc
 50
107.8829712887843
 51
72.11702871121571
  0
CIRCLE
  5
57A
330
6F
100
AcDbEntity
  8
DETAIL
  6
Continuous
 62
     5
100
AcDbCircle
 10
515.0000000000001
 20
-226.5
 30
0.0
 40
1.55
  0
ARC
  5
57B
330
6F
100
AcDbEntity
  8
DETAIL
  6
Continuous
 62
     5
100
AcDbCircle
 10
548.1999999999998
 20
-241.0
 30
0.0
 40
1.0
100
AcDbArc
 50
77.01397992830648
 51
90.0
  0
ARC
  5
57C
330
6F
100
AcDbEntity
  8
DETAIL
  6
Continuous
 62
     5
100
AcDbCircle
 10
550.0
 20
-249.9500000000001
 30
0.0
 40
0.05
100
AcDbArc
 50
270.0
 51
0.0
  0
ARC
  5
57D
330
6F
100
AcDbEntity
  8
DETAIL
  6
Continuous
 62
     5
100
AcDbCircle
 10
539.0000000000001
 20
-18.0
 30
0.0
 40
7.5413468963
100
AcDbArc
 50
339.5126848853104
 51
110.4873151146892
  0
ARC
  5
57E
330
6F
100
AcDbEntity
  8
DETAIL
  6
Continuous
 62
     5
100
AcDbCircle
 10
544.5000000000001
 20
-8.0
 30
0.0
 40
5.0
100
AcDbArc
 50
0.0
 51
90.0
  0
ARC
  5
57F
330
6F
100
AcDbEntity
  8
DETAIL
  6
Continuous
 62
     5
100
AcDbCircle
 10
597.3000000000001
 20
-20.70000000000005
 30
0.0
 40
2.7
100
AcDbArc
 50
0.0
 51
90.0
  0
ARC
  5
580
330
6F
100
AcDbEntity
  8
DETAIL
  6
Continuous
 62
     5
100
AcDbCircle
 10
551.6999999999998
 20
-20.70000000000005
 30
0.0
 40
2.7
100
AcDbArc
 50
90.0
 51
129.1536509392074
  0
ARC
  5
581
330
6F
100
AcDbEntity
  8
DETAIL
  6
Continuous
 62
     5
100
AcDbCircle
 10
515.0000000000001
 20
-10.5
 30
0.0
 40
2.5
100
AcDbArc
 50
308.9093032907172
 51
231.0906967092828
  0
CIRCLE
  5
582
330
6F
100
AcDbEntity
  8
DETAIL
  6
Continuous
 62
     5
100
AcDbCircle
 10
515.0000000000001
 20
-10.5
 30
0.0
 40
1.55
  0
ARC
  5
583
330
6F
100
AcDbEntity
  8
DETAIL
  6
Continuous
 62
     5
100
AcDbCircle
 10
554.0
 20
-26.24365078899996
 30
0.0
 40
1.0
100
AcDbArc
 50
180.0
 51
269.0000000000243
  0
ARC
  5
584
330
6F
100
AcDbEntity
  8
DETAIL
  6
Continuous
 62
     5
100
AcDbCircle
 10
554.0
 20
-61.75634921100004
 30
0.0
 40
1.0
100
AcDbArc
 50
90.99999999997574
 51
180.0
  0
ARC
  5
585
330
6F
100
AcDbEntity
  8
DETAIL
  6
Continuous
 62
     5
100
AcDbCircle
 10
607.5000000000001
 20
-28.5
 30
0.0
 40
0.5
100
AcDbArc
 50
0.0
 51
90.0
  0
ARC
  5
586
330
6F
100
AcDbEntity
  8
DETAIL
  6
Continuous
 62
     5
100
AcDbCircle
 10
607.5000000000001
 20
-59.5
 30
0.0
 40
0.5
100
AcDbArc
 50
270.0
 51
0.0
  0
ARC
  5
587
330
6F
100
AcDbEntity
  8
DETAIL
  6
Continuous
 62
     5
100
AcDbCircle
 10
551.6999999999998
 20
-20.70000000000005
 30
0.0
 40
0.2
100
AcDbArc
 50
90.0
 51
180.0
  0
ARC
  5
588
330
6F
100
AcDbEntity
  8
DETAIL
  6
Continuous
 62
     5
100
AcDbCircle
 10
597.3000000000001
 20
-20.70000000000005
 30
0.0
 40
0.2
100
AcDbArc
 50
0.0
 51
90.0
  0
LINE
  5
589
330
6F
100
AcDbEntity
  8
DETAIL
  6
Continuous
 62
     5
100
AcDbLine
 10
-589.0001234834825
 20
-399.9603951084546
 30
0.0
 11
827.0000000000081
 21
-399.9603951084542
 31
0.0
  0
LINE
  5
58A
330
6F
100
AcDbEntity
  8
DETAIL
  6
Continuous
 62
     5
100
AcDbLine
 10
839.000000000008
 20
-402.9603951084542
 30
0.0
 11
839.000000000008
 21
-404.9603951084542
 31
0.0
  0
LINE
  5
58B
330
6F
100
AcDbEntity
  8
DETAIL
  6
Continuous
 62
     5
100
AcDbLine
 10
-601.0001234834825
 20
-404.9603951084539
 30
0.0
 11
839.000000000008
 21
-404.9603951084542
 31
0.0
  0
LINE
  5
58C
330
6F
100
AcDbEntity
  8
DETAIL
  6
Continuous
 62
     5
100
AcDbLine
 10
822.7000000000073
 20
-344.9603951084544
 30
0.0
 11
822.7000000000073
 21
-369.4603951084541
 31
0.0
  0
LINE
  5
58D
330
6F
100
AcDbEntity
  8
DETAIL
  6
Continuous
 62
     5
100
AcDbLine
 10
-601.0001234834825
 20
-402.9603951084539
 30
0.0
 11
839.000000000008
 21
-402.9603951084542
 31
0.0
  0
LINE
  5
58E
330
6F
100
AcDbEntity
  8
DETAIL
  6
Continuous
 62
     5
100
AcDbLine
 10
827.0000000000081
 20
-399.9603951084542
 30
0.0
 11
827.0000000000075
 21
-402.9603951084543
 31
0.0
  0
LINE
  5
58F
330
6F
100
AcDbEntity
  8
DETAIL
  6
Continuous
 62
     5
100
AcDbLine
 10
-589.0001234834825
 20
-379.9603951084546
 30
0.0
 11
827.0000000000075
 21
-379.9603951084543
 31
0.0
  0
LINE
  5
590
330
6F
100
AcDbEntity
  8
DETAIL
  6
Continuous
 62
     5
100
AcDbLine
 10
-589.0001234834825
 20
-369.460395108428
 30
0.0
 11
827.0000000000081
 21
-369.4603951084429
 31
0.0
  0
LINE
  5
591
330
6F
100
AcDbEntity
  8
DETAIL
  6
Continuous
 62
     5
100
AcDbLine
 10
827.0000000000075
 20
-379.9603951084543
 30
0.0
 11
827.0000000000081
 21
-369.4603951084429
 31
0.0
  0
LINE
  5
592
330
6F
100
AcDbEntity
  8
DETAIL
  6
Continuous
 62
     5
100
AcDbLine
 10
-584.7001234834822
 20
-344.9603951084541
 30
0.0
 11
822.7000000000073
 21
-344.9603951084544
 31
0.0
  0
LINE
  5
593
330
6F
100
AcDbEntity
  8
DETAIL
  6
Continuous
 62
     5
100
AcDbLine
 10
822.7000000000073
 20
-379.9603951084546
 30
0.0
 11
822.7000000000073
 21
-399.9603951084544
 31
0.0
  0
LINE
  5
594
330
6F
100
AcDbEntity
  8
DETAIL
  6
Continuous
 62
     5
100
AcDbLine
 10
-601.0001234834825
 20
-402.9603951084543
 30
0.0
 11
-601.0001234834825
 21
-404.9603951084542
 31
0.0
  0
LINE
  5
595
330
6F
100
AcDbEntity
  8
DETAIL
  6
Continuous
 62
     5
100
AcDbLine
 10
-589.0001234834825
 20
-399.9603951084544
 30
0.0
 11
-589.0001234834825
 21
-402.9603951084543
 31
0.0
  0
LINE
  5
596
330
6F
100
AcDbEntity
  8
DETAIL
  6
Continuous
 62
     5
100
AcDbLine
 10
-584.7001234834822
 20
-344.9603951084544
 30
0.0
 11
-584.7001234834822
 21
-369.4603951084541
 31
0.0
  0
LINE
  5
597
330
6F
100
AcDbEntity
  8
DETAIL
  6
Continuous
 62
     5
100
AcDbLine
 10
-584.7001234834822
 20
-379.9603951084546
 30
0.0
 11
-584.7001234834822
 21
-399.9603951084544
 31
0.0
  0
LINE
  5
598
330
6F
100
AcDbEntity
  8
DETAIL
  6
Continuous
 62
     5
100
AcDbLine
 10
-589.0001234834825
 20
-379.9603951084543
 30
0.0
 11
-589.0001234834825
 21
-369.4603951084543
 31
0.0
  0
LINE
  5
599
330
6F
100
AcDbEntity
  8
DETAIL
  6
Continuous
 62
     5
100
AcDbLine
 10
550.0
 20
-252.0
 30
0.0
 11
-549.9999999999999
 21
-252.0
 31
0.0
  0
ARC
  5
59A
330
6F
100
AcDbEntity
  8
DETAIL
  6
Continuous
 62
     5
100
AcDbCircle
 10
550.0
 20
-249.9500000000001
 30
0.0
 40
2.049999999999998
100
AcDbArc
 50
270.0
 51
0.0
  0
LINE
  5
59B
330
6F
100
AcDbEntity
  8
DETAIL
  6
Continuous
 62
     5
100
AcDbLine
 10
-499.9999999999988
 20
-259.9999999999964
 30
0.0
 11
-499.9999999999988
 21
-251.9999999999964
 31
0.0
  0
LINE
  5
59C
330
6F
100
AcDbEntity
  8
DETAIL
  6
Continuous
 62
     5
100
AcDbLine
 10
500.0000000000008
 20
-259.9999999999964
 30
0.0
 11
-499.9999999999988
 21
-259.9999999999964
 31
0.0
  0
LINE
  5
59D
330
6F
100
AcDbEntity
  8
DETAIL
  6
Continuous
 62
     5
100
AcDbLine
 10
500.0000000000008
 20
-259.9999999999964
 30
0.0
 11
500.0000000000008
 21
-251.9999999999964
 31
0.0
  0
LWPOLYLINE
  5
59E
330
6F
100
AcDbEntity
  8
DETAIL
  6
Continuous
 62
     5
100
AcDbPolyline
 90
       18
 70
     0
 43
0.0
 10
-539.2151419828
 20
-208.7603026935001
 10
-539.1722258269999
 20
-209.6826674212
 10
-539.0444052363998
 20
-210.597165894
 10
-538.8327703508
 20
-211.4959989992001
 10
-538.5391260239997
 20
-212.3715011404001
 10
-538.1659765706998
 20
-213.2162057519001
 10
-537.7165043314001
 20
-214.0229088989999
 10
-537.1945425599998
 20
-214.784730743
 10
-536.6045427238998
 20
-215.4951742066
 10
-535.9515365433998
 20
-216.1481803853001
 10
-535.2410930782999
 20
-216.7381802198002
 10
-534.4792712332998
 20
-217.2601419903001
 10
-533.6725680856
 20
-217.7096142291
 10
-532.8278634741999
 20
-218.0827636825002
 10
-531.9523613327
 20
-218.3764080089002
 10
-531.05352823
 20
-218.5880428970001
 10
-530.1390297543
 20
-218.7158634847001
 10
-529.2166650312
 20
-218.7587796451
  0
LWPOLYLINE
  5
5B2
330
6F
100
AcDbEntity
  8
DETAIL
  6
Continuous
 62
     5
100
AcDbPolyline
 90
       23
 70
     0
 43
0.0
 10
-541.5677565276
 20
-193.0302603673001
 10
-541.5491550652999
 20
-194.4065504875
 10
-541.5408512234002
 20
-195.1408641823
 10
-541.5353281776
 20
-195.9087583330001
 10
-541.5346846893998
 20
-196.7113529496
 10
-541.5414753371
 20
-197.5489514335001
 10
-541.5586482933996
 20
-198.4181914241001
 10
-541.5885727719
 20
-199.2948238445001
 10
-541.6318919710001
 20
-200.1474343931
 10
-541.6878231367998
 20
-200.9567673756001
 10
-541.7554419144996
 20
-201.7207492634
 10
-541.8334884568998
 20
-202.4389604888999
 10
-541.9207381804998
 20
-203.1136089035001
 10
-542.0162888987
 20
-203.7491996652
 10
-542.1194948344998
 20
-204.3505196164001
 10
-542.2299778559
 20
-204.9223183922002
 10
-542.3476406180999
 20
-205.4692244907001
 10
-542.4727043686001
 20
-205.9958422504001
 10
-542.6057438479
 20
-206.5067653477001
 10
-542.7476688464998
 20
-207.0064847983001
 10
-542.8997754044002
 20
-207.4992894278
 10
-543.0636101809999
 20
-207.9893326927002
 10
-543.2414164486998
 20
-208.4808620675001
  0
LWPOLYLINE
  5
5CB
330
6F
100
AcDbEntity
  8
DETAIL
  6
Continuous
 62
     5
100
AcDbPolyline
 90
        4
 70
     0
 43
0.0
 10
-541.5848939197998
 20
-191.163149273
 10
-541.5816462728002
 20
-191.7622909448
 10
-541.5756990573997
 20
-192.3838538575001
 10
-541.5677565276
 20
-193.0302603673001
  0
LINE
  5
5D1
330
6F
100
AcDbEntity
  8
DETAIL
  6
Continuous
 62
     5
100
AcDbLine
 10
-541.5852523797001
 20
-190.1718455116002
 30
0.0
 11
-541.5848939197998
 21
-191.163149273
 31
0.0
  0
LINE
  5
5D2
330
6F
100
AcDbEntity
  8
DETAIL
  6
Continuous
 62
     5
100
AcDbLine
 10
-599.9999999999999
 20
-30.0
 30
0.0
 11
-599.9999999999999
 21
-20.70000000000005
 31
0.0
  0
LINE
  5
5D3
330
6F
100
AcDbEntity
  8
DETAIL
  6
Continuous
 62
     5
100
AcDbLine
 10
-597.4999999999997
 20
-20.70000000000005
 30
0.0
 11
-597.4999999999997
 21
-30.0
 31
0.0
  0
LINE
  5
5D4
330
6F
100
AcDbEntity
  8
DETAIL
  6
Continuous
 62
     5
100
AcDbLine
 10
-553.9999999999999
 20
-15.0
 30
0.0
 11
-553.9999999999999
 21
-18.0
 31
0.0
  0
LINE
  5
5D5
330
6F
100
AcDbEntity
  8
DETAIL
  6
Continuous
 62
     5
100
AcDbLine
 10
-553.9999999999999
 20
-23.41837661840009
 30
0.0
 11
-553.9999999999999
 21
-240.0
 31
0.0
  0
LINE
  5
5D6
330
6F
100
AcDbEntity
  8
DETAIL
  6
Continuous
 62
     5
100
AcDbLine
 10
-552.0500000000001
 20
-240.0285398163001
 30
0.0
 11
-552.0500000000001
 21
-249.9500000000001
 31
0.0
  0
LINE
  5
5D7
330
6F
100
AcDbEntity
  8
DETAIL
  6
Continuous
 62
     5
100
AcDbLine
 10
-551.4999999999997
 20
-78.0
 30
0.0
 11
-551.4999999999997
 21
-20.70000000000005
 31
0.0
  0
LINE
  5
5D8
330
6F
100
AcDbEntity
  8
DETAIL
  6
Continuous
 62
     5
100
AcDbLine
 10
-550.0499999999998
 20
-240.0285398164001
 30
0.0
 11
-550.0499999999998
 21
-249.9500000000001
 31
0.0
  0
LINE
  5
5D9
330
6F
100
AcDbEntity
  8
DETAIL
  6
Continuous
 62
     5
100
AcDbLine
 10
-549.9999999999999
 20
0.0
 30
0.0
 11
-549.9999999999999
 21
-26.40000000000009
 31
0.0
  0
LINE
  5
5DA
330
6F
100
AcDbEntity
  8
DETAIL
  6
Continuous
 62
     5
100
AcDbLine
 10
-549.9999999999999
 20
-26.40000000000009
 30
0.0
 11
-549.9999999999999
 21
-204.0
 31
0.0
  0
LINE
  5
5DB
330
6F
100
AcDbEntity
  8
DETAIL
  6
Continuous
 62
     5
100
AcDbLine
 10
-549.9999999999999
 20
-252.0
 30
0.0
 11
-549.9999999999999
 21
-240.0
 31
0.0
  0
LINE
  5
5DC
330
6F
100
AcDbEntity
  8
DETAIL
  6
Continuous
 62
     5
100
AcDbLine
 10
-549.4999999999999
 20
-229.0
 30
0.0
 11
-549.4999999999999
 21
-8.0
 31
0.0
  0
LINE
  5
5DD
330
6F
100
AcDbEntity
  8
DETAIL
  6
Continuous
 62
     5
100
AcDbLine
 10
-549.3999999999998
 20
-240.0
 30
0.0
 11
-549.3999999999998
 21
-240.0285398163001
 31
0.0
  0
LINE
  5
5DE
330
6F
100
AcDbEntity
  8
DETAIL
  6
Continuous
 62
     5
100
AcDbLine
 10
-548.9999999999999
 20
-231.1781838679001
 30
0.0
 11
-548.9999999999999
 21
-240.0
 31
0.0
  0
LINE
  5
5DF
330
6F
100
AcDbEntity
  8
DETAIL
  6
Continuous
 62
     5
100
AcDbLine
 10
-539.2151419828
 20
-28.23969730650015
 30
0.0
 11
-539.2151419828
 21
-208.7603026935001
 31
0.0
  0
LINE
  5
5E0
330
6F
100
AcDbEntity
  8
DETAIL
  6
Continuous
 62
     5
100
AcDbLine
 10
-529.0166650311999
 20
-224.1245319447001
 30
0.0
 11
-529.0166650311999
 21
-12.44083232310004
 31
0.0
  0
LWPOLYLINE
  5
5E1
330
6F
100
AcDbEntity
  8
DETAIL
  6
Continuous
 62
     5
100
AcDbPolyline
 90
        4
 70
     0
 43
0.0
 10
-541.5761179670997
 20
-43.90487512260006
 10
-541.5813951974
 20
-44.55224534850002
 10
-541.5847196033999
 20
-45.1932524000001
 10
-541.5852523797001
 20
-190.1718455116002
  0
LWPOLYLINE
  5
5E7
330
6F
100
AcDbEntity
  8
DETAIL
  6
Continuous
 62
     5
100
AcDbPolyline
 90
        4
 70
     0
 43
0.0
 10
-544.1998616137001
 20
-211.0850291138001
 10
-544.3644633541996
 20
-211.5350926603
 10
-544.5211473244
 20
-211.9605425166001
 10
-544.6717699450998
 20
-212.3657303997002
  0
LWPOLYLINE
  5
5ED
330
6F
100
AcDbEntity
  8
DETAIL
  6
Continuous
 62
     5
100
AcDbPolyline
 90
        4
 70
     0
 43
0.0
 10
-543.4124672129
 20
-208.9385899153001
 10
-543.6326477038
 20
-209.5322032462
 10
-543.8373670419
 20
-210.0903806278
 10
-544.1998616137001
 20
-211.0850291138001
  0
LWPOLYLINE
  5
5F3
330
6F
100
AcDbEntity
  8
DETAIL
  6
Continuous
 62
     5
100
AcDbPolyline
 90
        3
 70
     0
 43
0.0
 10
-543.2414164486998
 20
-208.4808620675001
 10
-543.3259085639
 20
-208.7078104335001
 10
-543.4124672129
 20
-208.9385899153001
  0
LINE
  5
5F8
330
6F
100
AcDbEntity
  8
DETAIL
  6
Continuous
 62
     5
100
AcDbLine
 10
-544.6717699450998
 20
-212.3657303997002
 30
0.0
 11
-546.1643544468
 21
-216.3605285841001
 31
0.0
  0
LINE
  5
5F9
330
6F
100
AcDbEntity
  8
DETAIL
  6
Continuous
 62
     5
100
AcDbLine
 10
-549.9999999999999
 20
-243.4000000000001
 30
0.0
 11
-550.0499999999998
 21
-243.4000000000001
 31
0.0
  0
LINE
  5
5FA
330
6F
100
AcDbEntity
  8
DETAIL
  6
Continuous
 62
     5
100
AcDbLine
 10
-552.0500000000001
 20
-240.0285398163001
 30
0.0
 11
-550.0499999999998
 21
-240.0285398164001
 31
0.0
  0
LINE
  5
5FB
330
6F
100
AcDbEntity
  8
DETAIL
  6
Continuous
 62
     5
100
AcDbLine
 10
-549.3999999999998
 20
-240.0
 30
0.0
 11
-549.9999999999999
 21
-240.0
 31
0.0
  0
LINE
  5
5FC
330
6F
100
AcDbEntity
  8
DETAIL
  6
Continuous
 62
     5
100
AcDbLine
 10
-548.9999999999999
 20
-240.0
 30
0.0
 11
-553.9999999999999
 21
-240.0
 31
0.0
  0
LINE
  5
5FD
330
6F
100
AcDbEntity
  8
DETAIL
  6
Continuous
 62
     5
100
AcDbLine
 10
-517.3499999999997
 20
-226.5
 30
0.0
 11
-516.5499999999998
 21
-226.5
 31
0.0
  0
LINE
  5
5FE
330
6F
100
AcDbEntity
  8
DETAIL
  6
Continuous
 62
     5
100
AcDbLine
 10
-512.65
 20
-226.5
 30
0.0
 11
-513.45
 21
-226.5
 31
0.0
  0
LINE
  5
5FF
330
6F
100
AcDbEntity
  8
DETAIL
  6
Continuous
 62
     5
100
AcDbLine
 10
-529.2166650312
 20
-218.7587796451
 30
0.0
 11
-529.0166650311999
 21
-218.7587796451
 31
0.0
  0
LINE
  5
600
330
6F
100
AcDbEntity
  8
DETAIL
  6
Continuous
 62
     5
100
AcDbLine
 10
-549.9999999999999
 20
-204.0
 30
0.0
 11
-549.4999999999999
 21
-204.0
 31
0.0
  0
LINE
  5
601
330
6F
100
AcDbEntity
  8
DETAIL
  6
Continuous
 62
     5
100
AcDbLine
 10
-556.8591869263998
 20
-20.55918969210006
 30
0.0
 11
-551.5590649936001
 21
-25.85931162480006
 31
0.0
  0
LWPOLYLINE
  5
602
330
6F
100
AcDbEntity
  8
DETAIL
  6
Continuous
 62
     5
100
AcDbPolyline
 90
        4
 70
     0
 43
0.0
 10
-551.5585786978999
 20
-25.85979644550003
 10
-551.5290886212
 20
-25.89734637620018
 10
-551.5074031100001
 20
-25.94730696679993
 10
-551.5000002654
 20
-26.00116352689997
  0
LWPOLYLINE
  5
608
330
6F
100
AcDbEntity
  8
DETAIL
  6
Continuous
 62
     5
100
AcDbPolyline
 90
        3
 70
     0
 43
0.0
 10
-543.4124980085997
 20
-28.06128210470001
 10
-543.3257990958999
 20
-28.29214291690006
 10
-543.2415673804
 20
-28.51919486850011
  0
LINE
  5
60D
330
6F
100
AcDbEntity
  8
DETAIL
  6
Continuous
 62
     5
100
AcDbLine
 10
-546.1643544468
 20
-20.63947141590006
 30
0.0
 11
-544.6717697743999
 21
-24.63426623000009
 31
0.0
  0
LWPOLYLINE
  5
60E
330
6F
100
AcDbEntity
  8
DETAIL
  6
Continuous
 62
     5
100
AcDbPolyline
 90
        5
 70
     0
 43
0.0
 10
-544.6717697743999
 20
-24.63426623000009
 10
-544.5224621967999
 20
-25.03590858389999
 10
-544.3657566165001
 20
-25.46134427490006
 10
-544.2011766643997
 20
-25.91136103010013
 10
-543.8413818562998
 20
-26.89858663030009
  0
LWPOLYLINE
  5
615
330
6F
100
AcDbEntity
  8
DETAIL
  6
Continuous
 62
     5
100
AcDbPolyline
 90
        3
 70
     0
 43
0.0
 10
-543.8413818562998
 20
-26.89858663030009
 10
-543.6381515657997
 20
-27.45292186020015
 10
-543.4124980085997
 20
-28.06128210470001
  0
LWPOLYLINE
  5
61A
330
6F
100
AcDbEntity
  8
DETAIL
  6
Continuous
 62
     5
100
AcDbPolyline
 90
       23
 70
     0
 43
0.0
 10
-543.2415673804
 20
-28.51919486850011
 10
-543.0800591941
 20
-28.97110664310003
 10
-542.9255106533998
 20
-29.43678695500011
 10
-542.7775941992996
 20
-29.91792927720008
 10
-542.6364277225001
 20
-30.41620737840003
 10
-542.5021097001996
 20
-30.93325149760018
 10
-542.3748939534999
 20
-31.47068278739994
 10
-542.2551721034999
 20
-32.02980819460004
 10
-542.1435249415998
 20
-32.6111998112001
 10
-542.0403254145996
 20
-33.21655210519998
 10
-541.9452898343998
 20
-33.85267142049997
 10
-541.8582614745998
 20
-34.52905707540003
 10
-541.7797826076
 20
-35.25428670640008
 10
-541.7113321962998
 20
-36.03073134820011
 10
-541.6547346465996
 20
-36.85251742290006
 10
-541.6110382745999
 20
-37.71219972860013
 10
-541.5806731906998
 20
-38.59012160359998
 10
-541.5626834823998
 20
-39.45750335200001
 10
-541.5546367194998
 20
-40.29148032720013
 10
-541.5536066794
 20
-41.08689080860017
 10
-541.5570428343996
 20
-41.84166414839999
 10
-541.5628940016999
 20
-42.55777765870014
 10
-541.5761179670997
 20
-43.90487512260006
  0
LINE
  5
633
330
6F
100
AcDbEntity
  8
DETAIL
  6
Continuous
 62
     5
100
AcDbLine
 10
-536.4605285841998
 20
-226.0643544467
 30
0.0
 11
-532.1980856536
 21
-224.4717685833
 31
0.0
  0
LWPOLYLINE
  5
634
330
6F
100
AcDbEntity
  8
DETAIL
  6
Continuous
 62
     5
100
AcDbPolyline
 90
        4
 70
     0
 43
0.0
 10
-532.1980856536
 20
-224.4717685833
 10
-531.7945536244
 20
-224.3216700023999
 10
-531.3725720340996
 20
-224.1659667808001
 10
-530.928384133
 20
-224.0030835510002
  0
LWPOLYLINE
  5
63A
330
6F
100
AcDbEntity
  8
DETAIL
  6
Continuous
 62
     5
100
AcDbPolyline
 90
        4
 70
     0
 43
0.0
 10
-530.928384133
 20
-224.0030835510002
 10
-529.9636465549999
 20
-223.6506770765
 10
-529.4449036187001
 20
-223.4606513345
 10
-529.0166650311999
 20
-223.3027397199001
  0
LWPOLYLINE
  5
640
330
6F
100
AcDbEntity
  8
DETAIL
  6
Continuous
 62
     5
100
AcDbPolyline
 90
       18
 70
     0
 43
0.0
 10
-529.2166650312
 20
-18.24122035499999
 10
-530.1390297543
 20
-18.28413651530013
 10
-531.05352823
 20
-18.41195710300008
 10
-531.9523613327
 20
-18.6235919912001
 10
-532.8278634741999
 20
-18.91723631750005
 10
-533.6725680856
 20
-19.29038577100005
 10
-534.4792712332998
 20
-19.73985800970013
 10
-535.2410930782999
 20
-20.26181978020009
 10
-535.9515365433998
 20
-20.85181961470016
 10
-536.6045427238998
 20
-21.50482579340019
 10
-537.1945425599998
 20
-22.21526925700004
 10
-537.7165043314001
 20
-22.97709110100004
 10
-538.1659765706998
 20
-23.7837942481001
 10
-538.5391260239997
 20
-24.62849885960009
 10
-538.8327703508
 20
-25.50400100080015
 10
-539.0444052363998
 20
-26.402834106
 10
-539.1722258269999
 20
-27.31733257890005
 10
-539.2151419828
 20
-28.23969730650015
  0
LINE
  5
654
330
6F
100
AcDbEntity
  8
DETAIL
  6
Continuous
 62
     5
100
AcDbLine
 10
-553.9999999999999
 20
-93.0
 30
0.0
 11
-549.9999999999999
 21
-93.0
 31
0.0
  0
LINE
  5
655
330
6F
100
AcDbEntity
  8
DETAIL
  6
Continuous
 62
     5
100
AcDbLine
 10
-551.4999999999997
 20
-78.0
 30
0.0
 11
-549.9999999999999
 21
-78.0
 31
0.0
  0
LINE
  5
656
330
6F
100
AcDbEntity
  8
DETAIL
  6
Continuous
 62
     5
100
AcDbLine
 10
-597.4999999999997
 20
-30.0
 30
0.0
 11
-599.9999999999999
 21
-30.0
 31
0.0
  0
LINE
  5
657
330
6F
100
AcDbEntity
  8
DETAIL
  6
Continuous
 62
     5
100
AcDbLine
 10
-549.4999999999999
 20
-26.40000000000009
 30
0.0
 11
-549.9999999999999
 21
-26.40000000000009
 31
0.0
  0
LINE
  5
658
330
6F
100
AcDbEntity
  8
DETAIL
  6
Continuous
 62
     5
100
AcDbLine
 10
-551.7000000000002
 20
-20.5
 30
0.0
 11
-597.2999999999998
 21
-20.5
 31
0.0
  0
LINE
  5
659
330
6F
100
AcDbEntity
  8
DETAIL
  6
Continuous
 62
     5
100
AcDbLine
 10
-529.0166650311999
 20
-18.24122035499999
 30
0.0
 11
-529.2166650312
 21
-18.24122035499999
 31
0.0
  0
LINE
  5
65A
330
6F
100
AcDbEntity
  8
DETAIL
  6
Continuous
 62
     5
100
AcDbLine
 10
-551.7000000000002
 20
-18.0
 30
0.0
 11
-597.2999999999998
 21
-18.0
 31
0.0
  0
LINE
  5
65B
330
6F
100
AcDbEntity
  8
DETAIL
  6
Continuous
 62
     5
100
AcDbLine
 10
-553.9999999999999
 20
-15.0
 30
0.0
 11
-549.9999999999999
 21
-15.0
 31
0.0
  0
LWPOLYLINE
  5
65C
330
6F
100
AcDbEntity
  8
DETAIL
  6
Continuous
 62
     5
100
AcDbPolyline
 90
        8
 70
     0
 43
0.0
 10
-529.0166650311999
 20
-13.69725818639994
 10
-529.4463021933998
 20
-13.53883623399997
 10
-529.9647920351998
 20
-13.34890271960012
 10
-530.4594001558
 20
-13.16825302389998
 10
-530.9286719723997
 20
-12.99681088169996
 10
-531.3729617966
 20
-12.83389026830014
 10
-531.7949655747001
 20
-12.67817771850014
 10
-532.1980859573999
 20
-12.52823132360004
  0
LINE
  5
666
330
6F
100
AcDbEntity
  8
DETAIL
  6
Continuous
 62
     5
100
AcDbLine
 10
-532.1980859573999
 20
-12.52823132360004
 30
0.0
 11
-536.4605285841998
 21
-10.93564555329999
 31
0.0
  0
ARC
  5
667
330
6F
100
AcDbEntity
  8
DETAIL
  6
Continuous
 62
     5
100
AcDbCircle
 10
-548.2
 20
-241.0
 30
0.0
 40
1.0
100
AcDbArc
 50
90.0
 51
102.9860200716935
  0
ARC
  5
668
330
6F
100
AcDbEntity
  8
DETAIL
  6
Continuous
 62
     5
100
AcDbCircle
 10
-549.9999999999999
 20
-249.9500000000001
 30
0.0
 40
0.05
100
AcDbArc
 50
179.9999999998957
 51
270.0
  0
ARC
  5
669
330
6F
100
AcDbEntity
  8
DETAIL
  6
Continuous
 62
     5
100
AcDbCircle
 10
-539.0999999999998
 20
-219.0
 30
0.0
 40
7.5413468963
100
AcDbArc
 50
159.5126848851989
 51
290.4873151146892
  0
ARC
  5
66A
330
6F
100
AcDbEntity
  8
DETAIL
  6
Continuous
 62
     5
100
AcDbCircle
 10
-544.4999999999999
 20
-229.0
 30
0.0
 40
5.0
100
AcDbArc
 50
180.0
 51
270.0
  0
ARC
  5
66B
330
6F
100
AcDbEntity
  8
DETAIL
  6
Continuous
 62
     5
100
AcDbCircle
 10
-514.9999999999996
 20
-226.5
 30
0.0
 40
2.5
100
AcDbArc
 50
107.8829712887843
 51
72.11702871121571
  0
CIRCLE
  5
66C
330
6F
100
AcDbEntity
  8
DETAIL
  6
Continuous
 62
     5
100
AcDbCircle
 10
-514.9999999999996
 20
-226.5
 30
0.0
 40
1.55
  0
ARC
  5
66D
330
6F
100
AcDbEntity
  8
DETAIL
  6
Continuous
 62
     5
100
AcDbCircle
 10
-539.0999999999998
 20
-18.0
 30
0.0
 40
7.5413468963
100
AcDbArc
 50
69.51268488531072
 51
200.4873151146896
  0
ARC
  5
66E
330
6F
100
AcDbEntity
  8
DETAIL
  6
Continuous
 62
     5
100
AcDbCircle
 10
-544.4999999999999
 20
-8.0
 30
0.0
 40
5.0
100
AcDbArc
 50
90.0
 51
180.0
  0
ARC
  5
66F
330
6F
100
AcDbEntity
  8
DETAIL
  6
Continuous
 62
     5
100
AcDbCircle
 10
-597.2999999999998
 20
-20.70000000000005
 30
0.0
 40
2.7
100
AcDbArc
 50
90.0
 51
180.0
  0
ARC
  5
670
330
6F
100
AcDbEntity
  8
DETAIL
  6
Continuous
 62
     5
100
AcDbCircle
 10
-551.7000000000002
 20
-20.70000000000005
 30
0.0
 40
2.7
100
AcDbArc
 50
50.84634906079259
 51
90.0
  0
ARC
  5
671
330
6F
100
AcDbEntity
  8
DETAIL
  6
Continuous
 62
     5
100
AcDbCircle
 10
-597.2999999999998
 20
-20.70000000000005
 30
0.0
 40
0.2
100
AcDbArc
 50
90.0
 51
180.0
  0
ARC
  5
672
330
6F
100
AcDbEntity
  8
DETAIL
  6
Continuous
 62
     5
100
AcDbCircle
 10
-551.7000000000002
 20
-20.70000000000005
 30
0.0
 40
0.2
100
AcDbArc
 50
0.0
 51
90.0
  0
ARC
  5
673
330
6F
100
AcDbEntity
  8
DETAIL
  6
Continuous
 62
     5
100
AcDbCircle
 10
-514.9999999999996
 20
-10.5
 30
0.0
 40
2.5
100
AcDbArc
 50
308.9093032907172
 51
231.0906967092828
  0
CIRCLE
  5
674
330
6F
100
AcDbEntity
  8
DETAIL
  6
Continuous
 62
     5
100
AcDbCircle
 10
-514.9999999999996
 20
-10.5
 30
0.0
 40
1.55
  0
ARC
  5
675
330
6F
100
AcDbEntity
  8
DETAIL
  6
Continuous
 62
     5
100
AcDbCircle
 10
-549.9999999999999
 20
-249.9500000000001
 30
0.0
 40
2.049999999999998
100
AcDbArc
 50
179.9999999998957
 51
270.0
  0
LINE
  5
676
330
6F
100
AcDbEntity
  8
SIZE
  6
Continuous
 62
    30
100
AcDbLine
 10
-549.9999999999999
 20
20.0
 30
0.0
 11
-549.9999999999999
 21
210.9890570364614
 31
0.0
  0
LINE
  5
677
330
6F
100
AcDbEntity
  8
SIZE
  6
Continuous
 62
    30
100
AcDbLine
 10
549.9999999999999
 20
20.0
 30
0.0
 11
549.9999999999999
 21
210.9890570364614
 31
0.0
  0
LINE
  5
678
330
6F
100
AcDbEntity
  8
SIZE
  6
Continuous
 62
    30
100
AcDbLine
 10
-549.9999999999999
 20
190.9890570364613
 30
0.0
 11
549.9999999999999
 21
190.9890570364613
 31
0.0
  0
CIRCLE
  5
679
330
6F
100
AcDbEntity
  8
SIZE
  6
Continuous
 62
    30
100
AcDbCircle
 10
-549.9999999999999
 20
190.9890570364613
 30
0.0
 40
7.5
  0
CIRCLE
  5
67A
330
6F
100
AcDbEntity
  8
SIZE
  6
Continuous
 62
    30
100
AcDbCircle
 10
549.9999999999999
 20
190.9890570364613
 30
0.0
 40
7.5
  0
TEXT
  5
67B
330
6F
100
AcDbEntity
  8
SIZE
  6
Continuous
 62
    30
100
AcDbText
 10
-56.57142857142856
 20
210.9890570364614
 30
0.0
 40
40.0
  1
1100
 41
0.9
 72
     1
 11
0.0
 21
210.9890570364614
 31
0.0
100
AcDbText
  0
POINT
  5
67C
330
6F
100
AcDbEntity
  8
DEFPOINTS
  6
Continuous
 62
    30
100
AcDbPoint
 10
-549.9999999999999
 20
0.0
 30
0.0
  0
POINT
  5
67D
330
6F
100
AcDbEntity
  8
DEFPOINTS
  6
Continuous
 62
    30
100
AcDbPoint
 10
549.9999999999999
 20
0.0
 30
0.0
  0
POINT
  5
67E
330
6F
100
AcDbEntity
  8
DEFPOINTS
  6
Continuous
 62
    30
100
AcDbPoint
 10
549.9999999999999
 20
190.9890570364613
 30
0.0
  0
LINE
  5
67F
330
6F
100
AcDbEntity
  8
SIZE
  6
Continuous
 62
    30
100
AcDbLine
 10
319.95
 20
28.46968523904525
 30
0.0
 11
319.95
 21
125.315159029501
 31
0.0
  0
LINE
  5
680
330
6F
100
AcDbEntity
  8
SIZE
  6
Continuous
 62
    30
100
AcDbLine
 10
549.9999999999999
 20
20.0
 30
0.0
 11
549.9999999999999
 21
125.315159029501
 31
0.0
  0
LINE
  5
681
330
6F
100
AcDbEntity
  8
SIZE
  6
Continuous
 62
    30
100
AcDbLine
 10
319.95
 20
105.315159029501
 30
0.0
 11
549.9999999999999
 21
105.315159029501
 31
0.0
  0
CIRCLE
  5
682
330
6F
100
AcDbEntity
  8
SIZE
  6
Continuous
 62
    30
100
AcDbCircle
 10
319.95
 20
105.315159029501
 30
0.0
 40
7.5
  0
CIRCLE
  5
683
330
6F
100
AcDbEntity
  8
SIZE
  6
Continuous
 62
    30
100
AcDbCircle
 10
549.9999999999999
 20
105.315159029501
 30
0.0
 40
7.5
  0
TEXT
  5
684
330
6F
100
AcDbEntity
  8
SIZE
  6
Continuous
 62
    30
100
AcDbText
 10
388.6892857142856
 20
125.315159029501
 30
0.0
 40
40.0
  1
230
 41
0.9
 72
     1
 11
434.9749999999998
 21
125.315159029501
 31
0.0
100
AcDbText
  0
POINT
  5
685
330
6F
100
AcDbEntity
  8
DEFPOINTS
  6
Continuous
 62
    30
100
AcDbPoint
 10
319.95
 20
8.469685239045245
 30
0.0
  0
POINT
  5
686
330
6F
100
AcDbEntity
  8
DEFPOINTS
  6
Continuous
 62
    30
100
AcDbPoint
 10
549.9999999999999
 20
0.0
 30
0.0
  0
POINT
  5
687
330
6F
100
AcDbEntity
  8
DEFPOINTS
  6
Continuous
 62
    30
100
AcDbPoint
 10
549.9999999999999
 20
105.315159029501
 30
0.0
  0
LINE
  5
688
330
6F
100
AcDbEntity
  8
SIZE
  6
Continuous
 62
    30
100
AcDbLine
 10
319.95
 20
28.46968523904525
 30
0.0
 11
319.95
 21
125.315159029501
 31
0.0
  0
LINE
  5
689
330
6F
100
AcDbEntity
  8
SIZE
  6
Continuous
 62
    30
100
AcDbLine
 10
-0.0499999999998396
 20
28.46968523904525
 30
0.0
 11
-0.0499999999998337
 21
125.315159029501
 31
0.0
  0
LINE
  5
68A
330
6F
100
AcDbEntity
  8
SIZE
  6
Continuous
 62
    30
100
AcDbLine
 10
319.95
 20
105.315159029501
 30
0.0
 11
-0.0499999999998349
 21
105.315159029501
 31
0.0
  0
CIRCLE
  5
68B
330
6F
100
AcDbEntity
  8
SIZE
  6
Continuous
 62
    30
100
AcDbCircle
 10
319.95
 20
105.315159029501
 30
0.0
 40
7.5
  0
CIRCLE
  5
68C
330
6F
100
AcDbEntity
  8
SIZE
  6
Continuous
 62
    30
100
AcDbCircle
 10
-0.0499999999998349
 20
105.315159029501
 30
0.0
 40
7.5
  0
TEXT
  5
68D
330
6F
100
AcDbEntity
  8
SIZE
  6
Continuous
 62
    30
100
AcDbText
 10
113.6642857142857
 20
125.315159029501
 30
0.0
 40
40.0
  1
320
 41
0.9
 72
     1
 11
159.95
 21
125.315159029501
 31
0.0
100
AcDbText
  0
POINT
  5
68E
330
6F
100
AcDbEntity
  8
DEFPOINTS
  6
Continuous
 62
    30
100
AcDbPoint
 10
319.95
 20
8.469685239045245
 30
0.0
  0
POINT
  5
68F
330
6F
100
AcDbEntity
  8
DEFPOINTS
  6
Continuous
 62
    30
100
AcDbPoint
 10
-0.0499999999998409
 20
8.469685239045245
 30
0.0
  0
POINT
  5
690
330
6F
100
AcDbEntity
  8
DEFPOINTS
  6
Continuous
 62
    30
100
AcDbPoint
 10
-0.0499999999998349
 20
105.315159029501
 30
0.0
  0
LINE
  5
691
330
6F
100
AcDbEntity
  8
NOTE
  6
Continuous
 62
     4
100
AcDbLine
 10
-447.0196852390452
 20
-118.5
 30
0.0
 11
-320.0500000000001
 21
-118.5
 31
0.0
  0
LINE
  5
692
330
6F
100
AcDbEntity
  8
NOTE
  6
Continuous
 62
     4
100
AcDbLine
 10
-320.0500000000001
 20
-245.4696852390453
 30
0.0
 11
-320.0500000000001
 21
-118.5
 31
0.0
  0
LINE
  5
693
330
6F
100
AcDbEntity
  8
NOTE
  6
Continuous
 62
     4
100
AcDbLine
 10
-193.0803147609545
 20
-118.5000000000002
 30
0.0
 11
-320.0499999999999
 21
-118.5
 31
0.0
  0
LINE
  5
694
330
6F
100
AcDbEntity
  8
NOTE
  6
Continuous
 62
     4
100
AcDbLine
 10
-320.0499999999999
 20
8.469685239045245
 30
0.0
 11
-320.0500000000001
 21
-118.5
 31
0.0
  0
LINE
  5
695
330
6F
100
AcDbEntity
  8
NOTE
  6
Continuous
 62
     4
100
AcDbLine
 10
192.9803147609544
 20
-118.5
 30
0.0
 11
319.9499999999997
 21
-118.5
 31
0.0
  0
LINE
  5
696
330
6F
100
AcDbEntity
  8
NOTE
  6
Continuous
 62
     4
100
AcDbLine
 10
319.9499999999997
 20
-245.4696852390453
 30
0.0
 11
319.9499999999997
 21
-118.5
 31
0.0
  0
LINE
  5
697
330
6F
100
AcDbEntity
  8
NOTE
  6
Continuous
 62
     4
100
AcDbLine
 10
446.9196852390451
 20
-118.5000000000002
 30
0.0
 11
319.95
 21
-118.5
 31
0.0
  0
LINE
  5
698
330
6F
100
AcDbEntity
  8
NOTE
  6
Continuous
 62
     4
100
AcDbLine
 10
319.95
 20
8.469685239045245
 30
0.0
 11
319.9499999999997
 21
-118.5
 31
0.0
  0
LINE
  5
699
330
6F
100
AcDbEntity
  8
SIZE
  6
Continuous
 62
    30
100
AcDbLine
 10
-599.9999999999999
 20
-0.7000000000000455
 30
0.0
 11
-599.9999999999999
 21
210.9890570364614
 31
0.0
  0
LINE
  5
69A
330
6F
100
AcDbEntity
  8
SIZE
  6
Continuous
 62
    30
100
AcDbLine
 10
-549.9999999999999
 20
20.0
 30
0.0
 11
-549.9999999999999
 21
210.9890570364614
 31
0.0
  0
LINE
  5
69B
330
6F
100
AcDbEntity
  8
SIZE
  6
Continuous
 62
    30
100
AcDbLine
 10
-549.9999999999999
 20
190.9890570364613
 30
0.0
 11
-599.9999999999999
 21
190.9890570364613
 31
0.0
  0
LINE
  5
69C
330
6F
100
AcDbEntity
  8
SIZE
  6
Continuous
 62
    30
100
AcDbLine
 10
-599.9999999999999
 20
190.9890570364613
 30
0.0
 11
-758.2857142857142
 21
190.9890570364613
 31
0.0
  0
CIRCLE
  5
69D
330
6F
100
AcDbEntity
  8
SIZE
  6
Continuous
 62
    30
100
AcDbCircle
 10
-549.9999999999999
 20
190.9890570364613
 30
0.0
 40
7.5
  0
CIRCLE
  5
69E
330
6F
100
AcDbEntity
  8
SIZE
  6
Continuous
 62
    30
100
AcDbCircle
 10
-599.9999999999999
 20
190.9890570364613
 30
0.0
 40
7.5
  0
TEXT
  5
69F
330
6F
100
AcDbEntity
  8
SIZE
  6
Continuous
 62
    30
100
AcDbText
 10
-738.2857142857139
 20
210.9890570364614
 30
0.0
 40
40.0
  1
50
 41
0.9
 72
     1
 11
-709.1428571428568
 21
210.9890570364614
 31
0.0
100
AcDbText
  0
POINT
  5
6A0
330
6F
100
AcDbEntity
  8
DEFPOINTS
  6
Continuous
 62
    30
100
AcDbPoint
 10
-599.9999999999999
 20
-20.70000000000005
 30
0.0
  0
POINT
  5
6A1
330
6F
100
AcDbEntity
  8
DEFPOINTS
  6
Continuous
 62
    30
100
AcDbPoint
 10
-549.9999999999999
 20
0.0
 30
0.0
  0
POINT
  5
6A2
330
6F
100
AcDbEntity
  8
DEFPOINTS
  6
Continuous
 62
    30
100
AcDbPoint
 10
-549.9999999999999
 20
190.9890570364613
 30
0.0
  0
LINE
  5
6A3
330
6F
100
AcDbEntity
  8
SIZE
  6
Continuous
 62
    30
100
AcDbLine
 10
-599.9999999999999
 20
-0.7000000000000455
 30
0.0
 11
-599.9999999999999
 21
423.8524051159838
 31
0.0
  0
LINE
  5
6A4
330
6F
100
AcDbEntity
  8
SIZE
  6
Continuous
 62
    30
100
AcDbLine
 10
600.0000000000002
 20
-0.7000000000000455
 30
0.0
 11
600.0000000000002
 21
423.8524051159838
 31
0.0
  0
LINE
  5
6A5
330
6F
100
AcDbEntity
  8
SIZE
  6
Continuous
 62
    30
100
AcDbLine
 10
-599.9999999999999
 20
403.8524051159837
 30
0.0
 11
600.0000000000002
 21
403.8524051159837
 31
0.0
  0
CIRCLE
  5
6A6
330
6F
100
AcDbEntity
  8
SIZE
  6
Continuous
 62
    30
100
AcDbCircle
 10
-599.9999999999999
 20
403.8524051159837
 30
0.0
 40
7.5
  0
CIRCLE
  5
6A7
330
6F
100
AcDbEntity
  8
SIZE
  6
Continuous
 62
    30
100
AcDbCircle
 10
600.0000000000002
 20
403.8524051159837
 30
0.0
 40
7.5
  0
TEXT
  5
6A8
330
6F
100
AcDbEntity
  8
SIZE
  6
Continuous
 62
    30
100
AcDbText
 10
-59.99999999999976
 20
423.8524051159838
 30
0.0
 40
40.0
  1
1200
 41
0.9
 72
     1
 11
0.0000000000002274
 21
423.8524051159838
 31
0.0
100
AcDbText
  0
POINT
  5
6A9
330
6F
100
AcDbEntity
  8
DEFPOINTS
  6
Continuous
 62
    30
100
AcDbPoint
 10
-599.9999999999999
 20
-20.70000000000005
 30
0.0
  0
POINT
  5
6AA
330
6F
100
AcDbEntity
  8
DEFPOINTS
  6
Continuous
 62
    30
100
AcDbPoint
 10
600.0000000000002
 20
-20.70000000000005
 30
0.0
  0
POINT
  5
6AB
330
6F
100
AcDbEntity
  8
DEFPOINTS
  6
Continuous
 62
    30
100
AcDbPoint
 10
600.0000000000002
 20
403.8524051159837
 30
0.0
  0
LINE
  5
6AC
330
6F
100
AcDbEntity
  8
SIZE
  6
Continuous
 62
    30
100
AcDbLine
 10
564.5000000000001
 20
-3.000000000000003
 30
0.0
 11
855.4885466744359
 21
-3.000000000000087
 31
0.0
  0
LINE
  5
6AD
330
6F
100
AcDbEntity
  8
SIZE
  6
Continuous
 62
    30
100
AcDbLine
 10
486.9196852390452
 20
-118.5000000000002
 30
0.0
 11
855.4885466744359
 21
-118.5000000000003
 31
0.0
  0
LINE
  5
6AE
330
6F
100
AcDbEntity
  8
SIZE
  6
Continuous
 62
    30
100
AcDbLine
 10
835.4885466744358
 20
-3.000000000000082
 30
0.0
 11
835.4885466744358
 21
-118.5000000000003
 31
0.0
  0
CIRCLE
  5
6AF
330
6F
100
AcDbEntity
  8
SIZE
  6
Continuous
 62
    30
100
AcDbCircle
 10
835.4885466744358
 20
-3.000000000000082
 30
0.0
 40
7.5
  0
CIRCLE
  5
6B0
330
6F
100
AcDbEntity
  8
SIZE
  6
Continuous
 62
    30
100
AcDbCircle
 10
835.4885466744358
 20
-118.5000000000003
 30
0.0
 40
7.5
  0
TEXT
  5
6B1
330
6F
100
AcDbEntity
  8
SIZE
  6
Continuous
 62
    30
100
AcDbText
 10
815.4885466744357
 20
-89.12192806717724
 30
0.0
 40
40.0
  1
116
 50
90.0
 41
0.9
 72
     1
 11
815.4885466744357
 21
-50.55049949574868
 31
0.0
100
AcDbText
  0
POINT
  5
6B2
330
6F
100
AcDbEntity
  8
DEFPOINTS
  6
Continuous
 62
    30
100
AcDbPoint
 10
544.5000000000001
 20
-3.0
 30
0.0
  0
POINT
  5
6B3
330
6F
100
AcDbEntity
  8
DEFPOINTS
  6
Continuous
 62
    30
100
AcDbPoint
 10
466.9196852390454
 20
-118.5000000000002
 30
0.0
  0
POINT
  5
6B4
330
6F
100
AcDbEntity
  8
DEFPOINTS
  6
Continuous
 62
    30
100
AcDbPoint
 10
835.4885466744358
 20
-118.5000000000003
 30
0.0
  0
LINE
  5
6B5
330
6F
100
AcDbEntity
  8
SIZE
  6
Continuous
 62
    30
100
AcDbLine
 10
600.0000000000002
 20
-0.7000000000000455
 30
0.0
 11
600.0000000000002
 21
210.9890570364614
 31
0.0
  0
LINE
  5
6B6
330
6F
100
AcDbEntity
  8
SIZE
  6
Continuous
 62
    30
100
AcDbLine
 10
549.9999999999999
 20
20.0
 30
0.0
 11
549.9999999999999
 21
210.9890570364614
 31
0.0
  0
LINE
  5
6B7
330
6F
100
AcDbEntity
  8
SIZE
  6
Continuous
 62
    30
100
AcDbLine
 10
549.9999999999999
 20
190.9890570364613
 30
0.0
 11
600.0000000000002
 21
190.9890570364613
 31
0.0
  0
LINE
  5
6B8
330
6F
100
AcDbEntity
  8
SIZE
  6
Continuous
 62
    30
100
AcDbLine
 10
600.0000000000002
 20
190.9890570364613
 30
0.0
 11
728.2857142857145
 21
190.9890570364613
 31
0.0
  0
CIRCLE
  5
6B9
330
6F
100
AcDbEntity
  8
SIZE
  6
Continuous
 62
    30
100
AcDbCircle
 10
549.9999999999999
 20
190.9890570364613
 30
0.0
 40
7.5
  0
CIRCLE
  5
6BA
330
6F
100
AcDbEntity
  8
SIZE
  6
Continuous
 62
    30
100
AcDbCircle
 10
600.0000000000002
 20
190.9890570364613
 30
0.0
 40
7.5
  0
TEXT
  5
6BB
330
6F
100
AcDbEntity
  8
SIZE
  6
Continuous
 62
    30
100
AcDbText
 10
650.0000000000004
 20
210.9890570364614
 30
0.0
 40
40.0
  1
50
 41
0.9
 72
     1
 11
679.1428571428575
 21
210.9890570364614
 31
0.0
100
AcDbText
  0
POINT
  5
6BC
330
6F
100
AcDbEntity
  8
DEFPOINTS
  6
Continuous
 62
    30
100
AcDbPoint
 10
600.0000000000002
 20
-20.70000000000005
 30
0.0
  0
POINT
  5
6BD
330
6F
100
AcDbEntity
  8
DEFPOINTS
  6
Continuous
 62
    30
100
AcDbPoint
 10
549.9999999999999
 20
0.0
 30
0.0
  0
POINT
  5
6BE
330
6F
100
AcDbEntity
  8
DEFPOINTS
  6
Continuous
 62
    30
100
AcDbPoint
 10
549.9999999999999
 20
190.9890570364613
 30
0.0
  0
LINE
  5
6BF
330
6F
100
AcDbEntity
  8
SIZE
  6
Continuous
 62
    30
100
AcDbLine
 10
-601.0001234834825
 20
-424.9603951084543
 30
0.0
 11
-601.0001234834825
 21
-701.8900084554379
 31
0.0
  0
LINE
  5
6C0
330
6F
100
AcDbEntity
  8
SIZE
  6
Continuous
 62
    30
100
AcDbLine
 10
839.000000000008
 20
-424.9603951084542
 30
0.0
 11
839.000000000008
 21
-701.8900084554379
 31
0.0
  0
LINE
  5
6C1
330
6F
100
AcDbEntity
  8
SIZE
  6
Continuous
 62
    30
100
AcDbLine
 10
-601.0001234834825
 20
-681.8900084554377
 30
0.0
 11
839.000000000008
 21
-681.8900084554377
 31
0.0
  0
CIRCLE
  5
6C2
330
6F
100
AcDbEntity
  8
SIZE
  6
Continuous
 62
    30
100
AcDbCircle
 10
-601.0001234834825
 20
-681.8900084554377
 30
0.0
 40
7.5
  0
CIRCLE
  5
6C3
330
6F
100
AcDbEntity
  8
SIZE
  6
Continuous
 62
    30
100
AcDbCircle
 10
839.000000000008
 20
-681.8900084554377
 30
0.0
 40
7.5
  0
TEXT
  5
6C4
330
6F
100
AcDbEntity
  8
SIZE
  6
Continuous
 62
    30
100
AcDbText
 10
58.9999382582626
 20
-661.8900084554378
 30
0.0
 40
40.0
  1
1440
 41
0.9
 72
     1
 11
118.9999382582626
 21
-661.8900084554378
 31
0.0
100
AcDbText
  0
POINT
  5
6C5
330
6F
100
AcDbEntity
  8
DEFPOINTS
  6
Continuous
 62
    30
100
AcDbPoint
 10
-601.0001234834825
 20
-404.9603951084542
 30
0.0
  0
POINT
  5
6C6
330
6F
100
AcDbEntity
  8
DEFPOINTS
  6
Continuous
 62
    30
100
AcDbPoint
 10
839.000000000008
 20
-404.9603951084542
 30
0.0
  0
POINT
  5
6C7
330
6F
100
AcDbEntity
  8
DEFPOINTS
  6
Continuous
 62
    30
100
AcDbPoint
 10
839.000000000008
 20
-681.8900084554377
 30
0.0
  0
LINE
  5
6C8
330
6F
100
AcDbEntity
  8
SIZE
  6
Continuous
 62
    30
100
AcDbLine
 10
-569.9999999999999
 20
-1.999999999999993
 30
0.0
 11
-848.6037119608171
 21
-1.999999999999914
 31
0.0
  0
LINE
  5
6C9
330
6F
100
AcDbEntity
  8
SIZE
  6
Continuous
 62
    30
100
AcDbLine
 10
-569.9999999999999
 20
-251.95
 30
0.0
 11
-848.6037119608171
 21
-251.9499999999999
 31
0.0
  0
LINE
  5
6CA
330
6F
100
AcDbEntity
  8
SIZE
  6
Continuous
 62
    30
100
AcDbLine
 10
-828.603711960817
 20
-1.999999999999919
 30
0.0
 11
-828.603711960817
 21
-251.95
 31
0.0
  0
CIRCLE
  5
6CB
330
6F
100
AcDbEntity
  8
SIZE
  6
Continuous
 62
    30
100
AcDbCircle
 10
-828.603711960817
 20
-1.999999999999919
 30
0.0
 40
7.5
  0
CIRCLE
  5
6CC
330
6F
100
AcDbEntity
  8
SIZE
  6
Continuous
 62
    30
100
AcDbCircle
 10
-828.603711960817
 20
-251.95
 30
0.0
 40
7.5
  0
TEXT
  5
6CD
330
6F
100
AcDbEntity
  8
SIZE
  6
Continuous
 62
    30
100
AcDbText
 10
-848.6037119608171
 20
-173.2607142857142
 30
0.0
 40
40.0
  1
250
 50
90.0
 41
0.9
 72
     1
 11
-848.6037119608171
 21
-126.975
 31
0.0
100
AcDbText
  0
POINT
  5
6CE
330
6F
100
AcDbEntity
  8
DEFPOINTS
  6
Continuous
 62
    30
100
AcDbPoint
 10
-549.9999999999999
 20
-2.0
 30
0.0
  0
POINT
  5
6CF
330
6F
100
AcDbEntity
  8
DEFPOINTS
  6
Continuous
 62
    30
100
AcDbPoint
 10
-549.9999999999999
 20
-251.95
 30
0.0
  0
POINT
  5
6D0
330
6F
100
AcDbEntity
  8
DEFPOINTS
  6
Continuous
 62
    30
100
AcDbPoint
 10
-828.603711960817
 20
-251.95
 30
0.0
  0
LINE
  5
6D1
330
6F
100
AcDbEntity
  8
SIZE
  6
Continuous
 62
    30
100
AcDbLine
 10
-621.0001234834825
 20
-404.9603951084542
 30
0.0
 11
-848.6037119608175
 21
-404.9603951084542
 31
0.0
  0
LINE
  5
6D2
330
6F
100
AcDbEntity
  8
SIZE
  6
Continuous
 62
    30
100
AcDbLine
 10
-569.9999999999999
 20
-251.95
 30
0.0
 11
-848.6037119608171
 21
-251.9499999999999
 31
0.0
  0
LINE
  5
6D3
330
6F
100
AcDbEntity
  8
SIZE
  6
Continuous
 62
    30
100
AcDbLine
 10
-828.6037119608172
 20
-251.95
 30
0.0
 11
-828.6037119608172
 21
-404.9603951084542
 31
0.0
  0
LINE
  5
6D4
330
6F
100
AcDbEntity
  8
SIZE
  6
Continuous
 62
    30
100
AcDbLine
 10
-828.6037119608172
 20
-404.9603951084542
 30
0.0
 11
-828.6037119608172
 21
-706.7318236798825
 31
0.0
  0
CIRCLE
  5
6D5
330
6F
100
AcDbEntity
  8
SIZE
  6
Continuous
 62
    30
100
AcDbCircle
 10
-828.6037119608172
 20
-251.95
 30
0.0
 40
7.5
  0
CIRCLE
  5
6D6
330
6F
100
AcDbEntity
  8
SIZE
  6
Continuous
 62
    30
100
AcDbCircle
 10
-828.6037119608172
 20
-404.9603951084542
 30
0.0
 40
7.5
  0
TEXT
  5
6D7
330
6F
100
AcDbEntity
  8
SIZE
  6
Continuous
 62
    30
100
AcDbText
 10
-848.6037119608171
 20
-686.731823679883
 30
0.0
 40
40.0
  1
150～300
 50
90.0
 41
0.9
 72
     1
 11
-848.6037119608171
 21
-570.8461093941687
 31
0.0
100
AcDbText
  0
POINT
  5
6D8
330
6F
100
AcDbEntity
  8
DEFPOINTS
  6
Continuous
 62
    30
100
AcDbPoint
 10
-601.0001234834825
 20
-404.9603951084542
 30
0.0
  0
POINT
  5
6D9
330
6F
100
AcDbEntity
  8
DEFPOINTS
  6
Continuous
 62
    30
100
AcDbPoint
 10
-549.9999999999999
 20
-251.95
 30
0.0
  0
POINT
  5
6DA
330
6F
100
AcDbEntity
  8
DEFPOINTS
  6
Continuous
 62
    30
100
AcDbPoint
 10
-828.6037119608172
 20
-251.95
 30
0.0
  0
LINE
  5
6DB
330
6F
100
AcDbEntity
  8
NOTE
  6
Continuous
 62
     4
100
AcDbLine
 10
606.5000000000001
 20
-145.4693543253208
 30
0.0
 11
606.5000000000001
 21
-104.9306456746792
 31
0.0
  0
LINE
  5
6DC
330
6F
100
AcDbEntity
  8
NOTE
  6
Continuous
 62
     4
100
AcDbLine
 10
624.7271194249552
 20
-125.2
 30
0.0
 11
588.272880575045
 21
-125.2
 31
0.0
  0
LINE
  5
6DD
330
6F
100
AcDbEntity
  8
NOTE
  6
Continuous
 62
     4
100
AcDbLine
 10
627.5000000000001
 20
-178.4693543253208
 30
0.0
 11
627.5000000000001
 21
-137.9306456746792
 31
0.0
  0
LINE
  5
6DE
330
6F
100
AcDbEntity
  8
NOTE
  6
Continuous
 62
     4
100
AcDbLine
 10
645.7271194249551
 20
-158.2
 30
0.0
 11
609.272880575045
 21
-158.2
 31
0.0
  0
LINE
  5
6DF
330
6F
100
AcDbEntity
  8
SIZE
  6
Continuous
 62
    30
100
AcDbLine
 10
564.5000000000001
 20
-3.000000000000003
 30
0.0
 11
951.3031000554812
 21
-3.000000000000115
 31
0.0
  0
LINE
  5
6E0
330
6F
100
AcDbEntity
  8
SIZE
  6
Continuous
 62
    30
100
AcDbLine
 10
644.7271194249552
 20
-125.2
 30
0.0
 11
951.3031000554812
 21
-125.2000000000001
 31
0.0
  0
LINE
  5
6E1
330
6F
100
AcDbEntity
  8
SIZE
  6
Continuous
 62
    30
100
AcDbLine
 10
931.303100055481
 20
-3.000000000000107
 30
0.0
 11
931.303100055481
 21
-125.2000000000001
 31
0.0
  0
CIRCLE
  5
6E2
330
6F
100
AcDbEntity
  8
SIZE
  6
Continuous
 62
    30
100
AcDbCircle
 10
931.303100055481
 20
-3.000000000000107
 30
0.0
 40
7.5
  0
CIRCLE
  5
6E3
330
6F
100
AcDbEntity
  8
SIZE
  6
Continuous
 62
    30
100
AcDbCircle
 10
931.303100055481
 20
-125.2000000000001
 30
0.0
 40
7.5
  0
TEXT
  5
6E4
330
6F
100
AcDbEntity
  8
SIZE
  6
Continuous
 62
    30
100
AcDbText
 10
911.303100055481
 20
-99.7634826427663
 30
0.0
 40
40.0
  1
122
 50
90.0
 41
0.9
 72
     1
 11
911.303100055481
 21
-56.90633978562345
 31
0.0
100
AcDbText
  0
POINT
  5
6E5
330
6F
100
AcDbEntity
  8
DEFPOINTS
  6
Continuous
 62
    30
100
AcDbPoint
 10
544.5000000000001
 20
-3.0
 30
0.0
  0
POINT
  5
6E6
330
6F
100
AcDbEntity
  8
DEFPOINTS
  6
Continuous
 62
    30
100
AcDbPoint
 10
624.7271194249552
 20
-125.2
 30
0.0
  0
POINT
  5
6E7
330
6F
100
AcDbEntity
  8
DEFPOINTS
  6
Continuous
 62
    30
100
AcDbPoint
 10
931.303100055481
 20
-125.2000000000001
 30
0.0
  0
LINE
  5
6E8
330
6F
100
AcDbEntity
  8
SIZE
  6
Continuous
 62
    30
100
AcDbLine
 10
665.7271194249552
 20
-158.2
 30
0.0
 11
951.3031000554816
 21
-158.2000000000001
 31
0.0
  0
LINE
  5
6E9
330
6F
100
AcDbEntity
  8
SIZE
  6
Continuous
 62
    30
100
AcDbLine
 10
644.7271194249552
 20
-125.2
 30
0.0
 11
951.3031000554816
 21
-125.2000000000001
 31
0.0
  0
LINE
  5
6EA
330
6F
100
AcDbEntity
  8
SIZE
  6
Continuous
 62
    30
100
AcDbLine
 10
931.3031000554815
 20
-125.2000000000001
 30
0.0
 11
931.3031000554815
 21
-95.20000000000013
 31
0.0
  0
LINE
  5
6EB
330
6F
100
AcDbEntity
  8
SIZE
  6
Continuous
 62
    30
100
AcDbLine
 10
931.3031000554815
 20
-158.2000000000001
 30
0.0
 11
931.3031000554815
 21
-323.899460875427
 31
0.0
  0
LINE
  5
6EC
330
6F
100
AcDbEntity
  8
SIZE
  6
Continuous
 62
    30
100
AcDbLine
 10
931.3031000554815
 20
-125.2000000000001
 30
0.0
 11
931.3031000554815
 21
-158.2000000000001
 31
0.0
  0
CIRCLE
  5
6ED
330
6F
100
AcDbEntity
  8
SIZE
  6
Continuous
 62
    30
100
AcDbCircle
 10
931.3031000554815
 20
-125.2000000000001
 30
0.0
 40
7.5
  0
CIRCLE
  5
6EE
330
6F
100
AcDbEntity
  8
SIZE
  6
Continuous
 62
    30
100
AcDbCircle
 10
931.3031000554815
 20
-158.2000000000001
 30
0.0
 40
7.5
  0
TEXT
  5
6EF
330
6F
100
AcDbEntity
  8
SIZE
  6
Continuous
 62
    30
100
AcDbText
 10
911.3031000554816
 20
-303.8994608754268
 30
0.0
 40
40.0
  1
33
 50
90.0
 41
0.9
 72
     1
 11
911.3031000554816
 21
-274.7566037325696
 31
0.0
100
AcDbText
  0
POINT
  5
6F0
330
6F
100
AcDbEntity
  8
DEFPOINTS
  6
Continuous
 62
    30
100
AcDbPoint
 10
645.7271194249551
 20
-158.2
 30
0.0
  0
POINT
  5
6F1
330
6F
100
AcDbEntity
  8
DEFPOINTS
  6
Continuous
 62
    30
100
AcDbPoint
 10
624.7271194249552
 20
-125.2
 30
0.0
  0
POINT
  5
6F2
330
6F
100
AcDbEntity
  8
DEFPOINTS
  6
Continuous
 62
    30
100
AcDbPoint
 10
931.3031000554815
 20
-125.2000000000001
 30
0.0
  0
LINE
  5
6F3
330
6F
100
AcDbEntity
  8
SIZE
  6
Continuous
 62
    30
100
AcDbLine
 10
549.9999999999999
 20
-20.0
 30
0.0
 11
549.9999999999999
 21
-514.560101581771
 31
0.0
  0
LINE
  5
6F4
330
6F
100
AcDbEntity
  8
SIZE
  6
Continuous
 62
    30
100
AcDbLine
 10
606.5000000000001
 20
-124.9306456746792
 30
0.0
 11
606.5000000000001
 21
-514.560101581771
 31
0.0
  0
LINE
  5
6F5
330
6F
100
AcDbEntity
  8
SIZE
  6
Continuous
 62
    30
100
AcDbLine
 10
606.5000000000001
 20
-494.5601015817708
 30
0.0
 11
549.9999999999999
 21
-494.5601015817708
 31
0.0
  0
LINE
  5
6F6
330
6F
100
AcDbEntity
  8
SIZE
  6
Continuous
 62
    30
100
AcDbLine
 10
549.9999999999999
 20
-494.5601015817708
 30
0.0
 11
421.7142857142855
 21
-494.5601015817708
 31
0.0
  0
CIRCLE
  5
6F7
330
6F
100
AcDbEntity
  8
SIZE
  6
Continuous
 62
    30
100
AcDbCircle
 10
606.5000000000001
 20
-494.5601015817708
 30
0.0
 40
7.5
  0
CIRCLE
  5
6F8
330
6F
100
AcDbEntity
  8
SIZE
  6
Continuous
 62
    30
100
AcDbCircle
 10
549.9999999999999
 20
-494.5601015817708
 30
0.0
 40
7.5
  0
TEXT
  5
6F9
330
6F
100
AcDbEntity
  8
SIZE
  6
Continuous
 62
    30
100
AcDbText
 10
441.7142857142853
 20
-474.5601015817708
 30
0.0
 40
40.0
  1
57
 41
0.9
 72
     1
 11
470.8571428571424
 21
-474.5601015817708
 31
0.0
100
AcDbText
  0
POINT
  5
6FA
330
6F
100
AcDbEntity
  8
DEFPOINTS
  6
Continuous
 62
    30
100
AcDbPoint
 10
549.9999999999999
 20
0.0
 30
0.0
  0
POINT
  5
6FB
330
6F
100
AcDbEntity
  8
DEFPOINTS
  6
Continuous
 62
    30
100
AcDbPoint
 10
606.5000000000001
 20
-104.9306456746792
 30
0.0
  0
POINT
  5
6FC
330
6F
100
AcDbEntity
  8
DEFPOINTS
  6
Continuous
 62
    30
100
AcDbPoint
 10
606.5000000000001
 20
-494.5601015817708
 30
0.0
  0
LINE
  5
6FD
330
6F
100
AcDbEntity
  8
SIZE
  6
Continuous
 62
    30
100
AcDbLine
 10
549.9999999999999
 20
-22.8033781437016
 30
0.0
 11
549.9999999999999
 21
-622.1413713442825
 31
0.0
  0
LINE
  5
6FE
330
6F
100
AcDbEntity
  8
SIZE
  6
Continuous
 62
    30
100
AcDbLine
 10
627.5000000000001
 20
-157.9306456746792
 30
0.0
 11
627.5000000000001
 21
-622.1413713442825
 31
0.0
  0
LINE
  5
6FF
330
6F
100
AcDbEntity
  8
SIZE
  6
Continuous
 62
    30
100
AcDbLine
 10
627.5000000000001
 20
-602.1413713442825
 30
0.0
 11
549.9999999999999
 21
-602.1413713442825
 31
0.0
  0
LINE
  5
700
330
6F
100
AcDbEntity
  8
SIZE
  6
Continuous
 62
    30
100
AcDbLine
 10
549.9999999999999
 20
-602.1413713442825
 30
0.0
 11
421.7142857142855
 21
-602.1413713442825
 31
0.0
  0
CIRCLE
  5
701
330
6F
100
AcDbEntity
  8
SIZE
  6
Continuous
 62
    30
100
AcDbCircle
 10
627.5000000000001
 20
-602.1413713442825
 30
0.0
 40
7.5
  0
CIRCLE
  5
702
330
6F
100
AcDbEntity
  8
SIZE
  6
Continuous
 62
    30
100
AcDbCircle
 10
549.9999999999999
 20
-602.1413713442825
 30
0.0
 40
7.5
  0
TEXT
  5
703
330
6F
100
AcDbEntity
  8
SIZE
  6
Continuous
 62
    30
100
AcDbText
 10
441.7142857142853
 20
-582.1413713442825
 30
0.0
 40
40.0
  1
78
 41
0.9
 72
     1
 11
470.8571428571424
 21
-582.1413713442825
 31
0.0
100
AcDbText
  0
POINT
  5
704
330
6F
100
AcDbEntity
  8
DEFPOINTS
  6
Continuous
 62
    30
100
AcDbPoint
 10
549.9999999999999
 20
-2.803378143701591
 30
0.0
  0
POINT
  5
705
330
6F
100
AcDbEntity
  8
DEFPOINTS
  6
Continuous
 62
    30
100
AcDbPoint
 10
627.5000000000001
 20
-137.9306456746792
 30
0.0
  0
POINT
  5
706
330
6F
100
AcDbEntity
  8
DEFPOINTS
  6
Continuous
 62
    30
100
AcDbPoint
 10
627.5000000000001
 20
-602.1413713442825
 30
0.0
  0
LINE
  5
707
330
6F
100
AcDbEntity
  8
NOTE
  6
Continuous
 62
     4
100
AcDbLine
 10
-576.9999999999997
 20
-56.0
 30
0.0
 11
-576.9999999999997
 21
20.0
 31
0.0
  0
LINE
  5
708
330
6F
100
AcDbEntity
  8
NOTE
  6
Continuous
 62
     4
100
AcDbLine
 10
-546.0876330378199
 20
-18.0
 30
0.0
 11
-607.9123669621797
 21
-18.0
 31
0.0
  0
CIRCLE
  5
709
330
6F
100
AcDbEntity
  8
FIX
  6
Continuous
 62
    11
100
AcDbCircle
 10
-576.9999999999997
 20
-18.0
 30
0.0
 40
12.0
  0
LINE
  5
70A
330
6F
100
AcDbEntity
  8
NOTE
  6
Continuous
 62
     4
100
AcDbLine
 10
576.9999999999997
 20
-56.0
 30
0.0
 11
576.9999999999997
 21
20.0
 31
0.0
  0
LINE
  5
70B
330
6F
100
AcDbEntity
  8
NOTE
  6
Continuous
 62
     4
100
AcDbLine
 10
607.9123669621797
 20
-18.0
 30
0.0
 11
546.0876330378199
 21
-18.0
 31
0.0
  0
CIRCLE
  5
70C
330
6F
100
AcDbEntity
  8
FIX
  6
Continuous
 62
    11
100
AcDbCircle
 10
576.9999999999997
 20
-18.0
 30
0.0
 40
12.0
  0
TEXT
  5
70D
330
6F
100
AcDbEntity
  8
ETC
  6
Continuous
 62
    61
100
AcDbText
 10
-1122.778448512517
 20
607.5575407560436
 30
0.0
 40
64.0
  1
後吸込用フィルターボックス組込
 41
0.9
100
AcDbText
  0
LINE
  5
70E
330
6F
100
AcDbEntity
  8
BASIS
  6
DASHDOT
 62
     6
100
AcDbLine
 10
0.0000000000004547
 20
105.3994831261448
 30
0.0
 11
0.0000000000002274
 21
-432.9860258596686
 31
0.0
  0
CIRCLE
  5
70F
330
6F
100
AcDbEntity
  8
ARRANGE
  6
Continuous
 62
     1
100
AcDbCircle
 10
0.0
 20
0.0
 30
0.0
 40
40.0
  0
LINE
  5
710
330
6F
100
AcDbEntity
  8
ARRANGE
  6
Continuous
 62
     1
100
AcDbLine
 10
-36.84543740734854
 20
-36.84543740734897
 30
0.0
 11
36.84543740735035
 21
36.84543740734897
 31
0.0
  0
LINE
  5
711
330
6F
100
AcDbEntity
  8
ARRANGE
  6
Continuous
 62
     1
100
AcDbLine
 10
-36.84543740734854
 20
36.84543740734897
 30
0.0
 11
36.84543740735035
 21
-36.8454374073508
 31
0.0
  0
LINE
  5
712
330
6F
100
AcDbEntity
  8
OUTLINE
  6
Continuous
 62
     3
100
AcDbLine
 10
-553.9999999999999
 20
-23.41837661844625
 30
0.0
 11
-556.9183766185012
 21
-20.5
 31
0.0
  0
LINE
  5
713
330
6F
100
AcDbEntity
  8
OUTLINE
  6
Continuous
 62
     3
100
AcDbLine
 10
-556.9183766185012
 20
-20.5
 30
0.0
 11
-597.2999999999998
 21
-20.5
 31
0.0
  0
ARC
  5
714
330
6F
100
AcDbEntity
  8
OUTLINE
  6
Continuous
 62
     3
100
AcDbCircle
 10
-597.2999999999997
 20
-20.70000000000005
 30
0.0
 40
0.2000000000000455
100
AcDbArc
 50
90.00000000006512
 51
180.0
  0
LINE
  5
715
330
6F
100
AcDbEntity
  8
OUTLINE
  6
Continuous
 62
     3
100
AcDbLine
 10
-597.5000000000001
 20
-20.70000000000005
 30
0.0
 11
-597.4999999999997
 21
-30.0
 31
0.0
  0
LINE
  5
716
330
6F
100
AcDbEntity
  8
OUTLINE
  6
Continuous
 62
     3
100
AcDbLine
 10
-597.4999999999997
 20
-30.0
 30
0.0
 11
-599.9999999999999
 21
-30.0
 31
0.0
  0
LINE
  5
717
330
6F
100
AcDbEntity
  8
OUTLINE
  6
Continuous
 62
     3
100
AcDbLine
 10
-599.9999999999999
 20
-30.0
 30
0.0
 11
-600.0
 21
-20.70000000000005
 31
0.0
  0
ARC
  5
718
330
6F
100
AcDbEntity
  8
OUTLINE
  6
Continuous
 62
     3
100
AcDbCircle
 10
-597.2999999999998
 20
-20.69999999999982
 30
0.0
 40
2.700000000000044
100
AcDbArc
 50
90.0
 51
180.0
  0
LINE
  5
719
330
6F
100
AcDbEntity
  8
OUTLINE
  6
Continuous
 62
     3
100
AcDbLine
 10
-597.2999999999998
 20
-18.0
 30
0.0
 11
-553.9999999999999
 21
-18.0
 31
0.0
  0
LINE
  5
71A
330
6F
100
AcDbEntity
  8
OUTLINE
  6
Continuous
 62
     3
100
AcDbLine
 10
-553.9999999999999
 20
-18.0
 30
0.0
 11
-553.9999999999999
 21
-15.0
 31
0.0
  0
LINE
  5
71B
330
6F
100
AcDbEntity
  8
OUTLINE
  6
Continuous
 62
     3
100
AcDbLine
 10
-553.9999999999999
 20
-15.0
 30
0.0
 11
-549.9999999999999
 21
-15.0
 31
0.0
  0
LINE
  5
71C
330
6F
100
AcDbEntity
  8
OUTLINE
  6
Continuous
 62
     3
100
AcDbLine
 10
-549.9999999999999
 20
-15.0
 30
0.0
 11
-549.9999999999999
 21
0.0
 31
0.0
  0
LINE
  5
71D
330
6F
100
AcDbEntity
  8
OUTLINE
  6
Continuous
 62
     3
100
AcDbLine
 10
-549.9999999999999
 20
0.0
 30
0.0
 11
549.9999999999999
 21
0.0
 31
0.0
  0
LINE
  5
71E
330
6F
100
AcDbEntity
  8
OUTLINE
  6
Continuous
 62
     3
100
AcDbLine
 10
549.9999999999999
 20
0.0
 30
0.0
 11
550.0
 21
-16.5
 31
0.0
  0
LINE
  5
71F
330
6F
100
AcDbEntity
  8
OUTLINE
  6
Continuous
 62
     3
100
AcDbLine
 10
550.0
 20
-16.5
 30
0.0
 11
553.0000000000001
 21
-16.5
 31
0.0
  0
LINE
  5
720
330
6F
100
AcDbEntity
  8
OUTLINE
  6
Continuous
 62
     3
100
AcDbLine
 10
553.0000000000001
 20
-16.5
 30
0.0
 11
553.0000000000001
 21
-18.0
 31
0.0
  0
LINE
  5
721
330
6F
100
AcDbEntity
  8
OUTLINE
  6
Continuous
 62
     3
100
AcDbLine
 10
553.0000000000001
 20
-18.0
 30
0.0
 11
597.3000000000001
 21
-18.0
 31
0.0
  0
ARC
  5
722
330
6F
100
AcDbEntity
  8
OUTLINE
  6
Continuous
 62
     3
100
AcDbCircle
 10
597.3000000000001
 20
-20.69999999999982
 30
0.0
 40
2.699999999999818
100
AcDbArc
 50
0.0
 51
90.0
  0
LINE
  5
723
330
6F
100
AcDbEntity
  8
OUTLINE
  6
Continuous
 62
     3
100
AcDbLine
 10
600.0000000000002
 20
-20.70000000000005
 30
0.0
 11
600.0
 21
-28.0
 31
0.0
  0
LINE
  5
724
330
6F
100
AcDbEntity
  8
OUTLINE
  6
Continuous
 62
     3
100
AcDbLine
 10
600.0
 20
-28.0
 30
0.0
 11
608.0
 21
-28.0
 31
0.0
  0
LINE
  5
725
330
6F
100
AcDbEntity
  8
OUTLINE
  6
Continuous
 62
     3
100
AcDbLine
 10
608.0
 20
-28.0
 30
0.0
 11
608.0
 21
-60.0
 31
0.0
  0
LINE
  5
726
330
6F
100
AcDbEntity
  8
OUTLINE
  6
Continuous
 62
     3
100
AcDbLine
 10
608.0
 20
-60.0
 30
0.0
 11
583.0
 21
-60.0
 31
0.0
  0
LINE
  5
727
330
6F
100
AcDbEntity
  8
OUTLINE
  6
Continuous
 62
     3
100
AcDbLine
 10
583.0
 20
-60.0
 30
0.0
 11
583.0
 21
-60.25
 31
0.0
  0
LINE
  5
728
330
6F
100
AcDbEntity
  8
OUTLINE
  6
Continuous
 62
     3
100
AcDbLine
 10
583.0
 20
-60.25
 30
0.0
 11
553.982547593563
 21
-60.75650151584364
 31
0.0
  0
ARC
  5
729
330
6F
100
AcDbEntity
  8
OUTLINE
  6
Continuous
 62
     3
100
AcDbCircle
 10
554.0000000000003
 20
-61.75634921100004
 30
0.0
 40
1.000000000000012
100
AcDbArc
 50
91.00000000000177
 51
180.0
  0
LINE
  5
72A
330
6F
100
AcDbEntity
  8
OUTLINE
  6
Continuous
 62
     3
100
AcDbLine
 10
553.0000000000001
 20
-61.75634921100004
 30
0.0
 11
553.0000000000001
 21
-71.5
 31
0.0
  0
LINE
  5
72B
330
6F
100
AcDbEntity
  8
OUTLINE
  6
Continuous
 62
     3
100
AcDbLine
 10
553.0000000000001
 20
-71.5
 30
0.0
 11
552.6
 21
-93.0
 31
0.0
  0
LINE
  5
72C
330
6F
100
AcDbEntity
  8
OUTLINE
  6
Continuous
 62
     3
100
AcDbLine
 10
552.6
 20
-93.0
 30
0.0
 11
554.0
 21
-93.0
 31
0.0
  0
LINE
  5
72D
330
6F
100
AcDbEntity
  8
OUTLINE
  6
Continuous
 62
     3
100
AcDbLine
 10
554.0
 20
-93.0
 30
0.0
 11
554.0
 21
-108.7
 31
0.0
  0
LINE
  5
72E
330
6F
100
AcDbEntity
  8
OUTLINE
  6
Continuous
 62
     3
100
AcDbLine
 10
554.0
 20
-108.7
 30
0.0
 11
573.0000000000001
 21
-108.7
 31
0.0
  0
LINE
  5
72F
330
6F
100
AcDbEntity
  8
OUTLINE
  6
Continuous
 62
     3
100
AcDbLine
 10
573.0000000000001
 20
-108.7
 30
0.0
 11
573.0000000000001
 21
-115.3850454237999
 31
0.0
  0
LINE
  5
730
330
6F
100
AcDbEntity
  8
OUTLINE
  6
Continuous
 62
     3
100
AcDbLine
 10
573.0000000000001
 20
-115.3850454237999
 30
0.0
 11
585.6850454237001
 21
-115.3850454237999
 31
0.0
  0
LINE
  5
731
330
6F
100
AcDbEntity
  8
OUTLINE
  6
Continuous
 62
     3
100
AcDbLine
 10
585.6850454237001
 20
-115.3850454237999
 30
0.0
 11
587.0
 21
-116.7
 31
0.0
  0
LINE
  5
732
330
6F
100
AcDbEntity
  8
OUTLINE
  6
Continuous
 62
     3
100
AcDbLine
 10
587.0
 20
-116.7
 30
0.0
 11
587.0
 21
-117.26
 31
0.0
  0
LINE
  5
733
330
6F
100
AcDbEntity
  8
OUTLINE
  6
Continuous
 62
     3
100
AcDbLine
 10
587.0
 20
-117.26
 30
0.0
 11
588.5000000000001
 21
-117.26
 31
0.0
  0
LINE
  5
734
330
6F
100
AcDbEntity
  8
OUTLINE
  6
Continuous
 62
     3
100
AcDbLine
 10
588.5000000000001
 20
-117.26
 30
0.0
 11
588.5000000000001
 21
-115.6737205586546
 31
0.0
  0
LINE
  5
735
330
6F
100
AcDbEntity
  8
OUTLINE
  6
Continuous
 62
     3
100
AcDbLine
 10
588.5000000000001
 20
-115.6737205586546
 30
0.0
 11
588.4486760139306
 21
-115.2989131672923
 31
0.0
  0
LINE
  5
736
330
6F
100
AcDbEntity
  8
OUTLINE
  6
Continuous
 62
     3
100
AcDbLine
 10
588.4486760139306
 20
-115.2989131672923
 30
0.0
 11
588.5000000000001
 21
-115.1723989698014
 31
0.0
  0
LINE
  5
737
330
6F
100
AcDbEntity
  8
OUTLINE
  6
Continuous
 62
     3
100
AcDbLine
 10
588.5000000000001
 20
-115.1723989698014
 30
0.0
 11
588.5000000000001
 21
-114.2
 31
0.0
  0
LINE
  5
738
330
6F
100
AcDbEntity
  8
OUTLINE
  6
Continuous
 62
     3
100
AcDbLine
 10
588.5000000000001
 20
-114.2
 30
0.0
 11
590.2017059220997
 21
-112.4982940778
 31
0.0
  0
LINE
  5
739
330
6F
100
AcDbEntity
  8
OUTLINE
  6
Continuous
 62
     3
100
AcDbLine
 10
590.2017059220997
 20
-112.4982940778
 30
0.0
 11
604.7982940778001
 21
-112.4982940778
 31
0.0
  0
LINE
  5
73A
330
6F
100
AcDbEntity
  8
OUTLINE
  6
Continuous
 62
     3
100
AcDbLine
 10
604.7982940778001
 20
-112.4982940778
 30
0.0
 11
606.5000000000001
 21
-114.2
 31
0.0
  0
LINE
  5
73B
330
6F
100
AcDbEntity
  8
OUTLINE
  6
Continuous
 62
     3
100
AcDbLine
 10
606.5000000000001
 20
-114.2
 30
0.0
 11
606.5000000000001
 21
-121.0560426211
 31
0.0
  0
LINE
  5
73C
330
6F
100
AcDbEntity
  8
OUTLINE
  6
Continuous
 62
     3
100
AcDbLine
 10
606.5000000000001
 20
-121.0560426211
 30
0.0
 11
607.2728904619999
 21
-121.5756376754
 31
0.0
  0
LINE
  5
73D
330
6F
100
AcDbEntity
  8
OUTLINE
  6
Continuous
 62
     3
100
AcDbLine
 10
607.2728904619999
 20
-121.5756376754
 30
0.0
 11
607.9776490777
 21
-122.504212393
 31
0.0
  0
LINE
  5
73E
330
6F
100
AcDbEntity
  8
OUTLINE
  6
Continuous
 62
     3
100
AcDbLine
 10
607.9776490777
 20
-122.504212393
 30
0.0
 11
608.4048089793001
 21
-123.7103858248003
 31
0.0
  0
LINE
  5
73F
330
6F
100
AcDbEntity
  8
OUTLINE
  6
Continuous
 62
     3
100
AcDbLine
 10
608.4048089793001
 20
-123.7103858248003
 30
0.0
 11
608.5485281373999
 21
-125.1999999999996
 31
0.0
  0
LINE
  5
740
330
6F
100
AcDbEntity
  8
OUTLINE
  6
Continuous
 62
     3
100
AcDbLine
 10
608.5485281373999
 20
-125.1999999999996
 30
0.0
 11
608.4048089793001
 21
-126.6896141752001
 31
0.0
  0
LINE
  5
741
330
6F
100
AcDbEntity
  8
OUTLINE
  6
Continuous
 62
     3
100
AcDbLine
 10
608.4048089793001
 20
-126.6896141752001
 30
0.0
 11
607.9776490777
 21
-127.8957876070003
 31
0.0
  0
LINE
  5
742
330
6F
100
AcDbEntity
  8
OUTLINE
  6
Continuous
 62
     3
100
AcDbLine
 10
607.9776490777
 20
-127.8957876070003
 30
0.0
 11
607.2728904619999
 21
-128.8243623246001
 31
0.0
  0
LINE
  5
743
330
6F
100
AcDbEntity
  8
OUTLINE
  6
Continuous
 62
     3
100
AcDbLine
 10
607.2728904619999
 20
-128.8243623246001
 30
0.0
 11
606.5000000000001
 21
-129.3439573789
 31
0.0
  0
LINE
  5
744
330
6F
100
AcDbEntity
  8
OUTLINE
  6
Continuous
 62
     3
100
AcDbLine
 10
606.5000000000001
 20
-129.3439573789
 30
0.0
 11
606.5000000000001
 21
-136.2000000000002
 31
0.0
  0
LINE
  5
745
330
6F
100
AcDbEntity
  8
OUTLINE
  6
Continuous
 62
     3
100
AcDbLine
 10
606.5000000000001
 20
-136.2000000000002
 30
0.0
 11
604.7982940778001
 21
-137.9017059222001
 31
0.0
  0
LINE
  5
746
330
6F
100
AcDbEntity
  8
OUTLINE
  6
Continuous
 62
     3
100
AcDbLine
 10
604.7982940778001
 20
-137.9017059222001
 30
0.0
 11
590.2017059220997
 21
-137.9017059222001
 31
0.0
  0
LINE
  5
747
330
6F
100
AcDbEntity
  8
OUTLINE
  6
Continuous
 62
     3
100
AcDbLine
 10
590.2017059220997
 20
-137.9017059222001
 30
0.0
 11
588.5000000000001
 21
-136.2
 31
0.0
  0
LINE
  5
748
330
6F
100
AcDbEntity
  8
OUTLINE
  6
Continuous
 62
     3
100
AcDbLine
 10
588.5000000000001
 20
-136.2
 30
0.0
 11
588.5000000000002
 21
-133.1400000000001
 31
0.0
  0
LINE
  5
749
330
6F
100
AcDbEntity
  8
OUTLINE
  6
Continuous
 62
     3
100
AcDbLine
 10
588.5000000000002
 20
-133.1400000000001
 30
0.0
 11
587.0
 21
-133.1400000000001
 31
0.0
  0
LINE
  5
74A
330
6F
100
AcDbEntity
  8
OUTLINE
  6
Continuous
 62
     3
100
AcDbLine
 10
587.0
 20
-133.1400000000001
 30
0.0
 11
587.0
 21
-133.7
 31
0.0
  0
LINE
  5
74B
330
6F
100
AcDbEntity
  8
OUTLINE
  6
Continuous
 62
     3
100
AcDbLine
 10
587.0
 20
-133.7
 30
0.0
 11
585.6850454237001
 21
-135.0149545762001
 31
0.0
  0
LINE
  5
74C
330
6F
100
AcDbEntity
  8
OUTLINE
  6
Continuous
 62
     3
100
AcDbLine
 10
585.6850454237001
 20
-135.0149545762001
 30
0.0
 11
573.0000000000001
 21
-135.0149545762001
 31
0.0
  0
LINE
  5
74D
330
6F
100
AcDbEntity
  8
OUTLINE
  6
Continuous
 62
     3
100
AcDbLine
 10
573.0000000000001
 20
-135.0149545762001
 30
0.0
 11
573.0000000000001
 21
-139.2
 31
0.0
  0
LINE
  5
74E
330
6F
100
AcDbEntity
  8
OUTLINE
  6
Continuous
 62
     3
100
AcDbLine
 10
573.0000000000001
 20
-139.2
 30
0.0
 11
580.0000000000001
 21
-139.2
 31
0.0
  0
LINE
  5
74F
330
6F
100
AcDbEntity
  8
OUTLINE
  6
Continuous
 62
     3
100
AcDbLine
 10
580.0000000000001
 20
-139.2
 30
0.0
 11
580.0000000000001
 21
-144.9209438086
 31
0.0
  0
LINE
  5
750
330
6F
100
AcDbEntity
  8
OUTLINE
  6
Continuous
 62
     3
100
AcDbLine
 10
580.0000000000001
 20
-144.9209438086
 30
0.0
 11
595.2209438086002
 21
-144.9209438086
 31
0.0
  0
LINE
  5
751
330
6F
100
AcDbEntity
  8
OUTLINE
  6
Continuous
 62
     3
100
AcDbLine
 10
595.2209438086002
 20
-144.9209438086
 30
0.0
 11
597.4000000000001
 21
-147.1000000000001
 31
0.0
  0
LINE
  5
752
330
6F
100
AcDbEntity
  8
OUTLINE
  6
Continuous
 62
     3
100
AcDbLine
 10
597.4000000000001
 20
-147.1000000000001
 30
0.0
 11
601.5000000000001
 21
-147.1000000000001
 31
0.0
  0
LINE
  5
753
330
6F
100
AcDbEntity
  8
OUTLINE
  6
Continuous
 62
     3
100
AcDbLine
 10
601.5000000000001
 20
-147.1000000000001
 30
0.0
 11
601.5000000000001
 21
-143.45
 31
0.0
  0
LINE
  5
754
330
6F
100
AcDbEntity
  8
OUTLINE
  6
Continuous
 62
     3
100
AcDbLine
 10
601.5000000000001
 20
-143.45
 30
0.0
 11
603.5000000000001
 21
-141.45
 31
0.0
  0
LINE
  5
755
330
6F
100
AcDbEntity
  8
OUTLINE
  6
Continuous
 62
     3
100
AcDbLine
 10
603.5000000000001
 20
-141.45
 30
0.0
 11
621.5000000000001
 21
-141.45
 31
0.0
  0
LINE
  5
756
330
6F
100
AcDbEntity
  8
OUTLINE
  6
Continuous
 62
     3
100
AcDbLine
 10
621.5000000000001
 20
-141.45
 30
0.0
 11
623.5000000000001
 21
-143.4499999999998
 31
0.0
  0
LINE
  5
757
330
6F
100
AcDbEntity
  8
OUTLINE
  6
Continuous
 62
     3
100
AcDbLine
 10
623.5000000000001
 20
-143.4499999999998
 30
0.0
 11
627.5000000000001
 21
-146.7
 31
0.0
  0
LINE
  5
758
330
6F
100
AcDbEntity
  8
OUTLINE
  6
Continuous
 62
     3
100
AcDbLine
 10
627.5000000000001
 20
-146.7
 30
0.0
 11
627.4999999999997
 21
-151.2441023410001
 31
0.0
  0
LINE
  5
759
330
6F
100
AcDbEntity
  8
OUTLINE
  6
Continuous
 62
     3
100
AcDbLine
 10
627.4999999999997
 20
-151.2441023410001
 30
0.0
 11
628.3339009919001
 21
-151.6946704366
 31
0.0
  0
LINE
  5
75A
330
6F
100
AcDbEntity
  8
OUTLINE
  6
Continuous
 62
     3
100
AcDbLine
 10
628.3339009919001
 20
-151.6946704366
 30
0.0
 11
629.4962908768002
 21
-152.8251376946
 31
0.0
  0
LINE
  5
75B
330
6F
100
AcDbEntity
  8
OUTLINE
  6
Continuous
 62
     3
100
AcDbLine
 10
629.4962908768002
 20
-152.8251376946
 30
0.0
 11
630.3298823676996
 21
-154.2844033465996
 31
0.0
  0
LINE
  5
75C
330
6F
100
AcDbEntity
  8
OUTLINE
  6
Continuous
 62
     3
100
AcDbLine
 10
630.3298823676996
 20
-154.2844033465996
 30
0.0
 11
630.8320169278998
 21
-156.0751259291996
 31
0.0
  0
LINE
  5
75D
330
6F
100
AcDbEntity
  8
OUTLINE
  6
Continuous
 62
     3
100
AcDbLine
 10
630.8320169278998
 20
-156.0751259291996
 30
0.0
 11
631.0000000000001
 21
-158.1999999999993
 31
0.0
  0
LINE
  5
75E
330
6F
100
AcDbEntity
  8
OUTLINE
  6
Continuous
 62
     3
100
AcDbLine
 10
631.0000000000001
 20
-158.1999999999993
 30
0.0
 11
630.8320169278998
 21
-160.3248740708998
 31
0.0
  0
LINE
  5
75F
330
6F
100
AcDbEntity
  8
OUTLINE
  6
Continuous
 62
     3
100
AcDbLine
 10
630.8320169278998
 20
-160.3248740708998
 30
0.0
 11
630.3298823676996
 21
-162.1155966535
 31
0.0
  0
LINE
  5
760
330
6F
100
AcDbEntity
  8
OUTLINE
  6
Continuous
 62
     3
100
AcDbLine
 10
630.3298823676996
 20
-162.1155966535
 30
0.0
 11
629.4962908768002
 21
-163.5748623053998
 31
0.0
  0
LINE
  5
761
330
6F
100
AcDbEntity
  8
OUTLINE
  6
Continuous
 62
     3
100
AcDbLine
 10
629.4962908768002
 20
-163.5748623053998
 30
0.0
 11
628.3339009919001
 21
-164.7053295634
 31
0.0
  0
LINE
  5
762
330
6F
100
AcDbEntity
  8
OUTLINE
  6
Continuous
 62
     3
100
AcDbLine
 10
628.3339009919001
 20
-164.7053295634
 30
0.0
 11
627.5000000000001
 21
-165.1558976590002
 31
0.0
  0
LINE
  5
763
330
6F
100
AcDbEntity
  8
OUTLINE
  6
Continuous
 62
     3
100
AcDbLine
 10
627.5000000000001
 20
-165.1558976590002
 30
0.0
 11
627.5000000000001
 21
-169.7
 31
0.0
  0
LINE
  5
764
330
6F
100
AcDbEntity
  8
OUTLINE
  6
Continuous
 62
     3
100
AcDbLine
 10
627.5000000000001
 20
-169.7
 30
0.0
 11
623.4999999999999
 21
-172.9500000000005
 31
0.0
  0
LINE
  5
765
330
6F
100
AcDbEntity
  8
OUTLINE
  6
Continuous
 62
     3
100
AcDbLine
 10
623.4999999999999
 20
-172.9500000000005
 30
0.0
 11
621.5000000000001
 21
-174.95
 31
0.0
  0
LINE
  5
766
330
6F
100
AcDbEntity
  8
OUTLINE
  6
Continuous
 62
     3
100
AcDbLine
 10
621.5000000000001
 20
-174.95
 30
0.0
 11
603.5000000000001
 21
-174.95
 31
0.0
  0
LINE
  5
767
330
6F
100
AcDbEntity
  8
OUTLINE
  6
Continuous
 62
     3
100
AcDbLine
 10
603.5000000000001
 20
-174.95
 30
0.0
 11
601.5000000000001
 21
-172.9499999999999
 31
0.0
  0
LINE
  5
768
330
6F
100
AcDbEntity
  8
OUTLINE
  6
Continuous
 62
     3
100
AcDbLine
 10
601.5000000000001
 20
-172.9499999999999
 30
0.0
 11
601.5000000000001
 21
-169.2999999999999
 31
0.0
  0
LINE
  5
769
330
6F
100
AcDbEntity
  8
OUTLINE
  6
Continuous
 62
     3
100
AcDbLine
 10
601.5000000000001
 20
-169.2999999999999
 30
0.0
 11
597.4000000000001
 21
-169.2999999999999
 31
0.0
  0
LINE
  5
76A
330
6F
100
AcDbEntity
  8
OUTLINE
  6
Continuous
 62
     3
100
AcDbLine
 10
597.4000000000001
 20
-169.2999999999999
 30
0.0
 11
595.2209438086002
 21
-171.4790561914
 31
0.0
  0
LINE
  5
76B
330
6F
100
AcDbEntity
  8
OUTLINE
  6
Continuous
 62
     3
100
AcDbLine
 10
595.2209438086002
 20
-171.4790561914
 30
0.0
 11
580.0000000000001
 21
-171.4790561914
 31
0.0
  0
LINE
  5
76C
330
6F
100
AcDbEntity
  8
OUTLINE
  6
Continuous
 62
     3
100
AcDbLine
 10
580.0000000000001
 20
-171.4790561914
 30
0.0
 11
580.0000000000001
 21
-177.2
 31
0.0
  0
LINE
  5
76D
330
6F
100
AcDbEntity
  8
OUTLINE
  6
Continuous
 62
     3
100
AcDbLine
 10
580.0000000000001
 20
-177.2
 30
0.0
 11
554.0
 21
-177.2
 31
0.0
  0
LINE
  5
76E
330
6F
100
AcDbEntity
  8
OUTLINE
  6
Continuous
 62
     3
100
AcDbLine
 10
554.0
 20
-177.2
 30
0.0
 11
554.0
 21
-200.3
 31
0.0
  0
LINE
  5
76F
330
6F
100
AcDbEntity
  8
OUTLINE
  6
Continuous
 62
     3
100
AcDbLine
 10
554.0
 20
-200.3
 30
0.0
 11
590.0000000000001
 21
-200.3
 31
0.0
  0
LINE
  5
770
330
6F
100
AcDbEntity
  8
OUTLINE
  6
Continuous
 62
     3
100
AcDbLine
 10
590.0000000000001
 20
-200.3
 30
0.0
 11
590.0000000000001
 21
-240.3
 31
0.0
  0
LINE
  5
771
330
6F
100
AcDbEntity
  8
OUTLINE
  6
Continuous
 62
     3
100
AcDbLine
 10
590.0000000000001
 20
-240.3
 30
0.0
 11
552.3037011669194
 21
-240.3
 31
0.0
  0
ARC
  5
772
330
6F
100
AcDbEntity
  8
OUTLINE
  6
Continuous
 62
     3
100
AcDbCircle
 10
549.6
 20
-239.0
 30
0.0
 40
3.00000000000006
100
AcDbArc
 50
324.7524930079409
 51
334.3207113805405
  0
LINE
  5
773
330
6F
100
AcDbEntity
  8
OUTLINE
  6
Continuous
 62
     3
100
AcDbLine
 10
552.0499999999998
 20
-240.7313289693184
 30
0.0
 11
552.0500000000001
 21
-249.9500000000001
 31
0.0
  0
ARC
  5
774
330
6F
100
AcDbEntity
  8
OUTLINE
  6
Continuous
 62
     3
100
AcDbCircle
 10
550.0000000000003
 20
-249.9500000000001
 30
0.0
 40
2.049999999999726
100
AcDbArc
 50
270.0
 51
0.0
  0
LINE
  5
775
330
6F
100
AcDbEntity
  8
OUTLINE
  6
Continuous
 62
     3
100
AcDbLine
 10
550.0
 20
-252.0
 30
0.0
 11
500.0000000000008
 21
-252.0
 31
0.0
  0
LINE
  5
776
330
6F
100
AcDbEntity
  8
OUTLINE
  6
Continuous
 62
     3
100
AcDbLine
 10
500.0000000000008
 20
-252.0
 30
0.0
 11
500.0000000000008
 21
-259.9999999999964
 31
0.0
  0
LINE
  5
777
330
6F
100
AcDbEntity
  8
OUTLINE
  6
Continuous
 62
     3
100
AcDbLine
 10
500.0000000000008
 20
-259.9999999999964
 30
0.0
 11
-499.9999999999988
 21
-259.9999999999964
 31
0.0
  0
LINE
  5
778
330
6F
100
AcDbEntity
  8
OUTLINE
  6
Continuous
 62
     3
100
AcDbLine
 10
-499.9999999999988
 20
-259.9999999999964
 30
0.0
 11
-499.9999999999988
 21
-252.0
 31
0.0
  0
LINE
  5
779
330
6F
100
AcDbEntity
  8
OUTLINE
  6
Continuous
 62
     3
100
AcDbLine
 10
-499.9999999999988
 20
-252.0
 30
0.0
 11
-549.9999999999999
 21
-252.0
 31
0.0
  0
ARC
  5
77A
330
6F
100
AcDbEntity
  8
OUTLINE
  6
Continuous
 62
     3
100
AcDbCircle
 10
-550.0
 20
-249.9500000000001
 30
0.0
 40
2.049999999999954
100
AcDbArc
 50
180.0
 51
270.0
  0
LINE
  5
77B
330
6F
100
AcDbEntity
  8
OUTLINE
  6
Continuous
 62
     3
100
AcDbLine
 10
-552.0499999999998
 20
-249.9500000000001
 30
0.0
 11
-552.0500000000001
 21
-240.0
 31
0.0
  0
LINE
  5
77C
330
6F
100
AcDbEntity
  8
OUTLINE
  6
Continuous
 62
     3
100
AcDbLine
 10
-552.0500000000001
 20
-240.0
 30
0.0
 11
-553.9999999999999
 21
-240.0
 31
0.0
  0
LINE
  5
77D
330
6F
100
AcDbEntity
  8
OUTLINE
  6
Continuous
 62
     3
100
AcDbLine
 10
-553.9999999999999
 20
-240.0
 30
0.0
 11
-553.9999999999999
 21
-23.41837661844625
 31
0.0
  0
LINE
  5
77E
330
6F
100
AcDbEntity
  8
OUTLINE
  6
Continuous
 62
     3
100
AcDbLine
 10
-553.9999999999999
 20
-23.41837661844625
 30
0.0
 11
-553.9999999999999
 21
-23.41837661844625
 31
0.0
  0
LINE
  5
77F
330
6F
100
AcDbEntity
  8
OUTLINE
  6
Continuous
 62
     3
100
AcDbLine
 10
-601.0001234834825
 20
-404.9603951084542
 30
0.0
 11
-601.0001234834825
 21
-402.9603951084539
 31
0.0
  0
LINE
  5
780
330
6F
100
AcDbEntity
  8
OUTLINE
  6
Continuous
 62
     3
100
AcDbLine
 10
-601.0001234834825
 20
-402.9603951084539
 30
0.0
 11
-589.0001234834825
 21
-402.9603951084539
 31
0.0
  0
LINE
  5
781
330
6F
100
AcDbEntity
  8
OUTLINE
  6
Continuous
 62
     3
100
AcDbLine
 10
-589.0001234834825
 20
-402.9603951084539
 30
0.0
 11
-589.0001234834825
 21
-399.9603951084546
 31
0.0
  0
LINE
  5
782
330
6F
100
AcDbEntity
  8
OUTLINE
  6
Continuous
 62
     3
100
AcDbLine
 10
-589.0001234834825
 20
-399.9603951084546
 30
0.0
 11
-584.7001234834822
 21
-399.9603951084546
 31
0.0
  0
LINE
  5
783
330
6F
100
AcDbEntity
  8
OUTLINE
  6
Continuous
 62
     3
100
AcDbLine
 10
-584.7001234834822
 20
-399.9603951084546
 30
0.0
 11
-584.7001234834822
 21
-379.9603951084546
 31
0.0
  0
LINE
  5
784
330
6F
100
AcDbEntity
  8
OUTLINE
  6
Continuous
 62
     3
100
AcDbLine
 10
-584.7001234834822
 20
-379.9603951084546
 30
0.0
 11
-589.0001234834825
 21
-379.9603951084546
 31
0.0
  0
LINE
  5
785
330
6F
100
AcDbEntity
  8
OUTLINE
  6
Continuous
 62
     3
100
AcDbLine
 10
-589.0001234834825
 20
-379.9603951084546
 30
0.0
 11
-589.0001234834825
 21
-369.460395108428
 31
0.0
  0
LINE
  5
786
330
6F
100
AcDbEntity
  8
OUTLINE
  6
Continuous
 62
     3
100
AcDbLine
 10
-589.0001234834825
 20
-369.460395108428
 30
0.0
 11
-584.7001234834822
 21
-369.460395108428
 31
0.0
  0
LINE
  5
787
330
6F
100
AcDbEntity
  8
OUTLINE
  6
Continuous
 62
     3
100
AcDbLine
 10
-584.7001234834822
 20
-369.460395108428
 30
0.0
 11
-584.7001234834822
 21
-344.9603951084541
 31
0.0
  0
LINE
  5
788
330
6F
100
AcDbEntity
  8
OUTLINE
  6
Continuous
 62
     3
100
AcDbLine
 10
-584.7001234834822
 20
-344.9603951084541
 30
0.0
 11
822.7000000000073
 21
-344.9603951084544
 31
0.0
  0
LINE
  5
789
330
6F
100
AcDbEntity
  8
OUTLINE
  6
Continuous
 62
     3
100
AcDbLine
 10
822.7000000000073
 20
-344.9603951084544
 30
0.0
 11
822.7000000000073
 21
-369.4603951084429
 31
0.0
  0
LINE
  5
78A
330
6F
100
AcDbEntity
  8
OUTLINE
  6
Continuous
 62
     3
100
AcDbLine
 10
822.7000000000073
 20
-369.4603951084429
 30
0.0
 11
827.0000000000081
 21
-369.4603951084429
 31
0.0
  0
LINE
  5
78B
330
6F
100
AcDbEntity
  8
OUTLINE
  6
Continuous
 62
     3
100
AcDbLine
 10
827.0000000000081
 20
-369.4603951084429
 30
0.0
 11
827.0000000000075
 21
-379.9603951084543
 31
0.0
  0
LINE
  5
78C
330
6F
100
AcDbEntity
  8
OUTLINE
  6
Continuous
 62
     3
100
AcDbLine
 10
827.0000000000075
 20
-379.9603951084543
 30
0.0
 11
822.7000000000073
 21
-379.9603951084543
 31
0.0
  0
LINE
  5
78D
330
6F
100
AcDbEntity
  8
OUTLINE
  6
Continuous
 62
     3
100
AcDbLine
 10
822.7000000000073
 20
-379.9603951084543
 30
0.0
 11
822.7000000000073
 21
-399.9603951084542
 31
0.0
  0
LINE
  5
78E
330
6F
100
AcDbEntity
  8
OUTLINE
  6
Continuous
 62
     3
100
AcDbLine
 10
822.7000000000073
 20
-399.9603951084542
 30
0.0
 11
827.0000000000081
 21
-399.9603951084542
 31
0.0
  0
LINE
  5
78F
330
6F
100
AcDbEntity
  8
OUTLINE
  6
Continuous
 62
     3
100
AcDbLine
 10
827.0000000000081
 20
-399.9603951084542
 30
0.0
 11
827.0000000000081
 21
-402.9603951084542
 31
0.0
  0
LINE
  5
790
330
6F
100
AcDbEntity
  8
OUTLINE
  6
Continuous
 62
     3
100
AcDbLine
 10
827.0000000000081
 20
-402.9603951084542
 30
0.0
 11
839.000000000008
 21
-402.9603951084542
 31
0.0
  0
LINE
  5
791
330
6F
100
AcDbEntity
  8
OUTLINE
  6
Continuous
 62
     3
100
AcDbLine
 10
839.000000000008
 20
-402.9603951084542
 30
0.0
 11
839.000000000008
 21
-404.9603951084542
 31
0.0
  0
LINE
  5
792
330
6F
100
AcDbEntity
  8
OUTLINE
  6
Continuous
 62
     3
100
AcDbLine
 10
839.000000000008
 20
-404.9603951084542
 30
0.0
 11
-601.0001234834825
 21
-404.9603951084542
 31
0.0
  0
LINE
  5
793
330
6F
100
AcDbEntity
  8
OUTLINE
  6
Continuous
 62
     3
100
AcDbLine
 10
-601.0001234834825
 20
-404.9603951084542
 30
0.0
 11
-601.0001234834825
 21
-404.9603951084542
 31
0.0
  0
LINE
  5
794
330
6F
100
AcDbEntity
  8
SIZE
  6
Continuous
 62
    30
100
AcDbLine
 10
-576.9999999999997
 20
40.0
 30
0.0
 11
-576.9999999999997
 21
322.6835812552772
 31
0.0
  0
LINE
  5
795
330
6F
100
AcDbEntity
  8
SIZE
  6
Continuous
 62
    30
100
AcDbLine
 10
576.9999999999997
 20
40.0
 30
0.0
 11
576.9999999999997
 21
322.6835812552772
 31
0.0
  0
LINE
  5
796
330
6F
100
AcDbEntity
  8
SIZE
  6
Continuous
 62
    30
100
AcDbLine
 10
-576.9999999999997
 20
302.6835812552772
 30
0.0
 11
576.9999999999997
 21
302.6835812552772
 31
0.0
  0
CIRCLE
  5
797
330
6F
100
AcDbEntity
  8
SIZE
  6
Continuous
 62
    30
100
AcDbCircle
 10
-576.9999999999997
 20
302.6835812552772
 30
0.0
 40
7.5
  0
CIRCLE
  5
798
330
6F
100
AcDbEntity
  8
SIZE
  6
Continuous
 62
    30
100
AcDbCircle
 10
576.9999999999997
 20
302.6835812552772
 30
0.0
 40
7.5
  0
TEXT
  5
799
330
6F
100
AcDbEntity
  8
SIZE
  6
Continuous
 62
    30
100
AcDbText
 10
-57.42857142857142
 20
322.6835812552772
 30
0.0
 40
40.0
  1
1154
 41
0.9
 72
     1
 11
0.0
 21
322.6835812552772
 31
0.0
100
AcDbText
  0
POINT
  5
79A
330
6F
100
AcDbEntity
  8
DEFPOINTS
  6
Continuous
 62
    30
100
AcDbPoint
 10
-576.9999999999997
 20
20.0
 30
0.0
  0
POINT
  5
79B
330
6F
100
AcDbEntity
  8
DEFPOINTS
  6
Continuous
 62
    30
100
AcDbPoint
 10
576.9999999999997
 20
20.0
 30
0.0
  0
POINT
  5
79C
330
6F
100
AcDbEntity
  8
DEFPOINTS
  6
Continuous
 62
    30
100
AcDbPoint
 10
576.9999999999997
 20
302.6835812552772
 30
0.0
  0
LINE
  5
79D
330
6F
100
AcDbEntity
  8
SIZE
  6
Continuous
 62
    30
100
AcDbLine
 10
-599.9999999999999
 20
-0.7000000000000455
 30
0.0
 11
-599.9999999999999
 21
322.6835812552772
 31
0.0
  0
LINE
  5
79E
330
6F
100
AcDbEntity
  8
SIZE
  6
Continuous
 62
    30
100
AcDbLine
 10
-576.9999999999997
 20
40.0
 30
0.0
 11
-576.9999999999997
 21
322.6835812552772
 31
0.0
  0
LINE
  5
79F
330
6F
100
AcDbEntity
  8
SIZE
  6
Continuous
 62
    30
100
AcDbLine
 10
-576.9999999999997
 20
302.6835812552772
 30
0.0
 11
-546.9999999999997
 21
302.6835812552772
 31
0.0
  0
LINE
  5
7A0
330
6F
100
AcDbEntity
  8
SIZE
  6
Continuous
 62
    30
100
AcDbLine
 10
-599.9999999999999
 20
302.6835812552772
 30
0.0
 11
-758.2857142857142
 21
302.6835812552772
 31
0.0
  0
LINE
  5
7A1
330
6F
100
AcDbEntity
  8
SIZE
  6
Continuous
 62
    30
100
AcDbLine
 10
-576.9999999999997
 20
302.6835812552772
 30
0.0
 11
-599.9999999999999
 21
302.6835812552772
 31
0.0
  0
CIRCLE
  5
7A2
330
6F
100
AcDbEntity
  8
SIZE
  6
Continuous
 62
    30
100
AcDbCircle
 10
-576.9999999999997
 20
302.6835812552772
 30
0.0
 40
7.5
  0
CIRCLE
  5
7A3
330
6F
100
AcDbEntity
  8
SIZE
  6
Continuous
 62
    30
100
AcDbCircle
 10
-599.9999999999999
 20
302.6835812552772
 30
0.0
 40
7.5
  0
TEXT
  5
7A4
330
6F
100
AcDbEntity
  8
SIZE
  6
Continuous
 62
    30
100
AcDbText
 10
-738.2857142857139
 20
322.6835812552772
 30
0.0
 40
40.0
  1
23
 41
0.9
 72
     1
 11
-709.1428571428568
 21
322.6835812552772
 31
0.0
100
AcDbText
  0
POINT
  5
7A5
330
6F
100
AcDbEntity
  8
DEFPOINTS
  6
Continuous
 62
    30
100
AcDbPoint
 10
-599.9999999999999
 20
-20.70000000000005
 30
0.0
  0
POINT
  5
7A6
330
6F
100
AcDbEntity
  8
DEFPOINTS
  6
Continuous
 62
    30
100
AcDbPoint
 10
-576.9999999999997
 20
20.0
 30
0.0
  0
POINT
  5
7A7
330
6F
100
AcDbEntity
  8
DEFPOINTS
  6
Continuous
 62
    30
100
AcDbPoint
 10
-576.9999999999997
 20
302.6835812552772
 30
0.0
  0
LINE
  5
7A8
330
6F
100
AcDbEntity
  8
SIZE
  6
Continuous
 62
    30
100
AcDbLine
 10
600.0000000000002
 20
-0.7000000000000455
 30
0.0
 11
600.0000000000002
 21
322.6835812552772
 31
0.0
  0
LINE
  5
7A9
330
6F
100
AcDbEntity
  8
SIZE
  6
Continuous
 62
    30
100
AcDbLine
 10
576.9999999999997
 20
40.0
 30
0.0
 11
576.9999999999997
 21
322.6835812552772
 31
0.0
  0
LINE
  5
7AA
330
6F
100
AcDbEntity
  8
SIZE
  6
Continuous
 62
    30
100
AcDbLine
 10
576.9999999999997
 20
302.6835812552772
 30
0.0
 11
546.9999999999997
 21
302.6835812552772
 31
0.0
  0
LINE
  5
7AB
330
6F
100
AcDbEntity
  8
SIZE
  6
Continuous
 62
    30
100
AcDbLine
 10
600.0000000000002
 20
302.6835812552772
 30
0.0
 11
758.2857142857145
 21
302.6835812552772
 31
0.0
  0
LINE
  5
7AC
330
6F
100
AcDbEntity
  8
SIZE
  6
Continuous
 62
    30
100
AcDbLine
 10
576.9999999999997
 20
302.6835812552772
 30
0.0
 11
600.0000000000002
 21
302.6835812552772
 31
0.0
  0
CIRCLE
  5
7AD
330
6F
100
AcDbEntity
  8
SIZE
  6
Continuous
 62
    30
100
AcDbCircle
 10
576.9999999999997
 20
302.6835812552772
 30
0.0
 40
7.5
  0
CIRCLE
  5
7AE
330
6F
100
AcDbEntity
  8
SIZE
  6
Continuous
 62
    30
100
AcDbCircle
 10
600.0000000000002
 20
302.6835812552772
 30
0.0
 40
7.5
  0
TEXT
  5
7AF
330
6F
100
AcDbEntity
  8
SIZE
  6
Continuous
 62
    30
100
AcDbText
 10
680.0000000000006
 20
322.6835812552772
 30
0.0
 40
40.0
  1
23
 41
0.9
 72
     1
 11
709.1428571428576
 21
322.6835812552772
 31
0.0
100
AcDbText
  0
POINT
  5
7B0
330
6F
100
AcDbEntity
  8
DEFPOINTS
  6
Continuous
 62
    30
100
AcDbPoint
 10
600.0000000000002
 20
-20.70000000000005
 30
0.0
  0
POINT
  5
7B1
330
6F
100
AcDbEntity
  8
DEFPOINTS
  6
Continuous
 62
    30
100
AcDbPoint
 10
576.9999999999997
 20
20.0
 30
0.0
  0
POINT
  5
7B2
330
6F
100
AcDbEntity
  8
DEFPOINTS
  6
Continuous
 62
    30
100
AcDbPoint
 10
576.9999999999997
 20
302.6835812552772
 30
0.0
  0
LINE
  5
7B3
330
6F
100
AcDbEntity
  8
NOTE
  6
Continuous
 62
     4
100
AcDbLine
 10
-595.1707581120124
 20
7.188105153310233
 30
0.0
 11
-576.9999999999997
 21
-18.0
 31
0.0
  0
LINE
  5
7B4
330
6F
100
AcDbEntity
  8
NOTE
  6
Continuous
 62
     4
100
AcDbLine
 10
-576.9999999999997
 20
-18.0
 30
0.0
 11
-605.3303906499384
 21
-5.271839991524113
 31
0.0
  0
LINE
  5
7B5
330
6F
100
AcDbEntity
  8
NOTE
  6
Continuous
 62
     4
100
AcDbLine
 10
-576.9999999999997
 20
-18.0
 30
0.0
 11
-600.2505743809755
 21
0.9581325808930607
 31
0.0
  0
LINE
  5
7B6
330
6F
100
AcDbEntity
  8
NOTE
  6
Continuous
 62
     4
100
AcDbLine
 10
-600.2505743809755
 20
0.9581325808930571
 30
0.0
 11
-672.3603551531359
 21
59.75525138998046
 31
0.0
  0
LINE
  5
7B7
330
6F
100
AcDbEntity
  8
NOTE
  6
Continuous
 62
     4
100
AcDbLine
 10
-672.3603551531359
 20
59.75525138998046
 30
0.0
 11
-1584.677785408612
 21
59.75525138998046
 31
0.0
  0
TEXT
  5
7B8
330
6F
100
AcDbEntity
  8
NOTE
  6
Continuous
 62
     4
100
AcDbText
 10
-1568.600238124607
 20
89.72956170835596
 30
0.0
 40
64.0
  1
AH 2×2 M10ボルト用
100
AcDbText
  0
LINE
  5
7B9
330
6F
100
AcDbEntity
  8
NOTE
  6
Continuous
 62
     4
100
AcDbLine
 10
652.9435379767416
 20
-140.3886702684614
 30
0.0
 11
627.5000000000001
 21
-158.2
 31
0.0
  0
LINE
  5
7BA
330
6F
100
AcDbEntity
  8
NOTE
  6
Continuous
 62
     4
100
AcDbLine
 10
627.5000000000001
 20
-158.2
 30
0.0
 11
640.6290855119322
 21
-130.0531670484962
 31
0.0
  0
LINE
  5
7BB
330
6F
100
AcDbEntity
  8
NOTE
  6
Continuous
 62
     4
100
AcDbLine
 10
627.5000000000001
 20
-158.2
 30
0.0
 11
646.7863117443371
 21
-135.2209186584788
 31
0.0
  0
LINE
  5
7BC
330
6F
100
AcDbEntity
  8
NOTE
  6
Continuous
 62
     4
100
AcDbLine
 10
646.7863117443371
 20
-135.2209186584788
 30
0.0
 11
825.7775462681257
 21
78.04194839795309
 31
0.0
  0
LINE
  5
7BD
330
6F
100
AcDbEntity
  8
NOTE
  6
Continuous
 62
     4
100
AcDbLine
 10
825.7775462681257
 20
78.04194839795309
 30
0.0
 11
1329.654970586986
 21
78.04194839795309
 31
0.0
  0
LINE
  5
7BE
330
6F
100
AcDbEntity
  8
NOTE
  6
Continuous
 62
     4
100
AcDbLine
 10
629.9551624239801
 20
-104.5720492779675
 30
0.0
 11
606.5000000000001
 21
-124.9306456746792
 31
0.0
  0
LINE
  5
7BF
330
6F
100
AcDbEntity
  8
NOTE
  6
Continuous
 62
     4
100
AcDbLine
 10
606.5000000000001
 20
-124.9306456746792
 30
0.0
 11
616.6334684438877
 21
-95.57200284371337
 31
0.0
  0
LINE
  5
7C0
330
6F
100
AcDbEntity
  8
NOTE
  6
Continuous
 62
     4
100
AcDbLine
 10
606.5000000000001
 20
-124.9306456746792
 30
0.0
 11
623.294315433934
 21
-100.0720260608404
 31
0.0
  0
LINE
  5
7C1
330
6F
100
AcDbEntity
  8
NOTE
  6
Continuous
 62
     4
100
AcDbLine
 10
623.294315433934
 20
-100.0720260608404
 30
0.0
 11
825.7775462681257
 21
199.6397206482824
 31
0.0
  0
LINE
  5
7C2
330
6F
100
AcDbEntity
  8
NOTE
  6
Continuous
 62
     4
100
AcDbLine
 10
825.7775462681257
 20
199.6397206482824
 30
0.0
 11
1271.333399049823
 21
199.6397206482824
 31
0.0
  0
TEXT
  5
7C3
330
6F
100
AcDbEntity
  8
NOTE
  6
Continuous
 62
     4
100
AcDbText
 10
849.9025221918511
 20
107.0962160125855
 30
0.0
 40
64.0
  1
RG %%c15.88
100
AcDbText
  0
TEXT
  5
7C4
330
6F
100
AcDbEntity
  8
NOTE
  6
Continuous
 62
     4
100
AcDbText
 10
844.1945222397206
 20
229.614030966658
 30
0.0
 40
64.0
  1
RL %%c9.52
100
AcDbText
  0
LINE
  5
7C5
330
6F
100
AcDbEntity
  8
DETAIL
  6
Continuous
 62
     5
100
AcDbLine
 10
-368.6310000165199
 20
-208.800810529318
 30
0.0
 11
-421.4689999834948
 21
-208.8008105293268
 31
0.0
  0
LINE
  5
7C6
330
6F
100
AcDbEntity
  8
DETAIL
  6
Continuous
 62
     5
100
AcDbLine
 10
-365.1737628133
 20
-184.0
 30
0.0
 11
-264.9262371867997
 21
-184.0
 31
0.0
  0
LINE
  5
7C7
330
6F
100
AcDbEntity
  8
DETAIL
  6
Continuous
 62
     5
100
AcDbLine
 10
-371.3351119601001
 20
-178.8054097013
 30
0.0
 11
-260.3355519966002
 21
-180.2031819378001
 31
0.0
  0
LINE
  5
7C8
330
6F
100
AcDbEntity
  8
DETAIL
  6
Continuous
 62
     5
100
AcDbLine
 10
-284.6924538233001
 20
-41.82301084200003
 30
0.0
 11
-345.4075461768002
 21
-41.82301084200003
 31
0.0
  0
LINE
  5
7C9
330
6F
100
AcDbEntity
  8
DETAIL
  6
Continuous
 62
     5
100
AcDbLine
 10
-292.8142482469
 20
-39.08114134519997
 30
0.0
 11
-337.2857517532001
 21
-39.08114134519997
 31
0.0
  0
LINE
  5
7CA
330
6F
100
AcDbEntity
  8
DETAIL
  6
Continuous
 62
     5
100
AcDbLine
 10
-368.0209470891785
 20
-27.8399828507762
 30
0.0
 11
-422.0790529107577
 21
-27.83998285081362
 31
0.0
  0
LWPOLYLINE
  5
7CB
330
6F
100
AcDbEntity
  8
DETAIL
  6
Continuous
 62
     5
100
AcDbPolyline
 90
       23
 70
     0
 43
0.0
 10
-368.6310000165997
 20
-208.8008105292999
 10
-365.7462360743001
 20
-210.1714822135
 10
-362.5781586654002
 20
-211.5382168676001
 10
-359.0665287681998
 20
-212.8694528792
 10
-355.1522613458
 20
-214.1269369491001
 10
-350.7765728028001
 20
-215.2652310599001
 10
-345.8716449112002
 20
-216.2440252277999
 10
-340.3851991680998
 20
-217.0296104065001
 10
-334.3901570539
 20
-217.5980807815001
 10
-328.0721003341999
 20
-217.9586161922
 10
-321.5910397596998
 20
-218.1499066293002
 10
-315.0500000000001
 20
-218.2088645076001
 10
-308.5089602403999
 20
-218.1499066293002
 10
-302.0278996658997
 20
-217.9586161922
 10
-295.7098429462002
 20
-217.5980807815001
 10
-289.7148008318999
 20
-217.0296104065001
 10
-284.2283550889
 20
-216.2440252277999
 10
-279.3234271973
 20
-215.2652310599001
 10
-274.9477386542998
 20
-214.1269369491001
 10
-271.0334712318998
 20
-212.8694528792
 10
-267.5218413347001
 20
-211.5382168676001
 10
-264.3537639258001
 20
-210.1714822135
 10
-261.4689999833997
 20
-208.8008105292999
  0
LWPOLYLINE
  5
7E4
330
6F
100
AcDbEntity
  8
DETAIL
  6
Continuous
 62
     5
100
AcDbPolyline
 90
       30
 70
     0
 43
0.0
 10
-368.6310000165997
 20
-208.8008105292999
 10
-366.3948059686999
 20
-210.4095783002001
 10
-364.0013435786999
 20
-212.0143322113001
 10
-361.4264496615
 20
-213.5940361156002
 10
-358.6439363131002
 20
-215.1245069019001
 10
-355.6282752368002
 20
-216.5794112996
 10
-352.3570978512
 20
-217.9267759507002
 10
-348.8049193607001
 20
-219.1404107197
 10
-344.9476050749999
 20
-220.1956107061
 10
-340.7778995030002
 20
-221.073691325
 10
-336.3426994631999
 20
-221.7610883206
 10
-331.7259717454998
 20
-222.2624415714001
 10
-327.0068585332
 20
-222.6008104315001
 10
-322.2367318101001
 20
-222.8056011453
 10
-317.4465863647
 20
-222.9012643312001
 10
-312.6534136354002
 20
-222.9012643312001
 10
-307.8632681899002
 20
-222.8056011453
 10
-303.0931414669002
 20
-222.6008104315001
 10
-298.3740282544999
 20
-222.2624415714001
 10
-293.7573005367998
 20
-221.7610883206
 10
-289.3221004971
 20
-221.073691325
 10
-285.1523949249997
 20
-220.1956107061
 10
-281.2950806394
 20
-219.1404107197
 10
-277.7429021488
 20
-217.9267759507002
 10
-274.4717247633001
 20
-216.5794112996
 10
-271.456063687
 20
-215.1245069019001
 10
-268.6735503386001
 20
-213.5940361156002
 10
-266.0986564213998
 20
-212.0143322113001
 10
-263.7051940312998
 20
-210.4095783002001
 10
-261.4689999833997
 20
-208.8008105292999
  0
LWPOLYLINE
  5
804
330
6F
100
AcDbEntity
  8
DETAIL
  6
Continuous
 62
     5
100
AcDbPolyline
 90
       23
 70
     0
 43
0.0
 10
-262.0790529109997
 20
-27.83998285070016
 10
-264.9594195243998
 20
-26.49229740360012
 10
-268.1218947461001
 20
-25.14830192609998
 10
-271.6249869113002
 20
-23.83864644070013
 10
-275.5257382020999
 20
-22.6004370600001
 10
-279.8793077481999
 20
-21.47773815179994
 10
-284.7478272608
 20
-20.50975007689999
 10
-290.1741511950998
 20
-19.72943460340001
 10
-296.0788078016997
 20
-19.16048772969998
 10
-302.2832779851001
 20
-18.79523709390014
 10
-308.6387644977998
 20
-18.59873446899996
 10
-315.0500000000001
 20
-18.53758870399997
 10
-321.4612355022999
 20
-18.59873446899996
 10
-327.8167220149998
 20
-18.79523709390014
 10
-334.0211921982998
 20
-19.16048772969998
 10
-339.9258488049999
 20
-19.72943460340001
 10
-345.3521727392999
 20
-20.50975007689999
 10
-350.2206922518997
 20
-21.47773815179994
 10
-354.5742617979997
 20
-22.6004370600001
 10
-358.4750130887
 20
-23.83864644070013
 10
-361.9781052539
 20
-25.14830192609998
 10
-365.1405804757
 20
-26.49229740360012
 10
-368.0209470891
 20
-27.83998285070016
  0
LWPOLYLINE
  5
81D
330
6F
100
AcDbEntity
  8
DETAIL
  6
Continuous
 62
     5
100
AcDbPolyline
 90
       30
 70
     0
 43
0.0
 10
-262.0790529109997
 20
-27.83998285070016
 10
-264.3110572751001
 20
-26.25875875869997
 10
-266.6997458507002
 20
-24.68130461129999
 10
-269.2687433753999
 20
-23.12799814289997
 10
-272.0432996733001
 20
-21.62228729740014
 10
-275.0479685904001
 20
-20.18977718800011
 10
-278.3034066834001
 20
-18.86148752129997
 10
-281.8328512538
 20
-17.66295074690015
 10
-285.657174159
 20
-16.61814709580017
 10
-289.7793530736002
 20
-15.74553170800004
 10
-294.1502641776
 20
-15.05851559730012
 10
-298.6889652906
 20
-14.55320115960012
 10
-303.3217684621999
 20
-14.20854493360002
 10
-308.0014391249
 20
-13.99774296240002
 10
-312.6995445484998
 20
-13.89849488089999
 10
-317.4004554515999
 20
-13.89849488089999
 10
-322.0985608752002
 20
-13.99774296240002
 10
-326.7782315377998
 20
-14.20854493360002
 10
-331.4110347095
 20
-14.55320115960012
 10
-335.9497358225002
 20
-15.05851559730012
 10
-340.3206469264
 20
-15.74553170800004
 10
-344.4428258410998
 20
-16.61814709580017
 10
-348.2671487462998
 20
-17.66295074690015
 10
-351.7965933166
 20
-18.86148752129997
 10
-355.0520314097001
 20
-20.18977718800011
 10
-358.0567003267
 20
-21.62228729740014
 10
-360.8312566246998
 20
-23.12799814289997
 10
-363.4002541494
 20
-24.68130461129999
 10
-365.7889427250001
 20
-26.25875875869997
 10
-368.0209470891
 20
-27.83998285070016
  0
ARC
  5
83D
330
6F
100
AcDbEntity
  8
DETAIL
  6
Continuous
 62
     5
100
AcDbCircle
 10
-315.0500000000001
 20
-118.5
 30
0.0
 40
105.0007616402
100
AcDbArc
 50
120.296942610626
 51
239.3167491915096
  0
ARC
  5
83E
330
6F
100
AcDbEntity
  8
DETAIL
  6
Continuous
 62
     5
100
AcDbCircle
 10
-315.0500000000001
 20
-118.5
 30
0.0
 40
105.0007616402
100
AcDbArc
 50
300.6832508084869
 51
59.70305738937397
  0
CIRCLE
  5
83F
330
6F
100
AcDbEntity
  8
DETAIL
  6
Continuous
 62
     5
100
AcDbCircle
 10
-315.0500000000001
 20
-118.5
 30
0.0
 40
100.0
  0
CIRCLE
  5
840
330
6F
100
AcDbEntity
  8
DETAIL
  6
Continuous
 62
     5
100
AcDbCircle
 10
-315.0500000000001
 20
-118.5
 30
0.0
 40
94.9847543461
  0
CIRCLE
  5
841
330
6F
100
AcDbEntity
  8
DETAIL
  6
Continuous
 62
     5
100
AcDbCircle
 10
-315.0500000000001
 20
-118.5
 30
0.0
 40
94.9847543461
  0
CIRCLE
  5
842
330
6F
100
AcDbEntity
  8
DETAIL
  6
Continuous
 62
     5
100
AcDbCircle
 10
-315.0500000000001
 20
-118.5
 30
0.0
 40
82.50266545079998
  0
LINE
  5
843
330
6F
100
AcDbEntity
  8
NOTE
  6
Continuous
 62
     4
100
AcDbLine
 10
-127.0196852390453
 20
-118.5
 30
0.0
 11
-0.0500000000000682
 21
-118.5
 31
0.0
  0
LINE
  5
844
330
6F
100
AcDbEntity
  8
NOTE
  6
Continuous
 62
     4
100
AcDbLine
 10
-0.0500000000000682
 20
-245.4696852390453
 30
0.0
 11
-0.0500000000000682
 21
-118.5
 31
0.0
  0
LINE
  5
845
330
6F
100
AcDbEntity
  8
NOTE
  6
Continuous
 62
     4
100
AcDbLine
 10
126.9196852390454
 20
-118.5000000000002
 30
0.0
 11
-0.0499999999998409
 21
-118.5
 31
0.0
  0
LINE
  5
846
330
6F
100
AcDbEntity
  8
NOTE
  6
Continuous
 62
     4
100
AcDbLine
 10
-0.0499999999998409
 20
8.469685239045245
 30
0.0
 11
-0.0500000000000682
 21
-118.5
 31
0.0
  0
LINE
  5
847
330
6F
100
AcDbEntity
  8
SIZE
  6
Continuous
 62
    30
100
AcDbLine
 10
-0.0499999999998396
 20
28.46968523904525
 30
0.0
 11
-0.0499999999998337
 21
125.315159029501
 31
0.0
  0
LINE
  5
848
330
6F
100
AcDbEntity
  8
SIZE
  6
Continuous
 62
    30
100
AcDbLine
 10
-320.0499999999999
 20
28.46968523904525
 30
0.0
 11
-320.0499999999999
 21
125.315159029501
 31
0.0
  0
LINE
  5
849
330
6F
100
AcDbEntity
  8
SIZE
  6
Continuous
 62
    30
100
AcDbLine
 10
-0.0499999999998349
 20
105.315159029501
 30
0.0
 11
-320.0499999999999
 21
105.315159029501
 31
0.0
  0
CIRCLE
  5
84A
330
6F
100
AcDbEntity
  8
SIZE
  6
Continuous
 62
    30
100
AcDbCircle
 10
-0.0499999999998349
 20
105.315159029501
 30
0.0
 40
7.5
  0
CIRCLE
  5
84B
330
6F
100
AcDbEntity
  8
SIZE
  6
Continuous
 62
    30
100
AcDbCircle
 10
-320.0499999999999
 20
105.315159029501
 30
0.0
 40
7.5
  0
TEXT
  5
84C
330
6F
100
AcDbEntity
  8
SIZE
  6
Continuous
 62
    30
100
AcDbText
 10
-206.3357142857141
 20
125.315159029501
 30
0.0
 40
40.0
  1
320
 41
0.9
 72
     1
 11
-160.0499999999998
 21
125.315159029501
 31
0.0
100
AcDbText
  0
POINT
  5
84D
330
6F
100
AcDbEntity
  8
DEFPOINTS
  6
Continuous
 62
    30
100
AcDbPoint
 10
-0.0499999999998409
 20
8.469685239045245
 30
0.0
  0
POINT
  5
84E
330
6F
100
AcDbEntity
  8
DEFPOINTS
  6
Continuous
 62
    30
100
AcDbPoint
 10
-320.0499999999999
 20
8.469685239045245
 30
0.0
  0
POINT
  5
84F
330
6F
100
AcDbEntity
  8
DEFPOINTS
  6
Continuous
 62
    30
100
AcDbPoint
 10
-320.0499999999999
 20
105.315159029501
 30
0.0
  0
LINE
  5
850
330
6F
100
AcDbEntity
  8
NOTE
  6
Continuous
 62
     4
100
AcDbLine
 10
-322.1936801582812
 20
-87.51578261503958
 30
0.0
 11
-320.0500000000001
 21
-118.5
 31
0.0
  0
LINE
  5
851
330
6F
100
AcDbEntity
  8
NOTE
  6
Continuous
 62
     4
100
AcDbLine
 10
-320.0500000000001
 20
-118.5
 30
0.0
 11
-337.3985900502733
 21
-92.73872062868289
 31
0.0
  0
LINE
  5
852
330
6F
100
AcDbEntity
  8
NOTE
  6
Continuous
 62
     4
100
AcDbLine
 10
-320.0500000000001
 20
-118.5
 30
0.0
 11
-329.7961351042772
 21
-90.12725162186123
 31
0.0
  0
LINE
  5
853
330
6F
100
AcDbEntity
  8
NOTE
  6
Continuous
 62
     4
100
AcDbLine
 10
-329.7961351042772
 20
-90.12725162186123
 30
0.0
 11
-518.6826341633658
 21
459.7552456440637
 31
0.0
  0
LINE
  5
854
330
6F
100
AcDbEntity
  8
NOTE
  6
Continuous
 62
     4
100
AcDbLine
 10
-518.6826341633658
 20
459.7552456440637
 30
0.0
 11
-1431.000064418842
 21
459.7552456440637
 31
0.0
  0
TEXT
  5
855
330
6F
100
AcDbEntity
  8
NOTE
  6
Continuous
 62
     4
100
AcDbText
 10
-1408.921863128419
 20
486.2259256620645
 30
0.0
 40
64.0
  1
%%C200吹出円形フランジ
100
AcDbText
  0
TEXT
  5
856
330
6F
100
AcDbEntity
  8
ETC
  6
Continuous
 62
    61
100
AcDbText
 10
-1122.778448512517
 20
702.2594309981077
 30
0.0
 40
64.0
  1
PDFY-P71_80_90GMG9_2
 41
0.9
100
AcDbText
  0
ENDSEC
  0
SECTION
  2
OBJECTS
  0
DICTIONARY
  5
C
330
0
100
AcDbDictionary
281
     1
  3
ACAD_CIP_PREVIOUS_PRODUCT_INFO
350
857
  3
ACAD_COLOR
350
62
  3
ACAD_DETAILVIEWSTYLE
350
69
  3
ACAD_GROUP
350
D
  3
ACAD_LAYOUT
350
61
  3
ACAD_MATERIAL
350
10
  3
ACAD_MLEADERSTYLE
350
65
  3
ACAD_MLINESTYLE
350
5E
  3
ACAD_PLOTSETTINGS
350
60
  3
ACAD_PLOTSTYLENAME
350
E
  3
ACAD_SCALELIST
350
42
  3
ACAD_SECTIONVIEWSTYLE
350
67
  3
ACAD_TABLESTYLE
350
63
  3
ACAD_VISUALSTYLE
350
29
  3
ACDB_RECOMPOSE_DATA
350
8C5
  3
AcDbVariableDictionary
350
870
  3
DWGPROPS
350
8C6
  0
DICTIONARY
  5
85A
330
54
100
AcDbDictionary
280
     1
281
     1
  3
ADSK_XREC_LAYER_RECONCILED
360
85B
  0
DICTIONARY
  5
85C
330
73
100
AcDbDictionary
280
     1
281
     1
  3
ADSK_XREC_LAYER_RECONCILED
360
85D
  0
DICTIONARY
  5
85E
330
76
100
AcDbDictionary
280
     1
281
     1
  3
ADSK_XREC_LAYER_RECONCILED
360
85F
  0
DICTIONARY
  5
860
330
77
100
AcDbDictionary
280
     1
281
     1
  3
ADSK_XREC_LAYER_RECONCILED
360
861
  0
DICTIONARY
  5
862
330
78
100
AcDbDictionary
280
     1
281
     1
  3
ADSK_XREC_LAYER_RECONCILED
360
863
  0
DICTIONARY
  5
864
330
79
100
AcDbDictionary
280
     1
281
     1
  3
ADSK_XREC_LAYER_RECONCILED
360
865
  0
DICTIONARY
  5
866
330
7A
100
AcDbDictionary
280
     1
281
     1
  3
ADSK_XREC_LAYER_RECONCILED
360
867
  0
DICTIONARY
  5
868
330
7B
100
AcDbDictionary
280
     1
281
     1
  3
ADSK_XREC_LAYER_RECONCILED
360
869
  0
DICTIONARY
  5
86A
330
7C
100
AcDbDictionary
280
     1
281
     1
  3
ADSK_XREC_LAYER_RECONCILED
360
86B
  0
DICTIONARY
  5
86C
330
7D
100
AcDbDictionary
280
     1
281
     1
  3
ADSK_XREC_LAYER_RECONCILED
360
86D
  0
DICTIONARY
  5
86E
330
7E
100
AcDbDictionary
280
     1
281
     1
  3
ADSK_XREC_LAYER_RECONCILED
360
86F
  0
XRECORD
  5
857
102
{ACAD_REACTORS
330
C
102
}
330
C
100
AcDbXrecord
280
     1
300
ACD
300
2018
300
86830ACD_2018_0F
  0
DICTIONARY
  5
62
102
{ACAD_REACTORS
330
C
102
}
330
C
100
AcDbDictionary
281
     1
  0
DICTIONARY
  5
69
102
{ACAD_REACTORS
330
C
102
}
330
C
100
AcDbDictionary
281
     1
  3
Imperial24
350
6A
  0
DICTIONARY
  5
D
102
{ACAD_REACTORS
330
C
102
}
330
C
100
AcDbDictionary
281
     1
  0
DICTIONARY
  5
61
102
{ACAD_REACTORS
330
C
102
}
330
C
100
AcDbDictionary
281
     1
  3
Model
350
72
  3
レイアウト1
350
6E
  0
DICTIONARY
  5
10
102
{ACAD_REACTORS
330
C
102
}
330
C
100
AcDbDictionary
281
     1
  3
ByBlock
350
19
  3
ByLayer
350
11
  3
Global
350
21
  0
DICTIONARY
  5
65
102
{ACAD_REACTORS
330
C
102
}
330
C
100
AcDbDictionary
281
     1
  3
Standard
350
66
  0
DICTIONARY
  5
5E
102
{ACAD_REACTORS
330
C
102
}
330
C
100
AcDbDictionary
281
     1
  3
Standard
350
5F
  0
DICTIONARY
  5
60
102
{ACAD_REACTORS
330
C
102
}
330
C
100
AcDbDictionary
281
     1
  0
ACDBDICTIONARYWDFLT
  5
E
102
{ACAD_REACTORS
330
C
102
}
330
C
100
AcDbDictionary
281
     1
  3
Normal
350
F
100
AcDbDictionaryWithDefault
340
F
  0
DICTIONARY
  5
42
102
{ACAD_REACTORS
330
C
102
}
330
C
100
AcDbDictionary
281
     1
  3
A0
350
43
  3
A1
350
44
  3
A2
350
45
  3
A3
350
46
  3
A4
350
47
  3
A5
350
48
  3
A6
350
49
  3
A7
350
4A
  3
A8
350
4B
  3
A9
350
4C
  3
B0
350
4D
  3
B1
350
4E
  3
B2
350
4F
  3
B3
350
50
  3
B4
350
51
  3
B5
350
52
  3
B6
350
53
  0
DICTIONARY
  5
67
102
{ACAD_REACTORS
330
C
102
}
330
C
100
AcDbDictionary
281
     1
  3
Imperial24
350
68
  0
DICTIONARY
  5
63
102
{ACAD_REACTORS
330
C
102
}
330
C
100
AcDbDictionary
281
     1
  3
Standard
350
64
  0
DICTIONARY
  5
29
102
{ACAD_REACTORS
330
C
102
}
330
C
100
AcDbDictionary
281
     1
  3
2dWireframe
350
2F
  3
Basic
350
2E
  3
Brighten
350
35
  3
ColorChange
350
39
  3
Conceptual
350
32
  3
Dim
350
34
  3
EdgeColorOff
350
41
  3
Facepattern
350
38
  3
Flat
350
2A
  3
FlatWithEdges
350
2B
  3
Gouraud
350
2C
  3
GouraudWithEdges
350
2D
  3
Hidden
350
31
  3
JitterOff
350
3F
  3
Linepattern
350
37
  3
OverhangOff
350
40
  3
Realistic
350
33
  3
Shaded
350
3E
  3
Shaded with edges
350
3D
  3
Shades of Gray
350
3A
  3
Sketchy
350
3B
  3
Thicken
350
36
  3
Wireframe
350
30
  3
X-Ray
350
3C
  0
XRECORD
  5
8C5
102
{ACAD_REACTORS
330
C
102
}
330
C
100
AcDbXrecord
280
     1
 90
        1
330
64
  0
DICTIONARY
  5
870
102
{ACAD_REACTORS
330
C
102
}
330
C
100
AcDbDictionary
281
     1
  3
CANNOSCALE
350
875
  3
CMLEADERSTYLE
350
872
  3
CTABLESTYLE
350
871
  3
CVIEWDETAILSTYLE
350
873
  3
CVIEWSECTIONSTYLE
350
874
  3
DIMASSOC
350
878
  3
INDEXCTL
350
877
  3
SORTENTS
350
876
  3
XCLIPFRAME
350
8C3
  0
XRECORD
  5
8C6
102
{ACAD_REACTORS
330
C
102
}
330
C
100
AcDbXrecord
280
     1
  1
DWGPROPS COOKIE
  2

  3

  4

  6

  7

  8
y_uebo
  9

300
=
301
=
302
=
303
=
304
=
305
=
306
=
307
=
308
=
309
=
 40
1.698308587962962
 41
2455902.607164352
 42
2459096.623460649
  1

 90
        0
  0
XRECORD
  5
85B
102
{ACAD_REACTORS
330
85A
102
}
330
85A
100
AcDbXrecord
280
     1
290
     1
  0
XRECORD
  5
85D
102
{ACAD_REACTORS
330
85C
102
}
330
85C
100
AcDbXrecord
280
     1
290
     1
  0
XRECORD
  5
85F
102
{ACAD_REACTORS
330
85E
102
}
330
85E
100
AcDbXrecord
280
     1
290
     1
  0
XRECORD
  5
861
102
{ACAD_REACTORS
330
860
102
}
330
860
100
AcDbXrecord
280
     1
290
     1
  0
XRECORD
  5
863
102
{ACAD_REACTORS
330
862
102
}
330
862
100
AcDbXrecord
280
     1
290
     1
  0
XRECORD
  5
865
102
{ACAD_REACTORS
330
864
102
}
330
864
100
AcDbXrecord
280
     1
290
     1
  0
XRECORD
  5
867
102
{ACAD_REACTORS
330
866
102
}
330
866
100
AcDbXrecord
280
     1
290
     1
  0
XRECORD
  5
869
102
{ACAD_REACTORS
330
868
102
}
330
868
100
AcDbXrecord
280
     1
290
     1
  0
XRECORD
  5
86B
102
{ACAD_REACTORS
330
86A
102
}
330
86A
100
AcDbXrecord
280
     1
290
     1
  0
XRECORD
  5
86D
102
{ACAD_REACTORS
330
86C
102
}
330
86C
100
AcDbXrecord
280
     1
290
     1
  0
XRECORD
  5
86F
102
{ACAD_REACTORS
330
86E
102
}
330
86E
100
AcDbXrecord
280
     1
290
     1
  0
ACDBDETAILVIEWSTYLE
  5
6A
102
{ACAD_XDICTIONARY
360
8FA
102
}
102
{ACAD_REACTORS
330
69
102
}
330
69
100
AcDbModelDocViewStyle
 70
     0
  3
Imperial24
290
     0
100
AcDbDetailViewStyle
 70
     0
 71
     0
 90
        3
 71
     1
340
55
 40
0.24
340
0
 40
0.24
300

 40
0.36
280
     3
 71
     2
340
5C
 90
       25
 71
     3
340
55
 40
0.24
 90
        1
 40
0.75
 90
        1
300
%<\AcVar ViewType \f "%tc1">% %<\AcVar ViewDetailId>%\PSCALE %<\AcVar ViewScale \f "%sn">%
 71
     4
340
5C
 90
       25
340
5C
 90
       25
280
     0
  0
LAYOUT
  5
72
102
{ACAD_XDICTIONARY
360
8FE
102
}
102
{ACAD_REACTORS
330
61
102
}
330
61
100
AcDbPlotSettings
  1

  2
OKI C931(PS)
  4

  6

 40
0.0
 41
0.0
 42
0.0
 43
0.0
 44
0.0
 45
0.0
 46
0.0
 47
0.0
 48
0.0
 49
0.0
140
0.0
141
0.0
142
1.0
143
1.0
 70
  1712
 72
     0
 73
     0
 74
     0
  7

 75
     0
147
1.0
148
0.0
149
0.0
100
AcDbLayout
  1
Model
 70
     1
 71
     0
 10
0.0
 20
0.0
 11
12.0
 21
9.0
 12
0.0
 22
0.0
 32
0.0
 14
0.0
 24
0.0
 34
0.0
 15
0.0
 25
0.0
 35
0.0
146
0.0
 13
0.0
 23
0.0
 33
0.0
 16
1.0
 26
0.0
 36
0.0
 17
0.0
 27
1.0
 37
0.0
 76
     0
330
6F
331
81
  0
LAYOUT
  5
6E
102
{ACAD_XDICTIONARY
360
8FC
102
}
102
{ACAD_REACTORS
330
61
102
}
330
61
100
AcDbPlotSettings
  1

  2
OKI C931(PS)
  4

  6

 40
0.0
 41
0.0
 42
0.0
 43
0.0
 44
0.0
 45
0.0
 46
0.0
 47
0.0
 48
0.0
 49
0.0
140
0.0
141
0.0
142
1.0
143
1.0
 70
   688
 72
     0
 73
     0
 74
     5
  7

 75
    16
147
1.0
148
0.0
149
0.0
100
AcDbLayout
  1
レイアウト1
 70
     1
 71
     1
 10
0.0
 20
0.0
 11
12.0
 21
9.0
 12
0.0
 22
0.0
 32
0.0
 14
1.000000000000000E+20
 24
1.000000000000000E+20
 34
1.000000000000000E+20
 15
-1.000000000000000E+20
 25
-1.000000000000000E+20
 35
-1.000000000000000E+20
146
0.0
 13
0.0
 23
0.0
 33
0.0
 16
1.0
 26
0.0
 36
0.0
 17
0.0
 27
1.0
 37
0.0
 76
     0
330
6B
  0
MATERIAL
  5
19
102
{ACAD_XDICTIONARY
360
1A
102
}
102
{ACAD_REACTORS
330
10
102
}
330
10
100
AcDbMaterial
  1
ByBlock
 72
     0
 43
0.0208333333333333
 43
0.0
 43
0.0
 43
0.0
 43
0.0
 43
0.0208333333333333
 43
0.0
 43
0.0
 43
0.0
 43
0.0
 43
1.0
 43
0.0
 43
0.0
 43
0.0
 43
0.0
 43
1.0
 77
     0
 47
0.0208333333333333
 47
0.0
 47
0.0
 47
0.0
 47
0.0
 47
0.0208333333333333
 47
0.0
 47
0.0
 47
0.0
 47
0.0
 47
1.0
 47
0.0
 47
0.0
 47
0.0
 47
0.0
 47
1.0
171
     0
 49
0.0208333333333333
 49
0.0
 49
0.0
 49
0.0
 49
0.0
 49
0.0208333333333333
 49
0.0
 49
0.0
 49
0.0
 49
0.0
 49
1.0
 49
0.0
 49
0.0
 49
0.0
 49
0.0
 49
1.0
175
     0
142
0.0208333333333333
142
0.0
142
0.0
142
0.0
142
0.0
142
0.0208333333333333
142
0.0
142
0.0
142
0.0
142
0.0
142
1.0
142
0.0
142
0.0
142
0.0
142
0.0
142
1.0
179
     0
144
0.0208333333333333
144
0.0
144
0.0
144
0.0
144
0.0
144
0.0208333333333333
144
0.0
144
0.0
144
0.0
144
0.0
144
1.0
144
0.0
144
0.0
144
0.0
144
0.0
144
1.0
147
0.0208333333333333
147
0.0
147
0.0
147
0.0
147
0.0
147
0.0208333333333333
147
0.0
147
0.0
147
0.0
147
0.0
147
1.0
147
0.0
147
0.0
147
0.0
147
0.0
147
1.0
  0
MATERIAL
  5
11
102
{ACAD_XDICTIONARY
360
12
102
}
102
{ACAD_REACTORS
330
10
102
}
330
10
100
AcDbMaterial
  1
ByLayer
 72
     0
 43
0.0208333333333333
 43
0.0
 43
0.0
 43
0.0
 43
0.0
 43
0.0208333333333333
 43
0.0
 43
0.0
 43
0.0
 43
0.0
 43
1.0
 43
0.0
 43
0.0
 43
0.0
 43
0.0
 43
1.0
 77
     0
 47
0.0208333333333333
 47
0.0
 47
0.0
 47
0.0
 47
0.0
 47
0.0208333333333333
 47
0.0
 47
0.0
 47
0.0
 47
0.0
 47
1.0
 47
0.0
 47
0.0
 47
0.0
 47
0.0
 47
1.0
171
     0
 49
0.0208333333333333
 49
0.0
 49
0.0
 49
0.0
 49
0.0
 49
0.0208333333333333
 49
0.0
 49
0.0
 49
0.0
 49
0.0
 49
1.0
 49
0.0
 49
0.0
 49
0.0
 49
0.0
 49
1.0
175
     0
142
0.0208333333333333
142
0.0
142
0.0
142
0.0
142
0.0
142
0.0208333333333333
142
0.0
142
0.0
142
0.0
142
0.0
142
1.0
142
0.0
142
0.0
142
0.0
142
0.0
142
1.0
179
     0
144
0.0208333333333333
144
0.0
144
0.0
144
0.0
144
0.0
144
0.0208333333333333
144
0.0
144
0.0
144
0.0
144
0.0
144
1.0
144
0.0
144
0.0
144
0.0
144
0.0
144
1.0
147
0.0208333333333333
147
0.0
147
0.0
147
0.0
147
0.0
147
0.0208333333333333
147
0.0
147
0.0
147
0.0
147
0.0
147
1.0
147
0.0
147
0.0
147
0.0
147
0.0
147
1.0
  0
MATERIAL
  5
21
102
{ACAD_XDICTIONARY
360
22
102
}
102
{ACAD_REACTORS
330
10
102
}
330
10
100
AcDbMaterial
  1
Global
 72
     0
 43
0.0208333333333333
 43
0.0
 43
0.0
 43
0.0
 43
0.0
 43
0.0208333333333333
 43
0.0
 43
0.0
 43
0.0
 43
0.0
 43
1.0
 43
0.0
 43
0.0
 43
0.0
 43
0.0
 43
1.0
 77
     0
 47
0.0208333333333333
 47
0.0
 47
0.0
 47
0.0
 47
0.0
 47
0.0208333333333333
 47
0.0
 47
0.0
 47
0.0
 47
0.0
 47
1.0
 47
0.0
 47
0.0
 47
0.0
 47
0.0
 47
1.0
171
     0
 49
0.0208333333333333
 49
0.0
 49
0.0
 49
0.0
 49
0.0
 49
0.0208333333333333
 49
0.0
 49
0.0
 49
0.0
 49
0.0
 49
1.0
 49
0.0
 49
0.0
 49
0.0
 49
0.0
 49
1.0
175
     0
142
0.0208333333333333
142
0.0
142
0.0
142
0.0
142
0.0
142
0.0208333333333333
142
0.0
142
0.0
142
0.0
142
0.0
142
1.0
142
0.0
142
0.0
142
0.0
142
0.0
142
1.0
179
     0
144
0.0208333333333333
144
0.0
144
0.0
144
0.0
144
0.0
144
0.0208333333333333
144
0.0
144
0.0
144
0.0
144
0.0
144
1.0
144
0.0
144
0.0
144
0.0
144
0.0
144
1.0
147
0.0208333333333333
147
0.0
147
0.0
147
0.0
147
0.0
147
0.0208333333333333
147
0.0
147
0.0
147
0.0
147
0.0
147
1.0
147
0.0
147
0.0
147
0.0
147
0.0
147
1.0
  0
MLEADERSTYLE
  5
66
102
{ACAD_REACTORS
330
65
102
}
330
65
100
AcDbMLeaderStyle
170
     2
171
     1
172
     0
 90
        2
 40
0.0
 41
0.0
173
     1
 91
-1056964608
340
5A
 92
       -2
290
     1
 42
0.09
291
     1
 43
0.36
  3
Standard
 44
0.18
300

342
55
174
     1
178
     6
175
     1
176
     0
 93
-1056964608
 45
0.18
292
     0
297
     0
 46
0.18
 94
-1056964608
 47
1.0
 49
1.0
140
1.0
293
     1
141
0.0
294
     1
177
     0
142
1.0
295
     0
296
     0
143
0.125
1001
ACAD_MLEADERVER
1070
     2
  0
MLINESTYLE
  5
5F
102
{ACAD_REACTORS
330
5E
102
}
330
5E
100
AcDbMlineStyle
  2
STANDARD
 70
     0
  3

 62
   256
 51
90.0
 52
90.0
 71
     2
 49
0.5
 62
   256
  6
BYLAYER
 49
-0.5
 62
   256
  6
BYLAYER
  0
ACDBPLACEHOLDER
  5
F
102
{ACAD_REACTORS
330
E
102
}
330
E
  0
SCALE
  5
43
102
{ACAD_REACTORS
330
42
102
}
330
42
100
AcDbScale
 70
     0
300
1:1
140
1.0
141
1.0
290
     1
  0
SCALE
  5
44
102
{ACAD_REACTORS
330
42
102
}
330
42
100
AcDbScale
 70
     0
300
1/128" = 1'-0"
140
0.0078125
141
12.0
290
     0
  0
SCALE
  5
45
102
{ACAD_REACTORS
330
42
102
}
330
42
100
AcDbScale
 70
     0
300
1/64" = 1'-0"
140
0.015625
141
12.0
290
     0
  0
SCALE
  5
46
102
{ACAD_REACTORS
330
42
102
}
330
42
100
AcDbScale
 70
     0
300
1/32" = 1'-0"
140
0.03125
141
12.0
290
     0
  0
SCALE
  5
47
102
{ACAD_REACTORS
330
42
102
}
330
42
100
AcDbScale
 70
     0
300
1/16" = 1'-0"
140
0.0625
141
12.0
290
     0
  0
SCALE
  5
48
102
{ACAD_REACTORS
330
42
102
}
330
42
100
AcDbScale
 70
     0
300
3/32" = 1'-0"
140
0.09375
141
12.0
290
     0
  0
SCALE
  5
49
102
{ACAD_REACTORS
330
42
102
}
330
42
100
AcDbScale
 70
     0
300
1/8" = 1'-0"
140
0.125
141
12.0
290
     0
  0
SCALE
  5
4A
102
{ACAD_REACTORS
330
42
102
}
330
42
100
AcDbScale
 70
     0
300
3/16" = 1'-0"
140
0.1875
141
12.0
290
     0
  0
SCALE
  5
4B
102
{ACAD_REACTORS
330
42
102
}
330
42
100
AcDbScale
 70
     0
300
1/4" = 1'-0"
140
0.25
141
12.0
290
     0
  0
SCALE
  5
4C
102
{ACAD_REACTORS
330
42
102
}
330
42
100
AcDbScale
 70
     0
300
3/8" = 1'-0"
140
0.375
141
12.0
290
     0
  0
SCALE
  5
4D
102
{ACAD_REACTORS
330
42
102
}
330
42
100
AcDbScale
 70
     0
300
1/2" = 1'-0"
140
0.5
141
12.0
290
     0
  0
SCALE
  5
4E
102
{ACAD_REACTORS
330
42
102
}
330
42
100
AcDbScale
 70
     0
300
3/4" = 1'-0"
140
0.75
141
12.0
290
     0
  0
SCALE
  5
4F
102
{ACAD_REACTORS
330
42
102
}
330
42
100
AcDbScale
 70
     0
300
1" = 1'-0"
140
1.0
141
12.0
290
     0
  0
SCALE
  5
50
102
{ACAD_REACTORS
330
42
102
}
330
42
100
AcDbScale
 70
     0
300
1-1/2" = 1'-0"
140
1.5
141
12.0
290
     0
  0
SCALE
  5
51
102
{ACAD_REACTORS
330
42
102
}
330
42
100
AcDbScale
 70
     0
300
3" = 1'-0"
140
3.0
141
12.0
290
     0
  0
SCALE
  5
52
102
{ACAD_REACTORS
330
42
102
}
330
42
100
AcDbScale
 70
     0
300
6" = 1'-0"
140
6.0
141
12.0
290
     0
  0
SCALE
  5
53
102
{ACAD_REACTORS
330
42
102
}
330
42
100
AcDbScale
 70
     0
300
1'-0" = 1'-0"
140
12.0
141
12.0
290
     0
  0
ACDBSECTIONVIEWSTYLE
  5
68
102
{ACAD_XDICTIONARY
360
8F8
102
}
102
{ACAD_REACTORS
330
67
102
}
330
67
100
AcDbModelDocViewStyle
 70
     0
  3
Imperial24
290
     0
100
AcDbSectionViewStyle
 70
     0
 71
     0
 90
       78
 71
     1
340
55
 40
0.24
340
0
340
0
 40
0.24
300
I, O, Q, S, X, Z
 40
0.48
 90
        3
 40
0.18
 90
        1
 71
     2
340
5C
 90
       25
340
5C
 90
       50
 40
0.24
 40
0.0
 40
0.24
 71
     3
340
55
 40
0.24
 90
        1
 40
0.75
 90
        1
300
%<\AcVar ViewType \f "%tc1">% %<\AcVar ViewSectionStartId>%-%<\AcVar ViewSectionEndId>%\PSCALE %<\AcVar ViewScale \f "%sn">%
 71
     4
300
ANSI31
 40
1.0
 90
        0
290
     0
290
     0
 90
        6
 40
0.0
 40
1.570796326794896
 40
0.2617993877991494
 40
1.308996938995747
 40
-0.2617993877991494
 40
1.832595714594045
  0
TABLESTYLE
  5
64
102
{ACAD_XDICTIONARY
360
87B
102
}
102
{ACAD_REACTORS
330
63
102
}
330
63
100
AcDbTableStyle
  3
Standard
 70
     0
 71
     0
 40
0.06
 41
0.06
280
     0
281
     0
  7
STANDARD
140
0.18
170
     2
 62
     0
 63
     7
283
     0
274
    -2
284
     1
 64
     0
275
    -2
285
     1
 65
     0
276
    -2
286
     1
 66
     0
277
    -2
287
     1
 67
     0
278
    -2
288
     1
 68
     0
279
    -2
289
     1
 69
     0
  7
STANDARD
140
0.25
170
     5
 62
     0
 63
     7
283
     0
274
    -2
284
     1
 64
     0
275
    -2
285
     1
 65
     0
276
    -2
286
     1
 66
     0
277
    -2
287
     1
 67
     0
278
    -2
288
     1
 68
     0
279
    -2
289
     1
 69
     0
  7
STANDARD
140
0.18
170
     5
 62
     0
 63
     7
283
     0
274
    -2
284
     1
 64
     0
275
    -2
285
     1
 65
     0
276
    -2
286
     1
 66
     0
277
    -2
287
     1
 67
     0
278
    -2
288
     1
 68
     0
279
    -2
289
     1
 69
     0
  0
VISUALSTYLE
  5
2F
102
{ACAD_XDICTIONARY
360
8D1
102
}
102
{ACAD_REACTORS
330
29
102
}
330
29
100
AcDbVisualStyle
  2

 70
     4
 71
     0
 72
     2
 73
     0
 90
        0
 40
-0.6
 41
-30.0
 62
     5
 63
     7
 74
     1
 91
        4
 64
     7
 65
   257
 75
     1
175
     1
 42
1.0
 92
        0
 66
   257
 43
1.0
 76
     1
 77
     6
 78
     2
 67
     7
 79
     5
170
     0
171
     0
290
     0
174
     0
 93
        1
 44
0.0
173
     0
291
     0
 45
0.0
1001
ACAD
1000
AcDbSavedByObjectVersion
1070
     0
  0
VISUALSTYLE
  5
2E
102
{ACAD_XDICTIONARY
360
8CF
102
}
102
{ACAD_REACTORS
330
29
102
}
330
29
100
AcDbVisualStyle
  2

 70
     7
 71
     1
 72
     0
 73
     1
 90
        0
 40
-0.6
 41
-30.0
 62
     5
 63
     7
 74
     0
 91
        4
 64
     7
 65
   257
 75
     1
175
     1
 42
1.0
 92
        8
 66
     7
 43
1.0
 76
     1
 77
     6
 78
     2
 67
     7
 79
     5
170
     0
171
     0
290
     0
174
     0
 93
        1
 44
0.0
173
     0
291
     1
 45
0.0
1001
ACAD
1000
AcDbSavedByObjectVersion
1070
     0
  0
VISUALSTYLE
  5
35
102
{ACAD_XDICTIONARY
360
8DD
102
}
102
{ACAD_REACTORS
330
29
102
}
330
29
100
AcDbVisualStyle
  2

 70
    12
 71
     2
 72
     2
 73
     0
 90
        0
 40
-0.6
 41
-30.0
 62
     5
 63
     7
 74
     1
 91
        4
 64
     7
 65
   257
 75
     1
175
     1
 42
1.0
 92
        8
 66
     7
 43
1.0
 76
     1
 77
     6
 78
     2
 67
     7
 79
     5
170
     0
171
     0
290
     0
174
     0
 93
        1
 44
50.0
173
     0
291
     1
 45
0.0
1001
ACAD
1000
AcDbSavedByObjectVersion
1070
     0
  0
VISUALSTYLE
  5
39
102
{ACAD_XDICTIONARY
360
8E5
102
}
102
{ACAD_REACTORS
330
29
102
}
330
29
100
AcDbVisualStyle
  2

 70
    16
 71
     2
 72
     2
 73
     3
 90
        0
 40
-0.6
 41
-30.0
 62
     5
 63
     8
 74
     1
 91
        4
 64
     7
 65
   257
 75
     1
175
     1
 42
1.0
 92
        8
 66
     8
 43
1.0
 76
     1
 77
     6
 78
     2
 67
     7
 79
     5
170
     0
171
     0
290
     0
174
     0
 93
        1
 44
0.0
173
     0
291
     1
 45
0.0
1001
ACAD
1000
AcDbSavedByObjectVersion
1070
     0
  0
VISUALSTYLE
  5
32
102
{ACAD_XDICTIONARY
360
8D7
102
}
102
{ACAD_REACTORS
330
29
102
}
330
29
100
AcDbVisualStyle
  2

 70
     9
 71
     3
 72
     2
 73
     0
 90
        0
 40
-0.6
 41
-30.0
 62
     5
 63
     7
 74
     2
 91
        2
 64
     7
 65
   257
 75
     1
175
     1
 42
179.0
 92
        8
 66
     7
 43
1.0
 76
     1
 77
     6
 78
     2
 67
     7
 79
     3
170
     0
171
     0
290
     0
174
     0
 93
        1
 44
0.0
173
     0
291
     0
 45
0.0
1001
ACAD
1000
AcDbSavedByObjectVersion
1070
     0
  0
VISUALSTYLE
  5
34
102
{ACAD_XDICTIONARY
360
8DB
102
}
102
{ACAD_REACTORS
330
29
102
}
330
29
100
AcDbVisualStyle
  2

 70
    11
 71
     2
 72
     2
 73
     0
 90
        0
 40
-0.6
 41
-30.0
 62
     5
 63
     7
 74
     1
 91
        4
 64
     7
 65
   257
 75
     1
175
     1
 42
1.0
 92
        8
 66
     7
 43
1.0
 76
     1
 77
     6
 78
     2
 67
     7
 79
     5
170
     0
171
     0
290
     0
174
     0
 93
        1
 44
-50.0
173
     0
291
     1
 45
0.0
1001
ACAD
1000
AcDbSavedByObjectVersion
1070
     0
  0
VISUALSTYLE
  5
41
102
{ACAD_XDICTIONARY
360
8F5
102
}
102
{ACAD_REACTORS
330
29
102
}
330
29
100
AcDbVisualStyle
  2

 70
    22
 71
     2
 72
     2
 73
     0
 90
        0
 40
-0.6
 41
-30.0
 62
     5
 63
     7
 74
     1
 91
        4
 64
     7
 65
   257
 75
     1
175
     1
 42
1.0
 92
        8
 66
     7
 43
1.0
 76
     1
 77
     6
 78
     2
 67
     7
 79
     5
170
     0
171
     0
290
     0
174
     0
 93
        1
 44
0.0
173
     0
291
     1
 45
0.0
1001
ACAD
1000
AcDbSavedByObjectVersion
1070
     0
  0
VISUALSTYLE
  5
38
102
{ACAD_XDICTIONARY
360
8E3
102
}
102
{ACAD_REACTORS
330
29
102
}
330
29
100
AcDbVisualStyle
  2

 70
    15
 71
     2
 72
     2
 73
     0
 90
        0
 40
-0.6
 41
-30.0
 62
     5
 63
     7
 74
     1
 91
        4
 64
     7
 65
   257
 75
     1
175
     1
 42
1.0
 92
        8
 66
     7
 43
1.0
 76
     1
 77
     6
 78
     2
 67
     7
 79
     5
170
     0
171
     0
290
     0
174
     0
 93
        1
 44
0.0
173
     0
291
     1
 45
0.0
1001
ACAD
1000
AcDbSavedByObjectVersion
1070
     0
  0
VISUALSTYLE
  5
2A
102
{ACAD_XDICTIONARY
360
8C7
102
}
102
{ACAD_REACTORS
330
29
102
}
330
29
100
AcDbVisualStyle
  2

 70
     0
 71
     2
 72
     1
 73
     1
 90
        2
 40
-0.6
 41
30.0
 62
     5
 63
     7
 74
     0
 91
        0
 64
     7
 65
   257
 75
     1
175
     1
 42
1.0
 92
        8
 66
     7
 43
1.0
 76
     1
 77
     6
 78
     2
 67
     7
 79
     5
170
     0
171
     0
290
     0
174
     0
 93
       13
 44
0.0
173
     0
291
     1
 45
0.0
1001
ACAD
1000
AcDbSavedByObjectVersion
1070
     0
  0
VISUALSTYLE
  5
2B
102
{ACAD_XDICTIONARY
360
8C9
102
}
102
{ACAD_REACTORS
330
29
102
}
330
29
100
AcDbVisualStyle
  2

 70
     1
 71
     2
 72
     1
 73
     1
 90
        2
 40
-0.6
 41
30.0
 62
     5
 63
     7
 74
     1
 91
        0
 64
     7
 65
   257
 75
     1
175
     1
 42
1.0
 92
        0
 66
   257
 43
1.0
 76
     1
 77
     6
 78
     2
 67
     7
 79
     5
170
     0
171
     0
290
     0
174
     0
 93
       13
 44
0.0
173
     0
291
     1
 45
0.0
1001
ACAD
1000
AcDbSavedByObjectVersion
1070
     0
  0
VISUALSTYLE
  5
2C
102
{ACAD_XDICTIONARY
360
8CB
102
}
102
{ACAD_REACTORS
330
29
102
}
330
29
100
AcDbVisualStyle
  2

 70
     2
 71
     2
 72
     2
 73
     1
 90
        2
 40
-0.6
 41
30.0
 62
     5
 63
     7
 74
     0
 91
        0
 64
     7
 65
   257
 75
     1
175
     1
 42
1.0
 92
        0
 66
     7
 43
1.0
 76
     1
 77
     6
 78
     2
 67
     7
 79
     5
170
     0
171
     0
290
     0
174
     0
 93
       13
 44
0.0
173
     0
291
     1
 45
0.0
1001
ACAD
1000
AcDbSavedByObjectVersion
1070
     0
  0
VISUALSTYLE
  5
2D
102
{ACAD_XDICTIONARY
360
8CD
102
}
102
{ACAD_REACTORS
330
29
102
}
330
29
100
AcDbVisualStyle
  2

 70
     3
 71
     2
 72
     2
 73
     1
 90
        2
 40
-0.6
 41
30.0
 62
     5
 63
     7
 74
     1
 91
        0
 64
     7
 65
   257
 75
     1
175
     1
 42
1.0
 92
        0
 66
   257
 43
1.0
 76
     1
 77
     6
 78
     2
 67
     7
 79
     5
170
     0
171
     0
290
     0
174
     0
 93
       13
 44
0.0
173
     0
291
     1
 45
0.0
1001
ACAD
1000
AcDbSavedByObjectVersion
1070
     0
  0
VISUALSTYLE
  5
31
102
{ACAD_XDICTIONARY
360
8D5
102
}
102
{ACAD_REACTORS
330
29
102
}
330
29
100
AcDbVisualStyle
  2

 70
     6
 71
     1
 72
     2
 73
     2
 90
        0
 40
-0.6
 41
-30.0
 62
     5
 63
     7
 74
     2
 91
        2
 64
     7
 65
   257
 75
     2
175
     1
 42
40.0
 92
        0
 66
   257
 43
1.0
 76
     1
 77
     6
 78
     2
 67
     7
 79
     3
170
     0
171
     0
290
     0
174
     0
 93
        1
 44
0.0
173
     0
291
     0
 45
0.0
1001
ACAD
1000
AcDbSavedByObjectVersion
1070
     0
  0
VISUALSTYLE
  5
3F
102
{ACAD_XDICTIONARY
360
8F1
102
}
102
{ACAD_REACTORS
330
29
102
}
330
29
100
AcDbVisualStyle
  2

 70
    20
 71
     2
 72
     2
 73
     0
 90
        0
 40
-0.6
 41
-30.0
 62
     5
 63
     7
 74
     1
 91
        4
 64
     7
 65
   257
 75
     1
175
     1
 42
1.0
 92
       10
 66
     7
 43
1.0
 76
     1
 77
     6
 78
     2
 67
     7
 79
     5
170
     0
171
     0
290
     0
174
     0
 93
        1
 44
0.0
173
     0
291
     1
 45
0.0
1001
ACAD
1000
AcDbSavedByObjectVersion
1070
     0
  0
VISUALSTYLE
  5
37
102
{ACAD_XDICTIONARY
360
8E1
102
}
102
{ACAD_REACTORS
330
29
102
}
330
29
100
AcDbVisualStyle
  2

 70
    14
 71
     2
 72
     2
 73
     0
 90
        0
 40
-0.6
 41
-30.0
 62
     5
 63
     7
 74
     1
 91
        4
 64
     7
 65
   257
 75
     7
175
     7
 42
1.0
 92
        8
 66
     7
 43
1.0
 76
     1
 77
     6
 78
     2
 67
     7
 79
     5
170
     0
171
     0
290
     0
174
     0
 93
        1
 44
0.0
173
     0
291
     1
 45
0.0
1001
ACAD
1000
AcDbSavedByObjectVersion
1070
     0
  0
VISUALSTYLE
  5
40
102
{ACAD_XDICTIONARY
360
8F3
102
}
102
{ACAD_REACTORS
330
29
102
}
330
29
100
AcDbVisualStyle
  2

 70
    21
 71
     2
 72
     2
 73
     0
 90
        0
 40
-0.6
 41
-30.0
 62
     5
 63
     7
 74
     1
 91
        4
 64
     7
 65
   257
 75
     1
175
     1
 42
1.0
 92
        9
 66
     7
 43
1.0
 76
     1
 77
     6
 78
     2
 67
     7
 79
     5
170
     0
171
     0
290
     0
174
     0
 93
        1
 44
0.0
173
     0
291
     1
 45
0.0
1001
ACAD
1000
AcDbSavedByObjectVersion
1070
     0
  0
VISUALSTYLE
  5
33
102
{ACAD_XDICTIONARY
360
8D9
102
}
102
{ACAD_REACTORS
330
29
102
}
330
29
100
AcDbVisualStyle
  2

 70
     8
 71
     2
 72
     3
 73
     0
 90
        2
 40
-0.6
 41
30.0
 62
     5
 63
     7
 74
     0
 91
        0
 64
     7
 65
   257
 75
     1
175
     1
 42
1.0
 92
        8
 66
   257
 43
1.0
 76
     1
 77
     6
 78
     2
 67
     7
 79
     3
170
     0
171
     0
290
     0
174
     0
 93
       13
 44
0.0
173
     0
291
     0
 45
0.0
1001
ACAD
1000
AcDbSavedByObjectVersion
1070
     0
  0
VISUALSTYLE
  5
3E
102
{ACAD_XDICTIONARY
360
8EF
102
}
102
{ACAD_REACTORS
330
29
102
}
330
29
100
AcDbVisualStyle
  2

 70
    27
 71
     2
 72
     2
 73
     1
 90
        2
 40
-0.6
 41
30.0
 62
     5
 63
     7
 74
     0
 91
        4
 64
     7
 65
   257
 75
     1
175
     1
 42
1.0
 92
        8
 66
   257
 43
1.0
 76
     1
 77
     6
 78
     2
 67
     8
 79
     3
170
     0
171
     0
290
     0
174
     0
 93
        5
 44
0.0
173
     0
291
     0
 45
0.0
1001
ACAD
1000
AcDbSavedByObjectVersion
1070
     0
  0
VISUALSTYLE
  5
3D
102
{ACAD_XDICTIONARY
360
8ED
102
}
102
{ACAD_REACTORS
330
29
102
}
330
29
100
AcDbVisualStyle
  2

 70
    26
 71
     2
 72
     2
 73
     1
 90
        2
 40
-0.6
 41
30.0
 62
     5
 63
     7
 74
     1
 91
        2
 64
     7
 65
   257
 75
     2
175
     1
 42
1.0
 92
        8
 66
   257
 43
1.0
 76
     1
 77
     6
 78
     2
 67
     7
 79
     3
170
     0
171
     0
290
     0
174
     0
 93
        5
 44
0.0
173
     0
291
     0
 45
0.0
1001
ACAD
1000
AcDbSavedByObjectVersion
1070
     0
  0
VISUALSTYLE
  5
3A
102
{ACAD_XDICTIONARY
360
8E7
102
}
102
{ACAD_REACTORS
330
29
102
}
330
29
100
AcDbVisualStyle
  2

 70
    23
 71
     2
 72
     2
 73
     3
 90
        0
 40
-0.6
 41
-30.0
 62
     5
 63
     7
 74
     2
 91
        2
 64
     7
 65
     7
 75
     1
175
     1
 42
40.0
 92
        8
 66
     7
 43
1.0
 76
     1
 77
     6
 78
     2
 67
     7
 79
     3
170
     0
171
     0
290
     0
174
     0
 93
        1
 44
0.0
173
     0
291
     0
 45
0.0
1001
ACAD
1000
AcDbSavedByObjectVersion
1070
     0
  0
VISUALSTYLE
  5
3B
102
{ACAD_XDICTIONARY
360
8E9
102
}
102
{ACAD_REACTORS
330
29
102
}
330
29
100
AcDbVisualStyle
  2

 70
    24
 71
     1
 72
     2
 73
     2
 90
        0
 40
-0.6
 41
-30.0
 62
     5
 63
     7
 74
     2
 91
        2
 64
     7
 65
     7
 75
     1
175
     1
 42
40.0
 92
       11
 66
     7
 43
1.0
 76
     1
 77
     6
 78
     2
 67
     7
 79
     6
170
     0
171
     0
290
     0
174
     0
 93
        1
 44
0.0
173
     0
291
     0
 45
0.0
1001
ACAD
1000
AcDbSavedByObjectVersion
1070
     0
  0
VISUALSTYLE
  5
36
102
{ACAD_XDICTIONARY
360
8DF
102
}
102
{ACAD_REACTORS
330
29
102
}
330
29
100
AcDbVisualStyle
  2

 70
    13
 71
     2
 72
     2
 73
     0
 90
        0
 40
-0.6
 41
-30.0
 62
     5
 63
     7
 74
     1
 91
        4
 64
     7
 65
   257
 75
     1
175
     1
 42
1.0
 92
       12
 66
     7
 43
1.0
 76
     1
 77
     6
 78
     2
 67
     7
 79
     5
170
     0
171
     0
290
     0
174
     0
 93
        1
 44
0.0
173
     0
291
     1
 45
0.0
1001
ACAD
1000
AcDbSavedByObjectVersion
1070
     0
  0
VISUALSTYLE
  5
30
102
{ACAD_XDICTIONARY
360
8D3
102
}
102
{ACAD_REACTORS
330
29
102
}
330
29
100
AcDbVisualStyle
  2

 70
     5
 71
     0
 72
     2
 73
     0
 90
        0
 40
-0.6
 41
-30.0
 62
     5
 63
     7
 74
     1
 91
        4
 64
     7
 65
   257
 75
     1
175
     1
 42
1.0
 92
        0
 66
   257
 43
1.0
 76
     1
 77
     6
 78
     2
 67
     7
 79
     3
170
     0
171
     0
290
     0
174
     0
 93
        1
 44
0.0
173
     0
291
     0
 45
0.0
1001
ACAD
1000
AcDbSavedByObjectVersion
1070
     0
  0
VISUALSTYLE
  5
3C
102
{ACAD_XDICTIONARY
360
8EB
102
}
102
{ACAD_REACTORS
330
29
102
}
330
29
100
AcDbVisualStyle
  2

 70
    25
 71
     2
 72
     2
 73
     1
 90
        1
 40
0.5
 41
-30.0
 62
     5
 63
     7
 74
     1
 91
        0
 64
     7
 65
   257
 75
     1
175
     1
 42
1.0
 92
        8
 66
     7
 43
1.0
 76
     1
 77
     6
 78
     2
 67
     7
 79
     3
170
     0
171
     0
290
     0
174
     0
 93
       13
 44
0.0
173
     0
291
     0
 45
0.0
1001
ACAD
1000
AcDbSavedByObjectVersion
1070
     0
  0
DICTIONARYVAR
  5
875
102
{ACAD_REACTORS
330
870
102
}
330
870
100
DictionaryVariables
280
     0
  1
1:1
  0
DICTIONARYVAR
  5
872
102
{ACAD_REACTORS
330
870
102
}
330
870
100
DictionaryVariables
280
     0
  1
STANDARD
  0
DICTIONARYVAR
  5
871
102
{ACAD_REACTORS
330
870
102
}
330
870
100
DictionaryVariables
280
     0
  1
STANDARD
  0
DICTIONARYVAR
  5
873
102
{ACAD_REACTORS
330
870
102
}
330
870
100
DictionaryVariables
280
     0
  1
Imperial24
  0
DICTIONARYVAR
  5
874
102
{ACAD_REACTORS
330
870
102
}
330
870
100
DictionaryVariables
280
     0
  1
Imperial24
  0
DICTIONARYVAR
  5
878
102
{ACAD_REACTORS
330
870
102
}
330
870
100
DictionaryVariables
280
     0
  1
1
  0
DICTIONARYVAR
  5
877
102
{ACAD_REACTORS
330
870
102
}
330
870
100
DictionaryVariables
280
     0
  1
0
  0
DICTIONARYVAR
  5
876
102
{ACAD_REACTORS
330
870
102
}
330
870
100
DictionaryVariables
280
     0
  1
127
  0
DICTIONARYVAR
  5
8C3
102
{ACAD_REACTORS
330
870
102
}
330
870
100
DictionaryVariables
280
     0
  1
2
  0
DICTIONARY
  5
8FA
330
6A
100
AcDbDictionary
280
     1
281
     1
  3
ACAD_XREC_ROUNDTRIP
360
8FB
  0
DICTIONARY
  5
8FE
330
72
100
AcDbDictionary
280
     1
281
     1
  3
ACAD_XREC_ROUNDTRIP
360
8FF
  0
DICTIONARY
  5
8FC
330
6E
100
AcDbDictionary
280
     1
281
     1
  3
ACAD_XREC_ROUNDTRIP
360
8FD
  0
DICTIONARY
  5
1A
330
19
100
AcDbDictionary
280
     1
281
     1
  3
ACAD_XREC_ROUNDTRIP
360
880
  3
BUMPTILE
360
1C
  3
DIFFUSETILE
360
1B
  3
OPACITYTILE
360
1F
  3
REFLECTIONTILE
360
1E
  3
REFRACTIONTILE
360
20
  3
SPECULARTILE
360
1D
  0
DICTIONARY
  5
12
330
11
100
AcDbDictionary
280
     1
281
     1
  3
ACAD_XREC_ROUNDTRIP
360
87F
  3
BUMPTILE
360
14
  3
DIFFUSETILE
360
13
  3
OPACITYTILE
360
17
  3
REFLECTIONTILE
360
16
  3
REFRACTIONTILE
360
18
  3
SPECULARTILE
360
15
  0
DICTIONARY
  5
22
330
21
100
AcDbDictionary
280
     1
281
     1
  3
ACAD_XREC_ROUNDTRIP
360
881
  3
BUMPTILE
360
24
  3
DIFFUSETILE
360
23
  3
OPACITYTILE
360
27
  3
REFLECTIONTILE
360
26
  3
REFRACTIONTILE
360
28
  3
SPECULARTILE
360
25
  0
DICTIONARY
  5
8F8
330
68
100
AcDbDictionary
280
     1
281
     1
  3
ACAD_XREC_ROUNDTRIP
360
8F9
  0
DICTIONARY
  5
87B
330
64
100
AcDbDictionary
280
     1
281
     1
  3
ACAD_ROUNDTRIP_2008_TABLESTYLE_CELLSTYLEMAP
360
8C4
  3
ACAD_XREC_ROUNDTRIP
360
8F7
  0
DICTIONARY
  5
8D1
330
2F
100
AcDbDictionary
280
     1
281
     1
  3
ACAD_XREC_ROUNDTRIP
360
8D2
  0
DICTIONARY
  5
8CF
330
2E
100
AcDbDictionary
280
     1
281
     1
  3
ACAD_XREC_ROUNDTRIP
360
8D0
  0
DICTIONARY
  5
8DD
330
35
100
AcDbDictionary
280
     1
281
     1
  3
ACAD_XREC_ROUNDTRIP
360
8DE
  0
DICTIONARY
  5
8E5
330
39
100
AcDbDictionary
280
     1
281
     1
  3
ACAD_XREC_ROUNDTRIP
360
8E6
  0
DICTIONARY
  5
8D7
330
32
100
AcDbDictionary
280
     1
281
     1
  3
ACAD_XREC_ROUNDTRIP
360
8D8
  0
DICTIONARY
  5
8DB
330
34
100
AcDbDictionary
280
     1
281
     1
  3
ACAD_XREC_ROUNDTRIP
360
8DC
  0
DICTIONARY
  5
8F5
330
41
100
AcDbDictionary
280
     1
281
     1
  3
ACAD_XREC_ROUNDTRIP
360
8F6
  0
DICTIONARY
  5
8E3
330
38
100
AcDbDictionary
280
     1
281
     1
  3
ACAD_XREC_ROUNDTRIP
360
8E4
  0
DICTIONARY
  5
8C7
330
2A
100
AcDbDictionary
280
     1
281
     1
  3
ACAD_XREC_ROUNDTRIP
360
8C8
  0
DICTIONARY
  5
8C9
330
2B
100
AcDbDictionary
280
     1
281
     1
  3
ACAD_XREC_ROUNDTRIP
360
8CA
  0
DICTIONARY
  5
8CB
330
2C
100
AcDbDictionary
280
     1
281
     1
  3
ACAD_XREC_ROUNDTRIP
360
8CC
  0
DICTIONARY
  5
8CD
330
2D
100
AcDbDictionary
280
     1
281
     1
  3
ACAD_XREC_ROUNDTRIP
360
8CE
  0
DICTIONARY
  5
8D5
330
31
100
AcDbDictionary
280
     1
281
     1
  3
ACAD_XREC_ROUNDTRIP
360
8D6
  0
DICTIONARY
  5
8F1
330
3F
100
AcDbDictionary
280
     1
281
     1
  3
ACAD_XREC_ROUNDTRIP
360
8F2
  0
DICTIONARY
  5
8E1
330
37
100
AcDbDictionary
280
     1
281
     1
  3
ACAD_XREC_ROUNDTRIP
360
8E2
  0
DICTIONARY
  5
8F3
330
40
100
AcDbDictionary
280
     1
281
     1
  3
ACAD_XREC_ROUNDTRIP
360
8F4
  0
DICTIONARY
  5
8D9
330
33
100
AcDbDictionary
280
     1
281
     1
  3
ACAD_XREC_ROUNDTRIP
360
8DA
  0
DICTIONARY
  5
8EF
330
3E
100
AcDbDictionary
280
     1
281
     1
  3
ACAD_XREC_ROUNDTRIP
360
8F0
  0
DICTIONARY
  5
8ED
330
3D
100
AcDbDictionary
280
     1
281
     1
  3
ACAD_XREC_ROUNDTRIP
360
8EE
  0
DICTIONARY
  5
8E7
330
3A
100
AcDbDictionary
280
     1
281
     1
  3
ACAD_XREC_ROUNDTRIP
360
8E8
  0
DICTIONARY
  5
8E9
330
3B
100
AcDbDictionary
280
     1
281
     1
  3
ACAD_XREC_ROUNDTRIP
360
8EA
  0
DICTIONARY
  5
8DF
330
36
100
AcDbDictionary
280
     1
281
     1
  3
ACAD_XREC_ROUNDTRIP
360
8E0
  0
DICTIONARY
  5
8D3
330
30
100
AcDbDictionary
280
     1
281
     1
  3
ACAD_XREC_ROUNDTRIP
360
8D4
  0
DICTIONARY
  5
8EB
330
3C
100
AcDbDictionary
280
     1
281
     1
  3
ACAD_XREC_ROUNDTRIP
360
8EC
  0
XRECORD
  5
8FB
102
{ACAD_REACTORS
330
8FA
102
}
330
8FA
100
AcDbXrecord
280
     1
102
DISPLAYNAME
  1
Imperial24
102
FLAGS
 90
        0
  0
XRECORD
  5
8FF
102
{ACAD_REACTORS
330
8FE
102
}
330
8FE
100
AcDbXrecord
280
     1
102
SHADEPLOT
 70
     0
102
SHADEPLOTRESLEVEL
 70
     2
102
SHADEPLOTCUSTOMDPI
 70
   300
  0
XRECORD
  5
8FD
102
{ACAD_REACTORS
330
8FC
102
}
330
8FC
100
AcDbXrecord
280
     1
102
SHADEPLOT
 70
     0
102
SHADEPLOTRESLEVEL
 70
     2
102
SHADEPLOTCUSTOMDPI
 70
   300
  0
XRECORD
  5
880
102
{ACAD_REACTORS
330
1A
102
}
330
1A
100
AcDbXrecord
280
     1
102
MATERIAL
148
0.0
149
0.0
149
0.0
 93
        0
 94
      127
282
     0
 72
     0
 77
     0
171
     0
175
     0
179
     0
273
     0
  0
XRECORD
  5
1C
102
{ACAD_REACTORS
330
1A
102
}
330
1A
100
AcDbXrecord
280
     1
270
     1
271
     1
  0
XRECORD
  5
1B
102
{ACAD_REACTORS
330
1A
102
}
330
1A
100
AcDbXrecord
280
     1
270
     1
271
     1
  0
XRECORD
  5
1F
102
{ACAD_REACTORS
330
1A
102
}
330
1A
100
AcDbXrecord
280
     1
270
     1
271
     1
  0
XRECORD
  5
1E
102
{ACAD_REACTORS
330
1A
102
}
330
1A
100
AcDbXrecord
280
     1
270
     1
271
     1
  0
XRECORD
  5
20
102
{ACAD_REACTORS
330
1A
102
}
330
1A
100
AcDbXrecord
280
     1
270
     1
271
     1
  0
XRECORD
  5
1D
102
{ACAD_REACTORS
330
1A
102
}
330
1A
100
AcDbXrecord
280
     1
270
     1
271
     1
  0
XRECORD
  5
87F
102
{ACAD_REACTORS
330
12
102
}
330
12
100
AcDbXrecord
280
     1
102
MATERIAL
148
0.0
149
0.0
149
0.0
 93
        0
 94
      127
282
     0
 72
     0
 77
     0
171
     0
175
     0
179
     0
273
     0
  0
XRECORD
  5
14
102
{ACAD_REACTORS
330
12
102
}
330
12
100
AcDbXrecord
280
     1
270
     1
271
     1
  0
XRECORD
  5
13
102
{ACAD_REACTORS
330
12
102
}
330
12
100
AcDbXrecord
280
     1
270
     1
271
     1
  0
XRECORD
  5
17
102
{ACAD_REACTORS
330
12
102
}
330
12
100
AcDbXrecord
280
     1
270
     1
271
     1
  0
XRECORD
  5
16
102
{ACAD_REACTORS
330
12
102
}
330
12
100
AcDbXrecord
280
     1
270
     1
271
     1
  0
XRECORD
  5
18
102
{ACAD_REACTORS
330
12
102
}
330
12
100
AcDbXrecord
280
     1
270
     1
271
     1
  0
XRECORD
  5
15
102
{ACAD_REACTORS
330
12
102
}
330
12
100
AcDbXrecord
280
     1
270
     1
271
     1
  0
XRECORD
  5
881
102
{ACAD_REACTORS
330
22
102
}
330
22
100
AcDbXrecord
280
     1
102
MATERIAL
148
0.0
149
0.0
149
0.0
 93
        0
 94
      127
282
     0
 72
     0
 77
     0
171
     0
175
     0
179
     0
273
     0
  0
XRECORD
  5
24
102
{ACAD_REACTORS
330
22
102
}
330
22
100
AcDbXrecord
280
     1
270
     1
271
     1
  0
XRECORD
  5
23
102
{ACAD_REACTORS
330
22
102
}
330
22
100
AcDbXrecord
280
     1
270
     1
271
     1
  0
XRECORD
  5
27
102
{ACAD_REACTORS
330
22
102
}
330
22
100
AcDbXrecord
280
     1
270
     1
271
     1
  0
XRECORD
  5
26
102
{ACAD_REACTORS
330
22
102
}
330
22
100
AcDbXrecord
280
     1
270
     1
271
     1
  0
XRECORD
  5
28
102
{ACAD_REACTORS
330
22
102
}
330
22
100
AcDbXrecord
280
     1
270
     1
271
     1
  0
XRECORD
  5
25
102
{ACAD_REACTORS
330
22
102
}
330
22
100
AcDbXrecord
280
     1
270
     1
271
     1
  0
XRECORD
  5
8F9
102
{ACAD_REACTORS
330
8F8
102
}
330
8F8
100
AcDbXrecord
280
     1
102
DISPLAYNAME
  1
Imperial24
102
FLAGS
 90
        0
  0
CELLSTYLEMAP
  5
8C4
102
{ACAD_REACTORS
330
87B
102
}
330
87B
100
AcDbCellStyleMap
 90
        3
300
CELLSTYLE
  1
TABLEFORMAT_BEGIN
 90
        5
170
     1
 91
        0
 92
    32768
 62
   257
 93
        1
300
CONTENTFORMAT
  1
CONTENTFORMAT_BEGIN
 90
        0
 91
        0
 92
      512
 93
        0
300

 40
0.0
140
1.0
 94
        5
 62
     0
340
55
144
0.25
309
CONTENTFORMAT_END
171
     1
301
MARGIN
  1
CELLMARGIN_BEGIN
 40
0.06
 40
0.06
 40
0.06
 40
0.06
 40
0.18
 40
0.18
309
CELLMARGIN_END
 94
        6
 95
        1
302
GRIDFORMAT
  1
GRIDFORMAT_BEGIN
 90
        0
 91
        1
 62
     0
 92
       -2
340
0
 93
        0
 40
0.045
309
GRIDFORMAT_END
 95
        2
302
GRIDFORMAT
  1
GRIDFORMAT_BEGIN
 90
        0
 91
        1
 62
     0
 92
       -2
340
0
 93
        0
 40
0.045
309
GRIDFORMAT_END
 95
        4
302
GRIDFORMAT
  1
GRIDFORMAT_BEGIN
 90
        0
 91
        1
 62
     0
 92
       -2
340
0
 93
        0
 40
0.045
309
GRIDFORMAT_END
 95
        8
302
GRIDFORMAT
  1
GRIDFORMAT_BEGIN
 90
        0
 91
        1
 62
     0
 92
       -2
340
0
 93
        0
 40
0.045
309
GRIDFORMAT_END
 95
       16
302
GRIDFORMAT
  1
GRIDFORMAT_BEGIN
 90
        0
 91
        1
 62
     0
 92
       -2
340
0
 93
        0
 40
0.045
309
GRIDFORMAT_END
 95
       32
302
GRIDFORMAT
  1
GRIDFORMAT_BEGIN
 90
        0
 91
        1
 62
     0
 92
       -2
340
0
 93
        0
 40
0.045
309
GRIDFORMAT_END
309
TABLEFORMAT_END
  1
CELLSTYLE_BEGIN
 90
        1
 91
        1
300
_TITLE
309
CELLSTYLE_END
300
CELLSTYLE
  1
TABLEFORMAT_BEGIN
 90
        5
170
     1
 91
        0
 92
        0
 62
   257
 93
        1
300
CONTENTFORMAT
  1
CONTENTFORMAT_BEGIN
 90
        0
 91
        0
 92
      512
 93
        0
300

 40
0.0
140
1.0
 94
        5
 62
     0
340
55
144
0.18
309
CONTENTFORMAT_END
171
     1
301
MARGIN
  1
CELLMARGIN_BEGIN
 40
0.06
 40
0.06
 40
0.06
 40
0.06
 40
0.18
 40
0.18
309
CELLMARGIN_END
 94
        6
 95
        1
302
GRIDFORMAT
  1
GRIDFORMAT_BEGIN
 90
        0
 91
        1
 62
     0
 92
       -2
340
0
 93
        0
 40
0.045
309
GRIDFORMAT_END
 95
        2
302
GRIDFORMAT
  1
GRIDFORMAT_BEGIN
 90
        0
 91
        1
 62
     0
 92
       -2
340
0
 93
        0
 40
0.045
309
GRIDFORMAT_END
 95
        4
302
GRIDFORMAT
  1
GRIDFORMAT_BEGIN
 90
        0
 91
        1
 62
     0
 92
       -2
340
0
 93
        0
 40
0.045
309
GRIDFORMAT_END
 95
        8
302
GRIDFORMAT
  1
GRIDFORMAT_BEGIN
 90
        0
 91
        1
 62
     0
 92
       -2
340
0
 93
        0
 40
0.045
309
GRIDFORMAT_END
 95
       16
302
GRIDFORMAT
  1
GRIDFORMAT_BEGIN
 90
        0
 91
        1
 62
     0
 92
       -2
340
0
 93
        0
 40
0.045
309
GRIDFORMAT_END
 95
       32
302
GRIDFORMAT
  1
GRIDFORMAT_BEGIN
 90
        0
 91
        1
 62
     0
 92
       -2
340
0
 93
        0
 40
0.045
309
GRIDFORMAT_END
309
TABLEFORMAT_END
  1
CELLSTYLE_BEGIN
 90
        2
 91
        1
300
_HEADER
309
CELLSTYLE_END
300
CELLSTYLE
  1
TABLEFORMAT_BEGIN
 90
        5
170
     1
 91
        0
 92
        0
 62
   257
 93
        1
300
CONTENTFORMAT
  1
CONTENTFORMAT_BEGIN
 90
        0
 91
        0
 92
      512
 93
        0
300

 40
0.0
140
1.0
 94
        2
 62
     0
340
55
144
0.18
309
CONTENTFORMAT_END
171
     1
301
MARGIN
  1
CELLMARGIN_BEGIN
 40
0.06
 40
0.06
 40
0.06
 40
0.06
 40
0.18
 40
0.18
309
CELLMARGIN_END
 94
        6
 95
        1
302
GRIDFORMAT
  1
GRIDFORMAT_BEGIN
 90
        0
 91
        1
 62
     0
 92
       -2
340
0
 93
        0
 40
0.045
309
GRIDFORMAT_END
 95
        2
302
GRIDFORMAT
  1
GRIDFORMAT_BEGIN
 90
        0
 91
        1
 62
     0
 92
       -2
340
0
 93
        0
 40
0.045
309
GRIDFORMAT_END
 95
        4
302
GRIDFORMAT
  1
GRIDFORMAT_BEGIN
 90
        0
 91
        1
 62
     0
 92
       -2
340
0
 93
        0
 40
0.045
309
GRIDFORMAT_END
 95
        8
302
GRIDFORMAT
  1
GRIDFORMAT_BEGIN
 90
        0
 91
        1
 62
     0
 92
       -2
340
0
 93
        0
 40
0.045
309
GRIDFORMAT_END
 95
       16
302
GRIDFORMAT
  1
GRIDFORMAT_BEGIN
 90
        0
 91
        1
 62
     0
 92
       -2
340
0
 93
        0
 40
0.045
309
GRIDFORMAT_END
 95
       32
302
GRIDFORMAT
  1
GRIDFORMAT_BEGIN
 90
        0
 91
        1
 62
     0
 92
       -2
340
0
 93
        0
 40
0.045
309
GRIDFORMAT_END
309
TABLEFORMAT_END
  1
CELLSTYLE_BEGIN
 90
        3
 91
        2
300
_DATA
309
CELLSTYLE_END
  0
XRECORD
  5
8F7
102
{ACAD_REACTORS
330
87B
102
}
330
87B
100
AcDbXrecord
280
     1
102
ACAD_ROUNDTRIP_PRE2007_TABLESTYLE
 90
      512
 91
        0
  1

 92
      512
 93
        0
  2

 94
      512
 95
        0
  3

  0
XRECORD
  5
8D2
102
{ACAD_REACTORS
330
8D1
102
}
330
8D1
100
AcDbXrecord
280
     1
102
RTVSPost2010Prop28
280
     1
102
RTVSPost2010PropOp28
 70
     1
102
RTVSPost2010Prop29
280
     1
102
RTVSPost2010PropOp29
 70
     1
102
RTVSPost2010Prop30
280
     0
102
RTVSPost2010PropOp30
 70
     1
102
RTVSPost2010Prop31
280
     0
102
RTVSPost2010PropOp31
 70
     1
102
RTVSPost2010Prop32
280
     0
102
RTVSPost2010PropOp32
 70
     1
102
RTVSPost2010Prop33
280
     0
102
RTVSPost2010PropOp33
 70
     1
102
RTVSPost2010Prop34
280
     0
102
RTVSPost2010PropOp34
 70
     1
102
RTVSPost2010Prop35
280
     0
102
RTVSPost2010PropOp35
 70
     1
102
RTVSPost2010Prop36
280
     0
102
RTVSPost2010PropOp36
 70
     1
102
RTVSPost2010Prop37
 90
       50
102
RTVSPost2010PropOp37
 70
     1
102
RTVSPost2010Prop38
140
0.0
102
RTVSPost2010PropOp38
 70
     1
102
RTVSPost2010Prop39
140
1.0
102
RTVSPost2010PropOp39
 70
     1
102
RTVSPost2010Prop40
 90
        0
102
RTVSPost2010PropOp40
 70
     1
102
RTVSPost2010Prop41ColorIndex
 90
       18
102
RTVSPost2010Prop41ColorRGB
 90
        0
102
RTVSPost2010PropOp41
 70
     1
102
RTVSPost2010Prop42
 90
       50
102
RTVSPost2010PropOp42
 70
     1
102
RTVSPost2010Prop43
 90
        3
102
RTVSPost2010PropOp43
 70
     1
102
RTVSPost2010Prop44ColorIndex
 90
        5
102
RTVSPost2010Prop44ColorRGB
 90
      255
102
RTVSPost2010PropOp44
 70
     1
102
RTVSPost2010Prop45
280
     0
102
RTVSPost2010PropOp45
 70
     1
102
RTVSPost2010Prop46
 90
       50
102
RTVSPost2010PropOp46
 70
     1
102
RTVSPost2010Prop47
 90
       50
102
RTVSPost2010PropOp47
 70
     1
102
RTVSPost2010Prop48
 90
       50
102
RTVSPost2010PropOp48
 70
     1
102
RTVSPost2010Prop49
280
     0
102
RTVSPost2010PropOp49
 70
     1
102
RTVSPost2010Prop50
 90
       50
102
RTVSPost2010PropOp50
 70
     1
102
RTVSPost2010Prop51ColorIndex
 90
      256
102
RTVSPost2010Prop51ColorRGB
 90
-16777216
102
RTVSPost2010PropOp51
 70
     0
102
RTVSPost2010Prop52
140
1.0
102
RTVSPost2010PropOp52
 70
     0
102
RTVSPost2010Prop53
 90
        2
102
RTVSPost2010PropOp53
 70
     1
102
RTVSPost2010Prop54
  1
strokes_ogs.tif
102
RTVSPost2010PropOp54
 70
     1
102
RTVSPost2010Prop55
280
     0
102
RTVSPost2010PropOp55
 70
     1
102
RTVSPost2010Prop56
140
1.0
102
RTVSPost2010PropOp56
 70
     1
102
RTVSPost2010Prop57
140
1.0
102
RTVSPost2010PropOp57
 70
     1
102
RTVSPropertyOp0
 70
     1
102
RTVSPropertyOp1
 70
     1
102
RTVSPropertyOp2
 70
     1
102
RTVSPropertyOp3
 70
     1
102
RTVSPropertyOp4
 70
     1
102
RTVSPropertyOp5
 70
     1
102
RTVSPropertyOp6
 70
     1
102
RTVSPropertyOp7
 70
     1
102
RTVSPropertyOp8
 70
     1
102
RTVSPropertyOp9
 70
     1
102
RTVSPropertyOp10
 70
     1
102
RTVSPropertyOp11
 70
     1
102
RTVSPropertyOp12
 70
     1
102
RTVSPropertyOp13
 70
     1
102
RTVSPropertyOp14
 70
     1
102
RTVSPropertyOp15
 70
     1
102
RTVSPropertyOp16
 70
     1
102
RTVSPropertyOp17
 70
     1
102
RTVSPropertyOp18
 70
     1
102
RTVSPropertyOp19
 70
     1
102
RTVSPropertyOp20
 70
     1
102
RTVSPropertyOp21
 70
     1
102
RTVSPropertyOp22
 70
     1
102
RTVSPropertyOp23
 70
     1
102
RTVSPropertyOp24
 70
     1
102
RTVSPropertyOp25
 70
     1
102
RTVSPropertyOp26
 70
     1
102
RTVSPropertyOp27
 70
     1
102
RTVSPropertyOp28
 70
     1
102
RTVSPropertyOp29
 70
     1
102
RTVSPropertyOp30
 70
     1
102
RTVSPropertyOp31
 70
     1
102
RTVSPropertyOp32
 70
     1
102
RTVSPropertyOp33
 70
     1
102
RTVSPropertyOp34
 70
     1
102
RTVSPropertyOp35
 70
     1
102
RTVSPropertyOp36
 70
     1
102
RTVSPropertyOp37
 70
     1
102
RTVSPropertyOp38
 70
     1
102
RTVSPropertyOp39
 70
     1
102
RTVSPropertyOp40
 70
     1
102
RTVSPropertyOp41
 70
     1
102
RTVSPropertyOp42
 70
     1
102
RTVSPropertyOp43
 70
     1
102
RTVSPropertyOp44
 70
     1
102
RTVSPropertyOp45
 70
     1
102
RTVSPropertyOp46
 70
     1
102
RTVSPropertyOp47
 70
     1
102
RTVSPropertyOp48
 70
     1
102
RTVSPropertyOp49
 70
     1
102
RTVSPropertyOp50
 70
     1
102
RTVSPropertyOp51
 70
     0
102
RTVSPropertyOp52
 70
     0
102
RTVSPropertyOp53
 70
     1
102
RTVSPropertyOp54
 70
     1
102
RTVSPropertyOp55
 70
     1
102
RTVSPropertyOp56
 70
     1
102
RTVSPropertyOp57
 70
     1
102
RTVSPropertyOp58
 70
     1
102
RTVSPropertyOp59
 70
     1
102
RTVSPropertyOp60
 70
     1
102
RTVSPropertyOp61
 70
     1
102
RTVSPropertyOp62
 70
     1
  0
XRECORD
  5
8D0
102
{ACAD_REACTORS
330
8CF
102
}
330
8CF
100
AcDbXrecord
280
     1
102
RTVSPost2010Prop28
280
     0
102
RTVSPost2010PropOp28
 70
     1
102
RTVSPost2010Prop29
280
     1
102
RTVSPost2010PropOp29
 70
     1
102
RTVSPost2010Prop30
280
     1
102
RTVSPost2010PropOp30
 70
     1
102
RTVSPost2010Prop31
280
     0
102
RTVSPost2010PropOp31
 70
     1
102
RTVSPost2010Prop32
280
     0
102
RTVSPost2010PropOp32
 70
     1
102
RTVSPost2010Prop33
280
     0
102
RTVSPost2010PropOp33
 70
     1
102
RTVSPost2010Prop34
280
     0
102
RTVSPost2010PropOp34
 70
     1
102
RTVSPost2010Prop35
280
     0
102
RTVSPost2010PropOp35
 70
     1
102
RTVSPost2010Prop36
280
     0
102
RTVSPost2010PropOp36
 70
     1
102
RTVSPost2010Prop37
 90
       50
102
RTVSPost2010PropOp37
 70
     1
102
RTVSPost2010Prop38
140
0.0
102
RTVSPost2010PropOp38
 70
     1
102
RTVSPost2010Prop39
140
1.0
102
RTVSPost2010PropOp39
 70
     1
102
RTVSPost2010Prop40
 90
        0
102
RTVSPost2010PropOp40
 70
     1
102
RTVSPost2010Prop41ColorIndex
 90
       18
102
RTVSPost2010Prop41ColorRGB
 90
        0
102
RTVSPost2010PropOp41
 70
     1
102
RTVSPost2010Prop42
 90
       50
102
RTVSPost2010PropOp42
 70
     1
102
RTVSPost2010Prop43
 90
        3
102
RTVSPost2010PropOp43
 70
     1
102
RTVSPost2010Prop44ColorIndex
 90
        5
102
RTVSPost2010Prop44ColorRGB
 90
      255
102
RTVSPost2010PropOp44
 70
     1
102
RTVSPost2010Prop45
280
     0
102
RTVSPost2010PropOp45
 70
     1
102
RTVSPost2010Prop46
 90
       50
102
RTVSPost2010PropOp46
 70
     1
102
RTVSPost2010Prop47
 90
       50
102
RTVSPost2010PropOp47
 70
     1
102
RTVSPost2010Prop48
 90
       50
102
RTVSPost2010PropOp48
 70
     1
102
RTVSPost2010Prop49
280
     0
102
RTVSPost2010PropOp49
 70
     1
102
RTVSPost2010Prop50
 90
       50
102
RTVSPost2010PropOp50
 70
     1
102
RTVSPost2010Prop51ColorIndex
 90
      256
102
RTVSPost2010Prop51ColorRGB
 90
-16777216
102
RTVSPost2010PropOp51
 70
     0
102
RTVSPost2010Prop52
140
1.0
102
RTVSPost2010PropOp52
 70
     0
102
RTVSPost2010Prop53
 90
        2
102
RTVSPost2010PropOp53
 70
     1
102
RTVSPost2010Prop54
  1
strokes_ogs.tif
102
RTVSPost2010PropOp54
 70
     1
102
RTVSPost2010Prop55
280
     0
102
RTVSPost2010PropOp55
 70
     1
102
RTVSPost2010Prop56
140
1.0
102
RTVSPost2010PropOp56
 70
     1
102
RTVSPost2010Prop57
140
1.0
102
RTVSPost2010PropOp57
 70
     1
102
RTVSPropertyOp0
 70
     1
102
RTVSPropertyOp1
 70
     1
102
RTVSPropertyOp2
 70
     1
102
RTVSPropertyOp3
 70
     1
102
RTVSPropertyOp4
 70
     1
102
RTVSPropertyOp5
 70
     1
102
RTVSPropertyOp6
 70
     1
102
RTVSPropertyOp7
 70
     1
102
RTVSPropertyOp8
 70
     1
102
RTVSPropertyOp9
 70
     1
102
RTVSPropertyOp10
 70
     1
102
RTVSPropertyOp11
 70
     1
102
RTVSPropertyOp12
 70
     1
102
RTVSPropertyOp13
 70
     1
102
RTVSPropertyOp14
 70
     1
102
RTVSPropertyOp15
 70
     1
102
RTVSPropertyOp16
 70
     1
102
RTVSPropertyOp17
 70
     1
102
RTVSPropertyOp18
 70
     1
102
RTVSPropertyOp19
 70
     1
102
RTVSPropertyOp20
 70
     1
102
RTVSPropertyOp21
 70
     1
102
RTVSPropertyOp22
 70
     1
102
RTVSPropertyOp23
 70
     1
102
RTVSPropertyOp24
 70
     1
102
RTVSPropertyOp25
 70
     1
102
RTVSPropertyOp26
 70
     1
102
RTVSPropertyOp27
 70
     1
102
RTVSPropertyOp28
 70
     1
102
RTVSPropertyOp29
 70
     1
102
RTVSPropertyOp30
 70
     1
102
RTVSPropertyOp31
 70
     1
102
RTVSPropertyOp32
 70
     1
102
RTVSPropertyOp33
 70
     1
102
RTVSPropertyOp34
 70
     1
102
RTVSPropertyOp35
 70
     1
102
RTVSPropertyOp36
 70
     1
102
RTVSPropertyOp37
 70
     1
102
RTVSPropertyOp38
 70
     1
102
RTVSPropertyOp39
 70
     1
102
RTVSPropertyOp40
 70
     1
102
RTVSPropertyOp41
 70
     1
102
RTVSPropertyOp42
 70
     1
102
RTVSPropertyOp43
 70
     1
102
RTVSPropertyOp44
 70
     1
102
RTVSPropertyOp45
 70
     1
102
RTVSPropertyOp46
 70
     1
102
RTVSPropertyOp47
 70
     1
102
RTVSPropertyOp48
 70
     1
102
RTVSPropertyOp49
 70
     1
102
RTVSPropertyOp50
 70
     1
102
RTVSPropertyOp51
 70
     0
102
RTVSPropertyOp52
 70
     0
102
RTVSPropertyOp53
 70
     1
102
RTVSPropertyOp54
 70
     1
102
RTVSPropertyOp55
 70
     1
102
RTVSPropertyOp56
 70
     1
102
RTVSPropertyOp57
 70
     1
102
RTVSPropertyOp58
 70
     1
102
RTVSPropertyOp59
 70
     1
102
RTVSPropertyOp60
 70
     1
102
RTVSPropertyOp61
 70
     1
102
RTVSPropertyOp62
 70
     1
  0
XRECORD
  5
8DE
102
{ACAD_REACTORS
330
8DD
102
}
330
8DD
100
AcDbXrecord
280
     1
102
RTVSPost2010Prop28
280
     0
102
RTVSPost2010PropOp28
 70
     1
102
RTVSPost2010Prop29
280
     1
102
RTVSPost2010PropOp29
 70
     1
102
RTVSPost2010Prop30
280
     1
102
RTVSPost2010PropOp30
 70
     1
102
RTVSPost2010Prop31
280
     0
102
RTVSPost2010PropOp31
 70
     1
102
RTVSPost2010Prop32
280
     0
102
RTVSPost2010PropOp32
 70
     1
102
RTVSPost2010Prop33
280
     0
102
RTVSPost2010PropOp33
 70
     1
102
RTVSPost2010Prop34
280
     0
102
RTVSPost2010PropOp34
 70
     1
102
RTVSPost2010Prop35
280
     0
102
RTVSPost2010PropOp35
 70
     1
102
RTVSPost2010Prop36
280
     0
102
RTVSPost2010PropOp36
 70
     1
102
RTVSPost2010Prop37
 90
       50
102
RTVSPost2010PropOp37
 70
     1
102
RTVSPost2010Prop38
140
0.0
102
RTVSPost2010PropOp38
 70
     1
102
RTVSPost2010Prop39
140
1.0
102
RTVSPost2010PropOp39
 70
     1
102
RTVSPost2010Prop40
 90
        0
102
RTVSPost2010PropOp40
 70
     1
102
RTVSPost2010Prop41ColorIndex
 90
       18
102
RTVSPost2010Prop41ColorRGB
 90
        0
102
RTVSPost2010PropOp41
 70
     1
102
RTVSPost2010Prop42
 90
       50
102
RTVSPost2010PropOp42
 70
     1
102
RTVSPost2010Prop43
 90
        3
102
RTVSPost2010PropOp43
 70
     1
102
RTVSPost2010Prop44ColorIndex
 90
        5
102
RTVSPost2010Prop44ColorRGB
 90
      255
102
RTVSPost2010PropOp44
 70
     1
102
RTVSPost2010Prop45
280
     0
102
RTVSPost2010PropOp45
 70
     1
102
RTVSPost2010Prop46
 90
       50
102
RTVSPost2010PropOp46
 70
     1
102
RTVSPost2010Prop47
 90
       50
102
RTVSPost2010PropOp47
 70
     1
102
RTVSPost2010Prop48
 90
       50
102
RTVSPost2010PropOp48
 70
     1
102
RTVSPost2010Prop49
280
     0
102
RTVSPost2010PropOp49
 70
     1
102
RTVSPost2010Prop50
 90
       50
102
RTVSPost2010PropOp50
 70
     1
102
RTVSPost2010Prop51ColorIndex
 90
      256
102
RTVSPost2010Prop51ColorRGB
 90
-16777216
102
RTVSPost2010PropOp51
 70
     0
102
RTVSPost2010Prop52
140
1.0
102
RTVSPost2010PropOp52
 70
     0
102
RTVSPost2010Prop53
 90
        2
102
RTVSPost2010PropOp53
 70
     1
102
RTVSPost2010Prop54
  1
strokes_ogs.tif
102
RTVSPost2010PropOp54
 70
     1
102
RTVSPost2010Prop55
280
     0
102
RTVSPost2010PropOp55
 70
     1
102
RTVSPost2010Prop56
140
1.0
102
RTVSPost2010PropOp56
 70
     1
102
RTVSPost2010Prop57
140
1.0
102
RTVSPost2010PropOp57
 70
     1
102
RTVSPropertyOp0
 70
     1
102
RTVSPropertyOp1
 70
     1
102
RTVSPropertyOp2
 70
     1
102
RTVSPropertyOp3
 70
     1
102
RTVSPropertyOp4
 70
     1
102
RTVSPropertyOp5
 70
     1
102
RTVSPropertyOp6
 70
     1
102
RTVSPropertyOp7
 70
     1
102
RTVSPropertyOp8
 70
     1
102
RTVSPropertyOp9
 70
     1
102
RTVSPropertyOp10
 70
     1
102
RTVSPropertyOp11
 70
     1
102
RTVSPropertyOp12
 70
     1
102
RTVSPropertyOp13
 70
     1
102
RTVSPropertyOp14
 70
     1
102
RTVSPropertyOp15
 70
     1
102
RTVSPropertyOp16
 70
     1
102
RTVSPropertyOp17
 70
     1
102
RTVSPropertyOp18
 70
     1
102
RTVSPropertyOp19
 70
     1
102
RTVSPropertyOp20
 70
     1
102
RTVSPropertyOp21
 70
     1
102
RTVSPropertyOp22
 70
     1
102
RTVSPropertyOp23
 70
     1
102
RTVSPropertyOp24
 70
     1
102
RTVSPropertyOp25
 70
     1
102
RTVSPropertyOp26
 70
     1
102
RTVSPropertyOp27
 70
     1
102
RTVSPropertyOp28
 70
     1
102
RTVSPropertyOp29
 70
     1
102
RTVSPropertyOp30
 70
     1
102
RTVSPropertyOp31
 70
     1
102
RTVSPropertyOp32
 70
     1
102
RTVSPropertyOp33
 70
     1
102
RTVSPropertyOp34
 70
     1
102
RTVSPropertyOp35
 70
     1
102
RTVSPropertyOp36
 70
     1
102
RTVSPropertyOp37
 70
     1
102
RTVSPropertyOp38
 70
     1
102
RTVSPropertyOp39
 70
     1
102
RTVSPropertyOp40
 70
     1
102
RTVSPropertyOp41
 70
     1
102
RTVSPropertyOp42
 70
     1
102
RTVSPropertyOp43
 70
     1
102
RTVSPropertyOp44
 70
     1
102
RTVSPropertyOp45
 70
     1
102
RTVSPropertyOp46
 70
     1
102
RTVSPropertyOp47
 70
     1
102
RTVSPropertyOp48
 70
     1
102
RTVSPropertyOp49
 70
     1
102
RTVSPropertyOp50
 70
     1
102
RTVSPropertyOp51
 70
     0
102
RTVSPropertyOp52
 70
     0
102
RTVSPropertyOp53
 70
     1
102
RTVSPropertyOp54
 70
     1
102
RTVSPropertyOp55
 70
     1
102
RTVSPropertyOp56
 70
     1
102
RTVSPropertyOp57
 70
     1
102
RTVSPropertyOp58
 70
     1
102
RTVSPropertyOp59
 70
     1
102
RTVSPropertyOp60
 70
     1
102
RTVSPropertyOp61
 70
     1
102
RTVSPropertyOp62
 70
     1
  0
XRECORD
  5
8E6
102
{ACAD_REACTORS
330
8E5
102
}
330
8E5
100
AcDbXrecord
280
     1
102
RTVSPost2010Prop28
280
     0
102
RTVSPost2010PropOp28
 70
     1
102
RTVSPost2010Prop29
280
     1
102
RTVSPost2010PropOp29
 70
     1
102
RTVSPost2010Prop30
280
     1
102
RTVSPost2010PropOp30
 70
     1
102
RTVSPost2010Prop31
280
     0
102
RTVSPost2010PropOp31
 70
     1
102
RTVSPost2010Prop32
280
     0
102
RTVSPost2010PropOp32
 70
     1
102
RTVSPost2010Prop33
280
     0
102
RTVSPost2010PropOp33
 70
     1
102
RTVSPost2010Prop34
280
     0
102
RTVSPost2010PropOp34
 70
     1
102
RTVSPost2010Prop35
280
     0
102
RTVSPost2010PropOp35
 70
     1
102
RTVSPost2010Prop36
280
     0
102
RTVSPost2010PropOp36
 70
     1
102
RTVSPost2010Prop37
 90
       50
102
RTVSPost2010PropOp37
 70
     1
102
RTVSPost2010Prop38
140
0.0
102
RTVSPost2010PropOp38
 70
     1
102
RTVSPost2010Prop39
140
1.0
102
RTVSPost2010PropOp39
 70
     1
102
RTVSPost2010Prop40
 90
        0
102
RTVSPost2010PropOp40
 70
     1
102
RTVSPost2010Prop41ColorIndex
 90
       18
102
RTVSPost2010Prop41ColorRGB
 90
        0
102
RTVSPost2010PropOp41
 70
     1
102
RTVSPost2010Prop42
 90
       50
102
RTVSPost2010PropOp42
 70
     1
102
RTVSPost2010Prop43
 90
        3
102
RTVSPost2010PropOp43
 70
     1
102
RTVSPost2010Prop44ColorIndex
 90
        5
102
RTVSPost2010Prop44ColorRGB
 90
      255
102
RTVSPost2010PropOp44
 70
     1
102
RTVSPost2010Prop45
280
     0
102
RTVSPost2010PropOp45
 70
     1
102
RTVSPost2010Prop46
 90
       50
102
RTVSPost2010PropOp46
 70
     1
102
RTVSPost2010Prop47
 90
       50
102
RTVSPost2010PropOp47
 70
     1
102
RTVSPost2010Prop48
 90
       50
102
RTVSPost2010PropOp48
 70
     1
102
RTVSPost2010Prop49
280
     0
102
RTVSPost2010PropOp49
 70
     1
102
RTVSPost2010Prop50
 90
       50
102
RTVSPost2010PropOp50
 70
     1
102
RTVSPost2010Prop51ColorIndex
 90
      256
102
RTVSPost2010Prop51ColorRGB
 90
-16777216
102
RTVSPost2010PropOp51
 70
     0
102
RTVSPost2010Prop52
140
1.0
102
RTVSPost2010PropOp52
 70
     0
102
RTVSPost2010Prop53
 90
        2
102
RTVSPost2010PropOp53
 70
     1
102
RTVSPost2010Prop54
  1
strokes_ogs.tif
102
RTVSPost2010PropOp54
 70
     1
102
RTVSPost2010Prop55
280
     0
102
RTVSPost2010PropOp55
 70
     1
102
RTVSPost2010Prop56
140
1.0
102
RTVSPost2010PropOp56
 70
     1
102
RTVSPost2010Prop57
140
1.0
102
RTVSPost2010PropOp57
 70
     1
102
RTVSPropertyOp0
 70
     1
102
RTVSPropertyOp1
 70
     1
102
RTVSPropertyOp2
 70
     1
102
RTVSPropertyOp3
 70
     1
102
RTVSPropertyOp4
 70
     1
102
RTVSPropertyOp5
 70
     1
102
RTVSPropertyOp6
 70
     1
102
RTVSPropertyOp7
 70
     1
102
RTVSPropertyOp8
 70
     1
102
RTVSPropertyOp9
 70
     1
102
RTVSPropertyOp10
 70
     1
102
RTVSPropertyOp11
 70
     1
102
RTVSPropertyOp12
 70
     1
102
RTVSPropertyOp13
 70
     1
102
RTVSPropertyOp14
 70
     1
102
RTVSPropertyOp15
 70
     1
102
RTVSPropertyOp16
 70
     1
102
RTVSPropertyOp17
 70
     1
102
RTVSPropertyOp18
 70
     1
102
RTVSPropertyOp19
 70
     1
102
RTVSPropertyOp20
 70
     1
102
RTVSPropertyOp21
 70
     1
102
RTVSPropertyOp22
 70
     1
102
RTVSPropertyOp23
 70
     1
102
RTVSPropertyOp24
 70
     1
102
RTVSPropertyOp25
 70
     1
102
RTVSPropertyOp26
 70
     1
102
RTVSPropertyOp27
 70
     1
102
RTVSPropertyOp28
 70
     1
102
RTVSPropertyOp29
 70
     1
102
RTVSPropertyOp30
 70
     1
102
RTVSPropertyOp31
 70
     1
102
RTVSPropertyOp32
 70
     1
102
RTVSPropertyOp33
 70
     1
102
RTVSPropertyOp34
 70
     1
102
RTVSPropertyOp35
 70
     1
102
RTVSPropertyOp36
 70
     1
102
RTVSPropertyOp37
 70
     1
102
RTVSPropertyOp38
 70
     1
102
RTVSPropertyOp39
 70
     1
102
RTVSPropertyOp40
 70
     1
102
RTVSPropertyOp41
 70
     1
102
RTVSPropertyOp42
 70
     1
102
RTVSPropertyOp43
 70
     1
102
RTVSPropertyOp44
 70
     1
102
RTVSPropertyOp45
 70
     1
102
RTVSPropertyOp46
 70
     1
102
RTVSPropertyOp47
 70
     1
102
RTVSPropertyOp48
 70
     1
102
RTVSPropertyOp49
 70
     1
102
RTVSPropertyOp50
 70
     1
102
RTVSPropertyOp51
 70
     0
102
RTVSPropertyOp52
 70
     0
102
RTVSPropertyOp53
 70
     1
102
RTVSPropertyOp54
 70
     1
102
RTVSPropertyOp55
 70
     1
102
RTVSPropertyOp56
 70
     1
102
RTVSPropertyOp57
 70
     1
102
RTVSPropertyOp58
 70
     1
102
RTVSPropertyOp59
 70
     1
102
RTVSPropertyOp60
 70
     1
102
RTVSPropertyOp61
 70
     1
102
RTVSPropertyOp62
 70
     1
  0
XRECORD
  5
8D8
102
{ACAD_REACTORS
330
8D7
102
}
330
8D7
100
AcDbXrecord
280
     1
102
RTVSPost2010Prop28
280
     0
102
RTVSPost2010PropOp28
 70
     1
102
RTVSPost2010Prop29
280
     1
102
RTVSPost2010PropOp29
 70
     1
102
RTVSPost2010Prop30
280
     1
102
RTVSPost2010PropOp30
 70
     1
102
RTVSPost2010Prop31
280
     0
102
RTVSPost2010PropOp31
 70
     1
102
RTVSPost2010Prop32
280
     0
102
RTVSPost2010PropOp32
 70
     1
102
RTVSPost2010Prop33
280
     0
102
RTVSPost2010PropOp33
 70
     1
102
RTVSPost2010Prop34
280
     0
102
RTVSPost2010PropOp34
 70
     1
102
RTVSPost2010Prop35
280
     0
102
RTVSPost2010PropOp35
 70
     1
102
RTVSPost2010Prop36
280
     0
102
RTVSPost2010PropOp36
 70
     1
102
RTVSPost2010Prop37
 90
       50
102
RTVSPost2010PropOp37
 70
     1
102
RTVSPost2010Prop38
140
0.0
102
RTVSPost2010PropOp38
 70
     1
102
RTVSPost2010Prop39
140
1.0
102
RTVSPost2010PropOp39
 70
     1
102
RTVSPost2010Prop40
 90
        0
102
RTVSPost2010PropOp40
 70
     1
102
RTVSPost2010Prop41ColorIndex
 90
       18
102
RTVSPost2010Prop41ColorRGB
 90
        0
102
RTVSPost2010PropOp41
 70
     1
102
RTVSPost2010Prop42
 90
       50
102
RTVSPost2010PropOp42
 70
     1
102
RTVSPost2010Prop43
 90
        3
102
RTVSPost2010PropOp43
 70
     1
102
RTVSPost2010Prop44ColorIndex
 90
        5
102
RTVSPost2010Prop44ColorRGB
 90
      255
102
RTVSPost2010PropOp44
 70
     1
102
RTVSPost2010Prop45
280
     0
102
RTVSPost2010PropOp45
 70
     1
102
RTVSPost2010Prop46
 90
       50
102
RTVSPost2010PropOp46
 70
     1
102
RTVSPost2010Prop47
 90
       50
102
RTVSPost2010PropOp47
 70
     1
102
RTVSPost2010Prop48
 90
       50
102
RTVSPost2010PropOp48
 70
     1
102
RTVSPost2010Prop49
280
     0
102
RTVSPost2010PropOp49
 70
     1
102
RTVSPost2010Prop50
 90
       50
102
RTVSPost2010PropOp50
 70
     1
102
RTVSPost2010Prop51ColorIndex
 90
      256
102
RTVSPost2010Prop51ColorRGB
 90
-16777216
102
RTVSPost2010PropOp51
 70
     0
102
RTVSPost2010Prop52
140
1.0
102
RTVSPost2010PropOp52
 70
     0
102
RTVSPost2010Prop53
 90
        2
102
RTVSPost2010PropOp53
 70
     1
102
RTVSPost2010Prop54
  1
strokes_ogs.tif
102
RTVSPost2010PropOp54
 70
     1
102
RTVSPost2010Prop55
280
     0
102
RTVSPost2010PropOp55
 70
     1
102
RTVSPost2010Prop56
140
1.0
102
RTVSPost2010PropOp56
 70
     1
102
RTVSPost2010Prop57
140
1.0
102
RTVSPost2010PropOp57
 70
     1
102
RTVSPropertyOp0
 70
     1
102
RTVSPropertyOp1
 70
     1
102
RTVSPropertyOp2
 70
     1
102
RTVSPropertyOp3
 70
     1
102
RTVSPropertyOp4
 70
     1
102
RTVSPropertyOp5
 70
     1
102
RTVSPropertyOp6
 70
     1
102
RTVSPropertyOp7
 70
     1
102
RTVSPropertyOp8
 70
     1
102
RTVSPropertyOp9
 70
     1
102
RTVSPropertyOp10
 70
     1
102
RTVSPropertyOp11
 70
     1
102
RTVSPropertyOp12
 70
     1
102
RTVSPropertyOp13
 70
     1
102
RTVSPropertyOp14
 70
     1
102
RTVSPropertyOp15
 70
     1
102
RTVSPropertyOp16
 70
     1
102
RTVSPropertyOp17
 70
     1
102
RTVSPropertyOp18
 70
     1
102
RTVSPropertyOp19
 70
     1
102
RTVSPropertyOp20
 70
     1
102
RTVSPropertyOp21
 70
     1
102
RTVSPropertyOp22
 70
     1
102
RTVSPropertyOp23
 70
     1
102
RTVSPropertyOp24
 70
     1
102
RTVSPropertyOp25
 70
     1
102
RTVSPropertyOp26
 70
     1
102
RTVSPropertyOp27
 70
     1
102
RTVSPropertyOp28
 70
     1
102
RTVSPropertyOp29
 70
     1
102
RTVSPropertyOp30
 70
     1
102
RTVSPropertyOp31
 70
     1
102
RTVSPropertyOp32
 70
     1
102
RTVSPropertyOp33
 70
     1
102
RTVSPropertyOp34
 70
     1
102
RTVSPropertyOp35
 70
     1
102
RTVSPropertyOp36
 70
     1
102
RTVSPropertyOp37
 70
     1
102
RTVSPropertyOp38
 70
     1
102
RTVSPropertyOp39
 70
     1
102
RTVSPropertyOp40
 70
     1
102
RTVSPropertyOp41
 70
     1
102
RTVSPropertyOp42
 70
     1
102
RTVSPropertyOp43
 70
     1
102
RTVSPropertyOp44
 70
     1
102
RTVSPropertyOp45
 70
     1
102
RTVSPropertyOp46
 70
     1
102
RTVSPropertyOp47
 70
     1
102
RTVSPropertyOp48
 70
     1
102
RTVSPropertyOp49
 70
     1
102
RTVSPropertyOp50
 70
     1
102
RTVSPropertyOp51
 70
     0
102
RTVSPropertyOp52
 70
     0
102
RTVSPropertyOp53
 70
     1
102
RTVSPropertyOp54
 70
     1
102
RTVSPropertyOp55
 70
     1
102
RTVSPropertyOp56
 70
     1
102
RTVSPropertyOp57
 70
     1
102
RTVSPropertyOp58
 70
     1
102
RTVSPropertyOp59
 70
     1
102
RTVSPropertyOp60
 70
     1
102
RTVSPropertyOp61
 70
     1
102
RTVSPropertyOp62
 70
     1
  0
XRECORD
  5
8DC
102
{ACAD_REACTORS
330
8DB
102
}
330
8DB
100
AcDbXrecord
280
     1
102
RTVSPost2010Prop28
280
     0
102
RTVSPost2010PropOp28
 70
     1
102
RTVSPost2010Prop29
280
     1
102
RTVSPost2010PropOp29
 70
     1
102
RTVSPost2010Prop30
280
     1
102
RTVSPost2010PropOp30
 70
     1
102
RTVSPost2010Prop31
280
     0
102
RTVSPost2010PropOp31
 70
     1
102
RTVSPost2010Prop32
280
     0
102
RTVSPost2010PropOp32
 70
     1
102
RTVSPost2010Prop33
280
     0
102
RTVSPost2010PropOp33
 70
     1
102
RTVSPost2010Prop34
280
     0
102
RTVSPost2010PropOp34
 70
     1
102
RTVSPost2010Prop35
280
     0
102
RTVSPost2010PropOp35
 70
     1
102
RTVSPost2010Prop36
280
     0
102
RTVSPost2010PropOp36
 70
     1
102
RTVSPost2010Prop37
 90
       50
102
RTVSPost2010PropOp37
 70
     1
102
RTVSPost2010Prop38
140
0.0
102
RTVSPost2010PropOp38
 70
     1
102
RTVSPost2010Prop39
140
1.0
102
RTVSPost2010PropOp39
 70
     1
102
RTVSPost2010Prop40
 90
        0
102
RTVSPost2010PropOp40
 70
     1
102
RTVSPost2010Prop41ColorIndex
 90
       18
102
RTVSPost2010Prop41ColorRGB
 90
        0
102
RTVSPost2010PropOp41
 70
     1
102
RTVSPost2010Prop42
 90
       50
102
RTVSPost2010PropOp42
 70
     1
102
RTVSPost2010Prop43
 90
        3
102
RTVSPost2010PropOp43
 70
     1
102
RTVSPost2010Prop44ColorIndex
 90
        5
102
RTVSPost2010Prop44ColorRGB
 90
      255
102
RTVSPost2010PropOp44
 70
     1
102
RTVSPost2010Prop45
280
     0
102
RTVSPost2010PropOp45
 70
     1
102
RTVSPost2010Prop46
 90
       50
102
RTVSPost2010PropOp46
 70
     1
102
RTVSPost2010Prop47
 90
       50
102
RTVSPost2010PropOp47
 70
     1
102
RTVSPost2010Prop48
 90
       50
102
RTVSPost2010PropOp48
 70
     1
102
RTVSPost2010Prop49
280
     0
102
RTVSPost2010PropOp49
 70
     1
102
RTVSPost2010Prop50
 90
       50
102
RTVSPost2010PropOp50
 70
     1
102
RTVSPost2010Prop51ColorIndex
 90
      256
102
RTVSPost2010Prop51ColorRGB
 90
-16777216
102
RTVSPost2010PropOp51
 70
     0
102
RTVSPost2010Prop52
140
1.0
102
RTVSPost2010PropOp52
 70
     0
102
RTVSPost2010Prop53
 90
        2
102
RTVSPost2010PropOp53
 70
     1
102
RTVSPost2010Prop54
  1
strokes_ogs.tif
102
RTVSPost2010PropOp54
 70
     1
102
RTVSPost2010Prop55
280
     0
102
RTVSPost2010PropOp55
 70
     1
102
RTVSPost2010Prop56
140
1.0
102
RTVSPost2010PropOp56
 70
     1
102
RTVSPost2010Prop57
140
1.0
102
RTVSPost2010PropOp57
 70
     1
102
RTVSPropertyOp0
 70
     1
102
RTVSPropertyOp1
 70
     1
102
RTVSPropertyOp2
 70
     1
102
RTVSPropertyOp3
 70
     1
102
RTVSPropertyOp4
 70
     1
102
RTVSPropertyOp5
 70
     1
102
RTVSPropertyOp6
 70
     1
102
RTVSPropertyOp7
 70
     1
102
RTVSPropertyOp8
 70
     1
102
RTVSPropertyOp9
 70
     1
102
RTVSPropertyOp10
 70
     1
102
RTVSPropertyOp11
 70
     1
102
RTVSPropertyOp12
 70
     1
102
RTVSPropertyOp13
 70
     1
102
RTVSPropertyOp14
 70
     1
102
RTVSPropertyOp15
 70
     1
102
RTVSPropertyOp16
 70
     1
102
RTVSPropertyOp17
 70
     1
102
RTVSPropertyOp18
 70
     1
102
RTVSPropertyOp19
 70
     1
102
RTVSPropertyOp20
 70
     1
102
RTVSPropertyOp21
 70
     1
102
RTVSPropertyOp22
 70
     1
102
RTVSPropertyOp23
 70
     1
102
RTVSPropertyOp24
 70
     1
102
RTVSPropertyOp25
 70
     1
102
RTVSPropertyOp26
 70
     1
102
RTVSPropertyOp27
 70
     1
102
RTVSPropertyOp28
 70
     1
102
RTVSPropertyOp29
 70
     1
102
RTVSPropertyOp30
 70
     1
102
RTVSPropertyOp31
 70
     1
102
RTVSPropertyOp32
 70
     1
102
RTVSPropertyOp33
 70
     1
102
RTVSPropertyOp34
 70
     1
102
RTVSPropertyOp35
 70
     1
102
RTVSPropertyOp36
 70
     1
102
RTVSPropertyOp37
 70
     1
102
RTVSPropertyOp38
 70
     1
102
RTVSPropertyOp39
 70
     1
102
RTVSPropertyOp40
 70
     1
102
RTVSPropertyOp41
 70
     1
102
RTVSPropertyOp42
 70
     1
102
RTVSPropertyOp43
 70
     1
102
RTVSPropertyOp44
 70
     1
102
RTVSPropertyOp45
 70
     1
102
RTVSPropertyOp46
 70
     1
102
RTVSPropertyOp47
 70
     1
102
RTVSPropertyOp48
 70
     1
102
RTVSPropertyOp49
 70
     1
102
RTVSPropertyOp50
 70
     1
102
RTVSPropertyOp51
 70
     0
102
RTVSPropertyOp52
 70
     0
102
RTVSPropertyOp53
 70
     1
102
RTVSPropertyOp54
 70
     1
102
RTVSPropertyOp55
 70
     1
102
RTVSPropertyOp56
 70
     1
102
RTVSPropertyOp57
 70
     1
102
RTVSPropertyOp58
 70
     1
102
RTVSPropertyOp59
 70
     1
102
RTVSPropertyOp60
 70
     1
102
RTVSPropertyOp61
 70
     1
102
RTVSPropertyOp62
 70
     1
  0
XRECORD
  5
8F6
102
{ACAD_REACTORS
330
8F5
102
}
330
8F5
100
AcDbXrecord
280
     1
102
RTVSPost2010Prop28
280
     0
102
RTVSPost2010PropOp28
 70
     1
102
RTVSPost2010Prop29
280
     1
102
RTVSPost2010PropOp29
 70
     1
102
RTVSPost2010Prop30
280
     1
102
RTVSPost2010PropOp30
 70
     1
102
RTVSPost2010Prop31
280
     0
102
RTVSPost2010PropOp31
 70
     1
102
RTVSPost2010Prop32
280
     0
102
RTVSPost2010PropOp32
 70
     1
102
RTVSPost2010Prop33
280
     0
102
RTVSPost2010PropOp33
 70
     1
102
RTVSPost2010Prop34
280
     0
102
RTVSPost2010PropOp34
 70
     1
102
RTVSPost2010Prop35
280
     0
102
RTVSPost2010PropOp35
 70
     1
102
RTVSPost2010Prop36
280
     0
102
RTVSPost2010PropOp36
 70
     1
102
RTVSPost2010Prop37
 90
       50
102
RTVSPost2010PropOp37
 70
     0
102
RTVSPost2010Prop38
140
0.0
102
RTVSPost2010PropOp38
 70
     0
102
RTVSPost2010Prop39
140
1.0
102
RTVSPost2010PropOp39
 70
     0
102
RTVSPost2010Prop40
 90
        0
102
RTVSPost2010PropOp40
 70
     0
102
RTVSPost2010Prop41ColorIndex
 90
       18
102
RTVSPost2010Prop41ColorRGB
 90
        0
102
RTVSPost2010PropOp41
 70
     0
102
RTVSPost2010Prop42
 90
       50
102
RTVSPost2010PropOp42
 70
     0
102
RTVSPost2010Prop43
 90
        3
102
RTVSPost2010PropOp43
 70
     0
102
RTVSPost2010Prop44ColorIndex
 90
        5
102
RTVSPost2010Prop44ColorRGB
 90
      255
102
RTVSPost2010PropOp44
 70
     0
102
RTVSPost2010Prop45
280
     0
102
RTVSPost2010PropOp45
 70
     1
102
RTVSPost2010Prop46
 90
       50
102
RTVSPost2010PropOp46
 70
     0
102
RTVSPost2010Prop47
 90
       50
102
RTVSPost2010PropOp47
 70
     0
102
RTVSPost2010Prop48
 90
       50
102
RTVSPost2010PropOp48
 70
     0
102
RTVSPost2010Prop49
280
     0
102
RTVSPost2010PropOp49
 70
     1
102
RTVSPost2010Prop50
 90
       50
102
RTVSPost2010PropOp50
 70
     0
102
RTVSPost2010Prop51ColorIndex
 90
      256
102
RTVSPost2010Prop51ColorRGB
 90
-16777216
102
RTVSPost2010PropOp51
 70
     0
102
RTVSPost2010Prop52
140
1.0
102
RTVSPost2010PropOp52
 70
     0
102
RTVSPost2010Prop53
 90
        2
102
RTVSPost2010PropOp53
 70
     0
102
RTVSPost2010Prop54
  1
strokes_ogs.tif
102
RTVSPost2010PropOp54
 70
     0
102
RTVSPost2010Prop55
280
     0
102
RTVSPost2010PropOp55
 70
     1
102
RTVSPost2010Prop56
140
1.0
102
RTVSPost2010PropOp56
 70
     0
102
RTVSPost2010Prop57
140
1.0
102
RTVSPost2010PropOp57
 70
     0
102
RTVSPropertyOp0
 70
     0
102
RTVSPropertyOp1
 70
     0
102
RTVSPropertyOp2
 70
     0
102
RTVSPropertyOp3
 70
     0
102
RTVSPropertyOp4
 70
     0
102
RTVSPropertyOp5
 70
     0
102
RTVSPropertyOp6
 70
     0
102
RTVSPropertyOp7
 70
     0
102
RTVSPropertyOp8
 70
     0
102
RTVSPropertyOp9
 70
     0
102
RTVSPropertyOp10
 70
     0
102
RTVSPropertyOp11
 70
     0
102
RTVSPropertyOp12
 70
     0
102
RTVSPropertyOp13
 70
     0
102
RTVSPropertyOp14
 70
     2
102
RTVSPropertyOp15
 70
     0
102
RTVSPropertyOp16
 70
     0
102
RTVSPropertyOp17
 70
     0
102
RTVSPropertyOp18
 70
     0
102
RTVSPropertyOp19
 70
     0
102
RTVSPropertyOp20
 70
     0
102
RTVSPropertyOp21
 70
     0
102
RTVSPropertyOp22
 70
     0
102
RTVSPropertyOp23
 70
     0
102
RTVSPropertyOp24
 70
     0
102
RTVSPropertyOp25
 70
     0
102
RTVSPropertyOp26
 70
     0
102
RTVSPropertyOp27
 70
     0
102
RTVSPropertyOp28
 70
     1
102
RTVSPropertyOp29
 70
     1
102
RTVSPropertyOp30
 70
     1
102
RTVSPropertyOp31
 70
     1
102
RTVSPropertyOp32
 70
     1
102
RTVSPropertyOp33
 70
     1
102
RTVSPropertyOp34
 70
     1
102
RTVSPropertyOp35
 70
     1
102
RTVSPropertyOp36
 70
     1
102
RTVSPropertyOp37
 70
     0
102
RTVSPropertyOp38
 70
     0
102
RTVSPropertyOp39
 70
     0
102
RTVSPropertyOp40
 70
     0
102
RTVSPropertyOp41
 70
     0
102
RTVSPropertyOp42
 70
     0
102
RTVSPropertyOp43
 70
     0
102
RTVSPropertyOp44
 70
     0
102
RTVSPropertyOp45
 70
     1
102
RTVSPropertyOp46
 70
     0
102
RTVSPropertyOp47
 70
     0
102
RTVSPropertyOp48
 70
     0
102
RTVSPropertyOp49
 70
     1
102
RTVSPropertyOp50
 70
     0
102
RTVSPropertyOp51
 70
     0
102
RTVSPropertyOp52
 70
     0
102
RTVSPropertyOp53
 70
     0
102
RTVSPropertyOp54
 70
     0
102
RTVSPropertyOp55
 70
     1
102
RTVSPropertyOp56
 70
     0
102
RTVSPropertyOp57
 70
     0
102
RTVSPropertyOp58
 70
     0
102
RTVSPropertyOp59
 70
     0
102
RTVSPropertyOp60
 70
     0
102
RTVSPropertyOp61
 70
     0
102
RTVSPropertyOp62
 70
     0
  0
XRECORD
  5
8E4
102
{ACAD_REACTORS
330
8E3
102
}
330
8E3
100
AcDbXrecord
280
     1
102
RTVSPost2010Prop28
280
     0
102
RTVSPost2010PropOp28
 70
     1
102
RTVSPost2010Prop29
280
     1
102
RTVSPost2010PropOp29
 70
     1
102
RTVSPost2010Prop30
280
     1
102
RTVSPost2010PropOp30
 70
     1
102
RTVSPost2010Prop31
280
     0
102
RTVSPost2010PropOp31
 70
     1
102
RTVSPost2010Prop32
280
     0
102
RTVSPost2010PropOp32
 70
     1
102
RTVSPost2010Prop33
280
     0
102
RTVSPost2010PropOp33
 70
     1
102
RTVSPost2010Prop34
280
     0
102
RTVSPost2010PropOp34
 70
     1
102
RTVSPost2010Prop35
280
     0
102
RTVSPost2010PropOp35
 70
     1
102
RTVSPost2010Prop36
280
     0
102
RTVSPost2010PropOp36
 70
     1
102
RTVSPost2010Prop37
 90
       50
102
RTVSPost2010PropOp37
 70
     1
102
RTVSPost2010Prop38
140
0.0
102
RTVSPost2010PropOp38
 70
     1
102
RTVSPost2010Prop39
140
1.0
102
RTVSPost2010PropOp39
 70
     1
102
RTVSPost2010Prop40
 90
        0
102
RTVSPost2010PropOp40
 70
     1
102
RTVSPost2010Prop41ColorIndex
 90
       18
102
RTVSPost2010Prop41ColorRGB
 90
        0
102
RTVSPost2010PropOp41
 70
     1
102
RTVSPost2010Prop42
 90
       50
102
RTVSPost2010PropOp42
 70
     1
102
RTVSPost2010Prop43
 90
        3
102
RTVSPost2010PropOp43
 70
     1
102
RTVSPost2010Prop44ColorIndex
 90
        5
102
RTVSPost2010Prop44ColorRGB
 90
      255
102
RTVSPost2010PropOp44
 70
     1
102
RTVSPost2010Prop45
280
     0
102
RTVSPost2010PropOp45
 70
     1
102
RTVSPost2010Prop46
 90
       50
102
RTVSPost2010PropOp46
 70
     1
102
RTVSPost2010Prop47
 90
       50
102
RTVSPost2010PropOp47
 70
     1
102
RTVSPost2010Prop48
 90
       50
102
RTVSPost2010PropOp48
 70
     1
102
RTVSPost2010Prop49
280
     0
102
RTVSPost2010PropOp49
 70
     1
102
RTVSPost2010Prop50
 90
       50
102
RTVSPost2010PropOp50
 70
     1
102
RTVSPost2010Prop51ColorIndex
 90
      256
102
RTVSPost2010Prop51ColorRGB
 90
-16777216
102
RTVSPost2010PropOp51
 70
     0
102
RTVSPost2010Prop52
140
1.0
102
RTVSPost2010PropOp52
 70
     0
102
RTVSPost2010Prop53
 90
        2
102
RTVSPost2010PropOp53
 70
     1
102
RTVSPost2010Prop54
  1
strokes_ogs.tif
102
RTVSPost2010PropOp54
 70
     1
102
RTVSPost2010Prop55
280
     0
102
RTVSPost2010PropOp55
 70
     1
102
RTVSPost2010Prop56
140
1.0
102
RTVSPost2010PropOp56
 70
     1
102
RTVSPost2010Prop57
140
1.0
102
RTVSPost2010PropOp57
 70
     1
102
RTVSPropertyOp0
 70
     1
102
RTVSPropertyOp1
 70
     1
102
RTVSPropertyOp2
 70
     1
102
RTVSPropertyOp3
 70
     1
102
RTVSPropertyOp4
 70
     1
102
RTVSPropertyOp5
 70
     1
102
RTVSPropertyOp6
 70
     1
102
RTVSPropertyOp7
 70
     1
102
RTVSPropertyOp8
 70
     1
102
RTVSPropertyOp9
 70
     1
102
RTVSPropertyOp10
 70
     1
102
RTVSPropertyOp11
 70
     1
102
RTVSPropertyOp12
 70
     1
102
RTVSPropertyOp13
 70
     1
102
RTVSPropertyOp14
 70
     1
102
RTVSPropertyOp15
 70
     1
102
RTVSPropertyOp16
 70
     1
102
RTVSPropertyOp17
 70
     1
102
RTVSPropertyOp18
 70
     1
102
RTVSPropertyOp19
 70
     1
102
RTVSPropertyOp20
 70
     1
102
RTVSPropertyOp21
 70
     1
102
RTVSPropertyOp22
 70
     1
102
RTVSPropertyOp23
 70
     1
102
RTVSPropertyOp24
 70
     1
102
RTVSPropertyOp25
 70
     1
102
RTVSPropertyOp26
 70
     1
102
RTVSPropertyOp27
 70
     1
102
RTVSPropertyOp28
 70
     1
102
RTVSPropertyOp29
 70
     1
102
RTVSPropertyOp30
 70
     1
102
RTVSPropertyOp31
 70
     1
102
RTVSPropertyOp32
 70
     1
102
RTVSPropertyOp33
 70
     1
102
RTVSPropertyOp34
 70
     1
102
RTVSPropertyOp35
 70
     1
102
RTVSPropertyOp36
 70
     1
102
RTVSPropertyOp37
 70
     1
102
RTVSPropertyOp38
 70
     1
102
RTVSPropertyOp39
 70
     1
102
RTVSPropertyOp40
 70
     1
102
RTVSPropertyOp41
 70
     1
102
RTVSPropertyOp42
 70
     1
102
RTVSPropertyOp43
 70
     1
102
RTVSPropertyOp44
 70
     1
102
RTVSPropertyOp45
 70
     1
102
RTVSPropertyOp46
 70
     1
102
RTVSPropertyOp47
 70
     1
102
RTVSPropertyOp48
 70
     1
102
RTVSPropertyOp49
 70
     1
102
RTVSPropertyOp50
 70
     1
102
RTVSPropertyOp51
 70
     0
102
RTVSPropertyOp52
 70
     0
102
RTVSPropertyOp53
 70
     1
102
RTVSPropertyOp54
 70
     1
102
RTVSPropertyOp55
 70
     1
102
RTVSPropertyOp56
 70
     1
102
RTVSPropertyOp57
 70
     1
102
RTVSPropertyOp58
 70
     1
102
RTVSPropertyOp59
 70
     1
102
RTVSPropertyOp60
 70
     1
102
RTVSPropertyOp61
 70
     1
102
RTVSPropertyOp62
 70
     1
  0
XRECORD
  5
8C8
102
{ACAD_REACTORS
330
8C7
102
}
330
8C7
100
AcDbXrecord
280
     1
102
RTVSPost2010Prop28
280
     0
102
RTVSPost2010PropOp28
 70
     1
102
RTVSPost2010Prop29
280
     1
102
RTVSPost2010PropOp29
 70
     1
102
RTVSPost2010Prop30
280
     1
102
RTVSPost2010PropOp30
 70
     1
102
RTVSPost2010Prop31
280
     0
102
RTVSPost2010PropOp31
 70
     1
102
RTVSPost2010Prop32
280
     0
102
RTVSPost2010PropOp32
 70
     1
102
RTVSPost2010Prop33
280
     0
102
RTVSPost2010PropOp33
 70
     1
102
RTVSPost2010Prop34
280
     0
102
RTVSPost2010PropOp34
 70
     1
102
RTVSPost2010Prop35
280
     0
102
RTVSPost2010PropOp35
 70
     1
102
RTVSPost2010Prop36
280
     0
102
RTVSPost2010PropOp36
 70
     1
102
RTVSPost2010Prop37
 90
       50
102
RTVSPost2010PropOp37
 70
     1
102
RTVSPost2010Prop38
140
0.0
102
RTVSPost2010PropOp38
 70
     1
102
RTVSPost2010Prop39
140
1.0
102
RTVSPost2010PropOp39
 70
     1
102
RTVSPost2010Prop40
 90
        0
102
RTVSPost2010PropOp40
 70
     1
102
RTVSPost2010Prop41ColorIndex
 90
       18
102
RTVSPost2010Prop41ColorRGB
 90
        0
102
RTVSPost2010PropOp41
 70
     1
102
RTVSPost2010Prop42
 90
       50
102
RTVSPost2010PropOp42
 70
     1
102
RTVSPost2010Prop43
 90
        3
102
RTVSPost2010PropOp43
 70
     1
102
RTVSPost2010Prop44ColorIndex
 90
        5
102
RTVSPost2010Prop44ColorRGB
 90
      255
102
RTVSPost2010PropOp44
 70
     1
102
RTVSPost2010Prop45
280
     0
102
RTVSPost2010PropOp45
 70
     1
102
RTVSPost2010Prop46
 90
       50
102
RTVSPost2010PropOp46
 70
     1
102
RTVSPost2010Prop47
 90
       50
102
RTVSPost2010PropOp47
 70
     1
102
RTVSPost2010Prop48
 90
       50
102
RTVSPost2010PropOp48
 70
     1
102
RTVSPost2010Prop49
280
     0
102
RTVSPost2010PropOp49
 70
     1
102
RTVSPost2010Prop50
 90
       50
102
RTVSPost2010PropOp50
 70
     1
102
RTVSPost2010Prop51ColorIndex
 90
      256
102
RTVSPost2010Prop51ColorRGB
 90
-16777216
102
RTVSPost2010PropOp51
 70
     0
102
RTVSPost2010Prop52
140
1.0
102
RTVSPost2010PropOp52
 70
     0
102
RTVSPost2010Prop53
 90
        2
102
RTVSPost2010PropOp53
 70
     1
102
RTVSPost2010Prop54
  1
strokes_ogs.tif
102
RTVSPost2010PropOp54
 70
     1
102
RTVSPost2010Prop55
280
     0
102
RTVSPost2010PropOp55
 70
     1
102
RTVSPost2010Prop56
140
1.0
102
RTVSPost2010PropOp56
 70
     1
102
RTVSPost2010Prop57
140
1.0
102
RTVSPost2010PropOp57
 70
     1
102
RTVSPropertyOp0
 70
     1
102
RTVSPropertyOp1
 70
     1
102
RTVSPropertyOp2
 70
     1
102
RTVSPropertyOp3
 70
     1
102
RTVSPropertyOp4
 70
     1
102
RTVSPropertyOp5
 70
     1
102
RTVSPropertyOp6
 70
     1
102
RTVSPropertyOp7
 70
     1
102
RTVSPropertyOp8
 70
     1
102
RTVSPropertyOp9
 70
     1
102
RTVSPropertyOp10
 70
     1
102
RTVSPropertyOp11
 70
     1
102
RTVSPropertyOp12
 70
     1
102
RTVSPropertyOp13
 70
     1
102
RTVSPropertyOp14
 70
     1
102
RTVSPropertyOp15
 70
     1
102
RTVSPropertyOp16
 70
     1
102
RTVSPropertyOp17
 70
     1
102
RTVSPropertyOp18
 70
     1
102
RTVSPropertyOp19
 70
     1
102
RTVSPropertyOp20
 70
     1
102
RTVSPropertyOp21
 70
     1
102
RTVSPropertyOp22
 70
     1
102
RTVSPropertyOp23
 70
     1
102
RTVSPropertyOp24
 70
     1
102
RTVSPropertyOp25
 70
     1
102
RTVSPropertyOp26
 70
     1
102
RTVSPropertyOp27
 70
     1
102
RTVSPropertyOp28
 70
     1
102
RTVSPropertyOp29
 70
     1
102
RTVSPropertyOp30
 70
     1
102
RTVSPropertyOp31
 70
     1
102
RTVSPropertyOp32
 70
     1
102
RTVSPropertyOp33
 70
     1
102
RTVSPropertyOp34
 70
     1
102
RTVSPropertyOp35
 70
     1
102
RTVSPropertyOp36
 70
     1
102
RTVSPropertyOp37
 70
     1
102
RTVSPropertyOp38
 70
     1
102
RTVSPropertyOp39
 70
     1
102
RTVSPropertyOp40
 70
     1
102
RTVSPropertyOp41
 70
     1
102
RTVSPropertyOp42
 70
     1
102
RTVSPropertyOp43
 70
     1
102
RTVSPropertyOp44
 70
     1
102
RTVSPropertyOp45
 70
     1
102
RTVSPropertyOp46
 70
     1
102
RTVSPropertyOp47
 70
     1
102
RTVSPropertyOp48
 70
     1
102
RTVSPropertyOp49
 70
     1
102
RTVSPropertyOp50
 70
     1
102
RTVSPropertyOp51
 70
     0
102
RTVSPropertyOp52
 70
     0
102
RTVSPropertyOp53
 70
     1
102
RTVSPropertyOp54
 70
     1
102
RTVSPropertyOp55
 70
     1
102
RTVSPropertyOp56
 70
     1
102
RTVSPropertyOp57
 70
     1
102
RTVSPropertyOp58
 70
     1
102
RTVSPropertyOp59
 70
     1
102
RTVSPropertyOp60
 70
     1
102
RTVSPropertyOp61
 70
     1
102
RTVSPropertyOp62
 70
     1
  0
XRECORD
  5
8CA
102
{ACAD_REACTORS
330
8C9
102
}
330
8C9
100
AcDbXrecord
280
     1
102
RTVSPost2010Prop28
280
     0
102
RTVSPost2010PropOp28
 70
     1
102
RTVSPost2010Prop29
280
     1
102
RTVSPost2010PropOp29
 70
     1
102
RTVSPost2010Prop30
280
     1
102
RTVSPost2010PropOp30
 70
     1
102
RTVSPost2010Prop31
280
     0
102
RTVSPost2010PropOp31
 70
     1
102
RTVSPost2010Prop32
280
     0
102
RTVSPost2010PropOp32
 70
     1
102
RTVSPost2010Prop33
280
     0
102
RTVSPost2010PropOp33
 70
     1
102
RTVSPost2010Prop34
280
     0
102
RTVSPost2010PropOp34
 70
     1
102
RTVSPost2010Prop35
280
     0
102
RTVSPost2010PropOp35
 70
     1
102
RTVSPost2010Prop36
280
     0
102
RTVSPost2010PropOp36
 70
     1
102
RTVSPost2010Prop37
 90
       50
102
RTVSPost2010PropOp37
 70
     1
102
RTVSPost2010Prop38
140
0.0
102
RTVSPost2010PropOp38
 70
     1
102
RTVSPost2010Prop39
140
1.0
102
RTVSPost2010PropOp39
 70
     1
102
RTVSPost2010Prop40
 90
        0
102
RTVSPost2010PropOp40
 70
     1
102
RTVSPost2010Prop41ColorIndex
 90
       18
102
RTVSPost2010Prop41ColorRGB
 90
        0
102
RTVSPost2010PropOp41
 70
     1
102
RTVSPost2010Prop42
 90
       50
102
RTVSPost2010PropOp42
 70
     1
102
RTVSPost2010Prop43
 90
        3
102
RTVSPost2010PropOp43
 70
     1
102
RTVSPost2010Prop44ColorIndex
 90
        5
102
RTVSPost2010Prop44ColorRGB
 90
      255
102
RTVSPost2010PropOp44
 70
     1
102
RTVSPost2010Prop45
280
     0
102
RTVSPost2010PropOp45
 70
     1
102
RTVSPost2010Prop46
 90
       50
102
RTVSPost2010PropOp46
 70
     1
102
RTVSPost2010Prop47
 90
       50
102
RTVSPost2010PropOp47
 70
     1
102
RTVSPost2010Prop48
 90
       50
102
RTVSPost2010PropOp48
 70
     1
102
RTVSPost2010Prop49
280
     0
102
RTVSPost2010PropOp49
 70
     1
102
RTVSPost2010Prop50
 90
       50
102
RTVSPost2010PropOp50
 70
     1
102
RTVSPost2010Prop51ColorIndex
 90
      256
102
RTVSPost2010Prop51ColorRGB
 90
-16777216
102
RTVSPost2010PropOp51
 70
     0
102
RTVSPost2010Prop52
140
1.0
102
RTVSPost2010PropOp52
 70
     0
102
RTVSPost2010Prop53
 90
        2
102
RTVSPost2010PropOp53
 70
     1
102
RTVSPost2010Prop54
  1
strokes_ogs.tif
102
RTVSPost2010PropOp54
 70
     1
102
RTVSPost2010Prop55
280
     0
102
RTVSPost2010PropOp55
 70
     1
102
RTVSPost2010Prop56
140
1.0
102
RTVSPost2010PropOp56
 70
     1
102
RTVSPost2010Prop57
140
1.0
102
RTVSPost2010PropOp57
 70
     1
102
RTVSPropertyOp0
 70
     1
102
RTVSPropertyOp1
 70
     1
102
RTVSPropertyOp2
 70
     1
102
RTVSPropertyOp3
 70
     1
102
RTVSPropertyOp4
 70
     1
102
RTVSPropertyOp5
 70
     1
102
RTVSPropertyOp6
 70
     1
102
RTVSPropertyOp7
 70
     1
102
RTVSPropertyOp8
 70
     1
102
RTVSPropertyOp9
 70
     1
102
RTVSPropertyOp10
 70
     1
102
RTVSPropertyOp11
 70
     1
102
RTVSPropertyOp12
 70
     1
102
RTVSPropertyOp13
 70
     1
102
RTVSPropertyOp14
 70
     1
102
RTVSPropertyOp15
 70
     1
102
RTVSPropertyOp16
 70
     1
102
RTVSPropertyOp17
 70
     1
102
RTVSPropertyOp18
 70
     1
102
RTVSPropertyOp19
 70
     1
102
RTVSPropertyOp20
 70
     1
102
RTVSPropertyOp21
 70
     1
102
RTVSPropertyOp22
 70
     1
102
RTVSPropertyOp23
 70
     1
102
RTVSPropertyOp24
 70
     1
102
RTVSPropertyOp25
 70
     1
102
RTVSPropertyOp26
 70
     1
102
RTVSPropertyOp27
 70
     1
102
RTVSPropertyOp28
 70
     1
102
RTVSPropertyOp29
 70
     1
102
RTVSPropertyOp30
 70
     1
102
RTVSPropertyOp31
 70
     1
102
RTVSPropertyOp32
 70
     1
102
RTVSPropertyOp33
 70
     1
102
RTVSPropertyOp34
 70
     1
102
RTVSPropertyOp35
 70
     1
102
RTVSPropertyOp36
 70
     1
102
RTVSPropertyOp37
 70
     1
102
RTVSPropertyOp38
 70
     1
102
RTVSPropertyOp39
 70
     1
102
RTVSPropertyOp40
 70
     1
102
RTVSPropertyOp41
 70
     1
102
RTVSPropertyOp42
 70
     1
102
RTVSPropertyOp43
 70
     1
102
RTVSPropertyOp44
 70
     1
102
RTVSPropertyOp45
 70
     1
102
RTVSPropertyOp46
 70
     1
102
RTVSPropertyOp47
 70
     1
102
RTVSPropertyOp48
 70
     1
102
RTVSPropertyOp49
 70
     1
102
RTVSPropertyOp50
 70
     1
102
RTVSPropertyOp51
 70
     0
102
RTVSPropertyOp52
 70
     0
102
RTVSPropertyOp53
 70
     1
102
RTVSPropertyOp54
 70
     1
102
RTVSPropertyOp55
 70
     1
102
RTVSPropertyOp56
 70
     1
102
RTVSPropertyOp57
 70
     1
102
RTVSPropertyOp58
 70
     1
102
RTVSPropertyOp59
 70
     1
102
RTVSPropertyOp60
 70
     1
102
RTVSPropertyOp61
 70
     1
102
RTVSPropertyOp62
 70
     1
  0
XRECORD
  5
8CC
102
{ACAD_REACTORS
330
8CB
102
}
330
8CB
100
AcDbXrecord
280
     1
102
RTVSPost2010Prop28
280
     0
102
RTVSPost2010PropOp28
 70
     1
102
RTVSPost2010Prop29
280
     1
102
RTVSPost2010PropOp29
 70
     1
102
RTVSPost2010Prop30
280
     1
102
RTVSPost2010PropOp30
 70
     1
102
RTVSPost2010Prop31
280
     0
102
RTVSPost2010PropOp31
 70
     1
102
RTVSPost2010Prop32
280
     0
102
RTVSPost2010PropOp32
 70
     1
102
RTVSPost2010Prop33
280
     0
102
RTVSPost2010PropOp33
 70
     1
102
RTVSPost2010Prop34
280
     0
102
RTVSPost2010PropOp34
 70
     1
102
RTVSPost2010Prop35
280
     0
102
RTVSPost2010PropOp35
 70
     1
102
RTVSPost2010Prop36
280
     0
102
RTVSPost2010PropOp36
 70
     1
102
RTVSPost2010Prop37
 90
       50
102
RTVSPost2010PropOp37
 70
     1
102
RTVSPost2010Prop38
140
0.0
102
RTVSPost2010PropOp38
 70
     1
102
RTVSPost2010Prop39
140
1.0
102
RTVSPost2010PropOp39
 70
     1
102
RTVSPost2010Prop40
 90
        0
102
RTVSPost2010PropOp40
 70
     1
102
RTVSPost2010Prop41ColorIndex
 90
       18
102
RTVSPost2010Prop41ColorRGB
 90
        0
102
RTVSPost2010PropOp41
 70
     1
102
RTVSPost2010Prop42
 90
       50
102
RTVSPost2010PropOp42
 70
     1
102
RTVSPost2010Prop43
 90
        3
102
RTVSPost2010PropOp43
 70
     1
102
RTVSPost2010Prop44ColorIndex
 90
        5
102
RTVSPost2010Prop44ColorRGB
 90
      255
102
RTVSPost2010PropOp44
 70
     1
102
RTVSPost2010Prop45
280
     0
102
RTVSPost2010PropOp45
 70
     1
102
RTVSPost2010Prop46
 90
       50
102
RTVSPost2010PropOp46
 70
     1
102
RTVSPost2010Prop47
 90
       50
102
RTVSPost2010PropOp47
 70
     1
102
RTVSPost2010Prop48
 90
       50
102
RTVSPost2010PropOp48
 70
     1
102
RTVSPost2010Prop49
280
     0
102
RTVSPost2010PropOp49
 70
     1
102
RTVSPost2010Prop50
 90
       50
102
RTVSPost2010PropOp50
 70
     1
102
RTVSPost2010Prop51ColorIndex
 90
      256
102
RTVSPost2010Prop51ColorRGB
 90
-16777216
102
RTVSPost2010PropOp51
 70
     0
102
RTVSPost2010Prop52
140
1.0
102
RTVSPost2010PropOp52
 70
     0
102
RTVSPost2010Prop53
 90
        2
102
RTVSPost2010PropOp53
 70
     1
102
RTVSPost2010Prop54
  1
strokes_ogs.tif
102
RTVSPost2010PropOp54
 70
     1
102
RTVSPost2010Prop55
280
     0
102
RTVSPost2010PropOp55
 70
     1
102
RTVSPost2010Prop56
140
1.0
102
RTVSPost2010PropOp56
 70
     1
102
RTVSPost2010Prop57
140
1.0
102
RTVSPost2010PropOp57
 70
     1
102
RTVSPropertyOp0
 70
     1
102
RTVSPropertyOp1
 70
     1
102
RTVSPropertyOp2
 70
     1
102
RTVSPropertyOp3
 70
     1
102
RTVSPropertyOp4
 70
     1
102
RTVSPropertyOp5
 70
     1
102
RTVSPropertyOp6
 70
     1
102
RTVSPropertyOp7
 70
     1
102
RTVSPropertyOp8
 70
     1
102
RTVSPropertyOp9
 70
     1
102
RTVSPropertyOp10
 70
     1
102
RTVSPropertyOp11
 70
     1
102
RTVSPropertyOp12
 70
     1
102
RTVSPropertyOp13
 70
     1
102
RTVSPropertyOp14
 70
     1
102
RTVSPropertyOp15
 70
     1
102
RTVSPropertyOp16
 70
     1
102
RTVSPropertyOp17
 70
     1
102
RTVSPropertyOp18
 70
     1
102
RTVSPropertyOp19
 70
     1
102
RTVSPropertyOp20
 70
     1
102
RTVSPropertyOp21
 70
     1
102
RTVSPropertyOp22
 70
     1
102
RTVSPropertyOp23
 70
     1
102
RTVSPropertyOp24
 70
     1
102
RTVSPropertyOp25
 70
     1
102
RTVSPropertyOp26
 70
     1
102
RTVSPropertyOp27
 70
     1
102
RTVSPropertyOp28
 70
     1
102
RTVSPropertyOp29
 70
     1
102
RTVSPropertyOp30
 70
     1
102
RTVSPropertyOp31
 70
     1
102
RTVSPropertyOp32
 70
     1
102
RTVSPropertyOp33
 70
     1
102
RTVSPropertyOp34
 70
     1
102
RTVSPropertyOp35
 70
     1
102
RTVSPropertyOp36
 70
     1
102
RTVSPropertyOp37
 70
     1
102
RTVSPropertyOp38
 70
     1
102
RTVSPropertyOp39
 70
     1
102
RTVSPropertyOp40
 70
     1
102
RTVSPropertyOp41
 70
     1
102
RTVSPropertyOp42
 70
     1
102
RTVSPropertyOp43
 70
     1
102
RTVSPropertyOp44
 70
     1
102
RTVSPropertyOp45
 70
     1
102
RTVSPropertyOp46
 70
     1
102
RTVSPropertyOp47
 70
     1
102
RTVSPropertyOp48
 70
     1
102
RTVSPropertyOp49
 70
     1
102
RTVSPropertyOp50
 70
     1
102
RTVSPropertyOp51
 70
     0
102
RTVSPropertyOp52
 70
     0
102
RTVSPropertyOp53
 70
     1
102
RTVSPropertyOp54
 70
     1
102
RTVSPropertyOp55
 70
     1
102
RTVSPropertyOp56
 70
     1
102
RTVSPropertyOp57
 70
     1
102
RTVSPropertyOp58
 70
     1
102
RTVSPropertyOp59
 70
     1
102
RTVSPropertyOp60
 70
     1
102
RTVSPropertyOp61
 70
     1
102
RTVSPropertyOp62
 70
     1
  0
XRECORD
  5
8CE
102
{ACAD_REACTORS
330
8CD
102
}
330
8CD
100
AcDbXrecord
280
     1
102
RTVSPost2010Prop28
280
     0
102
RTVSPost2010PropOp28
 70
     1
102
RTVSPost2010Prop29
280
     1
102
RTVSPost2010PropOp29
 70
     1
102
RTVSPost2010Prop30
280
     1
102
RTVSPost2010PropOp30
 70
     1
102
RTVSPost2010Prop31
280
     0
102
RTVSPost2010PropOp31
 70
     1
102
RTVSPost2010Prop32
280
     0
102
RTVSPost2010PropOp32
 70
     1
102
RTVSPost2010Prop33
280
     0
102
RTVSPost2010PropOp33
 70
     1
102
RTVSPost2010Prop34
280
     0
102
RTVSPost2010PropOp34
 70
     1
102
RTVSPost2010Prop35
280
     0
102
RTVSPost2010PropOp35
 70
     1
102
RTVSPost2010Prop36
280
     0
102
RTVSPost2010PropOp36
 70
     1
102
RTVSPost2010Prop37
 90
       50
102
RTVSPost2010PropOp37
 70
     1
102
RTVSPost2010Prop38
140
0.0
102
RTVSPost2010PropOp38
 70
     1
102
RTVSPost2010Prop39
140
1.0
102
RTVSPost2010PropOp39
 70
     1
102
RTVSPost2010Prop40
 90
        0
102
RTVSPost2010PropOp40
 70
     1
102
RTVSPost2010Prop41ColorIndex
 90
       18
102
RTVSPost2010Prop41ColorRGB
 90
        0
102
RTVSPost2010PropOp41
 70
     1
102
RTVSPost2010Prop42
 90
       50
102
RTVSPost2010PropOp42
 70
     1
102
RTVSPost2010Prop43
 90
        3
102
RTVSPost2010PropOp43
 70
     1
102
RTVSPost2010Prop44ColorIndex
 90
        5
102
RTVSPost2010Prop44ColorRGB
 90
      255
102
RTVSPost2010PropOp44
 70
     1
102
RTVSPost2010Prop45
280
     0
102
RTVSPost2010PropOp45
 70
     1
102
RTVSPost2010Prop46
 90
       50
102
RTVSPost2010PropOp46
 70
     1
102
RTVSPost2010Prop47
 90
       50
102
RTVSPost2010PropOp47
 70
     1
102
RTVSPost2010Prop48
 90
       50
102
RTVSPost2010PropOp48
 70
     1
102
RTVSPost2010Prop49
280
     0
102
RTVSPost2010PropOp49
 70
     1
102
RTVSPost2010Prop50
 90
       50
102
RTVSPost2010PropOp50
 70
     1
102
RTVSPost2010Prop51ColorIndex
 90
      256
102
RTVSPost2010Prop51ColorRGB
 90
-16777216
102
RTVSPost2010PropOp51
 70
     0
102
RTVSPost2010Prop52
140
1.0
102
RTVSPost2010PropOp52
 70
     0
102
RTVSPost2010Prop53
 90
        2
102
RTVSPost2010PropOp53
 70
     1
102
RTVSPost2010Prop54
  1
strokes_ogs.tif
102
RTVSPost2010PropOp54
 70
     1
102
RTVSPost2010Prop55
280
     0
102
RTVSPost2010PropOp55
 70
     1
102
RTVSPost2010Prop56
140
1.0
102
RTVSPost2010PropOp56
 70
     1
102
RTVSPost2010Prop57
140
1.0
102
RTVSPost2010PropOp57
 70
     1
102
RTVSPropertyOp0
 70
     1
102
RTVSPropertyOp1
 70
     1
102
RTVSPropertyOp2
 70
     1
102
RTVSPropertyOp3
 70
     1
102
RTVSPropertyOp4
 70
     1
102
RTVSPropertyOp5
 70
     1
102
RTVSPropertyOp6
 70
     1
102
RTVSPropertyOp7
 70
     1
102
RTVSPropertyOp8
 70
     1
102
RTVSPropertyOp9
 70
     1
102
RTVSPropertyOp10
 70
     1
102
RTVSPropertyOp11
 70
     1
102
RTVSPropertyOp12
 70
     1
102
RTVSPropertyOp13
 70
     1
102
RTVSPropertyOp14
 70
     1
102
RTVSPropertyOp15
 70
     1
102
RTVSPropertyOp16
 70
     1
102
RTVSPropertyOp17
 70
     1
102
RTVSPropertyOp18
 70
     1
102
RTVSPropertyOp19
 70
     1
102
RTVSPropertyOp20
 70
     1
102
RTVSPropertyOp21
 70
     1
102
RTVSPropertyOp22
 70
     1
102
RTVSPropertyOp23
 70
     1
102
RTVSPropertyOp24
 70
     1
102
RTVSPropertyOp25
 70
     1
102
RTVSPropertyOp26
 70
     1
102
RTVSPropertyOp27
 70
     1
102
RTVSPropertyOp28
 70
     1
102
RTVSPropertyOp29
 70
     1
102
RTVSPropertyOp30
 70
     1
102
RTVSPropertyOp31
 70
     1
102
RTVSPropertyOp32
 70
     1
102
RTVSPropertyOp33
 70
     1
102
RTVSPropertyOp34
 70
     1
102
RTVSPropertyOp35
 70
     1
102
RTVSPropertyOp36
 70
     1
102
RTVSPropertyOp37
 70
     1
102
RTVSPropertyOp38
 70
     1
102
RTVSPropertyOp39
 70
     1
102
RTVSPropertyOp40
 70
     1
102
RTVSPropertyOp41
 70
     1
102
RTVSPropertyOp42
 70
     1
102
RTVSPropertyOp43
 70
     1
102
RTVSPropertyOp44
 70
     1
102
RTVSPropertyOp45
 70
     1
102
RTVSPropertyOp46
 70
     1
102
RTVSPropertyOp47
 70
     1
102
RTVSPropertyOp48
 70
     1
102
RTVSPropertyOp49
 70
     1
102
RTVSPropertyOp50
 70
     1
102
RTVSPropertyOp51
 70
     0
102
RTVSPropertyOp52
 70
     0
102
RTVSPropertyOp53
 70
     1
102
RTVSPropertyOp54
 70
     1
102
RTVSPropertyOp55
 70
     1
102
RTVSPropertyOp56
 70
     1
102
RTVSPropertyOp57
 70
     1
102
RTVSPropertyOp58
 70
     1
102
RTVSPropertyOp59
 70
     1
102
RTVSPropertyOp60
 70
     1
102
RTVSPropertyOp61
 70
     1
102
RTVSPropertyOp62
 70
     1
  0
XRECORD
  5
8D6
102
{ACAD_REACTORS
330
8D5
102
}
330
8D5
100
AcDbXrecord
280
     1
102
RTVSPost2010Prop28
280
     0
102
RTVSPost2010PropOp28
 70
     1
102
RTVSPost2010Prop29
280
     1
102
RTVSPost2010PropOp29
 70
     1
102
RTVSPost2010Prop30
280
     1
102
RTVSPost2010PropOp30
 70
     1
102
RTVSPost2010Prop31
280
     0
102
RTVSPost2010PropOp31
 70
     1
102
RTVSPost2010Prop32
280
     0
102
RTVSPost2010PropOp32
 70
     1
102
RTVSPost2010Prop33
280
     0
102
RTVSPost2010PropOp33
 70
     1
102
RTVSPost2010Prop34
280
     0
102
RTVSPost2010PropOp34
 70
     1
102
RTVSPost2010Prop35
280
     0
102
RTVSPost2010PropOp35
 70
     1
102
RTVSPost2010Prop36
280
     0
102
RTVSPost2010PropOp36
 70
     1
102
RTVSPost2010Prop37
 90
       50
102
RTVSPost2010PropOp37
 70
     1
102
RTVSPost2010Prop38
140
0.0
102
RTVSPost2010PropOp38
 70
     1
102
RTVSPost2010Prop39
140
1.0
102
RTVSPost2010PropOp39
 70
     1
102
RTVSPost2010Prop40
 90
        0
102
RTVSPost2010PropOp40
 70
     1
102
RTVSPost2010Prop41ColorIndex
 90
       18
102
RTVSPost2010Prop41ColorRGB
 90
        0
102
RTVSPost2010PropOp41
 70
     1
102
RTVSPost2010Prop42
 90
       50
102
RTVSPost2010PropOp42
 70
     1
102
RTVSPost2010Prop43
 90
        3
102
RTVSPost2010PropOp43
 70
     1
102
RTVSPost2010Prop44ColorIndex
 90
        5
102
RTVSPost2010Prop44ColorRGB
 90
      255
102
RTVSPost2010PropOp44
 70
     1
102
RTVSPost2010Prop45
280
     0
102
RTVSPost2010PropOp45
 70
     1
102
RTVSPost2010Prop46
 90
       50
102
RTVSPost2010PropOp46
 70
     1
102
RTVSPost2010Prop47
 90
       50
102
RTVSPost2010PropOp47
 70
     1
102
RTVSPost2010Prop48
 90
       50
102
RTVSPost2010PropOp48
 70
     1
102
RTVSPost2010Prop49
280
     0
102
RTVSPost2010PropOp49
 70
     1
102
RTVSPost2010Prop50
 90
       50
102
RTVSPost2010PropOp50
 70
     1
102
RTVSPost2010Prop51ColorIndex
 90
      256
102
RTVSPost2010Prop51ColorRGB
 90
-16777216
102
RTVSPost2010PropOp51
 70
     0
102
RTVSPost2010Prop52
140
1.0
102
RTVSPost2010PropOp52
 70
     0
102
RTVSPost2010Prop53
 90
        2
102
RTVSPost2010PropOp53
 70
     1
102
RTVSPost2010Prop54
  1
strokes_ogs.tif
102
RTVSPost2010PropOp54
 70
     1
102
RTVSPost2010Prop55
280
     0
102
RTVSPost2010PropOp55
 70
     1
102
RTVSPost2010Prop56
140
1.0
102
RTVSPost2010PropOp56
 70
     1
102
RTVSPost2010Prop57
140
1.0
102
RTVSPost2010PropOp57
 70
     1
102
RTVSPropertyOp0
 70
     1
102
RTVSPropertyOp1
 70
     1
102
RTVSPropertyOp2
 70
     1
102
RTVSPropertyOp3
 70
     1
102
RTVSPropertyOp4
 70
     1
102
RTVSPropertyOp5
 70
     1
102
RTVSPropertyOp6
 70
     1
102
RTVSPropertyOp7
 70
     1
102
RTVSPropertyOp8
 70
     1
102
RTVSPropertyOp9
 70
     1
102
RTVSPropertyOp10
 70
     1
102
RTVSPropertyOp11
 70
     1
102
RTVSPropertyOp12
 70
     1
102
RTVSPropertyOp13
 70
     1
102
RTVSPropertyOp14
 70
     1
102
RTVSPropertyOp15
 70
     1
102
RTVSPropertyOp16
 70
     1
102
RTVSPropertyOp17
 70
     1
102
RTVSPropertyOp18
 70
     1
102
RTVSPropertyOp19
 70
     1
102
RTVSPropertyOp20
 70
     1
102
RTVSPropertyOp21
 70
     1
102
RTVSPropertyOp22
 70
     1
102
RTVSPropertyOp23
 70
     1
102
RTVSPropertyOp24
 70
     1
102
RTVSPropertyOp25
 70
     1
102
RTVSPropertyOp26
 70
     1
102
RTVSPropertyOp27
 70
     1
102
RTVSPropertyOp28
 70
     1
102
RTVSPropertyOp29
 70
     1
102
RTVSPropertyOp30
 70
     1
102
RTVSPropertyOp31
 70
     1
102
RTVSPropertyOp32
 70
     1
102
RTVSPropertyOp33
 70
     1
102
RTVSPropertyOp34
 70
     1
102
RTVSPropertyOp35
 70
     1
102
RTVSPropertyOp36
 70
     1
102
RTVSPropertyOp37
 70
     1
102
RTVSPropertyOp38
 70
     1
102
RTVSPropertyOp39
 70
     1
102
RTVSPropertyOp40
 70
     1
102
RTVSPropertyOp41
 70
     1
102
RTVSPropertyOp42
 70
     1
102
RTVSPropertyOp43
 70
     1
102
RTVSPropertyOp44
 70
     1
102
RTVSPropertyOp45
 70
     1
102
RTVSPropertyOp46
 70
     1
102
RTVSPropertyOp47
 70
     1
102
RTVSPropertyOp48
 70
     1
102
RTVSPropertyOp49
 70
     1
102
RTVSPropertyOp50
 70
     1
102
RTVSPropertyOp51
 70
     0
102
RTVSPropertyOp52
 70
     0
102
RTVSPropertyOp53
 70
     1
102
RTVSPropertyOp54
 70
     1
102
RTVSPropertyOp55
 70
     1
102
RTVSPropertyOp56
 70
     1
102
RTVSPropertyOp57
 70
     1
102
RTVSPropertyOp58
 70
     1
102
RTVSPropertyOp59
 70
     1
102
RTVSPropertyOp60
 70
     1
102
RTVSPropertyOp61
 70
     1
102
RTVSPropertyOp62
 70
     1
  0
XRECORD
  5
8F2
102
{ACAD_REACTORS
330
8F1
102
}
330
8F1
100
AcDbXrecord
280
     1
102
RTVSPost2010Prop28
280
     0
102
RTVSPost2010PropOp28
 70
     1
102
RTVSPost2010Prop29
280
     1
102
RTVSPost2010PropOp29
 70
     1
102
RTVSPost2010Prop30
280
     1
102
RTVSPost2010PropOp30
 70
     1
102
RTVSPost2010Prop31
280
     0
102
RTVSPost2010PropOp31
 70
     1
102
RTVSPost2010Prop32
280
     0
102
RTVSPost2010PropOp32
 70
     1
102
RTVSPost2010Prop33
280
     0
102
RTVSPost2010PropOp33
 70
     1
102
RTVSPost2010Prop34
280
     0
102
RTVSPost2010PropOp34
 70
     1
102
RTVSPost2010Prop35
280
     0
102
RTVSPost2010PropOp35
 70
     1
102
RTVSPost2010Prop36
280
     0
102
RTVSPost2010PropOp36
 70
     1
102
RTVSPost2010Prop37
 90
       50
102
RTVSPost2010PropOp37
 70
     0
102
RTVSPost2010Prop38
140
0.0
102
RTVSPost2010PropOp38
 70
     0
102
RTVSPost2010Prop39
140
1.0
102
RTVSPost2010PropOp39
 70
     0
102
RTVSPost2010Prop40
 90
        0
102
RTVSPost2010PropOp40
 70
     0
102
RTVSPost2010Prop41ColorIndex
 90
       18
102
RTVSPost2010Prop41ColorRGB
 90
        0
102
RTVSPost2010PropOp41
 70
     0
102
RTVSPost2010Prop42
 90
       50
102
RTVSPost2010PropOp42
 70
     0
102
RTVSPost2010Prop43
 90
        3
102
RTVSPost2010PropOp43
 70
     0
102
RTVSPost2010Prop44ColorIndex
 90
        5
102
RTVSPost2010Prop44ColorRGB
 90
      255
102
RTVSPost2010PropOp44
 70
     0
102
RTVSPost2010Prop45
280
     0
102
RTVSPost2010PropOp45
 70
     1
102
RTVSPost2010Prop46
 90
       50
102
RTVSPost2010PropOp46
 70
     0
102
RTVSPost2010Prop47
 90
       50
102
RTVSPost2010PropOp47
 70
     0
102
RTVSPost2010Prop48
 90
       50
102
RTVSPost2010PropOp48
 70
     0
102
RTVSPost2010Prop49
280
     0
102
RTVSPost2010PropOp49
 70
     1
102
RTVSPost2010Prop50
 90
       50
102
RTVSPost2010PropOp50
 70
     0
102
RTVSPost2010Prop51ColorIndex
 90
      256
102
RTVSPost2010Prop51ColorRGB
 90
-16777216
102
RTVSPost2010PropOp51
 70
     0
102
RTVSPost2010Prop52
140
1.0
102
RTVSPost2010PropOp52
 70
     0
102
RTVSPost2010Prop53
 90
        2
102
RTVSPost2010PropOp53
 70
     0
102
RTVSPost2010Prop54
  1
strokes_ogs.tif
102
RTVSPost2010PropOp54
 70
     0
102
RTVSPost2010Prop55
280
     0
102
RTVSPost2010PropOp55
 70
     1
102
RTVSPost2010Prop56
140
1.0
102
RTVSPost2010PropOp56
 70
     0
102
RTVSPost2010Prop57
140
1.0
102
RTVSPost2010PropOp57
 70
     0
102
RTVSPropertyOp0
 70
     0
102
RTVSPropertyOp1
 70
     0
102
RTVSPropertyOp2
 70
     0
102
RTVSPropertyOp3
 70
     0
102
RTVSPropertyOp4
 70
     0
102
RTVSPropertyOp5
 70
     0
102
RTVSPropertyOp6
 70
     0
102
RTVSPropertyOp7
 70
     0
102
RTVSPropertyOp8
 70
     0
102
RTVSPropertyOp9
 70
     0
102
RTVSPropertyOp10
 70
     0
102
RTVSPropertyOp11
 70
     0
102
RTVSPropertyOp12
 70
     0
102
RTVSPropertyOp13
 70
     0
102
RTVSPropertyOp14
 70
     2
102
RTVSPropertyOp15
 70
     0
102
RTVSPropertyOp16
 70
     0
102
RTVSPropertyOp17
 70
     0
102
RTVSPropertyOp18
 70
     0
102
RTVSPropertyOp19
 70
     0
102
RTVSPropertyOp20
 70
     0
102
RTVSPropertyOp21
 70
     0
102
RTVSPropertyOp22
 70
     0
102
RTVSPropertyOp23
 70
     0
102
RTVSPropertyOp24
 70
     0
102
RTVSPropertyOp25
 70
     0
102
RTVSPropertyOp26
 70
     0
102
RTVSPropertyOp27
 70
     0
102
RTVSPropertyOp28
 70
     1
102
RTVSPropertyOp29
 70
     1
102
RTVSPropertyOp30
 70
     1
102
RTVSPropertyOp31
 70
     1
102
RTVSPropertyOp32
 70
     1
102
RTVSPropertyOp33
 70
     1
102
RTVSPropertyOp34
 70
     1
102
RTVSPropertyOp35
 70
     1
102
RTVSPropertyOp36
 70
     1
102
RTVSPropertyOp37
 70
     0
102
RTVSPropertyOp38
 70
     0
102
RTVSPropertyOp39
 70
     0
102
RTVSPropertyOp40
 70
     0
102
RTVSPropertyOp41
 70
     0
102
RTVSPropertyOp42
 70
     0
102
RTVSPropertyOp43
 70
     0
102
RTVSPropertyOp44
 70
     0
102
RTVSPropertyOp45
 70
     1
102
RTVSPropertyOp46
 70
     0
102
RTVSPropertyOp47
 70
     0
102
RTVSPropertyOp48
 70
     0
102
RTVSPropertyOp49
 70
     1
102
RTVSPropertyOp50
 70
     0
102
RTVSPropertyOp51
 70
     0
102
RTVSPropertyOp52
 70
     0
102
RTVSPropertyOp53
 70
     0
102
RTVSPropertyOp54
 70
     0
102
RTVSPropertyOp55
 70
     1
102
RTVSPropertyOp56
 70
     0
102
RTVSPropertyOp57
 70
     0
102
RTVSPropertyOp58
 70
     0
102
RTVSPropertyOp59
 70
     0
102
RTVSPropertyOp60
 70
     0
102
RTVSPropertyOp61
 70
     0
102
RTVSPropertyOp62
 70
     0
  0
XRECORD
  5
8E2
102
{ACAD_REACTORS
330
8E1
102
}
330
8E1
100
AcDbXrecord
280
     1
102
RTVSPost2010Prop28
280
     0
102
RTVSPost2010PropOp28
 70
     1
102
RTVSPost2010Prop29
280
     1
102
RTVSPost2010PropOp29
 70
     1
102
RTVSPost2010Prop30
280
     1
102
RTVSPost2010PropOp30
 70
     1
102
RTVSPost2010Prop31
280
     0
102
RTVSPost2010PropOp31
 70
     1
102
RTVSPost2010Prop32
280
     0
102
RTVSPost2010PropOp32
 70
     1
102
RTVSPost2010Prop33
280
     0
102
RTVSPost2010PropOp33
 70
     1
102
RTVSPost2010Prop34
280
     0
102
RTVSPost2010PropOp34
 70
     1
102
RTVSPost2010Prop35
280
     0
102
RTVSPost2010PropOp35
 70
     1
102
RTVSPost2010Prop36
280
     0
102
RTVSPost2010PropOp36
 70
     1
102
RTVSPost2010Prop37
 90
       50
102
RTVSPost2010PropOp37
 70
     1
102
RTVSPost2010Prop38
140
0.0
102
RTVSPost2010PropOp38
 70
     1
102
RTVSPost2010Prop39
140
1.0
102
RTVSPost2010PropOp39
 70
     1
102
RTVSPost2010Prop40
 90
        0
102
RTVSPost2010PropOp40
 70
     1
102
RTVSPost2010Prop41ColorIndex
 90
       18
102
RTVSPost2010Prop41ColorRGB
 90
        0
102
RTVSPost2010PropOp41
 70
     1
102
RTVSPost2010Prop42
 90
       50
102
RTVSPost2010PropOp42
 70
     1
102
RTVSPost2010Prop43
 90
        3
102
RTVSPost2010PropOp43
 70
     1
102
RTVSPost2010Prop44ColorIndex
 90
        5
102
RTVSPost2010Prop44ColorRGB
 90
      255
102
RTVSPost2010PropOp44
 70
     1
102
RTVSPost2010Prop45
280
     0
102
RTVSPost2010PropOp45
 70
     1
102
RTVSPost2010Prop46
 90
       50
102
RTVSPost2010PropOp46
 70
     1
102
RTVSPost2010Prop47
 90
       50
102
RTVSPost2010PropOp47
 70
     1
102
RTVSPost2010Prop48
 90
       50
102
RTVSPost2010PropOp48
 70
     1
102
RTVSPost2010Prop49
280
     0
102
RTVSPost2010PropOp49
 70
     1
102
RTVSPost2010Prop50
 90
       50
102
RTVSPost2010PropOp50
 70
     1
102
RTVSPost2010Prop51ColorIndex
 90
      256
102
RTVSPost2010Prop51ColorRGB
 90
-16777216
102
RTVSPost2010PropOp51
 70
     0
102
RTVSPost2010Prop52
140
1.0
102
RTVSPost2010PropOp52
 70
     0
102
RTVSPost2010Prop53
 90
        2
102
RTVSPost2010PropOp53
 70
     1
102
RTVSPost2010Prop54
  1
strokes_ogs.tif
102
RTVSPost2010PropOp54
 70
     1
102
RTVSPost2010Prop55
280
     0
102
RTVSPost2010PropOp55
 70
     1
102
RTVSPost2010Prop56
140
1.0
102
RTVSPost2010PropOp56
 70
     1
102
RTVSPost2010Prop57
140
1.0
102
RTVSPost2010PropOp57
 70
     1
102
RTVSPropertyOp0
 70
     1
102
RTVSPropertyOp1
 70
     1
102
RTVSPropertyOp2
 70
     1
102
RTVSPropertyOp3
 70
     1
102
RTVSPropertyOp4
 70
     1
102
RTVSPropertyOp5
 70
     1
102
RTVSPropertyOp6
 70
     1
102
RTVSPropertyOp7
 70
     1
102
RTVSPropertyOp8
 70
     1
102
RTVSPropertyOp9
 70
     1
102
RTVSPropertyOp10
 70
     1
102
RTVSPropertyOp11
 70
     1
102
RTVSPropertyOp12
 70
     1
102
RTVSPropertyOp13
 70
     1
102
RTVSPropertyOp14
 70
     1
102
RTVSPropertyOp15
 70
     1
102
RTVSPropertyOp16
 70
     1
102
RTVSPropertyOp17
 70
     1
102
RTVSPropertyOp18
 70
     1
102
RTVSPropertyOp19
 70
     1
102
RTVSPropertyOp20
 70
     1
102
RTVSPropertyOp21
 70
     1
102
RTVSPropertyOp22
 70
     1
102
RTVSPropertyOp23
 70
     1
102
RTVSPropertyOp24
 70
     1
102
RTVSPropertyOp25
 70
     1
102
RTVSPropertyOp26
 70
     1
102
RTVSPropertyOp27
 70
     1
102
RTVSPropertyOp28
 70
     1
102
RTVSPropertyOp29
 70
     1
102
RTVSPropertyOp30
 70
     1
102
RTVSPropertyOp31
 70
     1
102
RTVSPropertyOp32
 70
     1
102
RTVSPropertyOp33
 70
     1
102
RTVSPropertyOp34
 70
     1
102
RTVSPropertyOp35
 70
     1
102
RTVSPropertyOp36
 70
     1
102
RTVSPropertyOp37
 70
     1
102
RTVSPropertyOp38
 70
     1
102
RTVSPropertyOp39
 70
     1
102
RTVSPropertyOp40
 70
     1
102
RTVSPropertyOp41
 70
     1
102
RTVSPropertyOp42
 70
     1
102
RTVSPropertyOp43
 70
     1
102
RTVSPropertyOp44
 70
     1
102
RTVSPropertyOp45
 70
     1
102
RTVSPropertyOp46
 70
     1
102
RTVSPropertyOp47
 70
     1
102
RTVSPropertyOp48
 70
     1
102
RTVSPropertyOp49
 70
     1
102
RTVSPropertyOp50
 70
     1
102
RTVSPropertyOp51
 70
     0
102
RTVSPropertyOp52
 70
     0
102
RTVSPropertyOp53
 70
     1
102
RTVSPropertyOp54
 70
     1
102
RTVSPropertyOp55
 70
     1
102
RTVSPropertyOp56
 70
     1
102
RTVSPropertyOp57
 70
     1
102
RTVSPropertyOp58
 70
     1
102
RTVSPropertyOp59
 70
     1
102
RTVSPropertyOp60
 70
     1
102
RTVSPropertyOp61
 70
     1
102
RTVSPropertyOp62
 70
     1
  0
XRECORD
  5
8F4
102
{ACAD_REACTORS
330
8F3
102
}
330
8F3
100
AcDbXrecord
280
     1
102
RTVSPost2010Prop28
280
     0
102
RTVSPost2010PropOp28
 70
     1
102
RTVSPost2010Prop29
280
     1
102
RTVSPost2010PropOp29
 70
     1
102
RTVSPost2010Prop30
280
     1
102
RTVSPost2010PropOp30
 70
     1
102
RTVSPost2010Prop31
280
     0
102
RTVSPost2010PropOp31
 70
     1
102
RTVSPost2010Prop32
280
     0
102
RTVSPost2010PropOp32
 70
     1
102
RTVSPost2010Prop33
280
     0
102
RTVSPost2010PropOp33
 70
     1
102
RTVSPost2010Prop34
280
     0
102
RTVSPost2010PropOp34
 70
     1
102
RTVSPost2010Prop35
280
     0
102
RTVSPost2010PropOp35
 70
     1
102
RTVSPost2010Prop36
280
     0
102
RTVSPost2010PropOp36
 70
     1
102
RTVSPost2010Prop37
 90
       50
102
RTVSPost2010PropOp37
 70
     0
102
RTVSPost2010Prop38
140
0.0
102
RTVSPost2010PropOp38
 70
     0
102
RTVSPost2010Prop39
140
1.0
102
RTVSPost2010PropOp39
 70
     0
102
RTVSPost2010Prop40
 90
        0
102
RTVSPost2010PropOp40
 70
     0
102
RTVSPost2010Prop41ColorIndex
 90
       18
102
RTVSPost2010Prop41ColorRGB
 90
        0
102
RTVSPost2010PropOp41
 70
     0
102
RTVSPost2010Prop42
 90
       50
102
RTVSPost2010PropOp42
 70
     0
102
RTVSPost2010Prop43
 90
        3
102
RTVSPost2010PropOp43
 70
     0
102
RTVSPost2010Prop44ColorIndex
 90
        5
102
RTVSPost2010Prop44ColorRGB
 90
      255
102
RTVSPost2010PropOp44
 70
     0
102
RTVSPost2010Prop45
280
     0
102
RTVSPost2010PropOp45
 70
     1
102
RTVSPost2010Prop46
 90
       50
102
RTVSPost2010PropOp46
 70
     0
102
RTVSPost2010Prop47
 90
       50
102
RTVSPost2010PropOp47
 70
     0
102
RTVSPost2010Prop48
 90
       50
102
RTVSPost2010PropOp48
 70
     0
102
RTVSPost2010Prop49
280
     0
102
RTVSPost2010PropOp49
 70
     1
102
RTVSPost2010Prop50
 90
       50
102
RTVSPost2010PropOp50
 70
     0
102
RTVSPost2010Prop51ColorIndex
 90
      256
102
RTVSPost2010Prop51ColorRGB
 90
-16777216
102
RTVSPost2010PropOp51
 70
     0
102
RTVSPost2010Prop52
140
1.0
102
RTVSPost2010PropOp52
 70
     0
102
RTVSPost2010Prop53
 90
        2
102
RTVSPost2010PropOp53
 70
     0
102
RTVSPost2010Prop54
  1
strokes_ogs.tif
102
RTVSPost2010PropOp54
 70
     0
102
RTVSPost2010Prop55
280
     0
102
RTVSPost2010PropOp55
 70
     1
102
RTVSPost2010Prop56
140
1.0
102
RTVSPost2010PropOp56
 70
     0
102
RTVSPost2010Prop57
140
1.0
102
RTVSPost2010PropOp57
 70
     0
102
RTVSPropertyOp0
 70
     0
102
RTVSPropertyOp1
 70
     0
102
RTVSPropertyOp2
 70
     0
102
RTVSPropertyOp3
 70
     0
102
RTVSPropertyOp4
 70
     0
102
RTVSPropertyOp5
 70
     0
102
RTVSPropertyOp6
 70
     0
102
RTVSPropertyOp7
 70
     0
102
RTVSPropertyOp8
 70
     0
102
RTVSPropertyOp9
 70
     0
102
RTVSPropertyOp10
 70
     0
102
RTVSPropertyOp11
 70
     0
102
RTVSPropertyOp12
 70
     0
102
RTVSPropertyOp13
 70
     0
102
RTVSPropertyOp14
 70
     2
102
RTVSPropertyOp15
 70
     0
102
RTVSPropertyOp16
 70
     0
102
RTVSPropertyOp17
 70
     0
102
RTVSPropertyOp18
 70
     0
102
RTVSPropertyOp19
 70
     0
102
RTVSPropertyOp20
 70
     0
102
RTVSPropertyOp21
 70
     0
102
RTVSPropertyOp22
 70
     0
102
RTVSPropertyOp23
 70
     0
102
RTVSPropertyOp24
 70
     0
102
RTVSPropertyOp25
 70
     0
102
RTVSPropertyOp26
 70
     0
102
RTVSPropertyOp27
 70
     0
102
RTVSPropertyOp28
 70
     1
102
RTVSPropertyOp29
 70
     1
102
RTVSPropertyOp30
 70
     1
102
RTVSPropertyOp31
 70
     1
102
RTVSPropertyOp32
 70
     1
102
RTVSPropertyOp33
 70
     1
102
RTVSPropertyOp34
 70
     1
102
RTVSPropertyOp35
 70
     1
102
RTVSPropertyOp36
 70
     1
102
RTVSPropertyOp37
 70
     0
102
RTVSPropertyOp38
 70
     0
102
RTVSPropertyOp39
 70
     0
102
RTVSPropertyOp40
 70
     0
102
RTVSPropertyOp41
 70
     0
102
RTVSPropertyOp42
 70
     0
102
RTVSPropertyOp43
 70
     0
102
RTVSPropertyOp44
 70
     0
102
RTVSPropertyOp45
 70
     1
102
RTVSPropertyOp46
 70
     0
102
RTVSPropertyOp47
 70
     0
102
RTVSPropertyOp48
 70
     0
102
RTVSPropertyOp49
 70
     1
102
RTVSPropertyOp50
 70
     0
102
RTVSPropertyOp51
 70
     0
102
RTVSPropertyOp52
 70
     0
102
RTVSPropertyOp53
 70
     0
102
RTVSPropertyOp54
 70
     0
102
RTVSPropertyOp55
 70
     1
102
RTVSPropertyOp56
 70
     0
102
RTVSPropertyOp57
 70
     0
102
RTVSPropertyOp58
 70
     0
102
RTVSPropertyOp59
 70
     0
102
RTVSPropertyOp60
 70
     0
102
RTVSPropertyOp61
 70
     0
102
RTVSPropertyOp62
 70
     0
  0
XRECORD
  5
8DA
102
{ACAD_REACTORS
330
8D9
102
}
330
8D9
100
AcDbXrecord
280
     1
102
RTVSPost2010Prop28
280
     0
102
RTVSPost2010PropOp28
 70
     1
102
RTVSPost2010Prop29
280
     1
102
RTVSPost2010PropOp29
 70
     1
102
RTVSPost2010Prop30
280
     1
102
RTVSPost2010PropOp30
 70
     1
102
RTVSPost2010Prop31
280
     0
102
RTVSPost2010PropOp31
 70
     1
102
RTVSPost2010Prop32
280
     0
102
RTVSPost2010PropOp32
 70
     1
102
RTVSPost2010Prop33
280
     0
102
RTVSPost2010PropOp33
 70
     1
102
RTVSPost2010Prop34
280
     0
102
RTVSPost2010PropOp34
 70
     1
102
RTVSPost2010Prop35
280
     0
102
RTVSPost2010PropOp35
 70
     1
102
RTVSPost2010Prop36
280
     0
102
RTVSPost2010PropOp36
 70
     1
102
RTVSPost2010Prop37
 90
       50
102
RTVSPost2010PropOp37
 70
     1
102
RTVSPost2010Prop38
140
0.0
102
RTVSPost2010PropOp38
 70
     1
102
RTVSPost2010Prop39
140
1.0
102
RTVSPost2010PropOp39
 70
     1
102
RTVSPost2010Prop40
 90
        0
102
RTVSPost2010PropOp40
 70
     1
102
RTVSPost2010Prop41ColorIndex
 90
       18
102
RTVSPost2010Prop41ColorRGB
 90
        0
102
RTVSPost2010PropOp41
 70
     1
102
RTVSPost2010Prop42
 90
       50
102
RTVSPost2010PropOp42
 70
     1
102
RTVSPost2010Prop43
 90
        3
102
RTVSPost2010PropOp43
 70
     1
102
RTVSPost2010Prop44ColorIndex
 90
        5
102
RTVSPost2010Prop44ColorRGB
 90
      255
102
RTVSPost2010PropOp44
 70
     1
102
RTVSPost2010Prop45
280
     0
102
RTVSPost2010PropOp45
 70
     1
102
RTVSPost2010Prop46
 90
       50
102
RTVSPost2010PropOp46
 70
     1
102
RTVSPost2010Prop47
 90
       50
102
RTVSPost2010PropOp47
 70
     1
102
RTVSPost2010Prop48
 90
       50
102
RTVSPost2010PropOp48
 70
     1
102
RTVSPost2010Prop49
280
     0
102
RTVSPost2010PropOp49
 70
     1
102
RTVSPost2010Prop50
 90
       50
102
RTVSPost2010PropOp50
 70
     1
102
RTVSPost2010Prop51ColorIndex
 90
      256
102
RTVSPost2010Prop51ColorRGB
 90
-16777216
102
RTVSPost2010PropOp51
 70
     0
102
RTVSPost2010Prop52
140
1.0
102
RTVSPost2010PropOp52
 70
     0
102
RTVSPost2010Prop53
 90
        2
102
RTVSPost2010PropOp53
 70
     1
102
RTVSPost2010Prop54
  1
strokes_ogs.tif
102
RTVSPost2010PropOp54
 70
     1
102
RTVSPost2010Prop55
280
     0
102
RTVSPost2010PropOp55
 70
     1
102
RTVSPost2010Prop56
140
1.0
102
RTVSPost2010PropOp56
 70
     1
102
RTVSPost2010Prop57
140
1.0
102
RTVSPost2010PropOp57
 70
     1
102
RTVSPropertyOp0
 70
     1
102
RTVSPropertyOp1
 70
     1
102
RTVSPropertyOp2
 70
     1
102
RTVSPropertyOp3
 70
     1
102
RTVSPropertyOp4
 70
     1
102
RTVSPropertyOp5
 70
     1
102
RTVSPropertyOp6
 70
     1
102
RTVSPropertyOp7
 70
     1
102
RTVSPropertyOp8
 70
     1
102
RTVSPropertyOp9
 70
     1
102
RTVSPropertyOp10
 70
     1
102
RTVSPropertyOp11
 70
     1
102
RTVSPropertyOp12
 70
     1
102
RTVSPropertyOp13
 70
     1
102
RTVSPropertyOp14
 70
     1
102
RTVSPropertyOp15
 70
     1
102
RTVSPropertyOp16
 70
     1
102
RTVSPropertyOp17
 70
     1
102
RTVSPropertyOp18
 70
     1
102
RTVSPropertyOp19
 70
     1
102
RTVSPropertyOp20
 70
     1
102
RTVSPropertyOp21
 70
     1
102
RTVSPropertyOp22
 70
     1
102
RTVSPropertyOp23
 70
     1
102
RTVSPropertyOp24
 70
     1
102
RTVSPropertyOp25
 70
     1
102
RTVSPropertyOp26
 70
     1
102
RTVSPropertyOp27
 70
     1
102
RTVSPropertyOp28
 70
     1
102
RTVSPropertyOp29
 70
     1
102
RTVSPropertyOp30
 70
     1
102
RTVSPropertyOp31
 70
     1
102
RTVSPropertyOp32
 70
     1
102
RTVSPropertyOp33
 70
     1
102
RTVSPropertyOp34
 70
     1
102
RTVSPropertyOp35
 70
     1
102
RTVSPropertyOp36
 70
     1
102
RTVSPropertyOp37
 70
     1
102
RTVSPropertyOp38
 70
     1
102
RTVSPropertyOp39
 70
     1
102
RTVSPropertyOp40
 70
     1
102
RTVSPropertyOp41
 70
     1
102
RTVSPropertyOp42
 70
     1
102
RTVSPropertyOp43
 70
     1
102
RTVSPropertyOp44
 70
     1
102
RTVSPropertyOp45
 70
     1
102
RTVSPropertyOp46
 70
     1
102
RTVSPropertyOp47
 70
     1
102
RTVSPropertyOp48
 70
     1
102
RTVSPropertyOp49
 70
     1
102
RTVSPropertyOp50
 70
     1
102
RTVSPropertyOp51
 70
     0
102
RTVSPropertyOp52
 70
     0
102
RTVSPropertyOp53
 70
     1
102
RTVSPropertyOp54
 70
     1
102
RTVSPropertyOp55
 70
     1
102
RTVSPropertyOp56
 70
     1
102
RTVSPropertyOp57
 70
     1
102
RTVSPropertyOp58
 70
     1
102
RTVSPropertyOp59
 70
     1
102
RTVSPropertyOp60
 70
     1
102
RTVSPropertyOp61
 70
     1
102
RTVSPropertyOp62
 70
     1
  0
XRECORD
  5
8F0
102
{ACAD_REACTORS
330
8EF
102
}
330
8EF
100
AcDbXrecord
280
     1
102
RTVSPost2010Prop28
280
     0
102
RTVSPost2010PropOp28
 70
     1
102
RTVSPost2010Prop29
280
     1
102
RTVSPost2010PropOp29
 70
     1
102
RTVSPost2010Prop30
280
     1
102
RTVSPost2010PropOp30
 70
     1
102
RTVSPost2010Prop31
280
     0
102
RTVSPost2010PropOp31
 70
     1
102
RTVSPost2010Prop32
280
     0
102
RTVSPost2010PropOp32
 70
     1
102
RTVSPost2010Prop33
280
     0
102
RTVSPost2010PropOp33
 70
     1
102
RTVSPost2010Prop34
280
     0
102
RTVSPost2010PropOp34
 70
     1
102
RTVSPost2010Prop35
280
     0
102
RTVSPost2010PropOp35
 70
     1
102
RTVSPost2010Prop36
280
     0
102
RTVSPost2010PropOp36
 70
     1
102
RTVSPost2010Prop37
 90
       50
102
RTVSPost2010PropOp37
 70
     1
102
RTVSPost2010Prop38
140
0.0
102
RTVSPost2010PropOp38
 70
     1
102
RTVSPost2010Prop39
140
1.0
102
RTVSPost2010PropOp39
 70
     1
102
RTVSPost2010Prop40
 90
        0
102
RTVSPost2010PropOp40
 70
     1
102
RTVSPost2010Prop41ColorIndex
 90
       18
102
RTVSPost2010Prop41ColorRGB
 90
        0
102
RTVSPost2010PropOp41
 70
     1
102
RTVSPost2010Prop42
 90
       50
102
RTVSPost2010PropOp42
 70
     1
102
RTVSPost2010Prop43
 90
        3
102
RTVSPost2010PropOp43
 70
     1
102
RTVSPost2010Prop44ColorIndex
 90
        5
102
RTVSPost2010Prop44ColorRGB
 90
      255
102
RTVSPost2010PropOp44
 70
     1
102
RTVSPost2010Prop45
280
     0
102
RTVSPost2010PropOp45
 70
     1
102
RTVSPost2010Prop46
 90
       50
102
RTVSPost2010PropOp46
 70
     1
102
RTVSPost2010Prop47
 90
       50
102
RTVSPost2010PropOp47
 70
     1
102
RTVSPost2010Prop48
 90
       50
102
RTVSPost2010PropOp48
 70
     1
102
RTVSPost2010Prop49
280
     0
102
RTVSPost2010PropOp49
 70
     1
102
RTVSPost2010Prop50
 90
       50
102
RTVSPost2010PropOp50
 70
     1
102
RTVSPost2010Prop51ColorIndex
 90
      256
102
RTVSPost2010Prop51ColorRGB
 90
-16777216
102
RTVSPost2010PropOp51
 70
     0
102
RTVSPost2010Prop52
140
1.0
102
RTVSPost2010PropOp52
 70
     0
102
RTVSPost2010Prop53
 90
        2
102
RTVSPost2010PropOp53
 70
     1
102
RTVSPost2010Prop54
  1
strokes_ogs.tif
102
RTVSPost2010PropOp54
 70
     1
102
RTVSPost2010Prop55
280
     0
102
RTVSPost2010PropOp55
 70
     1
102
RTVSPost2010Prop56
140
1.0
102
RTVSPost2010PropOp56
 70
     1
102
RTVSPost2010Prop57
140
1.0
102
RTVSPost2010PropOp57
 70
     1
102
RTVSPropertyOp0
 70
     1
102
RTVSPropertyOp1
 70
     1
102
RTVSPropertyOp2
 70
     1
102
RTVSPropertyOp3
 70
     1
102
RTVSPropertyOp4
 70
     1
102
RTVSPropertyOp5
 70
     1
102
RTVSPropertyOp6
 70
     1
102
RTVSPropertyOp7
 70
     1
102
RTVSPropertyOp8
 70
     1
102
RTVSPropertyOp9
 70
     1
102
RTVSPropertyOp10
 70
     1
102
RTVSPropertyOp11
 70
     1
102
RTVSPropertyOp12
 70
     1
102
RTVSPropertyOp13
 70
     1
102
RTVSPropertyOp14
 70
     1
102
RTVSPropertyOp15
 70
     1
102
RTVSPropertyOp16
 70
     1
102
RTVSPropertyOp17
 70
     1
102
RTVSPropertyOp18
 70
     1
102
RTVSPropertyOp19
 70
     1
102
RTVSPropertyOp20
 70
     1
102
RTVSPropertyOp21
 70
     1
102
RTVSPropertyOp22
 70
     1
102
RTVSPropertyOp23
 70
     1
102
RTVSPropertyOp24
 70
     1
102
RTVSPropertyOp25
 70
     1
102
RTVSPropertyOp26
 70
     1
102
RTVSPropertyOp27
 70
     1
102
RTVSPropertyOp28
 70
     1
102
RTVSPropertyOp29
 70
     1
102
RTVSPropertyOp30
 70
     1
102
RTVSPropertyOp31
 70
     1
102
RTVSPropertyOp32
 70
     1
102
RTVSPropertyOp33
 70
     1
102
RTVSPropertyOp34
 70
     1
102
RTVSPropertyOp35
 70
     1
102
RTVSPropertyOp36
 70
     1
102
RTVSPropertyOp37
 70
     1
102
RTVSPropertyOp38
 70
     1
102
RTVSPropertyOp39
 70
     1
102
RTVSPropertyOp40
 70
     1
102
RTVSPropertyOp41
 70
     1
102
RTVSPropertyOp42
 70
     1
102
RTVSPropertyOp43
 70
     1
102
RTVSPropertyOp44
 70
     1
102
RTVSPropertyOp45
 70
     1
102
RTVSPropertyOp46
 70
     1
102
RTVSPropertyOp47
 70
     1
102
RTVSPropertyOp48
 70
     1
102
RTVSPropertyOp49
 70
     1
102
RTVSPropertyOp50
 70
     1
102
RTVSPropertyOp51
 70
     0
102
RTVSPropertyOp52
 70
     0
102
RTVSPropertyOp53
 70
     1
102
RTVSPropertyOp54
 70
     1
102
RTVSPropertyOp55
 70
     1
102
RTVSPropertyOp56
 70
     1
102
RTVSPropertyOp57
 70
     1
102
RTVSPropertyOp58
 70
     1
102
RTVSPropertyOp59
 70
     1
102
RTVSPropertyOp60
 70
     1
102
RTVSPropertyOp61
 70
     1
102
RTVSPropertyOp62
 70
     1
  0
XRECORD
  5
8EE
102
{ACAD_REACTORS
330
8ED
102
}
330
8ED
100
AcDbXrecord
280
     1
102
RTVSPost2010Prop28
280
     0
102
RTVSPost2010PropOp28
 70
     1
102
RTVSPost2010Prop29
280
     1
102
RTVSPost2010PropOp29
 70
     1
102
RTVSPost2010Prop30
280
     1
102
RTVSPost2010PropOp30
 70
     1
102
RTVSPost2010Prop31
280
     0
102
RTVSPost2010PropOp31
 70
     1
102
RTVSPost2010Prop32
280
     0
102
RTVSPost2010PropOp32
 70
     1
102
RTVSPost2010Prop33
280
     0
102
RTVSPost2010PropOp33
 70
     1
102
RTVSPost2010Prop34
280
     0
102
RTVSPost2010PropOp34
 70
     1
102
RTVSPost2010Prop35
280
     0
102
RTVSPost2010PropOp35
 70
     1
102
RTVSPost2010Prop36
280
     0
102
RTVSPost2010PropOp36
 70
     1
102
RTVSPost2010Prop37
 90
       50
102
RTVSPost2010PropOp37
 70
     1
102
RTVSPost2010Prop38
140
0.0
102
RTVSPost2010PropOp38
 70
     1
102
RTVSPost2010Prop39
140
1.0
102
RTVSPost2010PropOp39
 70
     1
102
RTVSPost2010Prop40
 90
        0
102
RTVSPost2010PropOp40
 70
     1
102
RTVSPost2010Prop41ColorIndex
 90
       18
102
RTVSPost2010Prop41ColorRGB
 90
        0
102
RTVSPost2010PropOp41
 70
     1
102
RTVSPost2010Prop42
 90
       50
102
RTVSPost2010PropOp42
 70
     1
102
RTVSPost2010Prop43
 90
        3
102
RTVSPost2010PropOp43
 70
     1
102
RTVSPost2010Prop44ColorIndex
 90
        5
102
RTVSPost2010Prop44ColorRGB
 90
      255
102
RTVSPost2010PropOp44
 70
     1
102
RTVSPost2010Prop45
280
     0
102
RTVSPost2010PropOp45
 70
     1
102
RTVSPost2010Prop46
 90
       50
102
RTVSPost2010PropOp46
 70
     1
102
RTVSPost2010Prop47
 90
       50
102
RTVSPost2010PropOp47
 70
     1
102
RTVSPost2010Prop48
 90
       50
102
RTVSPost2010PropOp48
 70
     1
102
RTVSPost2010Prop49
280
     0
102
RTVSPost2010PropOp49
 70
     1
102
RTVSPost2010Prop50
 90
       50
102
RTVSPost2010PropOp50
 70
     1
102
RTVSPost2010Prop51ColorIndex
 90
      256
102
RTVSPost2010Prop51ColorRGB
 90
-16777216
102
RTVSPost2010PropOp51
 70
     0
102
RTVSPost2010Prop52
140
1.0
102
RTVSPost2010PropOp52
 70
     0
102
RTVSPost2010Prop53
 90
        2
102
RTVSPost2010PropOp53
 70
     1
102
RTVSPost2010Prop54
  1
strokes_ogs.tif
102
RTVSPost2010PropOp54
 70
     1
102
RTVSPost2010Prop55
280
     0
102
RTVSPost2010PropOp55
 70
     1
102
RTVSPost2010Prop56
140
1.0
102
RTVSPost2010PropOp56
 70
     1
102
RTVSPost2010Prop57
140
1.0
102
RTVSPost2010PropOp57
 70
     1
102
RTVSPropertyOp0
 70
     1
102
RTVSPropertyOp1
 70
     1
102
RTVSPropertyOp2
 70
     1
102
RTVSPropertyOp3
 70
     1
102
RTVSPropertyOp4
 70
     1
102
RTVSPropertyOp5
 70
     1
102
RTVSPropertyOp6
 70
     1
102
RTVSPropertyOp7
 70
     1
102
RTVSPropertyOp8
 70
     1
102
RTVSPropertyOp9
 70
     1
102
RTVSPropertyOp10
 70
     1
102
RTVSPropertyOp11
 70
     1
102
RTVSPropertyOp12
 70
     1
102
RTVSPropertyOp13
 70
     1
102
RTVSPropertyOp14
 70
     1
102
RTVSPropertyOp15
 70
     1
102
RTVSPropertyOp16
 70
     1
102
RTVSPropertyOp17
 70
     1
102
RTVSPropertyOp18
 70
     1
102
RTVSPropertyOp19
 70
     1
102
RTVSPropertyOp20
 70
     1
102
RTVSPropertyOp21
 70
     1
102
RTVSPropertyOp22
 70
     1
102
RTVSPropertyOp23
 70
     1
102
RTVSPropertyOp24
 70
     1
102
RTVSPropertyOp25
 70
     1
102
RTVSPropertyOp26
 70
     1
102
RTVSPropertyOp27
 70
     1
102
RTVSPropertyOp28
 70
     1
102
RTVSPropertyOp29
 70
     1
102
RTVSPropertyOp30
 70
     1
102
RTVSPropertyOp31
 70
     1
102
RTVSPropertyOp32
 70
     1
102
RTVSPropertyOp33
 70
     1
102
RTVSPropertyOp34
 70
     1
102
RTVSPropertyOp35
 70
     1
102
RTVSPropertyOp36
 70
     1
102
RTVSPropertyOp37
 70
     1
102
RTVSPropertyOp38
 70
     1
102
RTVSPropertyOp39
 70
     1
102
RTVSPropertyOp40
 70
     1
102
RTVSPropertyOp41
 70
     1
102
RTVSPropertyOp42
 70
     1
102
RTVSPropertyOp43
 70
     1
102
RTVSPropertyOp44
 70
     1
102
RTVSPropertyOp45
 70
     1
102
RTVSPropertyOp46
 70
     1
102
RTVSPropertyOp47
 70
     1
102
RTVSPropertyOp48
 70
     1
102
RTVSPropertyOp49
 70
     1
102
RTVSPropertyOp50
 70
     1
102
RTVSPropertyOp51
 70
     0
102
RTVSPropertyOp52
 70
     0
102
RTVSPropertyOp53
 70
     1
102
RTVSPropertyOp54
 70
     1
102
RTVSPropertyOp55
 70
     1
102
RTVSPropertyOp56
 70
     1
102
RTVSPropertyOp57
 70
     1
102
RTVSPropertyOp58
 70
     1
102
RTVSPropertyOp59
 70
     1
102
RTVSPropertyOp60
 70
     1
102
RTVSPropertyOp61
 70
     1
102
RTVSPropertyOp62
 70
     1
  0
XRECORD
  5
8E8
102
{ACAD_REACTORS
330
8E7
102
}
330
8E7
100
AcDbXrecord
280
     1
102
RTVSPost2010Prop28
280
     0
102
RTVSPost2010PropOp28
 70
     1
102
RTVSPost2010Prop29
280
     1
102
RTVSPost2010PropOp29
 70
     1
102
RTVSPost2010Prop30
280
     1
102
RTVSPost2010PropOp30
 70
     1
102
RTVSPost2010Prop31
280
     0
102
RTVSPost2010PropOp31
 70
     1
102
RTVSPost2010Prop32
280
     0
102
RTVSPost2010PropOp32
 70
     1
102
RTVSPost2010Prop33
280
     0
102
RTVSPost2010PropOp33
 70
     1
102
RTVSPost2010Prop34
280
     0
102
RTVSPost2010PropOp34
 70
     1
102
RTVSPost2010Prop35
280
     0
102
RTVSPost2010PropOp35
 70
     1
102
RTVSPost2010Prop36
280
     0
102
RTVSPost2010PropOp36
 70
     1
102
RTVSPost2010Prop37
 90
       50
102
RTVSPost2010PropOp37
 70
     1
102
RTVSPost2010Prop38
140
0.0
102
RTVSPost2010PropOp38
 70
     1
102
RTVSPost2010Prop39
140
1.0
102
RTVSPost2010PropOp39
 70
     1
102
RTVSPost2010Prop40
 90
        0
102
RTVSPost2010PropOp40
 70
     1
102
RTVSPost2010Prop41ColorIndex
 90
       18
102
RTVSPost2010Prop41ColorRGB
 90
        0
102
RTVSPost2010PropOp41
 70
     1
102
RTVSPost2010Prop42
 90
       50
102
RTVSPost2010PropOp42
 70
     1
102
RTVSPost2010Prop43
 90
        3
102
RTVSPost2010PropOp43
 70
     1
102
RTVSPost2010Prop44ColorIndex
 90
        5
102
RTVSPost2010Prop44ColorRGB
 90
      255
102
RTVSPost2010PropOp44
 70
     1
102
RTVSPost2010Prop45
280
     0
102
RTVSPost2010PropOp45
 70
     1
102
RTVSPost2010Prop46
 90
       50
102
RTVSPost2010PropOp46
 70
     1
102
RTVSPost2010Prop47
 90
       50
102
RTVSPost2010PropOp47
 70
     1
102
RTVSPost2010Prop48
 90
       50
102
RTVSPost2010PropOp48
 70
     1
102
RTVSPost2010Prop49
280
     0
102
RTVSPost2010PropOp49
 70
     1
102
RTVSPost2010Prop50
 90
       50
102
RTVSPost2010PropOp50
 70
     1
102
RTVSPost2010Prop51ColorIndex
 90
      256
102
RTVSPost2010Prop51ColorRGB
 90
-16777216
102
RTVSPost2010PropOp51
 70
     0
102
RTVSPost2010Prop52
140
1.0
102
RTVSPost2010PropOp52
 70
     0
102
RTVSPost2010Prop53
 90
        2
102
RTVSPost2010PropOp53
 70
     1
102
RTVSPost2010Prop54
  1
strokes_ogs.tif
102
RTVSPost2010PropOp54
 70
     1
102
RTVSPost2010Prop55
280
     0
102
RTVSPost2010PropOp55
 70
     1
102
RTVSPost2010Prop56
140
1.0
102
RTVSPost2010PropOp56
 70
     1
102
RTVSPost2010Prop57
140
1.0
102
RTVSPost2010PropOp57
 70
     1
102
RTVSPropertyOp0
 70
     1
102
RTVSPropertyOp1
 70
     1
102
RTVSPropertyOp2
 70
     1
102
RTVSPropertyOp3
 70
     1
102
RTVSPropertyOp4
 70
     1
102
RTVSPropertyOp5
 70
     1
102
RTVSPropertyOp6
 70
     1
102
RTVSPropertyOp7
 70
     1
102
RTVSPropertyOp8
 70
     1
102
RTVSPropertyOp9
 70
     1
102
RTVSPropertyOp10
 70
     1
102
RTVSPropertyOp11
 70
     1
102
RTVSPropertyOp12
 70
     1
102
RTVSPropertyOp13
 70
     1
102
RTVSPropertyOp14
 70
     1
102
RTVSPropertyOp15
 70
     1
102
RTVSPropertyOp16
 70
     1
102
RTVSPropertyOp17
 70
     1
102
RTVSPropertyOp18
 70
     1
102
RTVSPropertyOp19
 70
     1
102
RTVSPropertyOp20
 70
     1
102
RTVSPropertyOp21
 70
     1
102
RTVSPropertyOp22
 70
     1
102
RTVSPropertyOp23
 70
     1
102
RTVSPropertyOp24
 70
     1
102
RTVSPropertyOp25
 70
     1
102
RTVSPropertyOp26
 70
     1
102
RTVSPropertyOp27
 70
     1
102
RTVSPropertyOp28
 70
     1
102
RTVSPropertyOp29
 70
     1
102
RTVSPropertyOp30
 70
     1
102
RTVSPropertyOp31
 70
     1
102
RTVSPropertyOp32
 70
     1
102
RTVSPropertyOp33
 70
     1
102
RTVSPropertyOp34
 70
     1
102
RTVSPropertyOp35
 70
     1
102
RTVSPropertyOp36
 70
     1
102
RTVSPropertyOp37
 70
     1
102
RTVSPropertyOp38
 70
     1
102
RTVSPropertyOp39
 70
     1
102
RTVSPropertyOp40
 70
     1
102
RTVSPropertyOp41
 70
     1
102
RTVSPropertyOp42
 70
     1
102
RTVSPropertyOp43
 70
     1
102
RTVSPropertyOp44
 70
     1
102
RTVSPropertyOp45
 70
     1
102
RTVSPropertyOp46
 70
     1
102
RTVSPropertyOp47
 70
     1
102
RTVSPropertyOp48
 70
     1
102
RTVSPropertyOp49
 70
     1
102
RTVSPropertyOp50
 70
     1
102
RTVSPropertyOp51
 70
     0
102
RTVSPropertyOp52
 70
     0
102
RTVSPropertyOp53
 70
     1
102
RTVSPropertyOp54
 70
     1
102
RTVSPropertyOp55
 70
     1
102
RTVSPropertyOp56
 70
     1
102
RTVSPropertyOp57
 70
     1
102
RTVSPropertyOp58
 70
     1
102
RTVSPropertyOp59
 70
     1
102
RTVSPropertyOp60
 70
     1
102
RTVSPropertyOp61
 70
     1
102
RTVSPropertyOp62
 70
     1
  0
XRECORD
  5
8EA
102
{ACAD_REACTORS
330
8E9
102
}
330
8E9
100
AcDbXrecord
280
     1
102
RTVSPost2010Prop28
280
     0
102
RTVSPost2010PropOp28
 70
     1
102
RTVSPost2010Prop29
280
     1
102
RTVSPost2010PropOp29
 70
     1
102
RTVSPost2010Prop30
280
     1
102
RTVSPost2010PropOp30
 70
     1
102
RTVSPost2010Prop31
280
     0
102
RTVSPost2010PropOp31
 70
     1
102
RTVSPost2010Prop32
280
     0
102
RTVSPost2010PropOp32
 70
     1
102
RTVSPost2010Prop33
280
     0
102
RTVSPost2010PropOp33
 70
     1
102
RTVSPost2010Prop34
280
     0
102
RTVSPost2010PropOp34
 70
     1
102
RTVSPost2010Prop35
280
     0
102
RTVSPost2010PropOp35
 70
     1
102
RTVSPost2010Prop36
280
     0
102
RTVSPost2010PropOp36
 70
     1
102
RTVSPost2010Prop37
 90
       50
102
RTVSPost2010PropOp37
 70
     1
102
RTVSPost2010Prop38
140
0.0
102
RTVSPost2010PropOp38
 70
     1
102
RTVSPost2010Prop39
140
1.0
102
RTVSPost2010PropOp39
 70
     1
102
RTVSPost2010Prop40
 90
        0
102
RTVSPost2010PropOp40
 70
     1
102
RTVSPost2010Prop41ColorIndex
 90
       18
102
RTVSPost2010Prop41ColorRGB
 90
        0
102
RTVSPost2010PropOp41
 70
     1
102
RTVSPost2010Prop42
 90
       50
102
RTVSPost2010PropOp42
 70
     1
102
RTVSPost2010Prop43
 90
        3
102
RTVSPost2010PropOp43
 70
     1
102
RTVSPost2010Prop44ColorIndex
 90
        5
102
RTVSPost2010Prop44ColorRGB
 90
      255
102
RTVSPost2010PropOp44
 70
     1
102
RTVSPost2010Prop45
280
     0
102
RTVSPost2010PropOp45
 70
     1
102
RTVSPost2010Prop46
 90
       50
102
RTVSPost2010PropOp46
 70
     1
102
RTVSPost2010Prop47
 90
       50
102
RTVSPost2010PropOp47
 70
     1
102
RTVSPost2010Prop48
 90
       50
102
RTVSPost2010PropOp48
 70
     1
102
RTVSPost2010Prop49
280
     0
102
RTVSPost2010PropOp49
 70
     1
102
RTVSPost2010Prop50
 90
       50
102
RTVSPost2010PropOp50
 70
     1
102
RTVSPost2010Prop51ColorIndex
 90
      256
102
RTVSPost2010Prop51ColorRGB
 90
-16777216
102
RTVSPost2010PropOp51
 70
     0
102
RTVSPost2010Prop52
140
1.0
102
RTVSPost2010PropOp52
 70
     0
102
RTVSPost2010Prop53
 90
        2
102
RTVSPost2010PropOp53
 70
     1
102
RTVSPost2010Prop54
  1
strokes_ogs.tif
102
RTVSPost2010PropOp54
 70
     1
102
RTVSPost2010Prop55
280
     0
102
RTVSPost2010PropOp55
 70
     1
102
RTVSPost2010Prop56
140
1.0
102
RTVSPost2010PropOp56
 70
     1
102
RTVSPost2010Prop57
140
1.0
102
RTVSPost2010PropOp57
 70
     1
102
RTVSPropertyOp0
 70
     1
102
RTVSPropertyOp1
 70
     1
102
RTVSPropertyOp2
 70
     1
102
RTVSPropertyOp3
 70
     1
102
RTVSPropertyOp4
 70
     1
102
RTVSPropertyOp5
 70
     1
102
RTVSPropertyOp6
 70
     1
102
RTVSPropertyOp7
 70
     1
102
RTVSPropertyOp8
 70
     1
102
RTVSPropertyOp9
 70
     1
102
RTVSPropertyOp10
 70
     1
102
RTVSPropertyOp11
 70
     1
102
RTVSPropertyOp12
 70
     1
102
RTVSPropertyOp13
 70
     1
102
RTVSPropertyOp14
 70
     1
102
RTVSPropertyOp15
 70
     1
102
RTVSPropertyOp16
 70
     1
102
RTVSPropertyOp17
 70
     1
102
RTVSPropertyOp18
 70
     1
102
RTVSPropertyOp19
 70
     1
102
RTVSPropertyOp20
 70
     1
102
RTVSPropertyOp21
 70
     1
102
RTVSPropertyOp22
 70
     1
102
RTVSPropertyOp23
 70
     1
102
RTVSPropertyOp24
 70
     1
102
RTVSPropertyOp25
 70
     1
102
RTVSPropertyOp26
 70
     1
102
RTVSPropertyOp27
 70
     1
102
RTVSPropertyOp28
 70
     1
102
RTVSPropertyOp29
 70
     1
102
RTVSPropertyOp30
 70
     1
102
RTVSPropertyOp31
 70
     1
102
RTVSPropertyOp32
 70
     1
102
RTVSPropertyOp33
 70
     1
102
RTVSPropertyOp34
 70
     1
102
RTVSPropertyOp35
 70
     1
102
RTVSPropertyOp36
 70
     1
102
RTVSPropertyOp37
 70
     1
102
RTVSPropertyOp38
 70
     1
102
RTVSPropertyOp39
 70
     1
102
RTVSPropertyOp40
 70
     1
102
RTVSPropertyOp41
 70
     1
102
RTVSPropertyOp42
 70
     1
102
RTVSPropertyOp43
 70
     1
102
RTVSPropertyOp44
 70
     1
102
RTVSPropertyOp45
 70
     1
102
RTVSPropertyOp46
 70
     1
102
RTVSPropertyOp47
 70
     1
102
RTVSPropertyOp48
 70
     1
102
RTVSPropertyOp49
 70
     1
102
RTVSPropertyOp50
 70
     1
102
RTVSPropertyOp51
 70
     0
102
RTVSPropertyOp52
 70
     0
102
RTVSPropertyOp53
 70
     1
102
RTVSPropertyOp54
 70
     1
102
RTVSPropertyOp55
 70
     1
102
RTVSPropertyOp56
 70
     1
102
RTVSPropertyOp57
 70
     1
102
RTVSPropertyOp58
 70
     1
102
RTVSPropertyOp59
 70
     1
102
RTVSPropertyOp60
 70
     1
102
RTVSPropertyOp61
 70
     1
102
RTVSPropertyOp62
 70
     1
  0
XRECORD
  5
8E0
102
{ACAD_REACTORS
330
8DF
102
}
330
8DF
100
AcDbXrecord
280
     1
102
RTVSPost2010Prop28
280
     0
102
RTVSPost2010PropOp28
 70
     1
102
RTVSPost2010Prop29
280
     1
102
RTVSPost2010PropOp29
 70
     1
102
RTVSPost2010Prop30
280
     1
102
RTVSPost2010PropOp30
 70
     1
102
RTVSPost2010Prop31
280
     0
102
RTVSPost2010PropOp31
 70
     1
102
RTVSPost2010Prop32
280
     0
102
RTVSPost2010PropOp32
 70
     1
102
RTVSPost2010Prop33
280
     0
102
RTVSPost2010PropOp33
 70
     1
102
RTVSPost2010Prop34
280
     0
102
RTVSPost2010PropOp34
 70
     1
102
RTVSPost2010Prop35
280
     0
102
RTVSPost2010PropOp35
 70
     1
102
RTVSPost2010Prop36
280
     0
102
RTVSPost2010PropOp36
 70
     1
102
RTVSPost2010Prop37
 90
       50
102
RTVSPost2010PropOp37
 70
     1
102
RTVSPost2010Prop38
140
0.0
102
RTVSPost2010PropOp38
 70
     1
102
RTVSPost2010Prop39
140
1.0
102
RTVSPost2010PropOp39
 70
     1
102
RTVSPost2010Prop40
 90
        0
102
RTVSPost2010PropOp40
 70
     1
102
RTVSPost2010Prop41ColorIndex
 90
       18
102
RTVSPost2010Prop41ColorRGB
 90
        0
102
RTVSPost2010PropOp41
 70
     1
102
RTVSPost2010Prop42
 90
       50
102
RTVSPost2010PropOp42
 70
     1
102
RTVSPost2010Prop43
 90
        3
102
RTVSPost2010PropOp43
 70
     1
102
RTVSPost2010Prop44ColorIndex
 90
        5
102
RTVSPost2010Prop44ColorRGB
 90
      255
102
RTVSPost2010PropOp44
 70
     1
102
RTVSPost2010Prop45
280
     0
102
RTVSPost2010PropOp45
 70
     1
102
RTVSPost2010Prop46
 90
       50
102
RTVSPost2010PropOp46
 70
     1
102
RTVSPost2010Prop47
 90
       50
102
RTVSPost2010PropOp47
 70
     1
102
RTVSPost2010Prop48
 90
       50
102
RTVSPost2010PropOp48
 70
     1
102
RTVSPost2010Prop49
280
     0
102
RTVSPost2010PropOp49
 70
     1
102
RTVSPost2010Prop50
 90
       50
102
RTVSPost2010PropOp50
 70
     1
102
RTVSPost2010Prop51ColorIndex
 90
      256
102
RTVSPost2010Prop51ColorRGB
 90
-16777216
102
RTVSPost2010PropOp51
 70
     0
102
RTVSPost2010Prop52
140
1.0
102
RTVSPost2010PropOp52
 70
     0
102
RTVSPost2010Prop53
 90
        2
102
RTVSPost2010PropOp53
 70
     1
102
RTVSPost2010Prop54
  1
strokes_ogs.tif
102
RTVSPost2010PropOp54
 70
     1
102
RTVSPost2010Prop55
280
     0
102
RTVSPost2010PropOp55
 70
     1
102
RTVSPost2010Prop56
140
1.0
102
RTVSPost2010PropOp56
 70
     1
102
RTVSPost2010Prop57
140
1.0
102
RTVSPost2010PropOp57
 70
     1
102
RTVSPropertyOp0
 70
     1
102
RTVSPropertyOp1
 70
     1
102
RTVSPropertyOp2
 70
     1
102
RTVSPropertyOp3
 70
     1
102
RTVSPropertyOp4
 70
     1
102
RTVSPropertyOp5
 70
     1
102
RTVSPropertyOp6
 70
     1
102
RTVSPropertyOp7
 70
     1
102
RTVSPropertyOp8
 70
     1
102
RTVSPropertyOp9
 70
     1
102
RTVSPropertyOp10
 70
     1
102
RTVSPropertyOp11
 70
     1
102
RTVSPropertyOp12
 70
     1
102
RTVSPropertyOp13
 70
     1
102
RTVSPropertyOp14
 70
     1
102
RTVSPropertyOp15
 70
     1
102
RTVSPropertyOp16
 70
     1
102
RTVSPropertyOp17
 70
     1
102
RTVSPropertyOp18
 70
     1
102
RTVSPropertyOp19
 70
     1
102
RTVSPropertyOp20
 70
     1
102
RTVSPropertyOp21
 70
     1
102
RTVSPropertyOp22
 70
     1
102
RTVSPropertyOp23
 70
     1
102
RTVSPropertyOp24
 70
     1
102
RTVSPropertyOp25
 70
     1
102
RTVSPropertyOp26
 70
     1
102
RTVSPropertyOp27
 70
     1
102
RTVSPropertyOp28
 70
     1
102
RTVSPropertyOp29
 70
     1
102
RTVSPropertyOp30
 70
     1
102
RTVSPropertyOp31
 70
     1
102
RTVSPropertyOp32
 70
     1
102
RTVSPropertyOp33
 70
     1
102
RTVSPropertyOp34
 70
     1
102
RTVSPropertyOp35
 70
     1
102
RTVSPropertyOp36
 70
     1
102
RTVSPropertyOp37
 70
     1
102
RTVSPropertyOp38
 70
     1
102
RTVSPropertyOp39
 70
     1
102
RTVSPropertyOp40
 70
     1
102
RTVSPropertyOp41
 70
     1
102
RTVSPropertyOp42
 70
     1
102
RTVSPropertyOp43
 70
     1
102
RTVSPropertyOp44
 70
     1
102
RTVSPropertyOp45
 70
     1
102
RTVSPropertyOp46
 70
     1
102
RTVSPropertyOp47
 70
     1
102
RTVSPropertyOp48
 70
     1
102
RTVSPropertyOp49
 70
     1
102
RTVSPropertyOp50
 70
     1
102
RTVSPropertyOp51
 70
     0
102
RTVSPropertyOp52
 70
     0
102
RTVSPropertyOp53
 70
     1
102
RTVSPropertyOp54
 70
     1
102
RTVSPropertyOp55
 70
     1
102
RTVSPropertyOp56
 70
     1
102
RTVSPropertyOp57
 70
     1
102
RTVSPropertyOp58
 70
     1
102
RTVSPropertyOp59
 70
     1
102
RTVSPropertyOp60
 70
     1
102
RTVSPropertyOp61
 70
     1
102
RTVSPropertyOp62
 70
     1
  0
XRECORD
  5
8D4
102
{ACAD_REACTORS
330
8D3
102
}
330
8D3
100
AcDbXrecord
280
     1
102
RTVSPost2010Prop28
280
     0
102
RTVSPost2010PropOp28
 70
     1
102
RTVSPost2010Prop29
280
     1
102
RTVSPost2010PropOp29
 70
     1
102
RTVSPost2010Prop30
280
     1
102
RTVSPost2010PropOp30
 70
     1
102
RTVSPost2010Prop31
280
     0
102
RTVSPost2010PropOp31
 70
     1
102
RTVSPost2010Prop32
280
     0
102
RTVSPost2010PropOp32
 70
     1
102
RTVSPost2010Prop33
280
     0
102
RTVSPost2010PropOp33
 70
     1
102
RTVSPost2010Prop34
280
     0
102
RTVSPost2010PropOp34
 70
     1
102
RTVSPost2010Prop35
280
     0
102
RTVSPost2010PropOp35
 70
     1
102
RTVSPost2010Prop36
280
     0
102
RTVSPost2010PropOp36
 70
     1
102
RTVSPost2010Prop37
 90
       50
102
RTVSPost2010PropOp37
 70
     1
102
RTVSPost2010Prop38
140
0.0
102
RTVSPost2010PropOp38
 70
     1
102
RTVSPost2010Prop39
140
1.0
102
RTVSPost2010PropOp39
 70
     1
102
RTVSPost2010Prop40
 90
        0
102
RTVSPost2010PropOp40
 70
     1
102
RTVSPost2010Prop41ColorIndex
 90
       18
102
RTVSPost2010Prop41ColorRGB
 90
        0
102
RTVSPost2010PropOp41
 70
     1
102
RTVSPost2010Prop42
 90
       50
102
RTVSPost2010PropOp42
 70
     1
102
RTVSPost2010Prop43
 90
        3
102
RTVSPost2010PropOp43
 70
     1
102
RTVSPost2010Prop44ColorIndex
 90
        5
102
RTVSPost2010Prop44ColorRGB
 90
      255
102
RTVSPost2010PropOp44
 70
     1
102
RTVSPost2010Prop45
280
     0
102
RTVSPost2010PropOp45
 70
     1
102
RTVSPost2010Prop46
 90
       50
102
RTVSPost2010PropOp46
 70
     1
102
RTVSPost2010Prop47
 90
       50
102
RTVSPost2010PropOp47
 70
     1
102
RTVSPost2010Prop48
 90
       50
102
RTVSPost2010PropOp48
 70
     1
102
RTVSPost2010Prop49
280
     0
102
RTVSPost2010PropOp49
 70
     1
102
RTVSPost2010Prop50
 90
       50
102
RTVSPost2010PropOp50
 70
     1
102
RTVSPost2010Prop51ColorIndex
 90
      256
102
RTVSPost2010Prop51ColorRGB
 90
-16777216
102
RTVSPost2010PropOp51
 70
     0
102
RTVSPost2010Prop52
140
1.0
102
RTVSPost2010PropOp52
 70
     0
102
RTVSPost2010Prop53
 90
        2
102
RTVSPost2010PropOp53
 70
     1
102
RTVSPost2010Prop54
  1
strokes_ogs.tif
102
RTVSPost2010PropOp54
 70
     1
102
RTVSPost2010Prop55
280
     0
102
RTVSPost2010PropOp55
 70
     1
102
RTVSPost2010Prop56
140
1.0
102
RTVSPost2010PropOp56
 70
     1
102
RTVSPost2010Prop57
140
1.0
102
RTVSPost2010PropOp57
 70
     1
102
RTVSPropertyOp0
 70
     1
102
RTVSPropertyOp1
 70
     1
102
RTVSPropertyOp2
 70
     1
102
RTVSPropertyOp3
 70
     1
102
RTVSPropertyOp4
 70
     1
102
RTVSPropertyOp5
 70
     1
102
RTVSPropertyOp6
 70
     1
102
RTVSPropertyOp7
 70
     1
102
RTVSPropertyOp8
 70
     1
102
RTVSPropertyOp9
 70
     1
102
RTVSPropertyOp10
 70
     1
102
RTVSPropertyOp11
 70
     1
102
RTVSPropertyOp12
 70
     1
102
RTVSPropertyOp13
 70
     1
102
RTVSPropertyOp14
 70
     1
102
RTVSPropertyOp15
 70
     1
102
RTVSPropertyOp16
 70
     1
102
RTVSPropertyOp17
 70
     1
102
RTVSPropertyOp18
 70
     1
102
RTVSPropertyOp19
 70
     1
102
RTVSPropertyOp20
 70
     1
102
RTVSPropertyOp21
 70
     1
102
RTVSPropertyOp22
 70
     1
102
RTVSPropertyOp23
 70
     1
102
RTVSPropertyOp24
 70
     1
102
RTVSPropertyOp25
 70
     1
102
RTVSPropertyOp26
 70
     1
102
RTVSPropertyOp27
 70
     1
102
RTVSPropertyOp28
 70
     1
102
RTVSPropertyOp29
 70
     1
102
RTVSPropertyOp30
 70
     1
102
RTVSPropertyOp31
 70
     1
102
RTVSPropertyOp32
 70
     1
102
RTVSPropertyOp33
 70
     1
102
RTVSPropertyOp34
 70
     1
102
RTVSPropertyOp35
 70
     1
102
RTVSPropertyOp36
 70
     1
102
RTVSPropertyOp37
 70
     1
102
RTVSPropertyOp38
 70
     1
102
RTVSPropertyOp39
 70
     1
102
RTVSPropertyOp40
 70
     1
102
RTVSPropertyOp41
 70
     1
102
RTVSPropertyOp42
 70
     1
102
RTVSPropertyOp43
 70
     1
102
RTVSPropertyOp44
 70
     1
102
RTVSPropertyOp45
 70
     1
102
RTVSPropertyOp46
 70
     1
102
RTVSPropertyOp47
 70
     1
102
RTVSPropertyOp48
 70
     1
102
RTVSPropertyOp49
 70
     1
102
RTVSPropertyOp50
 70
     1
102
RTVSPropertyOp51
 70
     0
102
RTVSPropertyOp52
 70
     0
102
RTVSPropertyOp53
 70
     1
102
RTVSPropertyOp54
 70
     1
102
RTVSPropertyOp55
 70
     1
102
RTVSPropertyOp56
 70
     1
102
RTVSPropertyOp57
 70
     1
102
RTVSPropertyOp58
 70
     1
102
RTVSPropertyOp59
 70
     1
102
RTVSPropertyOp60
 70
     1
102
RTVSPropertyOp61
 70
     1
102
RTVSPropertyOp62
 70
     1
  0
XRECORD
  5
8EC
102
{ACAD_REACTORS
330
8EB
102
}
330
8EB
100
AcDbXrecord
280
     1
102
RTVSPost2010Prop28
280
     0
102
RTVSPost2010PropOp28
 70
     1
102
RTVSPost2010Prop29
280
     1
102
RTVSPost2010PropOp29
 70
     1
102
RTVSPost2010Prop30
280
     1
102
RTVSPost2010PropOp30
 70
     1
102
RTVSPost2010Prop31
280
     0
102
RTVSPost2010PropOp31
 70
     1
102
RTVSPost2010Prop32
280
     0
102
RTVSPost2010PropOp32
 70
     1
102
RTVSPost2010Prop33
280
     0
102
RTVSPost2010PropOp33
 70
     1
102
RTVSPost2010Prop34
280
     0
102
RTVSPost2010PropOp34
 70
     1
102
RTVSPost2010Prop35
280
     0
102
RTVSPost2010PropOp35
 70
     1
102
RTVSPost2010Prop36
280
     0
102
RTVSPost2010PropOp36
 70
     1
102
RTVSPost2010Prop37
 90
       50
102
RTVSPost2010PropOp37
 70
     1
102
RTVSPost2010Prop38
140
0.0
102
RTVSPost2010PropOp38
 70
     1
102
RTVSPost2010Prop39
140
1.0
102
RTVSPost2010PropOp39
 70
     1
102
RTVSPost2010Prop40
 90
        0
102
RTVSPost2010PropOp40
 70
     1
102
RTVSPost2010Prop41ColorIndex
 90
       18
102
RTVSPost2010Prop41ColorRGB
 90
        0
102
RTVSPost2010PropOp41
 70
     1
102
RTVSPost2010Prop42
 90
       50
102
RTVSPost2010PropOp42
 70
     1
102
RTVSPost2010Prop43
 90
        3
102
RTVSPost2010PropOp43
 70
     1
102
RTVSPost2010Prop44ColorIndex
 90
        5
102
RTVSPost2010Prop44ColorRGB
 90
      255
102
RTVSPost2010PropOp44
 70
     1
102
RTVSPost2010Prop45
280
     0
102
RTVSPost2010PropOp45
 70
     1
102
RTVSPost2010Prop46
 90
       50
102
RTVSPost2010PropOp46
 70
     1
102
RTVSPost2010Prop47
 90
       50
102
RTVSPost2010PropOp47
 70
     1
102
RTVSPost2010Prop48
 90
       50
102
RTVSPost2010PropOp48
 70
     1
102
RTVSPost2010Prop49
280
     0
102
RTVSPost2010PropOp49
 70
     1
102
RTVSPost2010Prop50
 90
       50
102
RTVSPost2010PropOp50
 70
     1
102
RTVSPost2010Prop51ColorIndex
 90
      256
102
RTVSPost2010Prop51ColorRGB
 90
-16777216
102
RTVSPost2010PropOp51
 70
     0
102
RTVSPost2010Prop52
140
1.0
102
RTVSPost2010PropOp52
 70
     0
102
RTVSPost2010Prop53
 90
        2
102
RTVSPost2010PropOp53
 70
     1
102
RTVSPost2010Prop54
  1
strokes_ogs.tif
102
RTVSPost2010PropOp54
 70
     1
102
RTVSPost2010Prop55
280
     0
102
RTVSPost2010PropOp55
 70
     1
102
RTVSPost2010Prop56
140
1.0
102
RTVSPost2010PropOp56
 70
     1
102
RTVSPost2010Prop57
140
1.0
102
RTVSPost2010PropOp57
 70
     1
102
RTVSPropertyOp0
 70
     1
102
RTVSPropertyOp1
 70
     1
102
RTVSPropertyOp2
 70
     1
102
RTVSPropertyOp3
 70
     1
102
RTVSPropertyOp4
 70
     1
102
RTVSPropertyOp5
 70
     1
102
RTVSPropertyOp6
 70
     1
102
RTVSPropertyOp7
 70
     1
102
RTVSPropertyOp8
 70
     1
102
RTVSPropertyOp9
 70
     1
102
RTVSPropertyOp10
 70
     1
102
RTVSPropertyOp11
 70
     1
102
RTVSPropertyOp12
 70
     1
102
RTVSPropertyOp13
 70
     1
102
RTVSPropertyOp14
 70
     1
102
RTVSPropertyOp15
 70
     1
102
RTVSPropertyOp16
 70
     1
102
RTVSPropertyOp17
 70
     1
102
RTVSPropertyOp18
 70
     1
102
RTVSPropertyOp19
 70
     1
102
RTVSPropertyOp20
 70
     1
102
RTVSPropertyOp21
 70
     1
102
RTVSPropertyOp22
 70
     1
102
RTVSPropertyOp23
 70
     1
102
RTVSPropertyOp24
 70
     1
102
RTVSPropertyOp25
 70
     1
102
RTVSPropertyOp26
 70
     1
102
RTVSPropertyOp27
 70
     1
102
RTVSPropertyOp28
 70
     1
102
RTVSPropertyOp29
 70
     1
102
RTVSPropertyOp30
 70
     1
102
RTVSPropertyOp31
 70
     1
102
RTVSPropertyOp32
 70
     1
102
RTVSPropertyOp33
 70
     1
102
RTVSPropertyOp34
 70
     1
102
RTVSPropertyOp35
 70
     1
102
RTVSPropertyOp36
 70
     1
102
RTVSPropertyOp37
 70
     1
102
RTVSPropertyOp38
 70
     1
102
RTVSPropertyOp39
 70
     1
102
RTVSPropertyOp40
 70
     1
102
RTVSPropertyOp41
 70
     1
102
RTVSPropertyOp42
 70
     1
102
RTVSPropertyOp43
 70
     1
102
RTVSPropertyOp44
 70
     1
102
RTVSPropertyOp45
 70
     1
102
RTVSPropertyOp46
 70
     1
102
RTVSPropertyOp47
 70
     1
102
RTVSPropertyOp48
 70
     1
102
RTVSPropertyOp49
 70
     1
102
RTVSPropertyOp50
 70
     1
102
RTVSPropertyOp51
 70
     0
102
RTVSPropertyOp52
 70
     0
102
RTVSPropertyOp53
 70
     1
102
RTVSPropertyOp54
 70
     1
102
RTVSPropertyOp55
 70
     1
102
RTVSPropertyOp56
 70
     1
102
RTVSPropertyOp57
 70
     1
102
RTVSPropertyOp58
 70
     1
102
RTVSPropertyOp59
 70
     1
102
RTVSPropertyOp60
 70
     1
102
RTVSPropertyOp61
 70
     1
102
RTVSPropertyOp62
 70
     1
  0
ENDSEC
  0
EOF
