  0
SECTION
  2
HEADER
  9
$ACADVER
  1
AC1015
  9
$ACADMAINTVER
 70
    20
  9
$DWGCODEPAGE
  3
ANSI_932
  9
$INSBASE
 10
0.0
 20
0.0
 30
0.0
  9
$EXTMIN
 10
-1584.677785408613
 20
-706.7318236798869
 30
0.0
  9
$EXTMAX
 10
1725.863694694029
 20
798.9259431648681
 30
0.0
  9
$LIMMIN
 10
-4267.152221060483
 20
-2696.083210198413
  9
$LIMMAX
 10
7190.717422586465
 20
5141.155363923066
  9
$ORTHOMODE
 70
     0
  9
$REGENMODE
 70
     1
  9
$FILLMODE
 70
     1
  9
$QTEXTMODE
 70
     0
  9
$MIRRTEXT
 70
     0
  9
$LTSCALE
 40
20.0
  9
$ATTMODE
 70
     1
  9
$TEXTSIZE
 40
53.0
  9
$TRACEWID
 40
0.05
  9
$TEXTSTYLE
  7
KAIGAI_STANDARD_1
  9
$CLAYER
  8
NOTE
  9
$CELTYPE
  6
CONTINUOUS
  9
$CECOLOR
 62
     7
  9
$CELTSCALE
 40
1.0
  9
$DISPSILH
 70
     0
  9
$DIMSCALE
 40
1.0
  9
$DIMASZ
 40
30.0
  9
$DIMEXO
 40
20.0
  9
$DIMDLI
 40
80.0
  9
$DIMRND
 40
0.0
  9
$DIMDLE
 40
0.0
  9
$DIMEXE
 40
20.0
  9
$DIMTP
 40
0.0
  9
$DIMTM
 40
0.0
  9
$DIMTXT
 40
40.0
  9
$DIMCEN
 40
0.09
  9
$DIMTSZ
 40
0.0
  9
$DIMTOL
 70
     0
  9
$DIMLIM
 70
     0
  9
$DIMTIH
 70
     0
  9
$DIMTOH
 70
     0
  9
$DIMSE1
 70
     0
  9
$DIMSE2
 70
     0
  9
$DIMTAD
 70
     1
  9
$DIMZIN
 70
     8
  9
$DIMBLK
  1

  9
$DIMASO
 70
     1
  9
$DIMSHO
 70
     0
  9
$DIMPOST
  1

  9
$DIMAPOST
  1

  9
$DIMALT
 70
     0
  9
$DIMALTD
 70
     2
  9
$DIMALTF
 40
25.4
  9
$DIMLFAC
 40
1.0
  9
$DIMTOFL
 70
     1
  9
$DIMTVP
 40
0.0
  9
$DIMTIX
 70
     0
  9
$DIMSOXD
 70
     0
  9
$DIMSAH
 70
     0
  9
$DIMBLK1
  1

  9
$DIMBLK2
  1

  9
$DIMSTYLE
  2
Standard
  9
$DIMCLRD
 70
     0
  9
$DIMCLRE
 70
     0
  9
$DIMCLRT
 70
     0
  9
$DIMTFAC
 40
1.0
  9
$DIMGAP
 40
0.09
  9
$DIMJUST
 70
     0
  9
$DIMSD1
 70
     0
  9
$DIMSD2
 70
     0
  9
$DIMTOLJ
 70
     1
  9
$DIMTZIN
 70
     0
  9
$DIMALTZ
 70
     0
  9
$DIMALTTZ
 70
     0
  9
$DIMUPT
 70
     0
  9
$DIMDEC
 70
     4
  9
$DIMTDEC
 70
     4
  9
$DIMALTU
 70
     2
  9
$DIMALTTD
 70
     2
  9
$DIMTXSTY
  7
STANDARD
  9
$DIMAUNIT
 70
     0
  9
$DIMADEC
 70
     0
  9
$DIMALTRND
 40
0.0
  9
$DIMAZIN
 70
     0
  9
$DIMDSEP
 70
    46
  9
$DIMATFIT
 70
     3
  9
$DIMFRAC
 70
     0
  9
$DIMLDRBLK
  1

  9
$DIMLUNIT
 70
     2
  9
$DIMLWD
 70
    -2
  9
$DIMLWE
 70
    -2
  9
$DIMTMOVE
 70
     0
  9
$LUNITS
 70
     2
  9
$LUPREC
 70
     4
  9
$SKETCHINC
 40
0.1
  9
$FILLETRAD
 40
0.0
  9
$AUNITS
 70
     1
  9
$AUPREC
 70
     3
  9
$MENU
  1
ACAD
  9
$ELEVATION
 40
0.0
  9
$PELEVATION
 40
0.0
  9
$THICKNESS
 40
0.0
  9
$LIMCHECK
 70
     0
  9
$CHAMFERA
 40
0.0
  9
$CHAMFERB
 40
0.0
  9
$CHAMFERC
 40
0.0
  9
$CHAMFERD
 40
0.0
  9
$SKPOLY
 70
     0
  9
$TDCREATE
 40
2455902.607164352
  9
$TDUCREATE
 40
2455902.232164352
  9
$TDUPDATE
 40
2459096.624618056
  9
$TDUUPDATE
 40
2459096.249618056
  9
$TDINDWG
 40
1.6393270486
  9
$TDUSRTIMER
 40
1.6393234375
  9
$USRTIMER
 70
     1
  9
$ANGBASE
 50
0.0
  9
$ANGDIR
 70
     0
  9
$PDMODE
 70
     3
  9
$PDSIZE
 40
-2.0
  9
$PLINEWID
 40
0.0
  9
$SPLFRAME
 70
     0
  9
$SPLINETYPE
 70
     6
  9
$SPLINESEGS
 70
     8
  9
$HANDSEED
  5
8FD
  9
$SURFTAB1
 70
     6
  9
$SURFTAB2
 70
     6
  9
$SURFTYPE
 70
     6
  9
$SURFU
 70
     6
  9
$SURFV
 70
     6
  9
$UCSBASE
  2

  9
$UCSNAME
  2

  9
$UCSORG
 10
0.0
 20
0.0
 30
0.0
  9
$UCSXDIR
 10
1.0
 20
0.0
 30
0.0
  9
$UCSYDIR
 10
0.0
 20
1.0
 30
0.0
  9
$UCSORTHOREF
  2

  9
$UCSORTHOVIEW
 70
     0
  9
$UCSORGTOP
 10
0.0
 20
0.0
 30
0.0
  9
$UCSORGBOTTOM
 10
0.0
 20
0.0
 30
0.0
  9
$UCSORGLEFT
 10
0.0
 20
0.0
 30
0.0
  9
$UCSORGRIGHT
 10
0.0
 20
0.0
 30
0.0
  9
$UCSORGFRONT
 10
0.0
 20
0.0
 30
0.0
  9
$UCSORGBACK
 10
0.0
 20
0.0
 30
0.0
  9
$PUCSBASE
  2

  9
$PUCSNAME
  2

  9
$PUCSORG
 10
0.0
 20
0.0
 30
0.0
  9
$PUCSXDIR
 10
1.0
 20
0.0
 30
0.0
  9
$PUCSYDIR
 10
0.0
 20
1.0
 30
0.0
  9
$PUCSORTHOREF
  2

  9
$PUCSORTHOVIEW
 70
     0
  9
$PUCSORGTOP
 10
0.0
 20
0.0
 30
0.0
  9
$PUCSORGBOTTOM
 10
0.0
 20
0.0
 30
0.0
  9
$PUCSORGLEFT
 10
0.0
 20
0.0
 30
0.0
  9
$PUCSORGRIGHT
 10
0.0
 20
0.0
 30
0.0
  9
$PUCSORGFRONT
 10
0.0
 20
0.0
 30
0.0
  9
$PUCSORGBACK
 10
0.0
 20
0.0
 30
0.0
  9
$USERI1
 70
     0
  9
$USERI2
 70
     0
  9
$USERI3
 70
     0
  9
$USERI4
 70
     0
  9
$USERI5
 70
     0
  9
$USERR1
 40
20.0
  9
$USERR2
 40
0.0
  9
$USERR3
 40
0.0
  9
$USERR4
 40
0.0
  9
$USERR5
 40
0.0
  9
$WORLDVIEW
 70
     1
  9
$SHADEDGE
 70
     3
  9
$SHADEDIF
 70
    70
  9
$TILEMODE
 70
     1
  9
$MAXACTVP
 70
    64
  9
$PINSBASE
 10
0.0
 20
0.0
 30
0.0
  9
$PLIMCHECK
 70
     0
  9
$PEXTMIN
 10
1.000000000000000E+20
 20
1.000000000000000E+20
 30
1.000000000000000E+20
  9
$PEXTMAX
 10
-1.000000000000000E+20
 20
-1.000000000000000E+20
 30
-1.000000000000000E+20
  9
$PLIMMIN
 10
0.0
 20
0.0
  9
$PLIMMAX
 10
12.0
 20
9.0
  9
$UNITMODE
 70
     0
  9
$VISRETAIN
 70
     1
  9
$PLINEGEN
 70
     0
  9
$PSLTSCALE
 70
     1
  9
$TREEDEPTH
 70
  3020
  9
$CMLSTYLE
  2
Standard
  9
$CMLJUST
 70
     0
  9
$CMLSCALE
 40
1.0
  9
$PROXYGRAPHICS
 70
     1
  9
$MEASUREMENT
 70
     0
  9
$CELWEIGHT
370
    -1
  9
$ENDCAPS
280
     0
  9
$JOINSTYLE
280
     0
  9
$LWDISPLAY
290
     0
  9
$INSUNITS
 70
     0
  9
$HYPERLINKBASE
  1

  9
$STYLESHEET
  1

  9
$XEDIT
290
     1
  9
$CEPSNTYPE
380
     0
  9
$PSTYLEMODE
290
     1
  9
$FINGERPRINTGUID
  2
{DC0C1CB5-D683-D744-99BD-8CB4EC0F72AB}
  9
$VERSIONGUID
  2
{7E1990B0-8A7A-604B-81CC-B4D5F803E1D5}
  9
$EXTNAMES
290
     1
  9
$PSVPSCALE
 40
0.0
  9
$OLESTARTUP
290
     0
  0
ENDSEC
  0
SECTION
  2
CLASSES
  0
CLASS
  1
ACDBDICTIONARYWDFLT
  2
AcDbDictionaryWithDefault
  3
ObjectDBX Classes
 90
        0
280
     0
281
     0
  0
CLASS
  1
MATERIAL
  2
AcDbMaterial
  3
ObjectDBX Classes
 90
     1153
280
     0
281
     0
  0
CLASS
  1
VISUALSTYLE
  2
AcDbVisualStyle
  3
ObjectDBX Classes
 90
     4095
280
     0
281
     0
  0
CLASS
  1
SCALE
  2
AcDbScale
  3
ObjectDBX Classes
 90
     1153
280
     0
281
     0
  0
CLASS
  1
TABLESTYLE
  2
AcDbTableStyle
  3
ObjectDBX Classes
 90
     4095
280
     0
281
     0
  0
CLASS
  1
MLEADERSTYLE
  2
AcDbMLeaderStyle
  3
ACDB_MLEADERSTYLE_CLASS
 90
     4095
280
     0
281
     0
  0
CLASS
  1
ACDBSECTIONVIEWSTYLE
  2
AcDbSectionViewStyle
  3
ObjectDBX Classes
 90
     1025
280
     0
281
     0
  0
CLASS
  1
ACDBDETAILVIEWSTYLE
  2
AcDbDetailViewStyle
  3
ObjectDBX Classes
 90
     1025
280
     0
281
     0
  0
CLASS
  1
DICTIONARYVAR
  2
AcDbDictionaryVar
  3
ObjectDBX Classes
 90
        0
280
     0
281
     0
  0
CLASS
  1
CELLSTYLEMAP
  2
AcDbCellStyleMap
  3
ObjectDBX Classes
 90
     1152
280
     0
281
     0
  0
CLASS
  1
ACDBPLACEHOLDER
  2
AcDbPlaceHolder
  3
ObjectDBX Classes
 90
        0
280
     0
281
     0
  0
CLASS
  1
LAYOUT
  2
AcDbLayout
  3
ObjectDBX Classes
 90
        0
280
     0
281
     0
  0
ENDSEC
  0
SECTION
  2
TABLES
  0
TABLE
  2
VPORT
  5
8
330
0
100
AcDbSymbolTable
 70
     1
  0
VPORT
  5
81
330
8
100
AcDbSymbolTableRecord
100
AcDbViewportTableRecord
  2
*ACTIVE
 70
     0
 10
0.0
 20
0.0
 11
1.0
 21
1.0
 12
70.98439255698782
 22
171.1426763587456
 13
0.0
 23
0.0
 14
50.0
 24
50.0
 15
100.0
 25
100.0
 16
0.0
 26
0.0
 36
1.0
 17
0.0
 27
0.0
 37
0.0
 40
1613.231456121446
 41
2.159942363112391
 42
50.0
 43
0.0
 44
0.0
 50
0.0
 51
0.0
 71
     0
 72
  1000
 73
     1
 74
     0
 75
     0
 76
     0
 77
     0
 78
     0
281
     0
 65
     1
110
0.0
120
0.0
130
0.0
111
1.0
121
0.0
131
0.0
112
0.0
122
1.0
132
0.0
 79
     0
146
0.0
1001
ACAD_NAV_VCDISPLAY
1070
     3
  0
ENDTAB
  0
TABLE
  2
LTYPE
  5
5
330
0
100
AcDbSymbolTable
 70
     3
  0
LTYPE
  5
5A
330
5
100
AcDbSymbolTableRecord
100
AcDbLinetypeTableRecord
  2
ByBlock
 70
     0
  3

 72
    65
 73
     0
 40
0.0
  0
LTYPE
  5
5B
330
5
100
AcDbSymbolTableRecord
100
AcDbLinetypeTableRecord
  2
ByLayer
 70
     0
  3

 72
    65
 73
     0
 40
0.0
  0
LTYPE
  5
5C
330
5
100
AcDbSymbolTableRecord
100
AcDbLinetypeTableRecord
  2
CONTINUOUS
 70
     0
  3
実線
 72
    65
 73
     0
 40
0.0
  0
LTYPE
  5
75
330
5
100
AcDbSymbolTableRecord
100
AcDbLinetypeTableRecord
  2
DASHDOT
 70
     0
  3
____ _ ____ _ ____ _ ____ _ ____ _ ____ _ ____
 72
    65
 73
     4
 40
5.5
 49
4.0
 74
     0
 49
-0.6
 74
     0
 49
0.3
 74
     0
 49
-0.6
 74
     0
  0
ENDTAB
  0
TABLE
  2
LAYER
  5
2
330
0
100
AcDbSymbolTable
 70
    12
  0
LAYER
  5
54
102
{ACAD_XDICTIONARY
360
857
102
}
330
2
100
AcDbSymbolTableRecord
100
AcDbLayerTableRecord
  2
0
 70
     0
 62
     7
  6
CONTINUOUS
370
    -3
390
F
  0
LAYER
  5
73
102
{ACAD_XDICTIONARY
360
859
102
}
330
2
100
AcDbSymbolTableRecord
100
AcDbLayerTableRecord
  2
NOTE
 70
     0
 62
     4
  6
CONTINUOUS
370
    -3
390
F
  0
LAYER
  5
76
102
{ACAD_XDICTIONARY
360
85B
102
}
330
2
100
AcDbSymbolTableRecord
100
AcDbLayerTableRecord
  2
OUTLINE
 70
     0
 62
     3
  6
CONTINUOUS
370
    -3
390
F
  0
LAYER
  5
77
102
{ACAD_XDICTIONARY
360
85D
102
}
330
2
100
AcDbSymbolTableRecord
100
AcDbLayerTableRecord
  2
DETAIL
 70
     0
 62
     5
  6
CONTINUOUS
370
    -3
390
F
  0
LAYER
  5
78
102
{ACAD_XDICTIONARY
360
85F
102
}
330
2
100
AcDbSymbolTableRecord
100
AcDbLayerTableRecord
  2
BASIS
 70
     0
 62
     6
  6
DASHDOT
370
    -3
390
F
  0
LAYER
  5
79
102
{ACAD_XDICTIONARY
360
861
102
}
330
2
100
AcDbSymbolTableRecord
100
AcDbLayerTableRecord
  2
SIZE
 70
     0
 62
    30
  6
CONTINUOUS
370
    -3
390
F
  0
LAYER
  5
7A
102
{ACAD_XDICTIONARY
360
863
102
}
330
2
100
AcDbSymbolTableRecord
100
AcDbLayerTableRecord
  2
ARRANGE
 70
     0
 62
     1
  6
CONTINUOUS
370
    -3
390
F
  0
LAYER
  5
7B
102
{ACAD_XDICTIONARY
360
865
102
}
330
2
100
AcDbSymbolTableRecord
100
AcDbLayerTableRecord
  2
FIX
 70
     0
 62
    11
  6
CONTINUOUS
370
    -3
390
F
  0
LAYER
  5
7C
102
{ACAD_XDICTIONARY
360
867
102
}
330
2
100
AcDbSymbolTableRecord
100
AcDbLayerTableRecord
  2
SERVICESPACE
 70
     0
 62
     2
  6
DASHDOT
370
    -3
390
F
  0
LAYER
  5
7D
102
{ACAD_XDICTIONARY
360
869
102
}
330
2
100
AcDbSymbolTableRecord
100
AcDbLayerTableRecord
  2
ETC
 70
     0
 62
    61
  6
CONTINUOUS
370
    -3
390
F
  0
LAYER
  5
7E
102
{ACAD_XDICTIONARY
360
86B
102
}
330
2
100
AcDbSymbolTableRecord
100
AcDbLayerTableRecord
  2
SYMBOLLINE
 70
     0
 62
    15
  6
CONTINUOUS
370
    -3
390
F
  0
LAYER
  5
7F
330
2
100
AcDbSymbolTableRecord
100
AcDbLayerTableRecord
  2
DEFPOINTS
 70
     0
 62
     7
  6
CONTINUOUS
290
     0
370
    -3
390
F
  0
ENDTAB
  0
TABLE
  2
STYLE
  5
3
330
0
100
AcDbSymbolTable
 70
     3
  0
STYLE
  5
55
330
3
100
AcDbSymbolTableRecord
100
AcDbTextStyleTableRecord
  2
STANDARD
 70
     0
 40
0.0
 41
0.9
 50
0.0
 71
     0
 42
64.0
  3
SIMPLEX
  4
BIGFONT
  0
STYLE
  5
59
330
3
100
AcDbSymbolTableRecord
100
AcDbTextStyleTableRecord
  2
Annotative
 70
     0
 40
0.0
 41
1.0
 50
0.0
 71
     0
 42
0.2
  3
txt
  4

1001
AcadAnnotative
1000
AnnotativeData
1002
{
1070
     1
1070
     1
1002
}
  0
STYLE
  5
74
330
3
100
AcDbSymbolTableRecord
100
AcDbTextStyleTableRecord
  2
KAIGAI_STANDARD_1
 70
     0
 40
53.0
 41
0.51
 50
0.0
 71
     0
 42
53.0
  3
MONOTXT.shx
  4
BIGFONT.shx
  0
ENDTAB
  0
TABLE
  2
VIEW
  5
6
330
0
100
AcDbSymbolTable
 70
     1
  0
VIEW
  5
80
330
6
100
AcDbSymbolTableRecord
100
AcDbViewTableRecord
  2
ALL
 70
     0
 40
9000.0
 10
241.506647
 20
0.0
 41
12483.01
 11
0.0
 21
0.0
 31
1.0
 12
0.0
 22
0.0
 32
0.0
 42
50.0
 43
0.0
 44
0.0
 50
0.0
 71
     0
281
     0
 72
     0
  0
ENDTAB
  0
TABLE
  2
UCS
  5
7
330
0
100
AcDbSymbolTable
 70
     0
  0
ENDTAB
  0
TABLE
  2
APPID
  5
9
330
0
100
AcDbSymbolTable
 70
     5
  0
APPID
  5
56
330
9
100
AcDbSymbolTableRecord
100
AcDbRegAppTableRecord
  2
ACAD
 70
     0
  0
APPID
  5
5D
330
9
100
AcDbSymbolTableRecord
100
AcDbRegAppTableRecord
  2
AcadAnnotative
 70
     0
  0
APPID
  5
855
330
9
100
AcDbSymbolTableRecord
100
AcDbRegAppTableRecord
  2
ACAD_EXEMPT_FROM_CAD_STANDARDS
 70
     0
  0
APPID
  5
877
330
9
100
AcDbSymbolTableRecord
100
AcDbRegAppTableRecord
  2
ACAD_NAV_VCDISPLAY
 70
     0
  0
APPID
  5
8B0
330
9
100
AcDbSymbolTableRecord
100
AcDbRegAppTableRecord
  2
ACAD_MLEADERVER
 70
     0
  0
ENDTAB
  0
TABLE
  2
DIMSTYLE
  5
A
330
0
100
AcDbSymbolTable
 70
     2
100
AcDbDimStyleTable
 71
     0
  0
DIMSTYLE
105
57
330
A
100
AcDbSymbolTableRecord
100
AcDbDimStyleTableRecord
  2
Standard
 70
     0
340
55
  0
DIMSTYLE
105
58
330
A
100
AcDbSymbolTableRecord
100
AcDbDimStyleTableRecord
  2
Annotative
 70
     0
340
55
1001
AcadAnnotative
1000
AnnotativeData
1002
{
1070
     1
1070
     1
1002
}
  0
ENDTAB
  0
TABLE
  2
BLOCK_RECORD
  5
1
330
0
100
AcDbSymbolTable
 70
     0
  0
BLOCK_RECORD
  5
6F
330
1
100
AcDbSymbolTableRecord
100
AcDbBlockTableRecord
  2
*Model_Space
340
72
  0
BLOCK_RECORD
  5
6B
330
1
100
AcDbSymbolTableRecord
100
AcDbBlockTableRecord
  2
*Paper_Space
340
6E
  0
ENDTAB
  0
ENDSEC
  0
SECTION
  2
BLOCKS
  0
BLOCK
  5
70
330
6F
100
AcDbEntity
  8
0
100
AcDbBlockBegin
  2
*Model_Space
 70
     0
 10
0.0
 20
0.0
 30
0.0
  3
*Model_Space
  1

  0
ENDBLK
  5
71
330
6F
100
AcDbEntity
  8
0
100
AcDbBlockEnd
  0
BLOCK
  5
6C
330
6B
100
AcDbEntity
 67
     1
  8
0
100
AcDbBlockBegin
  2
*Paper_Space
 70
     0
 10
0.0
 20
0.0
 30
0.0
  3
*Paper_Space
  1

  0
ENDBLK
  5
6D
330
6B
100
AcDbEntity
 67
     1
  8
0
100
AcDbBlockEnd
  0
ENDSEC
  0
SECTION
  2
ENTITIES
  0
LWPOLYLINE
  5
86
330
6F
100
AcDbEntity
  8
DETAIL
  6
Continuous
 62
     5
100
AcDbPolyline
 90
        7
 70
     0
 43
0.0
 10
355.2370776912007
 20
-45.85691856479991
 10
354.9074023664994
 20
-45.92876469309942
 10
354.5960422459007
 20
-46.01994655009969
 10
354.3101136866003
 20
-46.12856421169964
 10
354.0548158760989
 20
-46.25234196289977
 10
353.8308291804002
 20
-46.39094139939982
 10
353.6427599471986
 20
-46.54189645339977
  0
LWPOLYLINE
  5
8F
330
6F
100
AcDbEntity
  8
DETAIL
  6
Continuous
 62
     5
100
AcDbPolyline
 90
        5
 70
     0
 43
0.0
 10
354.9074023664994
 20
-45.22906892739968
 10
355.2370776912007
 20
-45.15722279909971
 10
355.5827042493997
 20
-45.10505781649965
 10
355.9396138635998
 20
-45.07340504039951
 10
356.3000000000005
 20
-45.06287253979974
  0
LWPOLYLINE
  5
96
330
6F
100
AcDbEntity
  8
DETAIL
  6
Continuous
 62
     5
100
AcDbPolyline
 90
       18
 70
     0
 43
0.0
 10
529.2166650310988
 20
-218.7587796450995
 10
530.1390297541995
 20
-218.7158634846998
 10
531.0535282299984
 20
-218.588042897
 10
531.9523613325996
 20
-218.3764080089001
 10
532.8278634741995
 20
-218.0827636824998
 10
533.6725680855992
 20
-217.7096142290999
 10
534.4792712331996
 20
-217.2601419903
 10
535.2410930782001
 20
-216.7381802197998
 10
535.9515365432994
 20
-216.1481803852999
 10
536.6045427238
 20
-215.4951742065997
 10
537.1945425599
 20
-214.7847307429998
 10
537.7165043312992
 20
-214.0229088989996
 10
538.1659765706984
 20
-213.2162057518996
 10
538.5391260240006
 20
-212.3715011403998
 10
538.8327703506996
 20
-211.4959989992
 10
539.0444052362995
 20
-210.5971658939994
 10
539.1722258269997
 20
-209.6826674211994
 10
539.2151419826998
 20
-208.7603026935
  0
LWPOLYLINE
  5
AA
330
6F
100
AcDbEntity
  8
DETAIL
  6
Continuous
 62
     5
100
AcDbPolyline
 90
        8
 70
     0
 43
0.0
 10
359.9999999999996
 20
-177.3883802023998
 10
360.3263154805004
 20
-177.3780111685997
 10
360.6470476126992
 20
-177.3470814843
 10
360.9567085809008
 20
-177.2961203649998
 10
361.2499999999995
 20
-177.2259997695997
 10
361.5219035724999
 20
-177.1379194807996
 10
361.7677669528998
 20
-177.0333865768994
 10
361.9833833506996
 20
-176.9141896447995
  0
LWPOLYLINE
  5
B4
330
6F
100
AcDbEntity
  8
DETAIL
  6
Continuous
 62
     5
100
AcDbPolyline
 90
        8
 70
     0
 43
0.0
 10
359.9999999999996
 20
-176.6886844365996
 10
360.3263154805004
 20
-176.6783154028995
 10
360.6470476126992
 20
-176.6473857185998
 10
360.9567085809008
 20
-176.5964245992996
 10
361.2499999999995
 20
-176.5263040038995
 10
361.5219035724999
 20
-176.4382237151
 10
361.7677669528998
 20
-176.3336908111997
 10
361.9833833506996
 20
-176.2144938790994
  0
LWPOLYLINE
  5
BE
330
6F
100
AcDbEntity
  8
DETAIL
  6
Continuous
 62
     5
100
AcDbPolyline
 90
       10
 70
     0
 43
0.0
 10
357.9999999999996
 20
-174.9643321010995
 10
357.6736845194005
 20
-174.9747011348996
 10
357.3529523871997
 20
-175.0056308191993
 10
357.0432914191
 20
-175.0565919384994
 10
356.7499999999995
 20
-175.1267125338996
 10
356.4780964274009
 20
-175.2147928226996
 10
356.2322330469993
 20
-175.3193257265999
 10
356.0166166491995
 20
-175.4385226586997
 10
355.8349364904984
 20
-175.5703441263996
 10
355.6903011687004
 20
-175.7125346278995
  0
LINE
  5
CA
330
6F
100
AcDbEntity
  8
DETAIL
  6
Continuous
 62
     5
100
AcDbLine
 10
549.9999999999996
 20
-245.3999999999997
 30
0.0
 11
550.0500000000006
 21
-245.3999999999997
 31
0.0
  0
LINE
  5
CB
330
6F
100
AcDbEntity
  8
DETAIL
  6
Continuous
 62
     5
100
AcDbLine
 10
549.9999999999996
 20
-240.2999999999998
 30
0.0
 11
550.0500000000006
 21
-240.2999999999998
 31
0.0
  0
LINE
  5
CC
330
6F
100
AcDbEntity
  8
DETAIL
  6
Continuous
 62
     5
100
AcDbLine
 10
552.0500000000006
 20
-240.2999999999998
 30
0.0
 11
589.9999999999996
 21
-240.2999999999998
 31
0.0
  0
LINE
  5
CD
330
6F
100
AcDbEntity
  8
DETAIL
  6
Continuous
 62
     5
100
AcDbLine
 10
552.0500000000006
 20
-240.0285398163997
 30
0.0
 11
550.0500000000006
 21
-240.0285398163997
 31
0.0
  0
LINE
  5
CE
330
6F
100
AcDbEntity
  8
DETAIL
  6
Continuous
 62
     5
100
AcDbLine
 10
553.9999999999996
 20
-240.0285398162997
 30
0.0
 11
-550.0000000000006
 21
-240.0285398162997
 31
0.0
  0
LINE
  5
CF
330
6F
100
AcDbEntity
  8
DETAIL
  6
Continuous
 62
     5
100
AcDbLine
 10
-549.0000000000005
 20
-239.9999999999997
 30
0.0
 11
553.9999999999996
 21
-239.9999999999997
 31
0.0
  0
LINE
  5
D0
330
6F
100
AcDbEntity
  8
DETAIL
  6
Continuous
 62
     5
100
AcDbLine
 10
549.3999999999991
 20
-239.9999999999997
 30
0.0
 11
549.9999999999996
 21
-239.9999999999997
 31
0.0
  0
LINE
  5
D1
330
6F
100
AcDbEntity
  8
DETAIL
  6
Continuous
 62
     5
100
AcDbLine
 10
548.9999999999996
 20
-239.9999999999997
 30
0.0
 11
553.9999999999996
 21
-239.9999999999997
 31
0.0
  0
LINE
  5
D2
330
6F
100
AcDbEntity
  8
DETAIL
  6
Continuous
 62
     5
100
AcDbLine
 10
544.4999999999996
 20
-233.9999999999997
 30
0.0
 11
-544.5000000000005
 21
-233.9999999999997
 31
0.0
  0
LINE
  5
D3
330
6F
100
AcDbEntity
  8
DETAIL
  6
Continuous
 62
     5
100
AcDbLine
 10
167.6499999999992
 20
-226.4999999999997
 30
0.0
 11
168.4499999999984
 21
-226.4999999999997
 31
0.0
  0
LINE
  5
D4
330
6F
100
AcDbEntity
  8
DETAIL
  6
Continuous
 62
     5
100
AcDbLine
 10
512.6499999999992
 20
-226.4999999999997
 30
0.0
 11
513.4499999999984
 21
-226.4999999999997
 31
0.0
  0
LINE
  5
D5
330
6F
100
AcDbEntity
  8
DETAIL
  6
Continuous
 62
     5
100
AcDbLine
 10
517.3499999999997
 20
-226.4999999999997
 30
0.0
 11
516.5500000000006
 21
-226.4999999999997
 31
0.0
  0
LINE
  5
D6
330
6F
100
AcDbEntity
  8
DETAIL
  6
Continuous
 62
     5
100
AcDbLine
 10
172.3499999999999
 20
-226.4999999999997
 30
0.0
 11
171.5500000000005
 21
-226.4999999999997
 31
0.0
  0
LINE
  5
D7
330
6F
100
AcDbEntity
  8
DETAIL
  6
Continuous
 62
     5
100
AcDbLine
 10
-529.0166650312007
 20
-224.1245319446995
 30
0.0
 11
529.0166650310998
 21
-224.1245319446995
 31
0.0
  0
LINE
  5
D8
330
6F
100
AcDbEntity
  8
DETAIL
  6
Continuous
 62
     5
100
AcDbLine
 10
529.0166650310998
 20
-218.7587796450995
 30
0.0
 11
529.2166650310988
 21
-218.7587796450995
 31
0.0
  0
LINE
  5
D9
330
6F
100
AcDbEntity
  8
DETAIL
  6
Continuous
 62
     5
100
AcDbLine
 10
529.0166650310998
 20
-208.8008105292999
 30
0.0
 11
373.5310000163181
 21
-208.8008105294366
 31
0.0
  0
LINE
  5
DA
330
6F
100
AcDbEntity
  8
DETAIL
  6
Continuous
 62
     5
100
AcDbLine
 10
261.3689999834
 20
-208.8008105292999
 30
0.0
 11
98.53100001650593
 21
-208.8008105293262
 31
0.0
  0
LINE
  5
DB
330
6F
100
AcDbEntity
  8
DETAIL
  6
Continuous
 62
     5
100
AcDbLine
 10
529.016665031098
 20
-208.8008105292999
 30
0.0
 11
443.5310000166005
 21
-208.8008105292999
 31
0.0
  0
LINE
  5
DC
330
6F
100
AcDbEntity
  8
DETAIL
  6
Continuous
 62
     5
100
AcDbLine
 10
266.3689999836456
 20
-208.8008105294168
 30
0.0
 11
53.53100001644588
 21
-208.8008105293607
 31
0.0
  0
LINE
  5
DD
330
6F
100
AcDbEntity
  8
DETAIL
  6
Continuous
 62
     5
100
AcDbLine
 10
-53.63100001649649
 20
-208.8008105293325
 30
0.0
 11
-178.6310000165515
 21
-208.8008105292999
 31
0.0
  0
LINE
  5
DE
330
6F
100
AcDbEntity
  8
DETAIL
  6
Continuous
 62
     5
100
AcDbLine
 10
-178.6310000165515
 20
-208.8008105292999
 30
0.0
 11
-266.4689999834514
 21
-208.8008105292997
 31
0.0
  0
LINE
  5
DF
330
6F
100
AcDbEntity
  8
DETAIL
  6
Continuous
 62
     5
100
AcDbLine
 10
-373.6310000165516
 20
-208.8008105292997
 30
0.0
 11
-529.0166650312007
 21
-208.8008105292999
 31
0.0
  0
LINE
  5
E0
330
6F
100
AcDbEntity
  8
DETAIL
  6
Continuous
 62
     5
100
AcDbLine
 10
549.9999999999996
 20
-206.9999999999997
 30
0.0
 11
549.4999999999996
 21
-206.9999999999997
 31
0.0
  0
LINE
  5
E1
330
6F
100
AcDbEntity
  8
DETAIL
  6
Continuous
 62
     5
100
AcDbLine
 10
553.9999999999996
 20
-200.2999999999998
 30
0.0
 11
589.9999999999996
 21
-200.2999999999998
 31
0.0
  0
LINE
  5
E2
330
6F
100
AcDbEntity
  8
DETAIL
  6
Continuous
 62
     5
100
AcDbLine
 10
-50.17376281330006
 20
-183.9999999999996
 30
0.0
 11
50.07376281319874
 21
-183.9999999999996
 31
0.0
  0
LINE
  5
E3
330
6F
100
AcDbEntity
  8
DETAIL
  6
Continuous
 62
     5
100
AcDbLine
 10
269.8262371867
 20
-183.9999999999996
 30
0.0
 11
370.0737628131987
 21
-183.9999999999996
 31
0.0
  0
LINE
  5
E4
330
6F
100
AcDbEntity
  8
DETAIL
  6
Continuous
 62
     5
100
AcDbLine
 10
357.9999999999996
 20
-177.3883802023998
 30
0.0
 11
359.9999999999996
 21
-177.3883802023998
 31
0.0
  0
LINE
  5
E5
330
6F
100
AcDbEntity
  8
DETAIL
  6
Continuous
 62
     5
100
AcDbLine
 10
553.9999999999996
 20
-177.1999999999995
 30
0.0
 11
579.9999999999996
 21
-177.1999999999995
 31
0.0
  0
LINE
  5
E6
330
6F
100
AcDbEntity
  8
DETAIL
  6
Continuous
 62
     5
100
AcDbLine
 10
357.9999999999996
 20
-176.6886844365996
 30
0.0
 11
359.9999999999996
 21
-176.6886844365996
 31
0.0
  0
LINE
  5
E7
330
6F
100
AcDbEntity
  8
DETAIL
  6
Continuous
 62
     5
100
AcDbLine
 10
362.1847952726997
 20
-176.0632741808
 30
0.0
 11
361.9999999999996
 21
-176.0632741808
 31
0.0
  0
LINE
  5
E8
330
6F
100
AcDbEntity
  8
DETAIL
  6
Continuous
 62
     5
100
AcDbLine
 10
359.9999999999996
 20
-174.9643321010995
 30
0.0
 11
357.9999999999996
 21
-174.9643321010995
 31
0.0
  0
LINE
  5
E9
330
6F
100
AcDbEntity
  8
DETAIL
  6
Continuous
 62
     5
100
AcDbLine
 10
621.4999999999996
 20
-174.9499999999994
 30
0.0
 11
603.4999999999996
 21
-174.9499999999994
 31
0.0
  0
LINE
  5
EA
330
6F
100
AcDbEntity
  8
DETAIL
  6
Continuous
 62
     5
100
AcDbLine
 10
579.9999999999996
 20
-171.4790561913997
 30
0.0
 11
595.2209438086006
 21
-171.4790561913997
 31
0.0
  0
LINE
  5
EB
330
6F
100
AcDbEntity
  8
DETAIL
  6
Continuous
 62
     5
100
AcDbLine
 10
596.9999999999997
 20
-169.2999999999998
 30
0.0
 11
601.4999999999997
 21
-169.2999999999998
 31
0.0
  0
LINE
  5
EC
330
6F
100
AcDbEntity
  8
DETAIL
  6
Continuous
 62
     5
100
AcDbLine
 10
621.4999999999996
 20
-166.5749999999994
 30
0.0
 11
603.4999999999996
 21
-166.5749999999994
 31
0.0
  0
LINE
  5
ED
330
6F
100
AcDbEntity
  8
DETAIL
  6
Continuous
 62
     5
100
AcDbLine
 10
579.9999999999996
 20
-164.8395280956998
 30
0.0
 11
595.2209438086006
 21
-164.8395280956998
 31
0.0
  0
LINE
  5
EE
330
6F
100
AcDbEntity
  8
DETAIL
  6
Continuous
 62
     5
100
AcDbLine
 10
579.9999999999996
 20
-151.5604719043
 30
0.0
 11
595.2209438086006
 21
-151.5604719043
 31
0.0
  0
LINE
  5
EF
330
6F
100
AcDbEntity
  8
DETAIL
  6
Continuous
 62
     5
100
AcDbLine
 10
621.4999999999996
 20
-149.8249999999995
 30
0.0
 11
603.4999999999996
 21
-149.8249999999995
 31
0.0
  0
LINE
  5
F0
330
6F
100
AcDbEntity
  8
DETAIL
  6
Continuous
 62
     5
100
AcDbLine
 10
596.9999999999997
 20
-147.1
 30
0.0
 11
601.4999999999997
 21
-147.1
 31
0.0
  0
LINE
  5
F1
330
6F
100
AcDbEntity
  8
DETAIL
  6
Continuous
 62
     5
100
AcDbLine
 10
579.9999999999996
 20
-144.9209438085996
 30
0.0
 11
595.2209438086006
 21
-144.9209438085996
 31
0.0
  0
LINE
  5
F2
330
6F
100
AcDbEntity
  8
DETAIL
  6
Continuous
 62
     5
100
AcDbLine
 10
553.9999999999996
 20
-141.6999999999994
 30
0.0
 11
572.9999999999996
 21
-141.6999999999994
 31
0.0
  0
LINE
  5
F3
330
6F
100
AcDbEntity
  8
DETAIL
  6
Continuous
 62
     5
100
AcDbLine
 10
621.4999999999996
 20
-141.4499999999994
 30
0.0
 11
603.4999999999996
 21
-141.4499999999994
 31
0.0
  0
LINE
  5
F4
330
6F
100
AcDbEntity
  8
DETAIL
  6
Continuous
 62
     5
100
AcDbLine
 10
572.9999999999996
 20
-139.1999999999995
 30
0.0
 11
579.9999999999996
 21
-139.1999999999995
 31
0.0
  0
LINE
  5
F5
330
6F
100
AcDbEntity
  8
DETAIL
  6
Continuous
 62
     5
100
AcDbLine
 10
604.7982940777996
 20
-137.9017059221997
 30
0.0
 11
590.2017059220992
 21
-137.9017059221997
 31
0.0
  0
LINE
  5
F6
330
6F
100
AcDbEntity
  8
DETAIL
  6
Continuous
 62
     5
100
AcDbLine
 10
572.9999999999996
 20
-135.0149545761998
 30
0.0
 11
585.6850454237004
 21
-135.0149545761998
 31
0.0
  0
LINE
  5
F7
330
6F
100
AcDbEntity
  8
DETAIL
  6
Continuous
 62
     5
100
AcDbLine
 10
586.9999999999996
 20
-133.14
 30
0.0
 11
588.4999999999998
 21
-133.14
 31
0.0
  0
LINE
  5
F8
330
6F
100
AcDbEntity
  8
DETAIL
  6
Continuous
 62
     5
100
AcDbLine
 10
604.7982940777996
 20
-131.5508529610994
 30
0.0
 11
590.2017059220992
 21
-131.5508529610994
 31
0.0
  0
LINE
  5
F9
330
6F
100
AcDbEntity
  8
DETAIL
  6
Continuous
 62
     5
100
AcDbLine
 10
572.9999999999996
 20
-130.1074772880998
 30
0.0
 11
585.6850454237004
 21
-130.1074772880998
 31
0.0
  0
LINE
  5
FA
330
6F
100
AcDbEntity
  8
DETAIL
  6
Continuous
 62
     5
100
AcDbLine
 10
-56.33511196010156
 20
-178.8054097012997
 30
0.0
 11
54.66444800339878
 21
-180.2031819377995
 31
0.0
  0
LINE
  5
FB
330
6F
100
AcDbEntity
  8
DETAIL
  6
Continuous
 62
     5
100
AcDbLine
 10
268.4287735234006
 20
-182.8950289998998
 30
0.0
 11
356.1764705881992
 21
-183.9999999999996
 31
0.0
  0
LWPOLYLINE
  5
FC
330
6F
100
AcDbEntity
  8
DETAIL
  6
Continuous
 62
     5
100
AcDbPolyline
 90
        8
 70
     0
 43
0.0
 10
359.9999999999996
 20
-78.48721767209973
 10
360.3263154805004
 20
-78.47684863829965
 10
360.6470476126992
 20
-78.44591895409997
 10
360.9567085809008
 20
-78.39495783479981
 10
361.2499999999995
 20
-78.32483723929965
 10
361.5219035724999
 20
-78.23675695059967
 10
361.7677669528998
 20
-78.13222404659939
 10
361.9833833506996
 20
-78.01302711449955
  0
LWPOLYLINE
  5
106
330
6F
100
AcDbEntity
  8
DETAIL
  6
Continuous
 62
     5
100
AcDbPolyline
 90
        8
 70
     0
 43
0.0
 10
359.9999999999996
 20
-77.78752190639955
 10
360.3263154805004
 20
-77.77715287259947
 10
360.6470476126992
 20
-77.74622318829971
 10
360.9567085809008
 20
-77.69526206899955
 10
361.2499999999995
 20
-77.62514147359945
 10
361.5219035724999
 20
-77.53706118479986
 10
361.7677669528998
 20
-77.43252828089966
 10
361.9833833506996
 20
-77.31333134879981
  0
LWPOLYLINE
  5
110
330
6F
100
AcDbEntity
  8
DETAIL
  6
Continuous
 62
     5
100
AcDbPolyline
 90
       10
 70
     0
 43
0.0
 10
357.9999999999996
 20
-76.06316957089949
 10
357.6736845194005
 20
-76.07353860459955
 10
357.3529523871997
 20
-76.10446828889974
 10
357.0432914191
 20
-76.15542940819944
 10
356.7499999999995
 20
-76.22555000369958
 10
356.4780964274009
 20
-76.31363029240003
 10
356.2322330469993
 20
-76.41816319629981
 10
356.0166166491995
 20
-76.53736012839965
 10
355.8349364904984
 20
-76.66918159620003
 10
355.6903011687004
 20
-76.81137209769952
  0
LWPOLYLINE
  5
11C
330
6F
100
AcDbEntity
  8
DETAIL
  6
Continuous
 62
     5
100
AcDbPolyline
 90
        4
 70
     0
 43
0.0
 10
356.3000000000005
 20
-45.76256830549993
 10
355.9396138635998
 20
-45.7731008060997
 10
355.5827042493997
 20
-45.80475358219938
 10
355.2370776912007
 20
-45.85691856479991
  0
LINE
  5
122
330
6F
100
AcDbEntity
  8
DETAIL
  6
Continuous
 62
     5
100
AcDbLine
 10
553.9825475935008
 20
-60.75650151579941
 30
0.0
 11
582.9999999999996
 21
-60.24999999999966
 31
0.0
  0
LINE
  5
123
330
6F
100
AcDbEntity
  8
DETAIL
  6
Continuous
 62
     5
100
AcDbLine
 10
572.9999999999996
 20
-120.2925227119
 30
0.0
 11
585.6850454237004
 21
-120.2925227119
 31
0.0
  0
LINE
  5
124
330
6F
100
AcDbEntity
  8
DETAIL
  6
Continuous
 62
     5
100
AcDbLine
 10
604.7982940777996
 20
-118.8491470388995
 30
0.0
 11
590.2017059220992
 21
-118.8491470388995
 31
0.0
  0
LINE
  5
125
330
6F
100
AcDbEntity
  8
DETAIL
  6
Continuous
 62
     5
100
AcDbLine
 10
586.9999999999996
 20
-117.2599999999998
 30
0.0
 11
588.4999999999998
 21
-117.2599999999998
 31
0.0
  0
LINE
  5
126
330
6F
100
AcDbEntity
  8
DETAIL
  6
Continuous
 62
     5
100
AcDbLine
 10
572.9999999999996
 20
-115.3850454237996
 30
0.0
 11
585.6850454237004
 21
-115.3850454237996
 31
0.0
  0
LINE
  5
127
330
6F
100
AcDbEntity
  8
DETAIL
  6
Continuous
 62
     5
100
AcDbLine
 10
604.7982940777996
 20
-112.4982940777996
 30
0.0
 11
590.2017059220992
 21
-112.4982940777996
 31
0.0
  0
LINE
  5
128
330
6F
100
AcDbEntity
  8
DETAIL
  6
Continuous
 62
     5
100
AcDbLine
 10
553.9999999999996
 20
-108.6999999999995
 30
0.0
 11
572.9999999999996
 21
-108.6999999999995
 31
0.0
  0
LINE
  5
129
330
6F
100
AcDbEntity
  8
DETAIL
  6
Continuous
 62
     5
100
AcDbLine
 10
401.3769037773993
 20
-105.3862952848
 30
0.0
 11
365.9999999999996
 21
-105.3862952848
 31
0.0
  0
LINE
  5
12A
330
6F
100
AcDbEntity
  8
DETAIL
  6
Continuous
 62
     5
100
AcDbLine
 10
364.9999999999995
 20
-104.4858912404994
 30
0.0
 11
365.8000000000007
 21
-104.4858912404994
 31
0.0
  0
LINE
  5
12B
330
6F
100
AcDbEntity
  8
DETAIL
  6
Continuous
 62
     5
100
AcDbLine
 10
365.9999999999996
 20
-99.22246040959965
 30
0.0
 11
365.8000000000007
 21
-99.22246040959965
 31
0.0
  0
LINE
  5
12C
330
6F
100
AcDbEntity
  8
DETAIL
  6
Continuous
 62
     5
100
AcDbLine
 10
365.9999999999996
 20
-96.94234415659972
 30
0.0
 11
365.8000000000007
 21
-96.94234415659972
 31
0.0
  0
LINE
  5
12D
330
6F
100
AcDbEntity
  8
DETAIL
  6
Continuous
 62
     5
100
AcDbLine
 10
553.9999999999996
 20
-92.99999999999966
 30
0.0
 11
549.9999999999996
 21
-92.99999999999966
 31
0.0
  0
LINE
  5
12E
330
6F
100
AcDbEntity
  8
DETAIL
  6
Continuous
 62
     5
100
AcDbLine
 10
365.9999999999996
 20
-89.33234415659955
 30
0.0
 11
365.8000000000007
 21
-89.33234415659955
 31
0.0
  0
LINE
  5
12F
330
6F
100
AcDbEntity
  8
DETAIL
  6
Continuous
 62
     5
100
AcDbLine
 10
365.9999999999996
 20
-87.05222790360004
 30
0.0
 11
365.8000000000007
 21
-87.05222790360004
 31
0.0
  0
LINE
  5
130
330
6F
100
AcDbEntity
  8
DETAIL
  6
Continuous
 62
     5
100
AcDbLine
 10
365.9999999999996
 20
-79.44222790359948
 30
0.0
 11
365.8000000000007
 21
-79.44222790359948
 31
0.0
  0
LINE
  5
131
330
6F
100
AcDbEntity
  8
DETAIL
  6
Continuous
 62
     5
100
AcDbLine
 10
357.9999999999996
 20
-78.48721767209973
 30
0.0
 11
359.9999999999996
 21
-78.48721767209973
 31
0.0
  0
LINE
  5
132
330
6F
100
AcDbEntity
  8
DETAIL
  6
Continuous
 62
     5
100
AcDbLine
 10
551.4999999999997
 20
-77.99999999999966
 30
0.0
 11
549.9999999999996
 21
-77.99999999999966
 31
0.0
  0
LINE
  5
133
330
6F
100
AcDbEntity
  8
DETAIL
  6
Continuous
 62
     5
100
AcDbLine
 10
357.9999999999996
 20
-77.78752190639955
 30
0.0
 11
359.9999999999996
 21
-77.78752190639955
 31
0.0
  0
LINE
  5
134
330
6F
100
AcDbEntity
  8
DETAIL
  6
Continuous
 62
     5
100
AcDbLine
 10
365.9999999999996
 20
-77.16211165049992
 30
0.0
 11
365.8000000000007
 21
-77.16211165049992
 31
0.0
  0
LINE
  5
135
330
6F
100
AcDbEntity
  8
DETAIL
  6
Continuous
 62
     5
100
AcDbLine
 10
362.1847952726997
 20
-77.16211165049992
 30
0.0
 11
361.9999999999996
 21
-77.16211165049992
 31
0.0
  0
LINE
  5
136
330
6F
100
AcDbEntity
  8
DETAIL
  6
Continuous
 62
     5
100
AcDbLine
 10
359.9999999999996
 20
-76.06316957089949
 30
0.0
 11
357.9999999999996
 21
-76.06316957089949
 31
0.0
  0
LINE
  5
137
330
6F
100
AcDbEntity
  8
DETAIL
  6
Continuous
 62
     5
100
AcDbLine
 10
552.9999999999996
 20
-71.49999999999966
 30
0.0
 11
551.4999999999997
 21
-71.49999999999966
 31
0.0
  0
LINE
  5
138
330
6F
100
AcDbEntity
  8
DETAIL
  6
Continuous
 62
     5
100
AcDbLine
 10
365.9999999999996
 20
-69.5521116504998
 30
0.0
 11
365.8000000000007
 21
-69.5521116504998
 31
0.0
  0
LINE
  5
139
330
6F
100
AcDbEntity
  8
DETAIL
  6
Continuous
 62
     5
100
AcDbLine
 10
365.9999999999996
 20
-67.27199539749985
 30
0.0
 11
365.8000000000007
 21
-67.27199539749985
 31
0.0
  0
LINE
  5
13A
330
6F
100
AcDbEntity
  8
DETAIL
  6
Continuous
 62
     5
100
AcDbLine
 10
582.9999999999996
 20
-59.99999999999966
 30
0.0
 11
607.4999999999996
 21
-59.99999999999966
 31
0.0
  0
LINE
  5
13B
330
6F
100
AcDbEntity
  8
DETAIL
  6
Continuous
 62
     5
100
AcDbLine
 10
365.9999999999996
 20
-59.6619953974997
 30
0.0
 11
365.8000000000007
 21
-59.6619953974997
 31
0.0
  0
LINE
  5
13C
330
6F
100
AcDbEntity
  8
DETAIL
  6
Continuous
 62
     5
100
AcDbLine
 10
552.9999999999996
 20
-58.59198596449971
 30
0.0
 11
551.4999999999997
 21
-58.59198596449971
 31
0.0
  0
LINE
  5
13D
330
6F
100
AcDbEntity
  8
DETAIL
  6
Continuous
 62
     5
100
AcDbLine
 10
365.9999999999996
 20
-57.38187914449975
 30
0.0
 11
365.8000000000007
 21
-57.38187914449975
 31
0.0
  0
LINE
  5
13E
330
6F
100
AcDbEntity
  8
DETAIL
  6
Continuous
 62
     5
100
AcDbLine
 10
552.9999999999996
 20
-56.59198596449972
 30
0.0
 11
551.4999999999997
 21
-56.59198596449972
 31
0.0
  0
LINE
  5
13F
330
6F
100
AcDbEntity
  8
DETAIL
  6
Continuous
 62
     5
100
AcDbLine
 10
356.3000000000005
 20
-45.76256830549993
 30
0.0
 11
358.8125363825997
 21
-45.76256830549993
 31
0.0
  0
LINE
  5
140
330
6F
100
AcDbEntity
  8
DETAIL
  6
Continuous
 62
     5
100
AcDbLine
 10
356.3000000000005
 20
-45.06287253979974
 30
0.0
 11
357.5148694914001
 21
-45.06287253979974
 31
0.0
  0
LINE
  5
141
330
6F
100
AcDbEntity
  8
DETAIL
  6
Continuous
 62
     5
100
AcDbLine
 10
355.9999999999996
 20
-44.57806291949975
 30
0.0
 11
356.5592450248
 21
-44.57806291949975
 31
0.0
  0
LINE
  5
142
330
6F
100
AcDbEntity
  8
DETAIL
  6
Continuous
 62
     5
100
AcDbLine
 10
355.4935932698003
 20
-44.08114134519985
 30
0.0
 11
354.9999999999995
 21
-44.08114134519985
 31
0.0
  0
LINE
  5
143
330
6F
100
AcDbEntity
  8
DETAIL
  6
Continuous
 62
     5
100
AcDbLine
 10
350.3075461766998
 20
-41.82301084199989
 30
0.0
 11
289.5924538232007
 21
-41.82301084199989
 31
0.0
  0
LINE
  5
144
330
6F
100
AcDbEntity
  8
DETAIL
  6
Continuous
 62
     5
100
AcDbLine
 10
30.30754617669982
 20
-41.82301084199989
 30
0.0
 11
-30.40754617679932
 21
-41.82301084199989
 31
0.0
  0
LINE
  5
145
330
6F
100
AcDbEntity
  8
DETAIL
  6
Continuous
 62
     5
100
AcDbLine
 10
342.1857517531003
 20
-39.08114134519986
 30
0.0
 11
297.7142482467984
 21
-39.08114134519986
 31
0.0
  0
LINE
  5
146
330
6F
100
AcDbEntity
  8
DETAIL
  6
Continuous
 62
     5
100
AcDbLine
 10
22.18575175310025
 20
-39.08114134519986
 30
0.0
 11
-22.28575175320157
 21
-39.08114134519986
 31
0.0
  0
LINE
  5
147
330
6F
100
AcDbEntity
  8
DETAIL
  6
Continuous
 62
     5
100
AcDbLine
 10
597.4999999999996
 20
-29.99999999999966
 30
0.0
 11
599.9999999999996
 21
-29.99999999999966
 31
0.0
  0
LINE
  5
148
330
6F
100
AcDbEntity
  8
DETAIL
  6
Continuous
 62
     5
100
AcDbLine
 10
582.9999999999996
 20
-27.99999999999966
 30
0.0
 11
597.4999999999996
 21
-27.99999999999966
 31
0.0
  0
LINE
  5
149
330
6F
100
AcDbEntity
  8
DETAIL
  6
Continuous
 62
     5
100
AcDbLine
 10
599.9999999999996
 20
-27.99999999999966
 30
0.0
 11
607.4999999999996
 21
-27.99999999999966
 31
0.0
  0
LINE
  5
14A
330
6F
100
AcDbEntity
  8
DETAIL
  6
Continuous
 62
     5
100
AcDbLine
 10
529.0166650310998
 20
-27.83998285069959
 30
0.0
 11
372.9209470887286
 21
-27.83998285051394
 31
0.0
  0
LINE
  5
14B
330
6F
100
AcDbEntity
  8
DETAIL
  6
Continuous
 62
     5
100
AcDbLine
 10
261.9790529108991
 20
-27.83998285069959
 30
0.0
 11
97.92094708924153
 21
-27.83998285081327
 31
0.0
  0
LINE
  5
14C
330
6F
100
AcDbEntity
  8
DETAIL
  6
Continuous
 62
     5
100
AcDbLine
 10
529.016665031098
 20
-27.83998285069959
 30
0.0
 11
442.9209470889993
 21
-27.83998285069959
 31
0.0
  0
LINE
  5
14D
330
6F
100
AcDbEntity
  8
DETAIL
  6
Continuous
 62
     5
100
AcDbLine
 10
266.9790529106581
 20
-27.83998285087045
 30
0.0
 11
52.92094708926175
 21
-27.83998285082545
 31
0.0
  0
LINE
  5
14E
330
6F
100
AcDbEntity
  8
DETAIL
  6
Continuous
 62
     5
100
AcDbLine
 10
-53.02094708922687
 20
-27.83998285080315
 30
0.0
 11
-178.0209470891816
 21
-27.83998285077678
 31
0.0
  0
LINE
  5
14F
330
6F
100
AcDbEntity
  8
DETAIL
  6
Continuous
 62
     5
100
AcDbLine
 10
-178.0209470891816
 20
-27.83998285077678
 30
0.0
 11
-267.0790529108548
 21
-27.83998285075734
 31
0.0
  0
LINE
  5
150
330
6F
100
AcDbEntity
  8
DETAIL
  6
Continuous
 62
     5
100
AcDbLine
 10
-373.0209470891083
 20
-27.83998285073403
 30
0.0
 11
-529.0166650312007
 21
-27.83998285069959
 31
0.0
  0
LINE
  5
151
330
6F
100
AcDbEntity
  8
DETAIL
  6
Continuous
 62
     5
100
AcDbLine
 10
549.4999999999996
 20
-26.99999999999965
 30
0.0
 11
549.9999999999996
 21
-26.99999999999965
 31
0.0
  0
LINE
  5
152
330
6F
100
AcDbEntity
  8
DETAIL
  6
Continuous
 62
     5
100
AcDbLine
 10
549.9999999999996
 20
-26.39999999999976
 30
0.0
 11
549.4999999999996
 21
-26.39999999999976
 31
0.0
  0
LINE
  5
153
330
6F
100
AcDbEntity
  8
DETAIL
  6
Continuous
 62
     5
100
AcDbLine
 10
551.6999999999984
 20
-20.49999999999966
 30
0.0
 11
597.3000000000006
 21
-20.49999999999966
 31
0.0
  0
LINE
  5
154
330
6F
100
AcDbEntity
  8
DETAIL
  6
Continuous
 62
     5
100
AcDbLine
 10
529.2166650310988
 20
-18.24122035499988
 30
0.0
 11
529.0166650310998
 21
-18.24122035499988
 31
0.0
  0
LINE
  5
155
330
6F
100
AcDbEntity
  8
DETAIL
  6
Continuous
 62
     5
100
AcDbLine
 10
551.6999999999984
 20
-17.99999999999966
 30
0.0
 11
597.3000000000006
 21
-17.99999999999966
 31
0.0
  0
LINE
  5
156
330
6F
100
AcDbEntity
  8
DETAIL
  6
Continuous
 62
     5
100
AcDbLine
 10
552.9999999999996
 20
-16.49999999999966
 30
0.0
 11
549.9999999999996
 21
-16.49999999999966
 31
0.0
  0
LINE
  5
157
330
6F
100
AcDbEntity
  8
DETAIL
  6
Continuous
 62
     5
100
AcDbLine
 10
529.0166650310998
 20
-12.4408323230997
 30
0.0
 11
-529.0166650312007
 21
-12.4408323230997
 31
0.0
  0
LINE
  5
158
330
6F
100
AcDbEntity
  8
DETAIL
  6
Continuous
 62
     5
100
AcDbLine
 10
-544.5000000000005
 20
-2.999999999999658
 30
0.0
 11
544.4999999999996
 21
-2.999999999999658
 31
0.0
  0
LINE
  5
159
330
6F
100
AcDbEntity
  8
DETAIL
  6
Continuous
 62
     5
100
AcDbLine
 10
-550.0000000000006
 20
0.0000000000003411
 30
0.0
 11
549.9999999999996
 21
0.0000000000003411
 31
0.0
  0
LINE
  5
15A
330
6F
100
AcDbEntity
  8
DETAIL
  6
Continuous
 62
     5
100
AcDbLine
 10
553.9825475935008
 20
-27.2434984841999
 30
0.0
 11
582.9999999999996
 21
-27.74999999999967
 31
0.0
  0
LINE
  5
15B
330
6F
100
AcDbEntity
  8
DETAIL
  6
Continuous
 62
     5
100
AcDbLine
 10
355.7776887780997
 20
-44.55617622069951
 30
0.0
 11
355.9999999999996
 21
-44.57806291949975
 31
0.0
  0
LWPOLYLINE
  5
15C
330
6F
100
AcDbEntity
  8
DETAIL
  6
Continuous
 62
     5
100
AcDbPolyline
 90
       23
 70
     0
 43
0.0
 10
-53.63100001659994
 20
-208.8008105292999
 10
-50.74623607429974
 20
-210.1714822134996
 10
-47.57815866539977
 20
-211.5382168675998
 10
-44.06652876820089
 20
-212.8694528791999
 10
-40.15226134580053
 20
-214.1269369490997
 10
-35.77657280280117
 20
-215.2652310598996
 10
-30.87164491120029
 20
-216.2440252277999
 10
-25.38519916809902
 20
-217.0296104064997
 10
-19.39015705390056
 20
-217.5980807815
 10
-13.07210033419915
 20
-217.9586161921994
 10
-6.591039759700379
 20
-218.1499066292996
 10
-0.0500000000015462
 20
-218.2088645075997
 10
6.491039759600878
 20
-218.1499066292996
 10
12.97210033409965
 20
-217.9586161921994
 10
19.29015705379924
 20
-217.5980807815
 10
25.28519916809955
 20
-217.0296104064997
 10
30.77164491110079
 20
-216.2440252277999
 10
35.67657280269987
 20
-215.2652310598996
 10
40.05226134570103
 20
-214.1269369490997
 10
43.96652876809957
 20
-212.8694528791999
 10
47.47815866529845
 20
-211.5382168675998
 10
50.64623607419843
 20
-210.1714822134996
 10
53.5310000166005
 20
-208.8008105292999
  0
LINE
  5
175
330
6F
100
AcDbEntity
  8
DETAIL
  6
Continuous
 62
     5
100
AcDbLine
 10
358.0130255876006
 20
-76.06316957089949
 30
0.0
 11
357.9746951672001
 21
-76.07842020919964
 31
0.0
  0
LINE
  5
176
330
6F
100
AcDbEntity
  8
DETAIL
  6
Continuous
 62
     5
100
AcDbLine
 10
536.3605285841
 20
-10.93564555329942
 30
0.0
 11
532.1482317183995
 21
-12.5094953588997
 31
0.0
  0
LWPOLYLINE
  5
177
330
6F
100
AcDbEntity
  8
DETAIL
  6
Continuous
 62
     5
100
AcDbPolyline
 90
        4
 70
     0
 43
0.0
 10
532.1482317183995
 20
-12.5094953588997
 10
531.785531745199
 20
-12.64446978750004
 10
531.4084314943007
 20
-12.78378157669942
 10
531.0141405826994
 20
-12.9285904695995
  0
LWPOLYLINE
  5
17D
330
6F
100
AcDbEntity
  8
DETAIL
  6
Continuous
 62
     5
100
AcDbPolyline
 90
        3
 70
     0
 43
0.0
 10
529.7117450987982
 20
-13.40463028719989
 10
529.2405040729986
 20
-13.5775870019994
 10
529.0166650310998
 20
-13.66025524169947
  0
LINE
  5
182
330
6F
100
AcDbEntity
  8
DETAIL
  6
Continuous
 62
     5
100
AcDbLine
 10
531.0141405826994
 20
-12.9285904695995
 30
0.0
 11
529.7117450987982
 21
-13.40463028719989
 31
0.0
  0
LWPOLYLINE
  5
183
330
6F
100
AcDbEntity
  8
DETAIL
  6
Continuous
 62
     5
100
AcDbPolyline
 90
        5
 70
     0
 43
0.0
 10
529.7135532115985
 20
-223.5960341773995
 10
531.0146427187986
 20
-224.0715923648
 10
531.4090017993999
 20
-224.2164284849997
 10
531.7860419278998
 20
-224.3557187748999
 10
532.1482312659003
 20
-224.4905044967997
  0
LWPOLYLINE
  5
18A
330
6F
100
AcDbEntity
  8
DETAIL
  6
Continuous
 62
     5
100
AcDbPolyline
 90
        3
 70
     0
 43
0.0
 10
529.0166650310998
 20
-223.3397444242998
 10
529.2422763033986
 20
-223.4230636470999
 10
529.7135532115985
 20
-223.5960341773995
  0
LINE
  5
18F
330
6F
100
AcDbEntity
  8
DETAIL
  6
Continuous
 62
     5
100
AcDbLine
 10
532.1482312659003
 20
-224.4905044967997
 30
0.0
 11
536.3605285841
 21
-226.0643544466998
 31
0.0
  0
LINE
  5
190
330
6F
100
AcDbEntity
  8
DETAIL
  6
Continuous
 62
     5
100
AcDbLine
 10
360.0253048327008
 20
-174.9795827393997
 30
0.0
 11
359.9869744123002
 21
-174.9643321010995
 31
0.0
  0
LWPOLYLINE
  5
191
330
6F
100
AcDbEntity
  8
DETAIL
  6
Continuous
 62
     5
100
AcDbPolyline
 90
       23
 70
     0
 43
0.0
 10
266.3689999834001
 20
-208.8008105292999
 10
269.2537639257003
 20
-210.1714822134996
 10
272.4218413346001
 20
-211.5382168675998
 10
275.9334712317991
 20
-212.8694528791999
 10
279.8477386541995
 20
-214.1269369490997
 10
284.2234271971988
 20
-215.2652310598996
 10
289.1283550887997
 20
-216.2440252277999
 10
294.614800831901
 20
-217.0296104064997
 10
300.6098429460994
 20
-217.5980807815
 10
306.9278996658009
 20
-217.9586161921994
 10
313.4089602402996
 20
-218.1499066292996
 10
319.9499999999984
 20
-218.2088645075997
 10
326.4910397596009
 20
-218.1499066292996
 10
332.9721003340996
 20
-217.9586161921994
 10
339.2901570537993
 20
-217.5980807815
 10
345.2851991680995
 20
-217.0296104064997
 10
350.7716449111009
 20
-216.2440252277999
 10
355.6765728027
 20
-215.2652310598996
 10
360.0522613457012
 20
-214.1269369490997
 10
363.9665287680996
 20
-212.8694528791999
 10
367.4781586652985
 20
-211.5382168675998
 10
370.6462360741984
 20
-210.1714822134996
 10
373.5310000166005
 20
-208.8008105292999
  0
LWPOLYLINE
  5
1AA
330
6F
100
AcDbEntity
  8
DETAIL
  6
Continuous
 62
     5
100
AcDbPolyline
 90
       30
 70
     0
 43
0.0
 10
-53.63100001659994
 20
-208.8008105292999
 10
-51.39480596870136
 20
-210.4095783002
 10
-49.00134357869911
 20
-212.0143322112996
 10
-46.4264496615001
 20
-213.5940361155996
 10
-43.64393631310167
 20
-215.1245069018997
 10
-40.62827523680107
 20
-216.5794112995997
 10
-37.35709785120025
 20
-217.9267759506998
 10
-33.80491936070075
 20
-219.1404107196996
 10
-29.94760507500041
 20
-220.1956107060997
 10
-25.77789950300076
 20
-221.0736913249999
 10
-21.34269946320137
 20
-221.7610883205995
 10
-16.72597174550037
 20
-222.2624415713996
 10
-12.00685853319965
 20
-222.6008104314999
 10
-7.23673181010099
 20
-222.8056011452996
 10
-2.446586364700578
 20
-222.9012643311996
 10
2.346586364599259
 20
-222.9012643311996
 10
7.136731810099717
 20
-222.8056011452996
 10
11.90685853309833
 20
-222.6008104314999
 10
16.62597174550092
 20
-222.2624415713996
 10
21.2426994632001
 20
-221.7610883205995
 10
25.67789950289944
 20
-221.0736913249999
 10
29.84760507500097
 20
-220.1956107060997
 10
33.70491936059944
 20
-219.1404107196996
 10
37.25709785119898
 20
-217.9267759506998
 10
40.52827523669974
 20
-216.5794112995997
 10
43.54393631300035
 20
-215.1245069018997
 10
46.3264496614006
 20
-213.5940361155996
 10
48.9013435785996
 20
-212.0143322112996
 10
51.29480596870006
 20
-210.4095783002
 10
53.5310000166005
 20
-208.8008105292999
  0
LINE
  5
1CA
330
6F
100
AcDbEntity
  8
DETAIL
  6
Continuous
 62
     5
100
AcDbLine
 10
357.9746951672001
 20
-76.07842020919964
 30
0.0
 11
357.794369062101
 21
-76.18494645489966
 31
0.0
  0
LINE
  5
1CB
330
6F
100
AcDbEntity
  8
DETAIL
  6
Continuous
 62
     5
100
AcDbLine
 10
358.0130255876006
 20
-174.9643321010995
 30
0.0
 11
357.9746951672001
 21
-174.9795827393997
 31
0.0
  0
LINE
  5
1CC
330
6F
100
AcDbEntity
  8
DETAIL
  6
Continuous
 62
     5
100
AcDbLine
 10
360.0253048327008
 20
-76.07842020919964
 30
0.0
 11
359.9869744123002
 21
-76.06316957089949
 31
0.0
  0
LINE
  5
1CD
330
6F
100
AcDbEntity
  8
DETAIL
  6
Continuous
 62
     5
100
AcDbLine
 10
365.9999999999996
 20
-105.8315239700997
 30
0.0
 11
365.8263518223007
 21
-105.7532908298996
 31
0.0
  0
LWPOLYLINE
  5
1CE
330
6F
100
AcDbEntity
  8
DETAIL
  6
Continuous
 62
     5
100
AcDbPolyline
 90
       23
 70
     0
 43
0.0
 10
52.92094708899957
 20
-27.83998285069959
 10
50.04058047559874
 20
-26.49229740359954
 10
46.87810525389931
 20
-25.14830192609963
 10
43.37501308869968
 20
-23.83864644070002
 10
39.47426179790047
 20
-22.60043705999999
 10
35.12069225180086
 20
-21.47773815179937
 10
30.25217273919907
 20
-20.50975007689942
 10
24.82584880490093
 20
-19.72943460339967
 10
18.9211921983001
 20
-19.16048772969964
 10
12.71672201489991
 20
-18.7952370938998
 10
6.361235502199177
 20
-18.59873446899985
 10
-0.0500000000015462
 20
-18.53758870399962
 10
-6.461235502300494
 20
-18.59873446899985
 10
-12.81672201500123
 20
-18.7952370938998
 10
-19.02119219830138
 20
-19.16048772969964
 10
-24.92584880500045
 20
-19.72943460339967
 10
-30.35217273930039
 20
-20.50975007689942
 10
-35.22069225190036
 20
-21.47773815179937
 10
-39.57426179799995
 20
-22.60043705999999
 10
-43.47501308869913
 20
-23.83864644070002
 10
-46.97810525390056
 20
-25.14830192609963
 10
-50.14058047570006
 20
-26.49229740359954
 10
-53.0209470891009
 20
-27.83998285069959
  0
LWPOLYLINE
  5
1E7
330
6F
100
AcDbEntity
  8
DETAIL
  6
Continuous
 62
     5
100
AcDbPolyline
 90
       30
 70
     0
 43
0.0
 10
52.92094708899957
 20
-27.83998285069959
 10
50.68894272489842
 20
-26.25875875869963
 10
48.30025414929832
 20
-24.68130461129988
 10
45.7312566245996
 20
-23.1279981428994
 10
42.95670032669977
 20
-21.62228729740002
 10
39.95203140959848
 20
-20.18977718799999
 10
36.69659331660068
 20
-18.8614875212994
 10
33.16714874619857
 20
-17.6629507468998
 10
29.34282584099992
 20
-16.6181470957996
 10
25.2206469263997
 20
-15.74553170799993
 10
20.849735822399
 20
-15.05851559730001
 10
16.31103470939843
 20
-14.55320115959978
 10
11.6782315378
 20
-14.20854493359968
 10
6.998560875098973
 20
-13.99774296239968
 10
2.30045545150051
 20
-13.89849488089987
 10
-2.400455451600008
 20
-13.89849488089987
 10
-7.098560875200289
 20
-13.99774296239968
 10
-11.77823153780127
 20
-14.20854493359968
 10
-16.41103470949974
 20
-14.55320115959978
 10
-20.94973582250032
 20
-15.05851559730001
 10
-25.32064692639915
 20
-15.74553170799993
 10
-29.44282584110124
 20
-16.6181470957996
 10
-33.26714874629987
 20
-17.6629507468998
 10
-36.79659331660013
 20
-18.8614875212994
 10
-40.05203140969978
 20
-20.18977718799999
 10
-43.05670032670104
 20
-21.62228729740002
 10
-45.8312566246991
 20
-23.1279981428994
 10
-48.40025414939964
 20
-24.68130461129988
 10
-50.78894272499974
 20
-26.25875875869963
 10
-53.0209470891009
 20
-27.83998285069959
  0
LWPOLYLINE
  5
207
330
6F
100
AcDbEntity
  8
DETAIL
  6
Continuous
 62
     5
100
AcDbPolyline
 90
       30
 70
     0
 43
0.0
 10
266.3689999834001
 20
-208.8008105292999
 10
268.6051940312985
 20
-210.4095783002
 10
270.9986564213009
 20
-212.0143322112996
 10
273.5735503384999
 20
-213.5940361155996
 10
276.3560636868983
 20
-215.1245069018997
 10
279.3717247631989
 20
-216.5794112995997
 10
282.6429021487998
 20
-217.9267759506998
 10
286.1950806392993
 20
-219.1404107196996
 10
290.0523949249997
 20
-220.1956107060997
 10
294.2221004969992
 20
-221.0736913249999
 10
298.6573005367986
 20
-221.7610883205995
 10
303.2740282544996
 20
-222.2624415713996
 10
307.9931414668004
 20
-222.6008104314999
 10
312.763268189899
 20
-222.8056011452996
 10
317.5534136353995
 20
-222.9012643311996
 10
322.3465863645992
 20
-222.9012643311996
 10
327.1367318100997
 20
-222.8056011452996
 10
331.9068585330983
 20
-222.6008104314999
 10
336.6259717455009
 20
-222.2624415713996
 10
341.2426994632001
 20
-221.7610883205995
 10
345.6778995028994
 20
-221.0736913249999
 10
349.847605075001
 20
-220.1956107060997
 10
353.7049193605994
 20
-219.1404107196996
 10
357.257097851199
 20
-217.9267759506998
 10
360.5282752366997
 20
-216.5794112995997
 10
363.5439363130004
 20
-215.1245069018997
 10
366.3264496614006
 20
-213.5940361155996
 10
368.9013435785996
 20
-212.0143322112996
 10
371.2948059687
 20
-210.4095783002
 10
373.5310000166005
 20
-208.8008105292999
  0
LWPOLYLINE
  5
227
330
6F
100
AcDbEntity
  8
DETAIL
  6
Continuous
 62
     5
100
AcDbPolyline
 90
        4
 70
     0
 43
0.0
 10
357.794369062101
 20
-76.18494645489966
 10
357.6603746777996
 20
-76.30648137199989
 10
357.577861343399
 20
-76.4383544415997
 10
357.5500000000007
 20
-76.57549785579941
  0
LWPOLYLINE
  5
22D
330
6F
100
AcDbEntity
  8
DETAIL
  6
Continuous
 62
     5
100
AcDbPolyline
 90
        4
 70
     0
 43
0.0
 10
556.8597939494988
 20
-20.55857878680001
 10
556.8974099354996
 20
-20.52904862629987
 10
556.9473934278987
 20
-20.50737848739993
 10
557.0012142086993
 20
-20.50000068309976
  0
LWPOLYLINE
  5
233
330
6F
100
AcDbEntity
  8
DETAIL
  6
Continuous
 62
     5
100
AcDbPolyline
 90
        4
 70
     0
 43
0.0
 10
361.9833833506996
 20
-77.31333134879981
 10
362.1650635093988
 20
-77.18150988109994
 10
362.3096988312004
 20
-77.03931937959954
 10
362.3895009559997
 20
-76.92534573859997
  0
LWPOLYLINE
  5
239
330
6F
100
AcDbEntity
  8
DETAIL
  6
Continuous
 62
     5
100
AcDbPolyline
 90
        6
 70
     0
 43
0.0
 10
361.9833833506996
 20
-78.01302711449955
 10
362.1650635093988
 20
-77.88120564679968
 10
362.3096988312004
 20
-77.73901514529973
 10
362.4148145656996
 20
-77.5888885288997
 10
362.4786121533994
 20
-77.43339450569976
 10
362.4999999999996
 20
-77.27519362149962
  0
LWPOLYLINE
  5
241
330
6F
100
AcDbEntity
  8
DETAIL
  6
Continuous
 62
     5
100
AcDbPolyline
 90
        4
 70
     0
 43
0.0
 10
361.9833833506996
 20
-176.2144938790994
 10
362.1650635093988
 20
-176.0826724113
 10
362.3096988312004
 20
-175.9404819097996
 10
362.3895009559997
 20
-175.8265082689
  0
LWPOLYLINE
  5
247
330
6F
100
AcDbEntity
  8
DETAIL
  6
Continuous
 62
     5
100
AcDbPolyline
 90
        6
 70
     0
 43
0.0
 10
361.9833833506996
 20
-176.9141896447995
 10
362.1650635093988
 20
-176.7823681769997
 10
362.3096988312004
 20
-176.6401776754998
 10
362.4148145656996
 20
-176.4900510591998
 10
362.4786121533994
 20
-176.3345570358998
 10
362.4999999999996
 20
-176.1763561516997
  0
LINE
  5
24F
330
6F
100
AcDbEntity
  8
DETAIL
  6
Continuous
 62
     5
100
AcDbLine
 10
357.9746951672001
 20
-174.9795827393997
 30
0.0
 11
357.794369062101
 21
-175.0861089851997
 31
0.0
  0
LWPOLYLINE
  5
250
330
6F
100
AcDbEntity
  8
DETAIL
  6
Continuous
 62
     5
100
AcDbPolyline
 90
        6
 70
     0
 43
0.0
 10
627.4999999999996
 20
-165.155897659
 10
628.3339009918996
 20
-164.7053295633997
 10
629.4962908768005
 20
-163.5748623053997
 10
630.3298823676993
 20
-162.1155966534994
 10
630.8320169279007
 20
-160.3248740708997
 10
630.9999999999996
 20
-158.1999999999994
  0
LWPOLYLINE
  5
258
330
6F
100
AcDbEntity
  8
DETAIL
  6
Continuous
 62
     5
100
AcDbPolyline
 90
       23
 70
     0
 43
0.0
 10
372.9209470889996
 20
-27.83998285069959
 10
370.0405804755988
 20
-26.49229740359954
 10
366.8781052538991
 20
-25.14830192609963
 10
363.3750130886998
 20
-23.83864644070002
 10
359.4742617979004
 20
-22.60043705999999
 10
355.1206922518009
 20
-21.47773815179937
 10
350.2521727391991
 20
-20.50975007689942
 10
344.825848804901
 20
-19.72943460339967
 10
338.9211921983001
 20
-19.16048772969964
 10
332.7167220148999
 20
-18.7952370938998
 10
326.3612355021992
 20
-18.59873446899985
 10
319.9499999999984
 20
-18.53758870399962
 10
313.5387644976995
 20
-18.59873446899985
 10
307.1832779849988
 20
-18.7952370938998
 10
300.9788078016986
 20
-19.16048772969964
 10
295.0741511949996
 20
-19.72943460339967
 10
289.6478272606996
 20
-20.50975007689942
 10
284.7793077480996
 20
-21.47773815179937
 10
280.4257382020001
 20
-22.60043705999999
 10
276.5249869113008
 20
-23.83864644070002
 10
273.0218947460994
 20
-25.14830192609963
 10
269.8594195242999
 20
-26.49229740359954
 10
266.9790529108991
 20
-27.83998285069959
  0
LWPOLYLINE
  5
271
330
6F
100
AcDbEntity
  8
DETAIL
  6
Continuous
 62
     5
100
AcDbPolyline
 90
        6
 70
     0
 43
0.0
 10
627.4999999999996
 20
-151.2441023409998
 10
628.3339009918996
 20
-151.6946704365997
 10
629.4962908768005
 20
-152.8251376945997
 10
630.3298823676993
 20
-154.2844033465995
 10
630.8320169279007
 20
-156.0751259291997
 10
630.9999999999996
 20
-158.1999999999994
  0
LWPOLYLINE
  5
279
330
6F
100
AcDbEntity
  8
DETAIL
  6
Continuous
 62
     5
100
AcDbPolyline
 90
        9
 70
     0
 43
0.0
 10
365.8263518223007
 20
-105.7532908298996
 10
365.6579798565995
 20
-105.6528206523995
 10
365.4999999999995
 20
-105.5311321407995
 10
365.3572123903009
 20
-105.3898887067995
 10
365.2339555568008
 20
-105.2313479283999
 10
365.1339745962009
 20
-105.0582929545994
 10
365.0603073791986
 20
-104.8739479410998
 10
365.0151922470009
 20
-104.6818800855995
 10
364.9999999999995
 20
-104.4858912404994
  0
LWPOLYLINE
  5
284
330
6F
100
AcDbEntity
  8
DETAIL
  6
Continuous
 62
     5
100
AcDbPolyline
 90
        9
 70
     0
 43
0.0
 10
362.1650635093988
 20
-175.5703441263996
 10
361.9833833506996
 20
-175.4385226586997
 10
361.7677669528998
 20
-175.3193257265999
 10
361.5219035724999
 20
-175.2147928226996
 10
361.2499999999995
 20
-175.1267125338996
 10
360.9567085809008
 20
-175.0565919384994
 10
360.6470476126992
 20
-175.0056308191993
 10
360.3263154805004
 20
-174.9747011348996
 10
359.9999999999996
 20
-174.9643321010995
  0
LWPOLYLINE
  5
28F
330
6F
100
AcDbEntity
  8
DETAIL
  6
Continuous
 62
     5
100
AcDbPolyline
 90
        5
 70
     0
 43
0.0
 10
353.6427599471986
 20
-46.54189645339977
 10
353.4945523459989
 20
-46.70175983520004
 10
353.3869934351001
 20
-46.86928599029998
 10
353.3217268977001
 20
-47.04227099309957
 10
353.3000000000007
 20
-47.21699716619979
  0
LINE
  5
296
330
6F
100
AcDbEntity
  8
DETAIL
  6
Continuous
 62
     5
100
AcDbLine
 10
556.8591869262993
 20
-20.55918969209972
 30
0.0
 11
551.5590649934996
 21
-25.85931162479994
 31
0.0
  0
LWPOLYLINE
  5
297
330
6F
100
AcDbEntity
  8
DETAIL
  6
Continuous
 62
     5
100
AcDbPolyline
 90
        4
 70
     0
 43
0.0
 10
357.794369062101
 20
-175.0861089851997
 10
357.6603746777996
 20
-175.2076439021998
 10
357.577861343399
 20
-175.3395169718998
 10
357.5500000000007
 20
-175.4766603859995
  0
LWPOLYLINE
  5
29D
330
6F
100
AcDbEntity
  8
DETAIL
  6
Continuous
 62
     5
100
AcDbPolyline
 90
        5
 70
     0
 43
0.0
 10
606.4999999999996
 20
-129.3439573788997
 10
607.2728904619992
 20
-128.8243623245994
 10
607.9776490776999
 20
-127.8957876069995
 10
608.4048089793007
 20
-126.6896141752
 10
608.5485281373999
 20
-125.1999999999995
  0
LWPOLYLINE
  5
2A4
330
6F
100
AcDbEntity
  8
DETAIL
  6
Continuous
 62
     5
100
AcDbPolyline
 90
        5
 70
     0
 43
0.0
 10
606.4999999999996
 20
-121.0560426210996
 10
607.2728904619992
 20
-121.5756376753994
 10
607.9776490776999
 20
-122.5042123929994
 10
608.4048089793007
 20
-123.7103858247998
 10
608.5485281373999
 20
-125.1999999999995
  0
LWPOLYLINE
  5
2AB
330
6F
100
AcDbEntity
  8
DETAIL
  6
Continuous
 62
     5
100
AcDbPolyline
 90
       30
 70
     0
 43
0.0
 10
372.9209470889996
 20
-27.83998285069959
 10
370.6889427248984
 20
-26.25875875869963
 10
368.3002541492983
 20
-24.68130461129988
 10
365.7312566245996
 20
-23.1279981428994
 10
362.9567003266998
 20
-21.62228729740002
 10
359.9520314095985
 20
-20.18977718799999
 10
356.6965933166007
 20
-18.8614875212994
 10
353.1671487461987
 20
-17.6629507468998
 10
349.3428258409999
 20
-16.6181470957996
 10
345.2206469263997
 20
-15.74553170799993
 10
340.849735822399
 20
-15.05851559730001
 10
336.3110347095002
 20
-14.55320115959978
 10
331.6782315378
 20
-14.20854493359968
 10
326.998560875099
 20
-13.99774296239968
 10
322.3004554515005
 20
-13.89849488089987
 10
317.5995445484
 20
-13.89849488089987
 10
312.9014391247997
 20
-13.99774296239968
 10
308.2217684621988
 20
-14.20854493359968
 10
303.5889652905003
 20
-14.55320115959978
 10
299.0502641774997
 20
-15.05851559730001
 10
294.6793530736009
 20
-15.74553170799993
 10
290.5571741588988
 20
-16.6181470957996
 10
286.7328512537
 20
-17.6629507468998
 10
283.2034066833998
 20
-18.8614875212994
 10
279.9479685903002
 20
-20.18977718799999
 10
276.943299673299
 20
-21.62228729740002
 10
274.1687433753009
 20
-23.1279981428994
 10
271.5997458506004
 20
-24.68130461129988
 10
269.2110572750002
 20
-26.25875875869963
 10
266.9790529108991
 20
-27.83998285069959
  0
LWPOLYLINE
  5
2CB
330
6F
100
AcDbEntity
  8
DETAIL
  6
Continuous
 62
     5
100
AcDbPolyline
 90
        9
 70
     0
 43
0.0
 10
362.1650635093988
 20
-76.66918159620003
 10
361.9833833506996
 20
-76.53736012839965
 10
361.7677669528998
 20
-76.41816319629981
 10
361.5219035724999
 20
-76.31363029240003
 10
361.2499999999995
 20
-76.22555000369958
 10
360.9567085809008
 20
-76.15542940819944
 10
360.6470476126992
 20
-76.10446828889974
 10
360.3263154805004
 20
-76.07353860459955
 10
359.9999999999996
 20
-76.06316957089949
  0
LWPOLYLINE
  5
2D6
330
6F
100
AcDbEntity
  8
DETAIL
  6
Continuous
 62
     5
100
AcDbPolyline
 90
       13
 70
     0
 43
0.0
 10
357.7494927173989
 20
-175.1268125031998
 10
357.794369062101
 20
-175.1675160211995
 10
357.9746951672001
 20
-175.2740422668999
 10
358.1944231620996
 20
-175.3614660973994
 10
358.4451090230009
 20
-175.4264278639998
 10
358.7171190329986
 20
-175.4664311222997
 10
358.9999999999995
 20
-175.4799385696998
 10
359.2828809668986
 20
-175.4664311222997
 10
359.5548909769
 20
-175.4264278639998
 10
359.8055768377995
 20
-175.3614660973994
 10
360.0253048327008
 20
-175.2740422668999
 10
360.2056309377999
 20
-175.1675160211995
 10
360.2505072824984
 20
-175.1268125031998
  0
LWPOLYLINE
  5
2E5
330
6F
100
AcDbEntity
  8
DETAIL
  6
Continuous
 62
     5
100
AcDbPolyline
 90
        3
 70
     0
 43
0.0
 10
360.3396253220994
 20
-175.2076439021998
 10
360.2056309377999
 20
-175.0861089851997
 10
360.0253048327008
 20
-174.9795827393997
  0
LWPOLYLINE
  5
2EA
330
6F
100
AcDbEntity
  8
DETAIL
  6
Continuous
 62
     5
100
AcDbPolyline
 90
       13
 70
     0
 43
0.0
 10
357.7494927173989
 20
-76.22564997289976
 10
357.794369062101
 20
-76.26635349089939
 10
357.9746951672001
 20
-76.37287973659987
 10
358.1944231620996
 20
-76.46030356719951
 10
358.4451090230009
 20
-76.52526533379989
 10
358.7171190329986
 20
-76.56526859209965
 10
358.9999999999995
 20
-76.5787760393997
 10
359.2828809668986
 20
-76.56526859209965
 10
359.5548909769
 20
-76.52526533379989
 10
359.8055768377995
 20
-76.46030356719951
 10
360.0253048327008
 20
-76.37287973659987
 10
360.2056309377999
 20
-76.26635349089939
 10
360.2505072824984
 20
-76.22564997289976
  0
LWPOLYLINE
  5
2F9
330
6F
100
AcDbEntity
  8
DETAIL
  6
Continuous
 62
     5
100
AcDbPolyline
 90
        3
 70
     0
 43
0.0
 10
360.3396253220994
 20
-76.30648137199989
 10
360.2056309377999
 20
-76.18494645489966
 10
360.0253048327008
 20
-76.07842020919964
  0
LWPOLYLINE
  5
2FE
330
6F
100
AcDbEntity
  8
DETAIL
  6
Continuous
 62
     5
100
AcDbPolyline
 90
        4
 70
     0
 43
0.0
 10
355.6903011687004
 20
-76.81137209769952
 10
355.5851854341995
 20
-76.9614987141
 10
355.5213878464997
 20
-77.11699273729994
 10
355.4999999999996
 20
-77.27519362149962
  0
LWPOLYLINE
  5
304
330
6F
100
AcDbEntity
  8
DETAIL
  6
Continuous
 62
     5
100
AcDbPolyline
 90
        4
 70
     0
 43
0.0
 10
355.6903011687004
 20
-175.7125346278995
 10
355.5851854341995
 20
-175.8626612443
 10
355.5213878464997
 20
-176.0181552675
 10
355.4999999999996
 20
-176.1763561516997
  0
LWPOLYLINE
  5
30A
330
6F
100
AcDbEntity
  8
DETAIL
  6
Continuous
 62
     5
100
AcDbPolyline
 90
        5
 70
     0
 43
0.0
 10
590.2017059220992
 20
-112.4982940777996
 10
589.4446509003987
 20
-113.3459165967994
 10
588.916136773501
 20
-114.1466171866997
 10
588.6036586077002
 20
-114.9168793468994
 10
588.4999999842997
 20
-115.6737204439997
  0
LINE
  5
311
330
6F
100
AcDbEntity
  8
DETAIL
  6
Continuous
 62
     5
100
AcDbLine
 10
588.4999999999998
 20
-114.1999999999995
 30
0.0
 11
590.2017059220992
 21
-112.4982940777996
 31
0.0
  0
LINE
  5
312
330
6F
100
AcDbEntity
  8
DETAIL
  6
Continuous
 62
     5
100
AcDbLine
 10
585.6850454237004
 20
-135.0149545761998
 30
0.0
 11
586.9999999999996
 21
-133.6999999999995
 31
0.0
  0
LINE
  5
313
330
6F
100
AcDbEntity
  8
DETAIL
  6
Continuous
 62
     5
100
AcDbLine
 10
604.7982940777996
 20
-137.9017059221997
 30
0.0
 11
606.4999999999996
 21
-136.1999999999994
 31
0.0
  0
LINE
  5
314
330
6F
100
AcDbEntity
  8
DETAIL
  6
Continuous
 62
     5
100
AcDbLine
 10
601.4999999999997
 20
-143.4499999999995
 30
0.0
 11
603.4999999999996
 21
-141.4499999999994
 31
0.0
  0
LINE
  5
315
330
6F
100
AcDbEntity
  8
DETAIL
  6
Continuous
 62
     5
100
AcDbLine
 10
595.2209438086006
 20
-171.4790561913997
 30
0.0
 11
596.9999999999997
 21
-169.6999999999994
 31
0.0
  0
LINE
  5
316
330
6F
100
AcDbEntity
  8
DETAIL
  6
Continuous
 62
     5
100
AcDbLine
 10
623.4999999999996
 20
-172.9499999999994
 30
0.0
 11
627.4999999999996
 21
-169.6999999999994
 31
0.0
  0
LINE
  5
317
330
6F
100
AcDbEntity
  8
DETAIL
  6
Continuous
 62
     5
100
AcDbLine
 10
623.4999999999996
 20
-143.4499999999995
 30
0.0
 11
627.4999999999996
 21
-146.6999999999995
 31
0.0
  0
LINE
  5
318
330
6F
100
AcDbEntity
  8
DETAIL
  6
Continuous
 62
     5
100
AcDbLine
 10
601.4999999999997
 20
-172.9499999999994
 30
0.0
 11
603.4999999999996
 21
-174.9499999999994
 31
0.0
  0
LINE
  5
319
330
6F
100
AcDbEntity
  8
DETAIL
  6
Continuous
 62
     5
100
AcDbLine
 10
595.2209438086006
 20
-144.9209438085996
 30
0.0
 11
596.9999999999997
 21
-146.6999999999995
 31
0.0
  0
LINE
  5
31A
330
6F
100
AcDbEntity
  8
DETAIL
  6
Continuous
 62
     5
100
AcDbLine
 10
588.4999999999998
 20
-136.1999999999994
 30
0.0
 11
590.2017059220992
 21
-137.9017059221997
 31
0.0
  0
LINE
  5
31B
330
6F
100
AcDbEntity
  8
DETAIL
  6
Continuous
 62
     5
100
AcDbLine
 10
585.6850454237004
 20
-115.3850454237996
 30
0.0
 11
586.9999999999996
 21
-116.6999999999994
 31
0.0
  0
LINE
  5
31C
330
6F
100
AcDbEntity
  8
DETAIL
  6
Continuous
 62
     5
100
AcDbLine
 10
621.4999999999996
 20
-141.4499999999994
 30
0.0
 11
623.4999999999996
 21
-143.4499999999995
 31
0.0
  0
LINE
  5
31D
330
6F
100
AcDbEntity
  8
DETAIL
  6
Continuous
 62
     5
100
AcDbLine
 10
604.7982940777996
 20
-112.4982940777996
 30
0.0
 11
606.4999999999996
 21
-114.1999999999995
 31
0.0
  0
LWPOLYLINE
  5
31E
330
6F
100
AcDbEntity
  8
DETAIL
  6
Continuous
 62
     5
100
AcDbPolyline
 90
        6
 70
     0
 43
0.0
 10
595.2209438086006
 20
-164.8395280956998
 10
595.8831797002999
 20
-165.5643858603994
 10
596.3793907371996
 20
-166.2449274380998
 10
596.7254353278997
 20
-166.8953327674995
 10
596.9314086932004
 20
-167.5303436515998
 10
596.9999999999997
 20
-168.1592921435
  0
LWPOLYLINE
  5
326
330
6F
100
AcDbEntity
  8
DETAIL
  6
Continuous
 62
     5
100
AcDbPolyline
 90
        5
 70
     0
 43
0.0
 10
355.0992600285986
 20
-44.08334191529968
 10
355.2178349557994
 20
-44.24839364939964
 10
355.3769287009995
 20
-44.38754017429949
 10
355.5656412725998
 20
-44.49124814229945
 10
355.7776887780997
 20
-44.55617622069951
  0
LWPOLYLINE
  5
32D
330
6F
100
AcDbEntity
  8
DETAIL
  6
Continuous
 62
     5
100
AcDbPolyline
 90
       11
 70
     0
 43
0.0
 10
355.6104990438994
 20
-175.8265082689
 10
355.6903011687004
 20
-175.9404819097996
 10
355.8349364904984
 20
-176.0826724113
 10
356.0166166491995
 20
-176.2144938790994
 10
356.2322330469993
 20
-176.3336908111997
 10
356.4780964274009
 20
-176.4382237151
 10
356.7499999999995
 20
-176.5263040038995
 10
357.0432914191
 20
-176.5964245992996
 10
357.3529523871997
 20
-176.6473857185998
 10
357.6736845194005
 20
-176.6783154028995
 10
357.9999999999996
 20
-176.6886844365996
  0
LWPOLYLINE
  5
33A
330
6F
100
AcDbEntity
  8
DETAIL
  6
Continuous
 62
     5
100
AcDbPolyline
 90
        3
 70
     0
 43
0.0
 10
362.4148145656996
 20
-175.8626612443
 10
362.3096988312004
 20
-175.7125346278995
 10
362.1650635093988
 20
-175.5703441263996
  0
LWPOLYLINE
  5
33F
330
6F
100
AcDbEntity
  8
DETAIL
  6
Continuous
 62
     5
100
AcDbPolyline
 90
       11
 70
     0
 43
0.0
 10
355.6104990438994
 20
-76.92534573859997
 10
355.6903011687004
 20
-77.03931937959954
 10
355.8349364904984
 20
-77.18150988109994
 10
356.0166166491995
 20
-77.31333134879981
 10
356.2322330469993
 20
-77.43252828089966
 10
356.4780964274009
 20
-77.53706118479986
 10
356.7499999999995
 20
-77.62514147359945
 10
357.0432914191
 20
-77.69526206899955
 10
357.3529523871997
 20
-77.74622318829971
 10
357.6736845194005
 20
-77.77715287259947
 10
357.9999999999996
 20
-77.78752190639955
  0
LWPOLYLINE
  5
34C
330
6F
100
AcDbEntity
  8
DETAIL
  6
Continuous
 62
     5
100
AcDbPolyline
 90
        3
 70
     0
 43
0.0
 10
362.4148145656996
 20
-76.9614987141
 10
362.3096988312004
 20
-76.81137209769952
 10
362.1650635093988
 20
-76.66918159620003
  0
LINE
  5
351
330
6F
100
AcDbEntity
  8
DETAIL
  6
Continuous
 62
     5
100
AcDbLine
 10
353.3000000000007
 20
-183.9637777777994
 30
0.0
 11
353.3000000000007
 21
-46.51730140050005
 31
0.0
  0
LINE
  5
352
330
6F
100
AcDbEntity
  8
DETAIL
  6
Continuous
 62
     5
100
AcDbLine
 10
354.9999999999995
 20
-44.08114134519985
 30
0.0
 11
354.9999999999995
 21
-45.20888912939938
 31
0.0
  0
LINE
  5
353
330
6F
100
AcDbEntity
  8
DETAIL
  6
Continuous
 62
     5
100
AcDbLine
 10
361.9999999999996
 20
-76.54941665189982
 30
0.0
 11
361.9999999999996
 21
-77.30127482539966
 31
0.0
  0
LINE
  5
354
330
6F
100
AcDbEntity
  8
DETAIL
  6
Continuous
 62
     5
100
AcDbLine
 10
361.9999999999996
 20
-175.4505791820999
 30
0.0
 11
361.9999999999996
 21
-176.2024373555997
 31
0.0
  0
LINE
  5
355
330
6F
100
AcDbEntity
  8
DETAIL
  6
Continuous
 62
     5
100
AcDbLine
 10
364.9999999999995
 20
-183.9999999999996
 30
0.0
 11
364.9999999999995
 21
-49.39364870219981
 31
0.0
  0
LINE
  5
356
330
6F
100
AcDbEntity
  8
DETAIL
  6
Continuous
 62
     5
100
AcDbLine
 10
365.8000000000007
 20
-49.92996652469957
 30
0.0
 11
365.8000000000007
 21
-104.4858912404994
 31
0.0
  0
LINE
  5
357
330
6F
100
AcDbEntity
  8
DETAIL
  6
Continuous
 62
     5
100
AcDbLine
 10
365.9999999999996
 20
-183.9999999999996
 30
0.0
 11
365.9999999999996
 21
-106.1294401102997
 31
0.0
  0
LINE
  5
358
330
6F
100
AcDbEntity
  8
DETAIL
  6
Continuous
 62
     5
100
AcDbLine
 10
365.9999999999996
 20
-106.1294401102997
 30
0.0
 11
365.9999999999996
 21
-105.8315239700997
 31
0.0
  0
LINE
  5
359
330
6F
100
AcDbEntity
  8
DETAIL
  6
Continuous
 62
     5
100
AcDbLine
 10
365.9999999999996
 20
-105.7151619314996
 30
0.0
 11
365.9999999999996
 21
-50.07000803239964
 31
0.0
  0
LWPOLYLINE
  5
35A
330
6F
100
AcDbEntity
  8
DETAIL
  6
Continuous
 62
     5
100
AcDbPolyline
 90
       10
 70
     0
 43
0.0
 10
353.3000000000007
 20
-46.51730140050005
 10
353.3217268977001
 20
-46.34257522739939
 10
353.3869934351001
 20
-46.1695902245998
 10
353.4945523459989
 20
-46.00206406949985
 10
353.6427599471986
 20
-45.84220068769957
 10
353.8308291804002
 20
-45.69124563370006
 10
354.0548158760989
 20
-45.55264619720003
 10
354.3101136866003
 20
-45.42886844599943
 10
354.5960422459007
 20
-45.32025078439949
 10
354.9074023664994
 20
-45.22906892739968
  0
LWPOLYLINE
  5
366
330
6F
100
AcDbEntity
  8
DETAIL
  6
Continuous
 62
     5
100
AcDbPolyline
 90
        5
 70
     0
 43
0.0
 10
590.2017059220992
 20
-131.5508529610994
 10
589.4446508759987
 20
-132.3984755113994
 10
588.9161367417996
 20
-133.1991761291998
 10
588.6036585841988
 20
-133.9694383164998
 10
588.4999999999998
 20
-134.7262794415998
  0
LWPOLYLINE
  5
36D
330
6F
100
AcDbEntity
  8
DETAIL
  6
Continuous
 62
     5
100
AcDbPolyline
 90
        4
 70
     0
 43
0.0
 10
603.4999999999996
 20
-141.4499999999994
 10
602.5947087036996
 20
-142.4503022140994
 10
601.9348696733008
 20
-143.3925951023999
 10
601.4999999999997
 20
-144.3014026045999
  0
LWPOLYLINE
  5
373
330
6F
100
AcDbEntity
  8
DETAIL
  6
Continuous
 62
     5
100
AcDbPolyline
 90
        4
 70
     0
 43
0.0
 10
603.4999999999996
 20
-166.5749999999994
 10
602.5947087036996
 20
-167.5753022140994
 10
601.9348696733008
 20
-168.5175951023999
 10
601.4999999999997
 20
-169.4264026045999
  0
LINE
  5
379
330
6F
100
AcDbEntity
  8
DETAIL
  6
Continuous
 62
     5
100
AcDbLine
 10
621.4999999999996
 20
-174.9499999999994
 30
0.0
 11
623.4999999999996
 21
-172.9499999999994
 31
0.0
  0
LWPOLYLINE
  5
37A
330
6F
100
AcDbEntity
  8
DETAIL
  6
Continuous
 62
     5
100
AcDbPolyline
 90
        6
 70
     0
 43
0.0
 10
595.2209438086006
 20
-144.9209438085996
 10
595.8803832811987
 20
-145.6424042690997
 10
596.3766404608991
 20
-146.3219943217997
 10
596.7241646533997
 20
-146.9737924971997
 10
596.9311087916008
 20
-147.6103817918998
 10
596.9999999999997
 20
-148.2407078564998
  0
LWPOLYLINE
  5
382
330
6F
100
AcDbEntity
  8
DETAIL
  6
Continuous
 62
     5
100
AcDbPolyline
 90
        4
 70
     0
 43
0.0
 10
621.4999999999996
 20
-166.5749999999994
 10
622.4052912961992
 20
-167.5753022140994
 10
623.0651303266
 20
-168.5175951023999
 10
623.4999999999996
 20
-169.4264026045999
  0
LWPOLYLINE
  5
388
330
6F
100
AcDbEntity
  8
DETAIL
  6
Continuous
 62
     5
100
AcDbPolyline
 90
        4
 70
     0
 43
0.0
 10
621.4999999999996
 20
-141.4499999999994
 10
622.4052912961992
 20
-142.4503022140994
 10
623.0651303266
 20
-143.3925951023999
 10
623.4999999999996
 20
-144.3014026045999
  0
LWPOLYLINE
  5
38E
330
6F
100
AcDbEntity
  8
DETAIL
  6
Continuous
 62
     5
100
AcDbPolyline
 90
        5
 70
     0
 43
0.0
 10
604.7982940777996
 20
-131.5508529610994
 10
605.5553491238984
 20
-132.3984755113994
 10
606.0838632581995
 20
-133.1991761291998
 10
606.3963414156984
 20
-133.9694383164998
 10
606.4999999999996
 20
-134.7262794415998
  0
LWPOLYLINE
  5
395
330
6F
100
AcDbEntity
  8
DETAIL
  6
Continuous
 62
     5
100
AcDbPolyline
 90
        5
 70
     0
 43
0.0
 10
604.7982940777996
 20
-112.4982940777996
 10
605.5553491238984
 20
-113.3459166280996
 10
606.0838632581995
 20
-114.1466172459996
 10
606.3963414156984
 20
-114.9168794331996
 10
606.4999999999996
 20
-115.6737205584001
  0
LWPOLYLINE
  5
39C
330
6F
100
AcDbEntity
  8
DETAIL
  6
Continuous
 62
     5
100
AcDbPolyline
 90
        5
 70
     0
 43
0.0
 10
585.6850454237004
 20
-130.1074772880998
 10
586.2730518713992
 20
-130.7663223583
 10
586.6802707945001
 20
-131.3846081748994
 10
586.9203542014997
 20
-131.9780517126997
 10
586.9999999999996
 20
-132.5612159321996
  0
LWPOLYLINE
  5
3A3
330
6F
100
AcDbEntity
  8
DETAIL
  6
Continuous
 62
     5
100
AcDbPolyline
 90
        4
 70
     0
 43
0.0
 10
585.6850454237004
 20
-115.3850454237996
 10
586.272114880901
 20
-116.0426866475997
 10
586.6795120180007
 20
-116.6607551802996
 10
586.9201447544996
 20
-117.2548499891997
  0
LWPOLYLINE
  5
3A9
330
6F
100
AcDbEntity
  8
DETAIL
  6
Continuous
 62
     5
100
AcDbPolyline
 90
        9
 70
     0
 43
0.0
 10
353.2471851074001
 20
-43.0336240158
 10
353.3166321324984
 20
-43.16108237279979
 10
353.4880830511006
 20
-43.3903804906
 10
353.6902530696985
 20
-43.59261843029947
 10
353.9188647003007
 20
-43.76374244589952
 10
354.1702728620998
 20
-43.9009086041998
 10
354.4378855554001
 20
-44.00052336849977
 10
354.7162712634996
 20
-44.06091355539967
 10
354.9999999999995
 20
-44.08114134519985
  0
LWPOLYLINE
  5
3B4
330
6F
100
AcDbEntity
  8
DETAIL
  6
Continuous
 62
     5
100
AcDbPolyline
 90
       10
 70
     0
 43
0.0
 10
365.9999999999996
 20
-105.2370081096998
 10
365.9652703644
 20
-105.1678070013
 10
365.9315959713
 20
-105.0941584854996
 10
365.8999999999992
 20
-105.0162663027996
 10
365.8714424779986
 20
-104.9344631355994
 10
365.8467911112998
 20
-104.8492004994997
 10
365.8267949191991
 20
-104.7610350244
 10
365.8120614757986
 20
-104.6706115413996
 10
365.8030384493991
 20
-104.5786434898997
 10
365.8000000000007
 20
-104.4858912404994
  0
LWPOLYLINE
  5
3C0
330
6F
100
AcDbEntity
  8
DETAIL
  6
Continuous
 62
     5
100
AcDbPolyline
 90
       17
 70
     0
 43
0.0
 10
357.5500000000007
 20
-175.4766603859995
 10
357.577861343399
 20
-175.6138038001996
 10
357.6603746777996
 20
-175.7456768697999
 10
357.794369062101
 20
-175.8672117868997
 10
357.9746951672001
 20
-175.9737380325996
 10
358.1944231620996
 20
-176.0611618631998
 10
358.4451090230009
 20
-176.1261236296996
 10
358.7171190329986
 20
-176.1661268880995
 10
358.9999999999995
 20
-176.1796343353995
 10
359.2828809668986
 20
-176.1661268880995
 10
359.5548909769
 20
-176.1261236296996
 10
359.8055768377995
 20
-176.0611618631998
 10
360.0253048327008
 20
-175.9737380325996
 10
360.2056309377999
 20
-175.8672117868997
 10
360.3396253220994
 20
-175.7456768697999
 10
360.4221386565
 20
-175.6138038001996
 10
360.4499999999985
 20
-175.4766603859995
  0
LWPOLYLINE
  5
3D3
330
6F
100
AcDbEntity
  8
DETAIL
  6
Continuous
 62
     5
100
AcDbPolyline
 90
        3
 70
     0
 43
0.0
 10
360.4499999999985
 20
-175.4766603859995
 10
360.4221386565
 20
-175.3395169718998
 10
360.3396253220994
 20
-175.2076439021998
  0
LWPOLYLINE
  5
3D8
330
6F
100
AcDbEntity
  8
DETAIL
  6
Continuous
 62
     5
100
AcDbPolyline
 90
       17
 70
     0
 43
0.0
 10
357.5500000000007
 20
-76.57549785579941
 10
357.577861343399
 20
-76.71264126989955
 10
357.6603746777996
 20
-76.84451433959988
 10
357.794369062101
 20
-76.9660492565996
 10
357.9746951672001
 20
-77.07257550239965
 10
358.1944231620996
 20
-77.1599993328997
 10
358.4451090230009
 20
-77.22496109949962
 10
358.7171190329986
 20
-77.26496435779937
 10
358.9999999999995
 20
-77.27847180509944
 10
359.2828809668986
 20
-77.26496435779937
 10
359.5548909769
 20
-77.22496109949962
 10
359.8055768377995
 20
-77.1599993328997
 10
360.0253048327008
 20
-77.07257550239965
 10
360.2056309377999
 20
-76.9660492565996
 10
360.3396253220994
 20
-76.84451433959988
 10
360.4221386565
 20
-76.71264126989955
 10
360.4499999999985
 20
-76.57549785579941
  0
LWPOLYLINE
  5
3EB
330
6F
100
AcDbEntity
  8
DETAIL
  6
Continuous
 62
     5
100
AcDbPolyline
 90
        3
 70
     0
 43
0.0
 10
360.4499999999985
 20
-76.57549785579941
 10
360.4221386565
 20
-76.4383544415997
 10
360.3396253220994
 20
-76.30648137199989
  0
LWPOLYLINE
  5
3F0
330
6F
100
AcDbEntity
  8
DETAIL
  6
Continuous
 62
     5
100
AcDbPolyline
 90
       13
 70
     0
 43
0.0
 10
355.4999999999996
 20
-176.1763561516997
 10
355.5213878464997
 20
-176.3345570358998
 10
355.5851854341995
 20
-176.4900510591998
 10
355.6903011687004
 20
-176.6401776754998
 10
355.8349364904984
 20
-176.7823681769997
 10
356.0166166491995
 20
-176.9141896447995
 10
356.2322330469993
 20
-177.0333865768994
 10
356.4780964274009
 20
-177.1379194807996
 10
356.7499999999995
 20
-177.2259997695997
 10
357.0432914191
 20
-177.2961203649998
 10
357.3529523871997
 20
-177.3470814843
 10
357.6736845194005
 20
-177.3780111685997
 10
357.9999999999996
 20
-177.3883802023998
  0
LWPOLYLINE
  5
3FF
330
6F
100
AcDbEntity
  8
DETAIL
  6
Continuous
 62
     5
100
AcDbPolyline
 90
        3
 70
     0
 43
0.0
 10
362.4999999999996
 20
-176.1763561516997
 10
362.4786121533994
 20
-176.0181552675
 10
362.4148145656996
 20
-175.8626612443
  0
LWPOLYLINE
  5
404
330
6F
100
AcDbEntity
  8
DETAIL
  6
Continuous
 62
     5
100
AcDbPolyline
 90
       13
 70
     0
 43
0.0
 10
355.4999999999996
 20
-77.27519362149962
 10
355.5213878464997
 20
-77.43339450569976
 10
355.5851854341995
 20
-77.5888885288997
 10
355.6903011687004
 20
-77.73901514529973
 10
355.8349364904984
 20
-77.88120564679968
 10
356.0166166491995
 20
-78.01302711449955
 10
356.2322330469993
 20
-78.13222404659939
 10
356.4780964274009
 20
-78.23675695059967
 10
356.7499999999995
 20
-78.32483723929965
 10
357.0432914191
 20
-78.39495783479981
 10
357.3529523871997
 20
-78.44591895409997
 10
357.6736845194005
 20
-78.47684863829965
 10
357.9999999999996
 20
-78.48721767209973
  0
LWPOLYLINE
  5
413
330
6F
100
AcDbEntity
  8
DETAIL
  6
Continuous
 62
     5
100
AcDbPolyline
 90
        3
 70
     0
 43
0.0
 10
362.4999999999996
 20
-77.27519362149962
 10
362.4786121533994
 20
-77.11699273729994
 10
362.4148145656996
 20
-76.9614987141
  0
LWPOLYLINE
  5
418
330
6F
100
AcDbEntity
  8
DETAIL
  6
Continuous
 62
     5
100
AcDbPolyline
 90
        4
 70
     0
 43
0.0
 10
544.1551227108004
 20
-25.76683961859965
 10
544.3161247619005
 20
-25.32651488079967
 10
544.4695318255992
 20
-24.9099285556
 10
544.6170926936988
 20
-24.51296443499963
  0
LWPOLYLINE
  5
41E
330
6F
100
AcDbEntity
  8
DETAIL
  6
Continuous
 62
     5
100
AcDbPolyline
 90
        4
 70
     0
 43
0.0
 10
543.3825059952992
 20
-27.87394166299975
 10
543.6005807800007
 20
-27.28582626049968
 10
543.8005033145996
 20
-26.74034285009986
 10
544.1551227108004
 20
-25.76683961859965
  0
LWPOLYLINE
  5
424
330
6F
100
AcDbEntity
  8
DETAIL
  6
Continuous
 62
     5
100
AcDbPolyline
 90
        3
 70
     0
 43
0.0
 10
543.2414164486995
 20
-28.2514951610998
 10
543.3111751370991
 20
-28.06402079559996
 10
543.3825059952992
 20
-27.87394166299975
  0
LINE
  5
429
330
6F
100
AcDbEntity
  8
DETAIL
  6
Continuous
 62
     5
100
AcDbLine
 10
544.6170926936988
 20
-24.51296443499963
 30
0.0
 11
546.0643544466996
 21
-20.63947141589972
 31
0.0
  0
LWPOLYLINE
  5
42A
330
6F
100
AcDbEntity
  8
DETAIL
  6
Continuous
 62
     5
100
AcDbPolyline
 90
        4
 70
     0
 43
0.0
 10
586.9202311842996
 20
-133.1448324435997
 10
586.6799781866005
 20
-133.7383719102996
 10
586.2728678484995
 20
-134.3563459929997
 10
585.6850454237004
 20
-135.0149545761998
  0
LWPOLYLINE
  5
430
330
6F
100
AcDbEntity
  8
DETAIL
  6
Continuous
 62
     5
100
AcDbPolyline
 90
        5
 70
     0
 43
0.0
 10
590.2017059220992
 20
-118.8491470388995
 10
589.4446508954984
 20
-120.5443920894996
 10
588.9161367670998
 20
-122.1457932804998
 10
588.603658603
 20
-123.6863176118996
 10
588.4999999874993
 20
-125.1999998174998
  0
LWPOLYLINE
  5
437
330
6F
100
AcDbEntity
  8
DETAIL
  6
Continuous
 62
     5
100
AcDbPolyline
 90
        4
 70
     0
 43
0.0
 10
603.4999999999996
 20
-149.8249999999995
 10
602.5947087036996
 20
-151.8256044281994
 10
601.9348696733008
 20
-153.7101902047994
 10
601.4999999999997
 20
-155.5278052091995
  0
LWPOLYLINE
  5
43D
330
6F
100
AcDbEntity
  8
DETAIL
  6
Continuous
 62
     5
100
AcDbPolyline
 90
        4
 70
     0
 43
0.0
 10
623.4999999999996
 20
-146.9735973953999
 10
623.0621361628996
 20
-147.8874629404996
 10
622.4016468702988
 20
-148.8292245307999
 10
621.4999999999996
 20
-149.8249999999995
  0
LWPOLYLINE
  5
443
330
6F
100
AcDbEntity
  8
DETAIL
  6
Continuous
 62
     5
100
AcDbPolyline
 90
        4
 70
     0
 43
0.0
 10
623.4999999999996
 20
-172.0985973953999
 10
623.0621361628996
 20
-173.0124629404996
 10
622.4016468702988
 20
-173.9542245307999
 10
621.4999999999996
 20
-174.9499999999994
  0
LWPOLYLINE
  5
449
330
6F
100
AcDbEntity
  8
DETAIL
  6
Continuous
 62
     5
100
AcDbPolyline
 90
        4
 70
     0
 43
0.0
 10
601.4999999999997
 20
-172.0985973953999
 10
601.9378638370993
 20
-173.0124629404996
 10
602.5983531295984
 20
-173.9542245307999
 10
603.4999999999996
 20
-174.9499999999994
  0
LWPOLYLINE
  5
44F
330
6F
100
AcDbEntity
  8
DETAIL
  6
Continuous
 62
     5
100
AcDbPolyline
 90
        4
 70
     0
 43
0.0
 10
601.4999999999997
 20
-146.9735973953999
 10
601.9378638370993
 20
-147.8874629404996
 10
602.5983531295984
 20
-148.8292245307999
 10
603.4999999999996
 20
-149.8249999999995
  0
LWPOLYLINE
  5
455
330
6F
100
AcDbEntity
  8
DETAIL
  6
Continuous
 62
     5
100
AcDbPolyline
 90
        4
 70
     0
 43
0.0
 10
621.4999999999996
 20
-149.8249999999995
 10
622.4052912961992
 20
-151.8256044281994
 10
623.0651303266
 20
-153.7101902047994
 10
623.4999999999996
 20
-155.5278052091995
  0
LWPOLYLINE
  5
45B
330
6F
100
AcDbEntity
  8
DETAIL
  6
Continuous
 62
     5
100
AcDbPolyline
 90
        5
 70
     0
 43
0.0
 10
604.7982940777996
 20
-118.8491470388995
 10
605.5553491238984
 20
-120.5443921393995
 10
606.0838632581995
 20
-122.1457933751995
 10
606.3963414156984
 20
-123.6863177496994
 10
606.4999999999996
 20
-125.1999999999995
  0
LWPOLYLINE
  5
462
330
6F
100
AcDbEntity
  8
DETAIL
  6
Continuous
 62
     5
100
AcDbPolyline
 90
        5
 70
     0
 43
0.0
 10
585.6850454237004
 20
-120.2925227119
 10
586.2729106833008
 20
-121.6098499671995
 10
586.6803581651996
 20
-122.8471119674997
 10
586.9203056596992
 20
-124.0333145355995
 10
586.9999999999996
 20
-125.1999999999995
  0
LWPOLYLINE
  5
469
330
6F
100
AcDbEntity
  8
DETAIL
  6
Continuous
 62
     5
100
AcDbPolyline
 90
        5
 70
     0
 43
0.0
 10
595.2209438086006
 20
-151.5604719043
 10
596.0206365105998
 20
-153.3539177577
 10
596.5694171669997
 20
-155.0237117993998
 10
596.8926479125997
 20
-156.6250008001994
 10
596.9999999999997
 20
-158.1999999999994
  0
LWPOLYLINE
  5
470
330
6F
100
AcDbEntity
  8
DETAIL
  6
Continuous
 62
     5
100
AcDbPolyline
 90
        3
 70
     0
 43
0.0
 10
543.3825004410988
 20
-209.1260354268994
 10
543.3110895994007
 20
-208.9359649948998
 10
543.2415673090995
 20
-208.7484479296996
  0
LINE
  5
475
330
6F
100
AcDbEntity
  8
DETAIL
  6
Continuous
 62
     5
100
AcDbLine
 10
546.0643544466996
 20
-216.3605285841001
 30
0.0
 11
544.6170927471008
 21
-212.4870354740998
 31
0.0
  0
LWPOLYLINE
  5
476
330
6F
100
AcDbEntity
  8
DETAIL
  6
Continuous
 62
     5
100
AcDbPolyline
 90
        4
 70
     0
 43
0.0
 10
544.6170927471008
 20
-212.4870354740998
 10
544.4900707343999
 20
-212.1455656805998
 10
544.3571897919005
 20
-211.7853291872994
 10
544.2183778577996
 20
-211.4064539915995
  0
LWPOLYLINE
  5
47C
330
6F
100
AcDbEntity
  8
DETAIL
  6
Continuous
 62
     5
100
AcDbPolyline
 90
        3
 70
     0
 43
0.0
 10
543.7572277062002
 20
-210.1412624050996
 10
543.5798885651998
 20
-209.6578460695997
 10
543.3825004410988
 20
-209.1260354268994
  0
LINE
  5
481
330
6F
100
AcDbEntity
  8
DETAIL
  6
Continuous
 62
     5
100
AcDbLine
 10
544.2183778577996
 20
-211.4064539915995
 30
0.0
 11
543.7572277062002
 21
-210.1412624050996
 31
0.0
  0
LWPOLYLINE
  5
482
330
6F
100
AcDbEntity
  8
DETAIL
  6
Continuous
 62
     5
100
AcDbPolyline
 90
       23
 70
     0
 43
0.0
 10
543.2415673090995
 20
-208.7484479296996
 10
543.0800588866999
 20
-208.2965364987
 10
542.9255100083986
 20
-207.8308561669997
 10
542.7775931603004
 20
-207.3497136079997
 10
542.6364262986003
 20
-206.8514351849996
 10
542.5021079359988
 20
-206.3343907997997
 10
542.3748919315999
 20
-205.7969594760995
 10
542.2551699275005
 20
-205.2378344465998
 10
542.1435226629995
 20
-204.6564434698999
 10
542.0403230051991
 20
-204.0510916716999
 10
541.9452872853994
 20
-203.4149727685996
 10
541.8582588198001
 20
-202.7385877411995
 10
541.7797798958995
 20
-202.0133591877999
 10
541.7113294495004
 20
-201.2369159568994
 10
541.6547318489006
 20
-200.4151310883996
 10
541.6110354145996
 20
-199.5554492544993
 10
541.5806703032008
 20
-198.6775269931
 10
541.5626806452997
 20
-197.8101443153997
 10
541.5546340181983
 20
-196.9761661213994
 10
541.5536041903009
 20
-196.1807539305997
 10
541.5570406253005
 20
-195.4259780642998
 10
541.5628921276996
 20
-194.7098613236
 10
541.5761168369003
 20
-193.3627583354996
  0
LWPOLYLINE
  5
49B
330
6F
100
AcDbEntity
  8
DETAIL
  6
Continuous
 62
     5
100
AcDbPolyline
 90
        5
 70
     0
 43
0.0
 10
588.4999999874993
 20
-125.1999998174998
 10
588.6036162899994
 20
-126.7133719690997
 10
588.9157918340982
 20
-128.2529171624998
 10
589.4440215353001
 20
-129.8539929561999
 10
590.2017059220992
 20
-131.5508529610994
  0
LWPOLYLINE
  5
4A2
330
6F
100
AcDbEntity
  8
DETAIL
  6
Continuous
 62
     5
100
AcDbPolyline
 90
       18
 70
     0
 43
0.0
 10
539.2151419826998
 20
-28.23969730649981
 10
539.1722258223992
 20
-27.31733258349971
 10
539.0444052346006
 20
-26.40283410769973
 10
538.8327703464997
 20
-25.5040010049994
 10
538.5391260201007
 20
-24.62849886349943
 10
538.1659765667002
 20
-23.78379425209971
 10
537.7165043278997
 20
-22.97709110439939
 10
537.194542557399
 20
-22.21526925939963
 10
536.6045427228995
 20
-21.50482579429956
 10
535.9515365441998
 20
-20.85181961379988
 10
535.2410930806996
 20
-20.26181977779982
 10
534.4792712365991
 20
-19.73985800629964
 10
533.6725680894992
 20
-19.29038576699952
 10
532.8278634779993
 20
-18.91723631370006
 10
531.9523613367997
 20
-18.62359198699971
 10
531.0535282317008
 20
-18.41195710129942
 10
530.1390297588
 20
-18.28413651069979
 10
529.2166650310988
 20
-18.24122035499988
  0
LWPOLYLINE
  5
4B6
330
6F
100
AcDbEntity
  8
DETAIL
  6
Continuous
 62
     5
100
AcDbPolyline
 90
       23
 70
     0
 43
0.0
 10
541.5677553678992
 20
-43.70210608119998
 10
541.5491518973007
 20
-42.32571252209947
 10
541.5408476265996
 20
-41.59135575229959
 10
541.5353249368995
 20
-40.82344061849982
 10
541.5346824286983
 20
-40.02084550239999
 10
541.5414744208986
 20
-39.18325479169983
 10
541.558649018099
 20
-38.31402272919979
 10
541.5885752459993
 20
-37.43740050910003
 10
541.6318959354007
 20
-36.58480415209999
 10
541.6878281523
 20
-35.77548695889948
 10
541.7554475409992
 20
-35.01152051909969
 10
541.8334943430996
 20
-34.29332321349978
 10
541.9207441047996
 20
-33.61868661599976
 10
542.0162946639988
 20
-32.98310608679969
 10
542.1195001996998
 20
-32.38179549749987
 10
542.2299825257992
 20
-31.81000570939943
 10
542.3476443328994
 20
-31.26310813939984
 10
542.4727069531996
 20
-30.7364982020996
 10
542.6057452309009
 20
-30.22558198159969
 10
542.7476691112984
 20
-29.72586813329974
 10
542.8997748617996
 20
-29.23306735589961
 10
543.0636094562991
 20
-28.74302570149997
 10
543.2414164486995
 20
-28.2514951610998
  0
LWPOLYLINE
  5
4CF
330
6F
100
AcDbEntity
  8
DETAIL
  6
Continuous
 62
     5
100
AcDbPolyline
 90
        4
 70
     0
 43
0.0
 10
541.5848938449994
 20
-45.56920795589997
 10
541.5816461066984
 20
-44.97011059239969
 10
541.5756986311001
 20
-44.34854565529952
 10
541.5677553678992
 20
-43.70210608119998
  0
LINE
  5
4D5
330
6F
100
AcDbEntity
  8
DETAIL
  6
Continuous
 62
     5
100
AcDbLine
 10
529.0166650310998
 20
-224.1245319446995
 30
0.0
 11
529.0166650310998
 21
-12.4408323230997
 31
0.0
  0
LINE
  5
4D6
330
6F
100
AcDbEntity
  8
DETAIL
  6
Continuous
 62
     5
100
AcDbLine
 10
539.2151419826998
 20
-208.7603026935
 30
0.0
 11
539.2151419826998
 21
-28.23969730649981
 31
0.0
  0
LINE
  5
4D7
330
6F
100
AcDbEntity
  8
DETAIL
  6
Continuous
 62
     5
100
AcDbLine
 10
541.5850389175989
 20
-47.66694149130001
 30
0.0
 11
541.5848938449994
 21
-45.56920795589997
 31
0.0
  0
LINE
  5
4D8
330
6F
100
AcDbEntity
  8
DETAIL
  6
Continuous
 62
     5
100
AcDbLine
 10
548.9999999999996
 20
-239.9999999999997
 30
0.0
 11
548.9999999999996
 21
-231.1781838678995
 31
0.0
  0
LINE
  5
4D9
330
6F
100
AcDbEntity
  8
DETAIL
  6
Continuous
 62
     5
100
AcDbLine
 10
549.3999999999991
 20
-240.0285398162997
 30
0.0
 11
549.3999999999991
 21
-239.9999999999997
 31
0.0
  0
LINE
  5
4DA
330
6F
100
AcDbEntity
  8
DETAIL
  6
Continuous
 62
     5
100
AcDbLine
 10
549.4999999999996
 20
-7.999999999999656
 30
0.0
 11
549.4999999999996
 21
-228.9999999999996
 31
0.0
  0
LINE
  5
4DB
330
6F
100
AcDbEntity
  8
DETAIL
  6
Continuous
 62
     5
100
AcDbLine
 10
549.9999999999996
 20
0.0000000000003411
 30
0.0
 11
549.9999999999996
 21
-26.39999999999976
 31
0.0
  0
LINE
  5
4DC
330
6F
100
AcDbEntity
  8
DETAIL
  6
Continuous
 62
     5
100
AcDbLine
 10
549.9999999999996
 20
-26.99999999999965
 30
0.0
 11
549.9999999999996
 21
-206.9999999999997
 31
0.0
  0
LINE
  5
4DD
330
6F
100
AcDbEntity
  8
DETAIL
  6
Continuous
 62
     5
100
AcDbLine
 10
549.9999999999996
 20
-239.9999999999997
 30
0.0
 11
549.9999999999996
 21
-251.9999999999996
 31
0.0
  0
LINE
  5
4DE
330
6F
100
AcDbEntity
  8
DETAIL
  6
Continuous
 62
     5
100
AcDbLine
 10
550.0500000000006
 20
-240.0285398163997
 30
0.0
 11
550.0500000000006
 21
-249.9499999999995
 31
0.0
  0
LINE
  5
4DF
330
6F
100
AcDbEntity
  8
DETAIL
  6
Continuous
 62
     5
100
AcDbLine
 10
550.8000000000006
 20
-92.99999999999966
 30
0.0
 11
550.8000000000006
 21
-77.99999999999966
 31
0.0
  0
LINE
  5
4E0
330
6F
100
AcDbEntity
  8
DETAIL
  6
Continuous
 62
     5
100
AcDbLine
 10
551.4999999999997
 20
-77.99999999999966
 30
0.0
 11
551.4999999999997
 21
-20.69999999999948
 31
0.0
  0
LINE
  5
4E1
330
6F
100
AcDbEntity
  8
DETAIL
  6
Continuous
 62
     5
100
AcDbLine
 10
552.0500000000006
 20
-240.0285398163997
 30
0.0
 11
552.0500000000006
 21
-249.9499999999995
 31
0.0
  0
LINE
  5
4E2
330
6F
100
AcDbEntity
  8
DETAIL
  6
Continuous
 62
     5
100
AcDbLine
 10
552.5999999999998
 20
-92.99999999999966
 30
0.0
 11
552.5999999999998
 21
-71.49999999999966
 31
0.0
  0
LINE
  5
4E3
330
6F
100
AcDbEntity
  8
DETAIL
  6
Continuous
 62
     5
100
AcDbLine
 10
552.9999999999996
 20
-16.49999999999966
 30
0.0
 11
552.9999999999996
 21
-17.99999999999966
 31
0.0
  0
LINE
  5
4E4
330
6F
100
AcDbEntity
  8
DETAIL
  6
Continuous
 62
     5
100
AcDbLine
 10
552.9999999999996
 20
-24.41837661839975
 30
0.0
 11
552.9999999999996
 21
-71.49999999999966
 31
0.0
  0
LINE
  5
4E5
330
6F
100
AcDbEntity
  8
DETAIL
  6
Continuous
 62
     5
100
AcDbLine
 10
553.9999999999996
 20
-240.0285398162997
 30
0.0
 11
553.9999999999996
 21
-92.99999999999966
 31
0.0
  0
LINE
  5
4E6
330
6F
100
AcDbEntity
  8
DETAIL
  6
Continuous
 62
     5
100
AcDbLine
 10
572.9999999999996
 20
-108.7007413820998
 30
0.0
 11
572.9999999999996
 21
-141.6992586179
 31
0.0
  0
LINE
  5
4E7
330
6F
100
AcDbEntity
  8
DETAIL
  6
Continuous
 62
     5
100
AcDbLine
 10
579.9999999999996
 20
-139.1999999999995
 30
0.0
 11
579.9999999999996
 21
-177.1999999999995
 31
0.0
  0
LINE
  5
4E8
330
6F
100
AcDbEntity
  8
DETAIL
  6
Continuous
 62
     5
100
AcDbLine
 10
582.9999999999996
 20
-27.74999999999967
 30
0.0
 11
582.9999999999996
 21
-60.24999999999966
 31
0.0
  0
LINE
  5
4E9
330
6F
100
AcDbEntity
  8
DETAIL
  6
Continuous
 62
     5
100
AcDbLine
 10
586.9999999999996
 20
-133.6996305150998
 30
0.0
 11
586.9999999999996
 21
-116.7003694849996
 31
0.0
  0
LINE
  5
4EA
330
6F
100
AcDbEntity
  8
DETAIL
  6
Continuous
 62
     5
100
AcDbLine
 10
588.4999999999998
 20
-136.1995072181995
 30
0.0
 11
588.4999999999998
 21
-114.2004927817994
 31
0.0
  0
LINE
  5
4EB
330
6F
100
AcDbEntity
  8
DETAIL
  6
Continuous
 62
     5
100
AcDbLine
 10
589.9999999999996
 20
-200.2999999999998
 30
0.0
 11
589.9999999999996
 21
-240.2999999999998
 31
0.0
  0
LINE
  5
4EC
330
6F
100
AcDbEntity
  8
DETAIL
  6
Continuous
 62
     5
100
AcDbLine
 10
596.9999999999997
 20
-169.6999999999994
 30
0.0
 11
596.9999999999997
 21
-146.6999999999995
 31
0.0
  0
LINE
  5
4ED
330
6F
100
AcDbEntity
  8
DETAIL
  6
Continuous
 62
     5
100
AcDbLine
 10
597.4999999999996
 20
-29.99999999999966
 30
0.0
 11
597.4999999999996
 21
-20.69999999999948
 31
0.0
  0
LINE
  5
4EE
330
6F
100
AcDbEntity
  8
DETAIL
  6
Continuous
 62
     5
100
AcDbLine
 10
599.9999999999996
 20
-20.69999999999948
 30
0.0
 11
599.9999999999996
 21
-29.99999999999966
 31
0.0
  0
LINE
  5
4EF
330
6F
100
AcDbEntity
  8
DETAIL
  6
Continuous
 62
     5
100
AcDbLine
 10
601.4999999999997
 20
-172.9499999999994
 30
0.0
 11
601.4999999999997
 21
-143.4499999999995
 31
0.0
  0
LINE
  5
4F0
330
6F
100
AcDbEntity
  8
DETAIL
  6
Continuous
 62
     5
100
AcDbLine
 10
606.4999999999996
 20
-114.2004927817994
 30
0.0
 11
606.4999999999996
 21
-136.1995072181995
 31
0.0
  0
LINE
  5
4F1
330
6F
100
AcDbEntity
  8
DETAIL
  6
Continuous
 62
     5
100
AcDbLine
 10
607.4999999999996
 20
-27.99999999999966
 30
0.0
 11
607.4999999999996
 21
-59.99999999999966
 31
0.0
  0
LINE
  5
4F2
330
6F
100
AcDbEntity
  8
DETAIL
  6
Continuous
 62
     5
100
AcDbLine
 10
607.9999999999996
 20
-28.49999999999966
 30
0.0
 11
607.9999999999996
 21
-59.49999999999966
 31
0.0
  0
LINE
  5
4F3
330
6F
100
AcDbEntity
  8
DETAIL
  6
Continuous
 62
     5
100
AcDbLine
 10
623.4999999999996
 20
-143.4499999999995
 30
0.0
 11
623.4999999999996
 21
-144.3014026045999
 31
0.0
  0
LINE
  5
4F4
330
6F
100
AcDbEntity
  8
DETAIL
  6
Continuous
 62
     5
100
AcDbLine
 10
623.4999999999996
 20
-146.9735973953999
 30
0.0
 11
623.4999999999996
 21
-155.5278052091995
 31
0.0
  0
LINE
  5
4F5
330
6F
100
AcDbEntity
  8
DETAIL
  6
Continuous
 62
     5
100
AcDbLine
 10
623.4999999999996
 20
-160.8721947907994
 30
0.0
 11
623.4999999999996
 21
-169.4264026045999
 31
0.0
  0
LINE
  5
4F6
330
6F
100
AcDbEntity
  8
DETAIL
  6
Continuous
 62
     5
100
AcDbLine
 10
623.4999999999996
 20
-172.0985973953999
 30
0.0
 11
623.4999999999996
 21
-172.9499999999994
 31
0.0
  0
LINE
  5
4F7
330
6F
100
AcDbEntity
  8
DETAIL
  6
Continuous
 62
     5
100
AcDbLine
 10
627.4999999999996
 20
-146.6999999999995
 30
0.0
 11
627.4999999999996
 21
-169.6999999999994
 31
0.0
  0
LWPOLYLINE
  5
4F8
330
6F
100
AcDbEntity
  8
DETAIL
  6
Continuous
 62
     5
100
AcDbPolyline
 90
        4
 70
     0
 43
0.0
 10
541.5761168369003
 20
-193.3627583354996
 10
541.5813944377998
 20
-192.7153876195994
 10
541.5847192220003
 20
-192.0743832052
 10
541.5850389175989
 20
-47.66694149130001
  0
LWPOLYLINE
  5
4FE
330
6F
100
AcDbEntity
  8
DETAIL
  6
Continuous
 62
     5
100
AcDbPolyline
 90
        5
 70
     0
 43
0.0
 10
596.9999999999997
 20
-158.1999999999994
 10
596.8925998181997
 20
-159.7753536046999
 10
596.5695585178996
 20
-161.3757572257997
 10
596.0213021639003
 20
-163.0443678313
 10
595.2209438086006
 20
-164.8395280956998
  0
LWPOLYLINE
  5
505
330
6F
100
AcDbEntity
  8
DETAIL
  6
Continuous
 62
     5
100
AcDbPolyline
 90
        5
 70
     0
 43
0.0
 10
586.9999999999996
 20
-125.1999999999995
 10
586.9202700486997
 20
-126.3669473152
 10
586.6802888176001
 20
-127.5531479641
 10
586.2728207474988
 20
-128.7903811715997
 10
585.6850454237004
 20
-130.1074772880998
  0
LWPOLYLINE
  5
50C
330
6F
100
AcDbEntity
  8
DETAIL
  6
Continuous
 62
     5
100
AcDbPolyline
 90
        5
 70
     0
 43
0.0
 10
606.4999999999996
 20
-125.1999999999995
 10
606.3963837268996
 20
-126.7133718442998
 10
606.0842081886999
 20
-128.2529170767998
 10
605.5559784822993
 20
-129.8539929108998
 10
604.7982940777996
 20
-131.5508529610994
  0
LWPOLYLINE
  5
513
330
6F
100
AcDbEntity
  8
DETAIL
  6
Continuous
 62
     5
100
AcDbPolyline
 90
        6
 70
     0
 43
0.0
 10
596.9999999999997
 20
-168.1592921435
 10
596.9312648655991
 20
-168.7889016671994
 10
596.7247694052997
 20
-169.4248014833998
 10
596.3777319111991
 20
-170.0762809029999
 10
595.8814768431997
 20
-170.7562676274998
 10
595.2209438086006
 20
-171.4790561913997
  0
LWPOLYLINE
  5
51B
330
6F
100
AcDbEntity
  8
DETAIL
  6
Continuous
 62
     5
100
AcDbPolyline
 90
        6
 70
     0
 43
0.0
 10
596.9999999999997
 20
-148.2407078564998
 10
596.9311869500995
 20
-148.8706751933997
 10
596.7246763669985
 20
-149.5064336028996
 10
596.3784431440995
 20
-150.1565719311998
 10
595.8825838420994
 20
-150.8363383434995
 10
595.2209438086006
 20
-151.5604719043
  0
LWPOLYLINE
  5
523
330
6F
100
AcDbEntity
  8
DETAIL
  6
Continuous
 62
     5
100
AcDbPolyline
 90
        5
 70
     0
 43
0.0
 10
586.9999999999996
 20
-117.8387840677998
 10
586.9202158493002
 20
-118.4224569369995
 10
586.6799418344992
 20
-119.0160081376995
 10
586.2727497719
 20
-119.6340658543
 10
585.6850454237004
 20
-120.2925227119
  0
LINE
  5
52A
330
6F
100
AcDbEntity
  8
DETAIL
  6
Continuous
 62
     5
100
AcDbLine
 10
586.9999999999996
 20
-132.5612159321996
 30
0.0
 11
586.9202311842996
 21
-133.1448324435997
 31
0.0
  0
LWPOLYLINE
  5
52B
330
6F
100
AcDbEntity
  8
DETAIL
  6
Continuous
 62
     5
100
AcDbPolyline
 90
        5
 70
     0
 43
0.0
 10
606.4999999999996
 20
-115.6737205584001
 10
606.3963837268996
 20
-116.4304064804997
 10
606.0842081886999
 20
-117.2001790967994
 10
605.5559784822993
 20
-118.0007170137997
 10
604.7982940777996
 20
-118.8491470388995
  0
LWPOLYLINE
  5
532
330
6F
100
AcDbEntity
  8
DETAIL
  6
Continuous
 62
     5
100
AcDbPolyline
 90
        5
 70
     0
 43
0.0
 10
606.4999999999996
 20
-134.7262794415998
 10
606.3963837268996
 20
-135.4829653637995
 10
606.0842081886999
 20
-136.25273798
 10
605.5559784822993
 20
-137.0532758971
 10
604.7982940777996
 20
-137.9017059221997
  0
LWPOLYLINE
  5
539
330
6F
100
AcDbEntity
  8
DETAIL
  6
Continuous
 62
     5
100
AcDbPolyline
 90
        4
 70
     0
 43
0.0
 10
623.4999999999996
 20
-160.8721947907994
 10
623.0621361628996
 20
-162.6999258809998
 10
622.4016468702988
 20
-164.5834490615994
 10
621.4999999999996
 20
-166.5749999999994
  0
LWPOLYLINE
  5
53F
330
6F
100
AcDbEntity
  8
DETAIL
  6
Continuous
 62
     5
100
AcDbPolyline
 90
        4
 70
     0
 43
0.0
 10
623.4999999999996
 20
-169.4264026045999
 10
623.7672396145983
 20
-170.3202410620994
 10
623.7672238502995
 20
-171.2048641490997
 10
623.4999999999996
 20
-172.0985973953999
  0
LWPOLYLINE
  5
545
330
6F
100
AcDbEntity
  8
DETAIL
  6
Continuous
 62
     5
100
AcDbPolyline
 90
        4
 70
     0
 43
0.0
 10
623.4999999999996
 20
-144.3014026045999
 10
623.7672396145983
 20
-145.1952410620994
 10
623.7672238502995
 20
-146.0798641490997
 10
623.4999999999996
 20
-146.9735973953999
  0
LWPOLYLINE
  5
54B
330
6F
100
AcDbEntity
  8
DETAIL
  6
Continuous
 62
     5
100
AcDbPolyline
 90
        4
 70
     0
 43
0.0
 10
601.4999999999997
 20
-160.8721947907994
 10
601.9378638370993
 20
-162.6999258809998
 10
602.5983531295984
 20
-164.5834490615994
 10
603.4999999999996
 20
-166.5749999999994
  0
LWPOLYLINE
  5
551
330
6F
100
AcDbEntity
  8
DETAIL
  6
Continuous
 62
     5
100
AcDbPolyline
 90
        4
 70
     0
 43
0.0
 10
623.4999999999996
 20
-155.5278052091995
 10
623.7672396145983
 20
-157.3154821242998
 10
623.7672238502995
 20
-159.0847282981
 10
623.4999999999996
 20
-160.8721947907994
  0
LWPOLYLINE
  5
557
330
6F
100
AcDbEntity
  8
DETAIL
  6
Continuous
 62
     5
100
AcDbPolyline
 90
        5
 70
     0
 43
0.0
 10
588.4999999999998
 20
-134.7262794415998
 10
588.6036162729992
 20
-135.4829653637995
 10
588.9157918112007
 20
-136.25273798
 10
589.4440215176996
 20
-137.0532758971
 10
590.2017059220992
 20
-137.9017059221997
  0
LWPOLYLINE
  5
55E
330
6F
100
AcDbEntity
  8
DETAIL
  6
Continuous
 62
     5
100
AcDbPolyline
 90
        5
 70
     0
 43
0.0
 10
588.4999999842997
 20
-115.6737204439997
 10
588.6036162729992
 20
-116.4304064804997
 10
588.9157918112007
 20
-117.2001790967994
 10
589.4440215176996
 20
-118.0007170137997
 10
590.2017059220992
 20
-118.8491470388995
  0
LINE
  5
565
330
6F
100
AcDbEntity
  8
DETAIL
  6
Continuous
 62
     5
100
AcDbLine
 10
586.9201447544996
 20
-117.2548499891997
 30
0.0
 11
586.9999999999996
 21
-117.8387840677998
 31
0.0
  0
ARC
  5
566
330
6F
100
AcDbEntity
  8
DETAIL
  6
Continuous
 62
     5
100
AcDbCircle
 10
-0.0500000000015462
 20
-118.4999999999996
 30
0.0
 40
105.0007616402
100
AcDbArc
 50
120.2969426106851
 51
239.3167491915118
  0
ARC
  5
567
330
6F
100
AcDbEntity
  8
DETAIL
  6
Continuous
 62
     5
100
AcDbCircle
 10
-0.0500000000015462
 20
-118.4999999999996
 30
0.0
 40
105.0007616402
100
AcDbArc
 50
300.6832508084882
 51
59.70305738931489
  0
CIRCLE
  5
568
330
6F
100
AcDbEntity
  8
DETAIL
  6
Continuous
 62
     5
100
AcDbCircle
 10
-0.0500000000015462
 20
-118.4999999999996
 30
0.0
 40
100.0
  0
CIRCLE
  5
569
330
6F
100
AcDbEntity
  8
DETAIL
  6
Continuous
 62
     5
100
AcDbCircle
 10
-0.0500000000015462
 20
-118.4999999999996
 30
0.0
 40
94.9847543461
  0
CIRCLE
  5
56A
330
6F
100
AcDbEntity
  8
DETAIL
  6
Continuous
 62
     5
100
AcDbCircle
 10
-0.0500000000015462
 20
-118.4999999999996
 30
0.0
 40
94.9847543461
  0
CIRCLE
  5
56B
330
6F
100
AcDbEntity
  8
DETAIL
  6
Continuous
 62
     5
100
AcDbCircle
 10
-0.0500000000015462
 20
-118.4999999999996
 30
0.0
 40
82.50266545079998
  0
ARC
  5
56C
330
6F
100
AcDbEntity
  8
DETAIL
  6
Continuous
 62
     5
100
AcDbCircle
 10
169.9999999999994
 20
-226.4999999999997
 30
0.0
 40
2.5
100
AcDbArc
 50
107.8829712887849
 51
72.11702871121504
  0
CIRCLE
  5
56D
330
6F
100
AcDbEntity
  8
DETAIL
  6
Continuous
 62
     5
100
AcDbCircle
 10
169.9999999999994
 20
-226.4999999999997
 30
0.0
 40
1.55
  0
ARC
  5
56E
330
6F
100
AcDbEntity
  8
DETAIL
  6
Continuous
 62
     5
100
AcDbCircle
 10
319.9499999999984
 20
-118.4999999999996
 30
0.0
 40
105.0007616402
100
AcDbArc
 50
300.6832508084882
 51
59.70305738931489
  0
ARC
  5
56F
330
6F
100
AcDbEntity
  8
DETAIL
  6
Continuous
 62
     5
100
AcDbCircle
 10
319.9499999999984
 20
-118.4999999999996
 30
0.0
 40
105.0007616402
100
AcDbArc
 50
120.2969426106851
 51
239.3167491915118
  0
CIRCLE
  5
570
330
6F
100
AcDbEntity
  8
DETAIL
  6
Continuous
 62
     5
100
AcDbCircle
 10
319.9499999999984
 20
-118.4999999999996
 30
0.0
 40
100.0
  0
CIRCLE
  5
571
330
6F
100
AcDbEntity
  8
DETAIL
  6
Continuous
 62
     5
100
AcDbCircle
 10
319.9499999999984
 20
-118.4999999999996
 30
0.0
 40
94.9847543461
  0
CIRCLE
  5
572
330
6F
100
AcDbEntity
  8
DETAIL
  6
Continuous
 62
     5
100
AcDbCircle
 10
319.9499999999984
 20
-118.4999999999996
 30
0.0
 40
94.9847543461
  0
CIRCLE
  5
573
330
6F
100
AcDbEntity
  8
DETAIL
  6
Continuous
 62
     5
100
AcDbCircle
 10
319.9499999999984
 20
-118.4999999999996
 30
0.0
 40
82.50266545079998
  0
ARC
  5
574
330
6F
100
AcDbEntity
  8
DETAIL
  6
Continuous
 62
     5
100
AcDbCircle
 10
169.9999999999994
 20
-10.49999999999966
 30
0.0
 40
2.5
100
AcDbArc
 50
308.9093032907221
 51
231.0906967092779
  0
CIRCLE
  5
575
330
6F
100
AcDbEntity
  8
DETAIL
  6
Continuous
 62
     5
100
AcDbCircle
 10
169.9999999999994
 20
-10.49999999999966
 30
0.0
 40
1.55
  0
ARC
  5
576
330
6F
100
AcDbEntity
  8
DETAIL
  6
Continuous
 62
     5
100
AcDbCircle
 10
538.9999999999997
 20
-218.9999999999997
 30
0.0
 40
7.5413468963
100
AcDbArc
 50
249.5126848852549
 51
20.48731511468331
  0
ARC
  5
577
330
6F
100
AcDbEntity
  8
DETAIL
  6
Continuous
 62
     5
100
AcDbCircle
 10
544.4999999999996
 20
-228.9999999999996
 30
0.0
 40
5.0
100
AcDbArc
 50
270.0
 51
0.0
  0
ARC
  5
578
330
6F
100
AcDbEntity
  8
DETAIL
  6
Continuous
 62
     5
100
AcDbCircle
 10
549.5999999999997
 20
-238.9999999999997
 30
0.0
 40
3.0
100
AcDbArc
 50
324.9109090761487
 51
334.2041359794878
  0
ARC
  5
579
330
6F
100
AcDbEntity
  8
DETAIL
  6
Continuous
 62
     5
100
AcDbCircle
 10
549.5999999999997
 20
-238.9999999999997
 30
0.0
 40
3.0
100
AcDbArc
 50
277.6887463431989
 51
278.6498396360652
  0
ARC
  5
57A
330
6F
100
AcDbEntity
  8
DETAIL
  6
Continuous
 62
     5
100
AcDbCircle
 10
514.9999999999996
 20
-226.4999999999997
 30
0.0
 40
2.5
100
AcDbArc
 50
107.8829712887849
 51
72.11702871121504
  0
CIRCLE
  5
57B
330
6F
100
AcDbEntity
  8
DETAIL
  6
Continuous
 62
     5
100
AcDbCircle
 10
514.9999999999996
 20
-226.4999999999997
 30
0.0
 40
1.55
  0
ARC
  5
57C
330
6F
100
AcDbEntity
  8
DETAIL
  6
Continuous
 62
     5
100
AcDbCircle
 10
548.1999999999984
 20
-240.9999999999997
 30
0.0
 40
1.0
100
AcDbArc
 50
77.01397992830589
 51
90.0
  0
ARC
  5
57D
330
6F
100
AcDbEntity
  8
DETAIL
  6
Continuous
 62
     5
100
AcDbCircle
 10
549.9999999999996
 20
-249.9499999999995
 30
0.0
 40
0.05
100
AcDbArc
 50
270.0
 51
0.0
  0
ARC
  5
57E
330
6F
100
AcDbEntity
  8
DETAIL
  6
Continuous
 62
     5
100
AcDbCircle
 10
538.9999999999997
 20
-17.99999999999966
 30
0.0
 40
7.5413468963
100
AcDbArc
 50
339.5126848853167
 51
110.487315114745
  0
ARC
  5
57F
330
6F
100
AcDbEntity
  8
DETAIL
  6
Continuous
 62
     5
100
AcDbCircle
 10
544.4999999999996
 20
-7.999999999999656
 30
0.0
 40
5.0
100
AcDbArc
 50
0.0
 51
90.0
  0
ARC
  5
580
330
6F
100
AcDbEntity
  8
DETAIL
  6
Continuous
 62
     5
100
AcDbCircle
 10
597.3000000000006
 20
-20.69999999999948
 30
0.0
 40
2.7
100
AcDbArc
 50
0.0
 51
90.0
  0
ARC
  5
581
330
6F
100
AcDbEntity
  8
DETAIL
  6
Continuous
 62
     5
100
AcDbCircle
 10
551.6999999999984
 20
-20.69999999999948
 30
0.0
 40
2.7
100
AcDbArc
 50
90.0
 51
129.153650939175
  0
ARC
  5
582
330
6F
100
AcDbEntity
  8
DETAIL
  6
Continuous
 62
     5
100
AcDbCircle
 10
514.9999999999996
 20
-10.49999999999966
 30
0.0
 40
2.5
100
AcDbArc
 50
308.9093032907221
 51
231.0906967092779
  0
CIRCLE
  5
583
330
6F
100
AcDbEntity
  8
DETAIL
  6
Continuous
 62
     5
100
AcDbCircle
 10
514.9999999999996
 20
-10.49999999999966
 30
0.0
 40
1.55
  0
ARC
  5
584
330
6F
100
AcDbEntity
  8
DETAIL
  6
Continuous
 62
     5
100
AcDbCircle
 10
553.9999999999996
 20
-26.24365078899939
 30
0.0
 40
1.0
100
AcDbArc
 50
180.0
 51
269.0000000000243
  0
ARC
  5
585
330
6F
100
AcDbEntity
  8
DETAIL
  6
Continuous
 62
     5
100
AcDbCircle
 10
553.9999999999996
 20
-61.75634921099993
 30
0.0
 40
1.0
100
AcDbArc
 50
90.99999999997569
 51
180.0
  0
ARC
  5
586
330
6F
100
AcDbEntity
  8
DETAIL
  6
Continuous
 62
     5
100
AcDbCircle
 10
607.4999999999996
 20
-28.49999999999966
 30
0.0
 40
0.5
100
AcDbArc
 50
0.0
 51
90.0
  0
ARC
  5
587
330
6F
100
AcDbEntity
  8
DETAIL
  6
Continuous
 62
     5
100
AcDbCircle
 10
607.4999999999996
 20
-59.49999999999966
 30
0.0
 40
0.5
100
AcDbArc
 50
270.0
 51
0.0
  0
ARC
  5
588
330
6F
100
AcDbEntity
  8
DETAIL
  6
Continuous
 62
     5
100
AcDbCircle
 10
551.6999999999984
 20
-20.69999999999948
 30
0.0
 40
0.2
100
AcDbArc
 50
90.0
 51
180.0
  0
ARC
  5
589
330
6F
100
AcDbEntity
  8
DETAIL
  6
Continuous
 62
     5
100
AcDbCircle
 10
597.3000000000006
 20
-20.69999999999948
 30
0.0
 40
0.2
100
AcDbArc
 50
0.0
 51
90.0
  0
LINE
  5
58A
330
6F
100
AcDbEntity
  8
DETAIL
  6
Continuous
 62
     5
100
AcDbLine
 10
-589.000123483484
 20
-399.9603951084542
 30
0.0
 11
827.0000000000088
 21
-399.9603951084537
 31
0.0
  0
LINE
  5
58B
330
6F
100
AcDbEntity
  8
DETAIL
  6
Continuous
 62
     5
100
AcDbLine
 10
839.0000000000085
 20
-402.9603951084537
 30
0.0
 11
839.0000000000085
 21
-404.9603951084535
 31
0.0
  0
LINE
  5
58C
330
6F
100
AcDbEntity
  8
DETAIL
  6
Continuous
 62
     5
100
AcDbLine
 10
-401.0001234834838
 20
-404.9603951084535
 30
0.0
 11
839.0000000000085
 21
-404.9603951084535
 31
0.0
  0
LINE
  5
58D
330
6F
100
AcDbEntity
  8
DETAIL
  6
Continuous
 62
     5
100
AcDbLine
 10
822.7000000000073
 20
-344.9603951084542
 30
0.0
 11
822.7000000000073
 21
-369.4603951084537
 31
0.0
  0
LINE
  5
58E
330
6F
100
AcDbEntity
  8
DETAIL
  6
Continuous
 62
     5
100
AcDbLine
 10
-401.0001234834838
 20
-402.9603951084537
 30
0.0
 11
839.0000000000085
 21
-402.9603951084537
 31
0.0
  0
LINE
  5
58F
330
6F
100
AcDbEntity
  8
DETAIL
  6
Continuous
 62
     5
100
AcDbLine
 10
827.0000000000088
 20
-399.9603951084537
 30
0.0
 11
827.0000000000088
 21
-402.9603951084542
 31
0.0
  0
LINE
  5
590
330
6F
100
AcDbEntity
  8
DETAIL
  6
Continuous
 62
     5
100
AcDbLine
 10
-589.000123483484
 20
-379.9603951084542
 30
0.0
 11
827.0000000000088
 21
-379.9603951084542
 31
0.0
  0
LINE
  5
591
330
6F
100
AcDbEntity
  8
DETAIL
  6
Continuous
 62
     5
100
AcDbLine
 10
-589.000123483484
 20
-369.460395108428
 30
0.0
 11
827.0000000000088
 21
-369.4603951084423
 31
0.0
  0
LINE
  5
592
330
6F
100
AcDbEntity
  8
DETAIL
  6
Continuous
 62
     5
100
AcDbLine
 10
827.0000000000088
 20
-379.9603951084542
 30
0.0
 11
827.0000000000088
 21
-369.4603951084423
 31
0.0
  0
LINE
  5
593
330
6F
100
AcDbEntity
  8
DETAIL
  6
Continuous
 62
     5
100
AcDbLine
 10
-584.7001234834829
 20
-344.9603951084537
 30
0.0
 11
822.7000000000073
 21
-344.9603951084542
 31
0.0
  0
LINE
  5
594
330
6F
100
AcDbEntity
  8
DETAIL
  6
Continuous
 62
     5
100
AcDbLine
 10
822.7000000000073
 20
-379.9603951084542
 30
0.0
 11
822.7000000000073
 21
-399.9603951084542
 31
0.0
  0
LINE
  5
595
330
6F
100
AcDbEntity
  8
DETAIL
  6
Continuous
 62
     5
100
AcDbLine
 10
-601.000123483484
 20
-402.9603951084542
 30
0.0
 11
-601.000123483484
 21
-404.9603951084542
 31
0.0
  0
LINE
  5
596
330
6F
100
AcDbEntity
  8
DETAIL
  6
Continuous
 62
     5
100
AcDbLine
 10
-589.000123483484
 20
-399.9603951084542
 30
0.0
 11
-589.000123483484
 21
-402.9603951084542
 31
0.0
  0
LINE
  5
597
330
6F
100
AcDbEntity
  8
DETAIL
  6
Continuous
 62
     5
100
AcDbLine
 10
-584.7001234834829
 20
-344.9603951084542
 30
0.0
 11
-584.7001234834829
 21
-369.4603951084537
 31
0.0
  0
LINE
  5
598
330
6F
100
AcDbEntity
  8
DETAIL
  6
Continuous
 62
     5
100
AcDbLine
 10
-584.7001234834829
 20
-379.9603951084542
 30
0.0
 11
-584.7001234834829
 21
-399.9603951084542
 31
0.0
  0
LINE
  5
599
330
6F
100
AcDbEntity
  8
DETAIL
  6
Continuous
 62
     5
100
AcDbLine
 10
-589.000123483484
 20
-379.9603951084542
 30
0.0
 11
-589.000123483484
 21
-369.4603951084542
 31
0.0
  0
LINE
  5
59A
330
6F
100
AcDbEntity
  8
DETAIL
  6
Continuous
 62
     5
100
AcDbLine
 10
549.9999999999996
 20
-251.9999999999996
 30
0.0
 11
-550.0000000000006
 21
-251.9999999999996
 31
0.0
  0
ARC
  5
59B
330
6F
100
AcDbEntity
  8
DETAIL
  6
Continuous
 62
     5
100
AcDbCircle
 10
549.9999999999996
 20
-249.9499999999995
 30
0.0
 40
2.049999999999998
100
AcDbArc
 50
270.0
 51
0.0
  0
LINE
  5
59C
330
6F
100
AcDbEntity
  8
DETAIL
  6
Continuous
 62
     5
100
AcDbLine
 10
-499.9999999999984
 20
-259.999999999996
 30
0.0
 11
-499.9999999999984
 21
-251.999999999996
 31
0.0
  0
LINE
  5
59D
330
6F
100
AcDbEntity
  8
DETAIL
  6
Continuous
 62
     5
100
AcDbLine
 10
500.0000000000012
 20
-259.999999999996
 30
0.0
 11
-499.9999999999984
 21
-259.999999999996
 31
0.0
  0
LINE
  5
59E
330
6F
100
AcDbEntity
  8
DETAIL
  6
Continuous
 62
     5
100
AcDbLine
 10
500.0000000000012
 20
-259.999999999996
 30
0.0
 11
500.0000000000012
 21
-251.999999999996
 31
0.0
  0
LWPOLYLINE
  5
59F
330
6F
100
AcDbEntity
  8
DETAIL
  6
Continuous
 62
     5
100
AcDbPolyline
 90
       18
 70
     0
 43
0.0
 10
-539.2151419827992
 20
-208.7603026935
 10
-539.1722258270005
 20
-209.6826674211994
 10
-539.0444052364005
 20
-210.5971658939994
 10
-538.8327703508007
 20
-211.4959989992
 10
-538.5391260239997
 20
-212.3715011403998
 10
-538.1659765706995
 20
-213.2162057518996
 10
-537.7165043314001
 20
-214.0229088989996
 10
-537.1945425600008
 20
-214.7847307429998
 10
-536.604542723899
 20
-215.4951742065997
 10
-535.9515365434003
 20
-216.1481803852999
 10
-535.2410930782991
 20
-216.7381802197998
 10
-534.4792712333004
 20
-217.2601419903
 10
-533.6725680856002
 20
-217.7096142290999
 10
-532.8278634742003
 20
-218.0827636824998
 10
-531.9523613327005
 20
-218.3764080089001
 10
-531.0535282299992
 20
-218.588042897
 10
-530.1390297543008
 20
-218.7158634846998
 10
-529.2166650312013
 20
-218.7587796450995
  0
LWPOLYLINE
  5
5B3
330
6F
100
AcDbEntity
  8
DETAIL
  6
Continuous
 62
     5
100
AcDbPolyline
 90
       23
 70
     0
 43
0.0
 10
-541.5677565276005
 20
-193.0302603672994
 10
-541.5491550653008
 20
-194.4065504874994
 10
-541.540851223401
 20
-195.1408641822995
 10
-541.5353281775991
 20
-195.9087583329998
 10
-541.5346846894013
 20
-196.7113529495996
 10
-541.5414753370992
 20
-197.5489514334999
 10
-541.5586482933998
 20
-198.4181914240993
 10
-541.5885727719
 20
-199.2948238444997
 10
-541.6318919710015
 20
-200.1474343930996
 10
-541.6878231368014
 20
-200.9567673755997
 10
-541.7554419145004
 20
-201.7207492633994
 10
-541.8334884569
 20
-202.4389604888999
 10
-541.9207381805013
 20
-203.1136089034995
 10
-542.0162888987
 20
-203.7491996651994
 10
-542.1194948345005
 20
-204.3505196163998
 10
-542.2299778559012
 20
-204.9223183922001
 10
-542.3476406181001
 20
-205.4692244906997
 10
-542.4727043686003
 20
-205.9958422503997
 10
-542.6057438479006
 20
-206.5067653476996
 10
-542.7476688464999
 20
-207.0064847983
 10
-542.8997754044017
 20
-207.4992894277999
 10
-543.0636101810002
 20
-207.9893326927
 10
-543.2414164487004
 20
-208.4808620675
  0
LWPOLYLINE
  5
5CC
330
6F
100
AcDbEntity
  8
DETAIL
  6
Continuous
 62
     5
100
AcDbPolyline
 90
        4
 70
     0
 43
0.0
 10
-541.584893919799
 20
-191.1631492729999
 10
-541.5816462728002
 20
-191.7622909447997
 10
-541.5756990573993
 20
-192.3838538574997
 10
-541.5677565276005
 20
-193.0302603672994
  0
LINE
  5
5D2
330
6F
100
AcDbEntity
  8
DETAIL
  6
Continuous
 62
     5
100
AcDbLine
 10
-541.5852523797004
 20
-190.1718455115998
 30
0.0
 11
-541.584893919799
 21
-191.1631492729999
 31
0.0
  0
LINE
  5
5D3
330
6F
100
AcDbEntity
  8
DETAIL
  6
Continuous
 62
     5
100
AcDbLine
 10
-600.0000000000006
 20
-29.99999999999966
 30
0.0
 11
-600.0000000000006
 21
-20.69999999999948
 31
0.0
  0
LINE
  5
5D4
330
6F
100
AcDbEntity
  8
DETAIL
  6
Continuous
 62
     5
100
AcDbLine
 10
-597.5000000000005
 20
-20.69999999999948
 30
0.0
 11
-597.5000000000005
 21
-29.99999999999966
 31
0.0
  0
LINE
  5
5D5
330
6F
100
AcDbEntity
  8
DETAIL
  6
Continuous
 62
     5
100
AcDbLine
 10
-554.0000000000005
 20
-14.99999999999966
 30
0.0
 11
-554.0000000000005
 21
-17.99999999999966
 31
0.0
  0
LINE
  5
5D6
330
6F
100
AcDbEntity
  8
DETAIL
  6
Continuous
 62
     5
100
AcDbLine
 10
-554.0000000000005
 20
-23.41837661839975
 30
0.0
 11
-554.0000000000005
 21
-239.9999999999997
 31
0.0
  0
LINE
  5
5D7
330
6F
100
AcDbEntity
  8
DETAIL
  6
Continuous
 62
     5
100
AcDbLine
 10
-552.0500000000015
 20
-240.0285398162997
 30
0.0
 11
-552.0500000000015
 21
-249.9499999999995
 31
0.0
  0
LINE
  5
5D8
330
6F
100
AcDbEntity
  8
DETAIL
  6
Continuous
 62
     5
100
AcDbLine
 10
-551.5000000000005
 20
-77.99999999999966
 30
0.0
 11
-551.5000000000005
 21
-20.69999999999948
 31
0.0
  0
LINE
  5
5D9
330
6F
100
AcDbEntity
  8
DETAIL
  6
Continuous
 62
     5
100
AcDbLine
 10
-550.0500000000015
 20
-240.0285398163997
 30
0.0
 11
-550.0499999999997
 21
-249.9499999999995
 31
0.0
  0
LINE
  5
5DA
330
6F
100
AcDbEntity
  8
DETAIL
  6
Continuous
 62
     5
100
AcDbLine
 10
-550.0000000000006
 20
0.0000000000003411
 30
0.0
 11
-550.0000000000006
 21
-26.39999999999976
 31
0.0
  0
LINE
  5
5DB
330
6F
100
AcDbEntity
  8
DETAIL
  6
Continuous
 62
     5
100
AcDbLine
 10
-550.0000000000006
 20
-26.39999999999976
 30
0.0
 11
-550.0000000000006
 21
-203.9999999999996
 31
0.0
  0
LINE
  5
5DC
330
6F
100
AcDbEntity
  8
DETAIL
  6
Continuous
 62
     5
100
AcDbLine
 10
-550.0000000000006
 20
-251.9999999999996
 30
0.0
 11
-550.0000000000006
 21
-239.9999999999997
 31
0.0
  0
LINE
  5
5DD
330
6F
100
AcDbEntity
  8
DETAIL
  6
Continuous
 62
     5
100
AcDbLine
 10
-549.5000000000005
 20
-228.9999999999996
 30
0.0
 11
-549.5000000000005
 21
-7.999999999999656
 31
0.0
  0
LINE
  5
5DE
330
6F
100
AcDbEntity
  8
DETAIL
  6
Continuous
 62
     5
100
AcDbLine
 10
-549.3999999999998
 20
-239.9999999999997
 30
0.0
 11
-549.3999999999998
 21
-240.0285398162997
 31
0.0
  0
LINE
  5
5DF
330
6F
100
AcDbEntity
  8
DETAIL
  6
Continuous
 62
     5
100
AcDbLine
 10
-549.0000000000005
 20
-231.1781838678995
 30
0.0
 11
-549.0000000000005
 21
-239.9999999999997
 31
0.0
  0
LINE
  5
5E0
330
6F
100
AcDbEntity
  8
DETAIL
  6
Continuous
 62
     5
100
AcDbLine
 10
-539.2151419827992
 20
-28.23969730649981
 30
0.0
 11
-539.2151419827992
 21
-208.7603026935
 31
0.0
  0
LINE
  5
5E1
330
6F
100
AcDbEntity
  8
DETAIL
  6
Continuous
 62
     5
100
AcDbLine
 10
-529.0166650312007
 20
-224.1245319446995
 30
0.0
 11
-529.0166650312007
 21
-12.4408323230997
 31
0.0
  0
LWPOLYLINE
  5
5E2
330
6F
100
AcDbEntity
  8
DETAIL
  6
Continuous
 62
     5
100
AcDbPolyline
 90
        4
 70
     0
 43
0.0
 10
-541.5761179671013
 20
-43.90487512259972
 10
-541.5813951974
 20
-44.55224534849969
 10
-541.5847196033996
 20
-45.19325239999999
 10
-541.5852523797004
 20
-190.1718455115998
  0
LWPOLYLINE
  5
5E8
330
6F
100
AcDbEntity
  8
DETAIL
  6
Continuous
 62
     5
100
AcDbPolyline
 90
        4
 70
     0
 43
0.0
 10
-544.199861613701
 20
-211.0850291138
 10
-544.3644633542012
 20
-211.5350926602997
 10
-544.5211473244003
 20
-211.9605425165997
 10
-544.6717699451006
 20
-212.3657303996998
  0
LWPOLYLINE
  5
5EE
330
6F
100
AcDbEntity
  8
DETAIL
  6
Continuous
 62
     5
100
AcDbPolyline
 90
        4
 70
     0
 43
0.0
 10
-543.4124672129004
 20
-208.9385899153
 10
-543.6326477038005
 20
-209.5322032461996
 10
-543.8373670419007
 20
-210.0903806277997
 10
-544.199861613701
 20
-211.0850291138
  0
LWPOLYLINE
  5
5F4
330
6F
100
AcDbEntity
  8
DETAIL
  6
Continuous
 62
     5
100
AcDbPolyline
 90
        3
 70
     0
 43
0.0
 10
-543.2414164487004
 20
-208.4808620675
 10
-543.3259085639006
 20
-208.7078104334997
 10
-543.4124672129004
 20
-208.9385899153
  0
LINE
  5
5F9
330
6F
100
AcDbEntity
  8
DETAIL
  6
Continuous
 62
     5
100
AcDbLine
 10
-544.6717699451006
 20
-212.3657303996998
 30
0.0
 11
-546.1643544468008
 21
-216.3605285841001
 31
0.0
  0
LINE
  5
5FA
330
6F
100
AcDbEntity
  8
DETAIL
  6
Continuous
 62
     5
100
AcDbLine
 10
-550.0000000000006
 20
-243.3999999999997
 30
0.0
 11
-550.0500000000015
 21
-243.3999999999997
 31
0.0
  0
LINE
  5
5FB
330
6F
100
AcDbEntity
  8
DETAIL
  6
Continuous
 62
     5
100
AcDbLine
 10
-552.0500000000015
 20
-240.0285398162997
 30
0.0
 11
-550.0500000000015
 21
-240.0285398163997
 31
0.0
  0
LINE
  5
5FC
330
6F
100
AcDbEntity
  8
DETAIL
  6
Continuous
 62
     5
100
AcDbLine
 10
-549.3999999999998
 20
-239.9999999999997
 30
0.0
 11
-550.0000000000006
 21
-239.9999999999997
 31
0.0
  0
LINE
  5
5FD
330
6F
100
AcDbEntity
  8
DETAIL
  6
Continuous
 62
     5
100
AcDbLine
 10
-549.0000000000005
 20
-239.9999999999997
 30
0.0
 11
-554.0000000000005
 21
-239.9999999999997
 31
0.0
  0
LINE
  5
5FE
330
6F
100
AcDbEntity
  8
DETAIL
  6
Continuous
 62
     5
100
AcDbLine
 10
-517.3500000000008
 20
-226.4999999999997
 30
0.0
 11
-516.5500000000015
 21
-226.4999999999997
 31
0.0
  0
LINE
  5
5FF
330
6F
100
AcDbEntity
  8
DETAIL
  6
Continuous
 62
     5
100
AcDbLine
 10
-512.65
 20
-226.4999999999997
 30
0.0
 11
-513.4499999999991
 21
-226.4999999999997
 31
0.0
  0
LINE
  5
600
330
6F
100
AcDbEntity
  8
DETAIL
  6
Continuous
 62
     5
100
AcDbLine
 10
-529.2166650312013
 20
-218.7587796450995
 30
0.0
 11
-529.0166650312007
 21
-218.7587796450995
 31
0.0
  0
LINE
  5
601
330
6F
100
AcDbEntity
  8
DETAIL
  6
Continuous
 62
     5
100
AcDbLine
 10
-550.0000000000006
 20
-203.9999999999996
 30
0.0
 11
-549.5000000000005
 21
-203.9999999999996
 31
0.0
  0
LINE
  5
602
330
6F
100
AcDbEntity
  8
DETAIL
  6
Continuous
 62
     5
100
AcDbLine
 10
-556.8591869264005
 20
-20.55918969209972
 30
0.0
 11
-551.5590649936007
 21
-25.85931162479994
 31
0.0
  0
LWPOLYLINE
  5
603
330
6F
100
AcDbEntity
  8
DETAIL
  6
Continuous
 62
     5
100
AcDbPolyline
 90
        4
 70
     0
 43
0.0
 10
-551.5585786979011
 20
-25.85979644549991
 10
-551.5290886212008
 20
-25.89734637620006
 10
-551.5074031099998
 20
-25.94730696679983
 10
-551.5000002654002
 20
-26.00116352689986
  0
LWPOLYLINE
  5
609
330
6F
100
AcDbEntity
  8
DETAIL
  6
Continuous
 62
     5
100
AcDbPolyline
 90
        3
 70
     0
 43
0.0
 10
-543.4124980086003
 20
-28.06128210469945
 10
-543.3257990959011
 20
-28.29214291689971
 10
-543.2415673804012
 20
-28.51919486849977
  0
LINE
  5
60E
330
6F
100
AcDbEntity
  8
DETAIL
  6
Continuous
 62
     5
100
AcDbLine
 10
-546.1643544468008
 20
-20.63947141589972
 30
0.0
 11
-544.6717697744011
 21
-24.63426622999998
 31
0.0
  0
LWPOLYLINE
  5
60F
330
6F
100
AcDbEntity
  8
DETAIL
  6
Continuous
 62
     5
100
AcDbPolyline
 90
        5
 70
     0
 43
0.0
 10
-544.6717697744011
 20
-24.63426622999998
 10
-544.5224621967996
 20
-25.03590858389964
 10
-544.3657566165008
 20
-25.46134427489972
 10
-544.2011766644013
 20
-25.91136103009978
 10
-543.8413818563008
 20
-26.89858663029975
  0
LWPOLYLINE
  5
616
330
6F
100
AcDbEntity
  8
DETAIL
  6
Continuous
 62
     5
100
AcDbPolyline
 90
        3
 70
     0
 43
0.0
 10
-543.8413818563008
 20
-26.89858663029975
 10
-543.6381515658
 20
-27.45292186019981
 10
-543.4124980086003
 20
-28.06128210469945
  0
LWPOLYLINE
  5
61B
330
6F
100
AcDbEntity
  8
DETAIL
  6
Continuous
 62
     5
100
AcDbPolyline
 90
       23
 70
     0
 43
0.0
 10
-543.2415673804012
 20
-28.51919486849977
 10
-543.0800591940992
 20
-28.97110664309969
 10
-542.9255106534006
 20
-29.43678695499977
 10
-542.7775941993009
 20
-29.91792927719973
 10
-542.6364277225006
 20
-30.41620737839969
 10
-542.5021097002012
 20
-30.93325149760005
 10
-542.3748939535003
 20
-31.47068278739937
 10
-542.2551721034999
 20
-32.02980819459992
 10
-542.1435249416012
 20
-32.61119981119975
 10
-542.0403254145989
 20
-33.21655210519987
 10
-541.9452898344011
 20
-33.85267142049964
 10
-541.8582614745997
 20
-34.52905707539969
 10
-541.7797826076007
 20
-35.25428670639997
 10
-541.7113321962991
 20
-36.03073134819953
 10
-541.6547346466
 20
-36.85251742289951
 10
-541.6110382745996
 20
-37.71219972860001
 10
-541.5806731906999
 20
-38.59012160359964
 10
-541.5626834824002
 20
-39.45750335199966
 10
-541.5546367195006
 20
-40.29148032719978
 10
-541.5536066793997
 20
-41.08689080860004
 10
-541.5570428344001
 20
-41.84166414839967
 10
-541.5628940017
 20
-42.55777765869981
 10
-541.5761179671013
 20
-43.90487512259972
  0
LINE
  5
634
330
6F
100
AcDbEntity
  8
DETAIL
  6
Continuous
 62
     5
100
AcDbLine
 10
-536.4605285841993
 20
-226.0643544466998
 30
0.0
 11
-532.1980856536016
 21
-224.4717685832999
 31
0.0
  0
LWPOLYLINE
  5
635
330
6F
100
AcDbEntity
  8
DETAIL
  6
Continuous
 62
     5
100
AcDbPolyline
 90
        4
 70
     0
 43
0.0
 10
-532.1980856536016
 20
-224.4717685832999
 10
-531.7945536243992
 20
-224.3216700023996
 10
-531.3725720341011
 20
-224.1659667807995
 10
-530.9283841330002
 20
-224.0030835509998
  0
LWPOLYLINE
  5
63B
330
6F
100
AcDbEntity
  8
DETAIL
  6
Continuous
 62
     5
100
AcDbPolyline
 90
        4
 70
     0
 43
0.0
 10
-530.9283841330002
 20
-224.0030835509998
 10
-529.9636465550015
 20
-223.6506770764996
 10
-529.4449036187002
 20
-223.4606513344994
 10
-529.0166650312007
 20
-223.3027397198999
  0
LWPOLYLINE
  5
641
330
6F
100
AcDbEntity
  8
DETAIL
  6
Continuous
 62
     5
100
AcDbPolyline
 90
       18
 70
     0
 43
0.0
 10
-529.2166650312013
 20
-18.24122035499988
 10
-530.1390297543008
 20
-18.28413651529956
 10
-531.0535282299992
 20
-18.41195710299973
 10
-531.9523613327005
 20
-18.62359199119976
 10
-532.8278634742003
 20
-18.91723631749993
 10
-533.6725680856002
 20
-19.29038577099948
 10
-534.4792712333004
 20
-19.73985800969979
 10
-535.2410930782991
 20
-20.26181978019997
 10
-535.9515365434003
 20
-20.85181961469982
 10
-536.604542723899
 20
-21.50482579340007
 10
-537.1945425600008
 20
-22.21526925699948
 10
-537.7165043314001
 20
-22.9770911009997
 10
-538.1659765706995
 20
-23.78379424809975
 10
-538.5391260239997
 20
-24.62849885959952
 10
-538.8327703508007
 20
-25.5040010007998
 10
-539.0444052364005
 20
-26.40283410599989
 10
-539.1722258270005
 20
-27.31733257889994
 10
-539.2151419827992
 20
-28.23969730649981
  0
LINE
  5
655
330
6F
100
AcDbEntity
  8
DETAIL
  6
Continuous
 62
     5
100
AcDbLine
 10
-554.0000000000005
 20
-92.99999999999966
 30
0.0
 11
-550.0000000000006
 21
-92.99999999999966
 31
0.0
  0
LINE
  5
656
330
6F
100
AcDbEntity
  8
DETAIL
  6
Continuous
 62
     5
100
AcDbLine
 10
-551.5000000000005
 20
-77.99999999999966
 30
0.0
 11
-550.0000000000006
 21
-77.99999999999966
 31
0.0
  0
LINE
  5
657
330
6F
100
AcDbEntity
  8
DETAIL
  6
Continuous
 62
     5
100
AcDbLine
 10
-597.5000000000005
 20
-29.99999999999966
 30
0.0
 11
-600.0000000000006
 21
-29.99999999999966
 31
0.0
  0
LINE
  5
658
330
6F
100
AcDbEntity
  8
DETAIL
  6
Continuous
 62
     5
100
AcDbLine
 10
-549.5000000000005
 20
-26.39999999999976
 30
0.0
 11
-550.0000000000006
 21
-26.39999999999976
 31
0.0
  0
LINE
  5
659
330
6F
100
AcDbEntity
  8
DETAIL
  6
Continuous
 62
     5
100
AcDbLine
 10
-551.6999999999994
 20
-20.49999999999966
 30
0.0
 11
-597.3000000000015
 21
-20.49999999999966
 31
0.0
  0
LINE
  5
65A
330
6F
100
AcDbEntity
  8
DETAIL
  6
Continuous
 62
     5
100
AcDbLine
 10
-529.0166650312007
 20
-18.24122035499988
 30
0.0
 11
-529.2166650312013
 21
-18.24122035499988
 31
0.0
  0
LINE
  5
65B
330
6F
100
AcDbEntity
  8
DETAIL
  6
Continuous
 62
     5
100
AcDbLine
 10
-551.6999999999994
 20
-17.99999999999966
 30
0.0
 11
-597.3000000000015
 21
-17.99999999999966
 31
0.0
  0
LINE
  5
65C
330
6F
100
AcDbEntity
  8
DETAIL
  6
Continuous
 62
     5
100
AcDbLine
 10
-554.0000000000005
 20
-14.99999999999966
 30
0.0
 11
-550.0000000000006
 21
-14.99999999999966
 31
0.0
  0
LWPOLYLINE
  5
65D
330
6F
100
AcDbEntity
  8
DETAIL
  6
Continuous
 62
     5
100
AcDbPolyline
 90
        8
 70
     0
 43
0.0
 10
-529.0166650312007
 20
-13.69725818639983
 10
-529.4463021934011
 20
-13.53883623399963
 10
-529.9647920352001
 20
-13.34890271959978
 10
-530.4594001558
 20
-13.16825302389964
 10
-530.9286719723991
 20
-12.99681088169984
 10
-531.3729617966003
 20
-12.83389026829957
 10
-531.7949655747002
 20
-12.67817771849979
 10
-532.1980859573999
 20
-12.52823132359992
  0
LINE
  5
667
330
6F
100
AcDbEntity
  8
DETAIL
  6
Continuous
 62
     5
100
AcDbLine
 10
-532.1980859573999
 20
-12.52823132359992
 30
0.0
 11
-536.4605285841993
 21
-10.93564555329942
 31
0.0
  0
ARC
  5
668
330
6F
100
AcDbEntity
  8
DETAIL
  6
Continuous
 62
     5
100
AcDbCircle
 10
-548.1999999999991
 20
-240.9999999999997
 30
0.0
 40
1.0
100
AcDbArc
 50
90.0
 51
102.9860200716941
  0
ARC
  5
669
330
6F
100
AcDbEntity
  8
DETAIL
  6
Continuous
 62
     5
100
AcDbCircle
 10
-550.0000000000006
 20
-249.9499999999995
 30
0.0
 40
0.05
100
AcDbArc
 50
179.9999999998957
 51
270.0
  0
ARC
  5
66A
330
6F
100
AcDbEntity
  8
DETAIL
  6
Continuous
 62
     5
100
AcDbCircle
 10
-539.1000000000008
 20
-218.9999999999997
 30
0.0
 40
7.5413468963
100
AcDbArc
 50
159.5126848852115
 51
290.4873151147451
  0
ARC
  5
66B
330
6F
100
AcDbEntity
  8
DETAIL
  6
Continuous
 62
     5
100
AcDbCircle
 10
-544.5000000000005
 20
-228.9999999999996
 30
0.0
 40
5.0
100
AcDbArc
 50
180.0
 51
270.0
  0
ARC
  5
66C
330
6F
100
AcDbEntity
  8
DETAIL
  6
Continuous
 62
     5
100
AcDbCircle
 10
-515.0000000000005
 20
-226.4999999999997
 30
0.0
 40
2.5
100
AcDbArc
 50
107.8829712887849
 51
72.11702871121504
  0
CIRCLE
  5
66D
330
6F
100
AcDbEntity
  8
DETAIL
  6
Continuous
 62
     5
100
AcDbCircle
 10
-515.0000000000005
 20
-226.4999999999997
 30
0.0
 40
1.55
  0
ARC
  5
66E
330
6F
100
AcDbEntity
  8
DETAIL
  6
Continuous
 62
     5
100
AcDbCircle
 10
-539.1000000000008
 20
-17.99999999999966
 30
0.0
 40
7.5413468963
100
AcDbArc
 50
69.51268488525491
 51
200.4873151146833
  0
ARC
  5
66F
330
6F
100
AcDbEntity
  8
DETAIL
  6
Continuous
 62
     5
100
AcDbCircle
 10
-544.5000000000005
 20
-7.999999999999656
 30
0.0
 40
5.0
100
AcDbArc
 50
90.0
 51
180.0
  0
ARC
  5
670
330
6F
100
AcDbEntity
  8
DETAIL
  6
Continuous
 62
     5
100
AcDbCircle
 10
-597.3000000000015
 20
-20.69999999999948
 30
0.0
 40
2.7
100
AcDbArc
 50
90.0
 51
180.0
  0
ARC
  5
671
330
6F
100
AcDbEntity
  8
DETAIL
  6
Continuous
 62
     5
100
AcDbCircle
 10
-551.6999999999994
 20
-20.69999999999948
 30
0.0
 40
2.7
100
AcDbArc
 50
50.84634906082492
 51
90.0
  0
ARC
  5
672
330
6F
100
AcDbEntity
  8
DETAIL
  6
Continuous
 62
     5
100
AcDbCircle
 10
-597.3000000000015
 20
-20.69999999999948
 30
0.0
 40
0.2
100
AcDbArc
 50
90.0
 51
180.0
  0
ARC
  5
673
330
6F
100
AcDbEntity
  8
DETAIL
  6
Continuous
 62
     5
100
AcDbCircle
 10
-551.6999999999994
 20
-20.69999999999948
 30
0.0
 40
0.2
100
AcDbArc
 50
0.0
 51
90.0
  0
ARC
  5
674
330
6F
100
AcDbEntity
  8
DETAIL
  6
Continuous
 62
     5
100
AcDbCircle
 10
-515.0000000000005
 20
-10.49999999999966
 30
0.0
 40
2.5
100
AcDbArc
 50
308.9093032907221
 51
231.0906967092779
  0
CIRCLE
  5
675
330
6F
100
AcDbEntity
  8
DETAIL
  6
Continuous
 62
     5
100
AcDbCircle
 10
-515.0000000000005
 20
-10.49999999999966
 30
0.0
 40
1.55
  0
ARC
  5
676
330
6F
100
AcDbEntity
  8
DETAIL
  6
Continuous
 62
     5
100
AcDbCircle
 10
-550.0000000000006
 20
-249.9499999999995
 30
0.0
 40
2.049999999999998
100
AcDbArc
 50
179.9999999998957
 51
270.0
  0
LINE
  5
677
330
6F
100
AcDbEntity
  8
SIZE
  6
Continuous
 62
    30
100
AcDbLine
 10
-550.0000000000006
 20
20.00000000000034
 30
0.0
 11
-550.0000000000006
 21
210.9890570364619
 31
0.0
  0
LINE
  5
678
330
6F
100
AcDbEntity
  8
SIZE
  6
Continuous
 62
    30
100
AcDbLine
 10
549.9999999999996
 20
20.00000000000034
 30
0.0
 11
549.9999999999996
 21
210.9890570364619
 31
0.0
  0
LINE
  5
679
330
6F
100
AcDbEntity
  8
SIZE
  6
Continuous
 62
    30
100
AcDbLine
 10
-550.0000000000006
 20
190.9890570364616
 30
0.0
 11
549.9999999999996
 21
190.9890570364616
 31
0.0
  0
CIRCLE
  5
67A
330
6F
100
AcDbEntity
  8
SIZE
  6
Continuous
 62
    30
100
AcDbCircle
 10
-550.0000000000006
 20
190.9890570364616
 30
0.0
 40
7.5
  0
CIRCLE
  5
67B
330
6F
100
AcDbEntity
  8
SIZE
  6
Continuous
 62
    30
100
AcDbCircle
 10
549.9999999999996
 20
190.9890570364616
 30
0.0
 40
7.5
  0
TEXT
  5
67C
330
6F
100
AcDbEntity
  8
SIZE
  6
Continuous
 62
    30
100
AcDbText
 10
-56.57142857142901
 20
210.9890570364617
 30
0.0
 40
40.0
  1
1100
 41
0.9
 72
     1
 11
-0.0000000000004547
 21
210.9890570364617
 31
0.0
100
AcDbText
  0
POINT
  5
67D
330
6F
100
AcDbEntity
  8
DEFPOINTS
  6
Continuous
 62
    30
100
AcDbPoint
 10
-550.0000000000006
 20
0.0000000000003411
 30
0.0
  0
POINT
  5
67E
330
6F
100
AcDbEntity
  8
DEFPOINTS
  6
Continuous
 62
    30
100
AcDbPoint
 10
549.9999999999996
 20
0.0000000000003411
 30
0.0
  0
POINT
  5
67F
330
6F
100
AcDbEntity
  8
DEFPOINTS
  6
Continuous
 62
    30
100
AcDbPoint
 10
549.9999999999996
 20
190.9890570364616
 30
0.0
  0
LINE
  5
680
330
6F
100
AcDbEntity
  8
SIZE
  6
Continuous
 62
    30
100
AcDbLine
 10
319.9500000000004
 20
28.46968523904559
 30
0.0
 11
319.9500000000004
 21
125.3151590295014
 31
0.0
  0
LINE
  5
681
330
6F
100
AcDbEntity
  8
SIZE
  6
Continuous
 62
    30
100
AcDbLine
 10
549.9999999999996
 20
20.00000000000034
 30
0.0
 11
549.9999999999996
 21
125.3151590295014
 31
0.0
  0
LINE
  5
682
330
6F
100
AcDbEntity
  8
SIZE
  6
Continuous
 62
    30
100
AcDbLine
 10
319.9500000000004
 20
105.3151590295014
 30
0.0
 11
549.9999999999996
 21
105.3151590295014
 31
0.0
  0
CIRCLE
  5
683
330
6F
100
AcDbEntity
  8
SIZE
  6
Continuous
 62
    30
100
AcDbCircle
 10
319.9500000000004
 20
105.3151590295014
 30
0.0
 40
7.5
  0
CIRCLE
  5
684
330
6F
100
AcDbEntity
  8
SIZE
  6
Continuous
 62
    30
100
AcDbCircle
 10
549.9999999999996
 20
105.3151590295014
 30
0.0
 40
7.5
  0
TEXT
  5
685
330
6F
100
AcDbEntity
  8
SIZE
  6
Continuous
 62
    30
100
AcDbText
 10
388.6892857142856
 20
125.3151590295014
 30
0.0
 40
40.0
  1
230
 41
0.9
 72
     1
 11
434.9749999999998
 21
125.3151590295014
 31
0.0
100
AcDbText
  0
POINT
  5
686
330
6F
100
AcDbEntity
  8
DEFPOINTS
  6
Continuous
 62
    30
100
AcDbPoint
 10
319.9500000000004
 20
8.469685239045587
 30
0.0
  0
POINT
  5
687
330
6F
100
AcDbEntity
  8
DEFPOINTS
  6
Continuous
 62
    30
100
AcDbPoint
 10
549.9999999999996
 20
0.0000000000003411
 30
0.0
  0
POINT
  5
688
330
6F
100
AcDbEntity
  8
DEFPOINTS
  6
Continuous
 62
    30
100
AcDbPoint
 10
549.9999999999996
 20
105.3151590295014
 30
0.0
  0
LINE
  5
689
330
6F
100
AcDbEntity
  8
SIZE
  6
Continuous
 62
    30
100
AcDbLine
 10
319.9500000000004
 20
28.46968523904559
 30
0.0
 11
319.9500000000004
 21
125.3151590295014
 31
0.0
  0
LINE
  5
68A
330
6F
100
AcDbEntity
  8
SIZE
  6
Continuous
 62
    30
100
AcDbLine
 10
-0.0500000000015449
 20
28.46968523904559
 30
0.0
 11
-0.050000000001539
 21
125.3151590295014
 31
0.0
  0
LINE
  5
68B
330
6F
100
AcDbEntity
  8
SIZE
  6
Continuous
 62
    30
100
AcDbLine
 10
319.9500000000004
 20
105.3151590295014
 30
0.0
 11
-0.0500000000015402
 21
105.3151590295014
 31
0.0
  0
CIRCLE
  5
68C
330
6F
100
AcDbEntity
  8
SIZE
  6
Continuous
 62
    30
100
AcDbCircle
 10
319.9500000000004
 20
105.3151590295014
 30
0.0
 40
7.5
  0
CIRCLE
  5
68D
330
6F
100
AcDbEntity
  8
SIZE
  6
Continuous
 62
    30
100
AcDbCircle
 10
-0.0500000000015402
 20
105.3151590295014
 30
0.0
 40
7.5
  0
TEXT
  5
68E
330
6F
100
AcDbEntity
  8
SIZE
  6
Continuous
 62
    30
100
AcDbText
 10
113.664285714285
 20
125.3151590295014
 30
0.0
 40
40.0
  1
320
 41
0.9
 72
     1
 11
159.9499999999993
 21
125.3151590295014
 31
0.0
100
AcDbText
  0
POINT
  5
68F
330
6F
100
AcDbEntity
  8
DEFPOINTS
  6
Continuous
 62
    30
100
AcDbPoint
 10
319.9500000000004
 20
8.469685239045587
 30
0.0
  0
POINT
  5
690
330
6F
100
AcDbEntity
  8
DEFPOINTS
  6
Continuous
 62
    30
100
AcDbPoint
 10
-0.0500000000015462
 20
8.469685239045587
 30
0.0
  0
POINT
  5
691
330
6F
100
AcDbEntity
  8
DEFPOINTS
  6
Continuous
 62
    30
100
AcDbPoint
 10
-0.0500000000015402
 20
105.3151590295014
 30
0.0
  0
LINE
  5
692
330
6F
100
AcDbEntity
  8
NOTE
  6
Continuous
 62
     4
100
AcDbLine
 10
-127.0196852390477
 20
-118.4999999999996
 30
0.0
 11
-0.0500000000033651
 21
-118.4999999999996
 31
0.0
  0
LINE
  5
693
330
6F
100
AcDbEntity
  8
NOTE
  6
Continuous
 62
     4
100
AcDbLine
 10
-0.0500000000033651
 20
-245.4696852390449
 30
0.0
 11
-0.0500000000033651
 21
-118.4999999999996
 31
0.0
  0
LINE
  5
694
330
6F
100
AcDbEntity
  8
NOTE
  6
Continuous
 62
     4
100
AcDbLine
 10
126.9196852390428
 20
-118.4999999999996
 30
0.0
 11
-0.0500000000015462
 21
-118.4999999999996
 31
0.0
  0
LINE
  5
695
330
6F
100
AcDbEntity
  8
NOTE
  6
Continuous
 62
     4
100
AcDbLine
 10
-0.0500000000015462
 20
8.469685239045587
 30
0.0
 11
-0.0500000000033651
 21
-118.4999999999996
 31
0.0
  0
LINE
  5
696
330
6F
100
AcDbEntity
  8
NOTE
  6
Continuous
 62
     4
100
AcDbLine
 10
192.9803147609541
 20
-118.4999999999996
 30
0.0
 11
319.9499999999984
 21
-118.4999999999996
 31
0.0
  0
LINE
  5
697
330
6F
100
AcDbEntity
  8
NOTE
  6
Continuous
 62
     4
100
AcDbLine
 10
319.9499999999984
 20
-245.4696852390449
 30
0.0
 11
319.9499999999984
 21
-118.4999999999996
 31
0.0
  0
LINE
  5
698
330
6F
100
AcDbEntity
  8
NOTE
  6
Continuous
 62
     4
100
AcDbLine
 10
446.9196852390446
 20
-118.4999999999996
 30
0.0
 11
319.9500000000004
 21
-118.4999999999996
 31
0.0
  0
LINE
  5
699
330
6F
100
AcDbEntity
  8
NOTE
  6
Continuous
 62
     4
100
AcDbLine
 10
319.9500000000004
 20
8.469685239045587
 30
0.0
 11
319.9499999999984
 21
-118.4999999999996
 31
0.0
  0
LINE
  5
69A
330
6F
100
AcDbEntity
  8
SIZE
  6
Continuous
 62
    30
100
AcDbLine
 10
-600.0000000000006
 20
-0.6999999999994772
 30
0.0
 11
-600.0000000000006
 21
423.8524051159839
 31
0.0
  0
LINE
  5
69B
330
6F
100
AcDbEntity
  8
SIZE
  6
Continuous
 62
    30
100
AcDbLine
 10
599.9999999999996
 20
-0.6999999999994772
 30
0.0
 11
599.9999999999996
 21
423.8524051159839
 31
0.0
  0
LINE
  5
69C
330
6F
100
AcDbEntity
  8
SIZE
  6
Continuous
 62
    30
100
AcDbLine
 10
-600.0000000000006
 20
403.8524051159842
 30
0.0
 11
599.9999999999996
 21
403.8524051159842
 31
0.0
  0
CIRCLE
  5
69D
330
6F
100
AcDbEntity
  8
SIZE
  6
Continuous
 62
    30
100
AcDbCircle
 10
-600.0000000000006
 20
403.8524051159842
 30
0.0
 40
7.5
  0
CIRCLE
  5
69E
330
6F
100
AcDbEntity
  8
SIZE
  6
Continuous
 62
    30
100
AcDbCircle
 10
599.9999999999996
 20
403.8524051159842
 30
0.0
 40
7.5
  0
TEXT
  5
69F
330
6F
100
AcDbEntity
  8
SIZE
  6
Continuous
 62
    30
100
AcDbText
 10
-60.00000000000045
 20
423.8524051159839
 30
0.0
 40
40.0
  1
1200
 41
0.9
 72
     1
 11
-0.0000000000004547
 21
423.8524051159839
 31
0.0
100
AcDbText
  0
POINT
  5
6A0
330
6F
100
AcDbEntity
  8
DEFPOINTS
  6
Continuous
 62
    30
100
AcDbPoint
 10
-600.0000000000006
 20
-20.69999999999948
 30
0.0
  0
POINT
  5
6A1
330
6F
100
AcDbEntity
  8
DEFPOINTS
  6
Continuous
 62
    30
100
AcDbPoint
 10
599.9999999999996
 20
-20.69999999999948
 30
0.0
  0
POINT
  5
6A2
330
6F
100
AcDbEntity
  8
DEFPOINTS
  6
Continuous
 62
    30
100
AcDbPoint
 10
599.9999999999996
 20
403.8524051159842
 30
0.0
  0
LINE
  5
6A3
330
6F
100
AcDbEntity
  8
SIZE
  6
Continuous
 62
    30
100
AcDbLine
 10
564.4999999999996
 20
-2.999999999999663
 30
0.0
 11
855.4885466744359
 21
-2.999999999999745
 31
0.0
  0
LINE
  5
6A4
330
6F
100
AcDbEntity
  8
SIZE
  6
Continuous
 62
    30
100
AcDbLine
 10
471.9196852390446
 20
-118.4999999999996
 30
0.0
 11
855.4885466744359
 21
-118.4999999999998
 31
0.0
  0
LINE
  5
6A5
330
6F
100
AcDbEntity
  8
SIZE
  6
Continuous
 62
    30
100
AcDbLine
 10
835.4885466744358
 20
-2.99999999999974
 30
0.0
 11
835.4885466744358
 21
-118.4999999999998
 31
0.0
  0
CIRCLE
  5
6A6
330
6F
100
AcDbEntity
  8
SIZE
  6
Continuous
 62
    30
100
AcDbCircle
 10
835.4885466744358
 20
-2.99999999999974
 30
0.0
 40
7.5
  0
CIRCLE
  5
6A7
330
6F
100
AcDbEntity
  8
SIZE
  6
Continuous
 62
    30
100
AcDbCircle
 10
835.4885466744358
 20
-118.4999999999998
 30
0.0
 40
7.5
  0
TEXT
  5
6A8
330
6F
100
AcDbEntity
  8
SIZE
  6
Continuous
 62
    30
100
AcDbText
 10
815.4885466744357
 20
-89.1219280671769
 30
0.0
 40
40.0
  1
116
 50
90.0
 41
0.9
 72
     1
 11
815.4885466744357
 21
-50.55049949574835
 31
0.0
100
AcDbText
  0
POINT
  5
6A9
330
6F
100
AcDbEntity
  8
DEFPOINTS
  6
Continuous
 62
    30
100
AcDbPoint
 10
544.4999999999996
 20
-2.999999999999658
 30
0.0
  0
POINT
  5
6AA
330
6F
100
AcDbEntity
  8
DEFPOINTS
  6
Continuous
 62
    30
100
AcDbPoint
 10
451.9196852390447
 20
-118.4999999999996
 30
0.0
  0
POINT
  5
6AB
330
6F
100
AcDbEntity
  8
DEFPOINTS
  6
Continuous
 62
    30
100
AcDbPoint
 10
835.4885466744358
 20
-118.4999999999998
 30
0.0
  0
LINE
  5
6AC
330
6F
100
AcDbEntity
  8
SIZE
  6
Continuous
 62
    30
100
AcDbLine
 10
-570.0000000000005
 20
-1.999999999999651
 30
0.0
 11
-902.4844845195657
 21
-1.999999999999559
 31
0.0
  0
LINE
  5
6AD
330
6F
100
AcDbEntity
  8
SIZE
  6
Continuous
 62
    30
100
AcDbLine
 10
-570.0000000000005
 20
-251.9499999999995
 30
0.0
 11
-902.4844845195657
 21
-251.9499999999994
 31
0.0
  0
LINE
  5
6AE
330
6F
100
AcDbEntity
  8
SIZE
  6
Continuous
 62
    30
100
AcDbLine
 10
-882.4844845195658
 20
-1.999999999999563
 30
0.0
 11
-882.4844845195658
 21
-251.9499999999994
 31
0.0
  0
CIRCLE
  5
6AF
330
6F
100
AcDbEntity
  8
SIZE
  6
Continuous
 62
    30
100
AcDbCircle
 10
-882.4844845195658
 20
-1.999999999999563
 30
0.0
 40
7.5
  0
CIRCLE
  5
6B0
330
6F
100
AcDbEntity
  8
SIZE
  6
Continuous
 62
    30
100
AcDbCircle
 10
-882.4844845195658
 20
-251.9499999999994
 30
0.0
 40
7.5
  0
TEXT
  5
6B1
330
6F
100
AcDbEntity
  8
SIZE
  6
Continuous
 62
    30
100
AcDbText
 10
-902.4844845195662
 20
-173.2607142857139
 30
0.0
 40
40.0
  1
250
 50
90.0
 41
0.9
 72
     1
 11
-902.4844845195662
 21
-126.9749999999996
 31
0.0
100
AcDbText
  0
POINT
  5
6B2
330
6F
100
AcDbEntity
  8
DEFPOINTS
  6
Continuous
 62
    30
100
AcDbPoint
 10
-550.0000000000006
 20
-1.999999999999658
 30
0.0
  0
POINT
  5
6B3
330
6F
100
AcDbEntity
  8
DEFPOINTS
  6
Continuous
 62
    30
100
AcDbPoint
 10
-550.0000000000006
 20
-251.9499999999995
 30
0.0
  0
POINT
  5
6B4
330
6F
100
AcDbEntity
  8
DEFPOINTS
  6
Continuous
 62
    30
100
AcDbPoint
 10
-882.4844845195658
 20
-251.9499999999994
 30
0.0
  0
LINE
  5
6B5
330
6F
100
AcDbEntity
  8
SIZE
  6
Continuous
 62
    30
100
AcDbLine
 10
-621.000123483484
 20
-404.9603951084542
 30
0.0
 11
-902.484484519579
 21
-404.9603951084539
 31
0.0
  0
LINE
  5
6B6
330
6F
100
AcDbEntity
  8
SIZE
  6
Continuous
 62
    30
100
AcDbLine
 10
-570.0000000000005
 20
-251.9499999999995
 30
0.0
 11
-902.4844845195787
 21
-251.9499999999994
 31
0.0
  0
LINE
  5
6B7
330
6F
100
AcDbEntity
  8
SIZE
  6
Continuous
 62
    30
100
AcDbLine
 10
-882.4844845195787
 20
-251.9499999999994
 30
0.0
 11
-882.4844845195791
 21
-404.9603951084542
 31
0.0
  0
LINE
  5
6B8
330
6F
100
AcDbEntity
  8
SIZE
  6
Continuous
 62
    30
100
AcDbLine
 10
-882.4844845195791
 20
-404.9603951084542
 30
0.0
 11
-882.4844845195791
 21
-706.7318236798869
 31
0.0
  0
CIRCLE
  5
6B9
330
6F
100
AcDbEntity
  8
SIZE
  6
Continuous
 62
    30
100
AcDbCircle
 10
-882.4844845195787
 20
-251.9499999999994
 30
0.0
 40
7.5
  0
CIRCLE
  5
6BA
330
6F
100
AcDbEntity
  8
SIZE
  6
Continuous
 62
    30
100
AcDbCircle
 10
-882.4844845195791
 20
-404.9603951084542
 30
0.0
 40
7.5
  0
TEXT
  5
6BB
330
6F
100
AcDbEntity
  8
SIZE
  6
Continuous
 62
    30
100
AcDbText
 10
-902.4844845195787
 20
-686.731823679887
 30
0.0
 40
40.0
  1
150～300
 50
90.0
 41
0.9
 72
     1
 11
-902.4844845195787
 21
-570.8461093941727
 31
0.0
100
AcDbText
  0
POINT
  5
6BC
330
6F
100
AcDbEntity
  8
DEFPOINTS
  6
Continuous
 62
    30
100
AcDbPoint
 10
-601.000123483484
 20
-404.9603951084542
 30
0.0
  0
POINT
  5
6BD
330
6F
100
AcDbEntity
  8
DEFPOINTS
  6
Continuous
 62
    30
100
AcDbPoint
 10
-550.0000000000006
 20
-251.9499999999995
 30
0.0
  0
POINT
  5
6BE
330
6F
100
AcDbEntity
  8
DEFPOINTS
  6
Continuous
 62
    30
100
AcDbPoint
 10
-882.4844845195787
 20
-251.9499999999994
 30
0.0
  0
LINE
  5
6BF
330
6F
100
AcDbEntity
  8
NOTE
  6
Continuous
 62
     4
100
AcDbLine
 10
606.4999999999996
 20
-145.4693543253203
 30
0.0
 11
606.4999999999996
 21
-104.9306456746786
 31
0.0
  0
LINE
  5
6C0
330
6F
100
AcDbEntity
  8
NOTE
  6
Continuous
 62
     4
100
AcDbLine
 10
624.7271194249547
 20
-125.1999999999995
 30
0.0
 11
588.2728805750444
 21
-125.1999999999995
 31
0.0
  0
LINE
  5
6C1
330
6F
100
AcDbEntity
  8
NOTE
  6
Continuous
 62
     4
100
AcDbLine
 10
627.4999999999996
 20
-178.4693543253203
 30
0.0
 11
627.4999999999996
 21
-137.9306456746786
 31
0.0
  0
LINE
  5
6C2
330
6F
100
AcDbEntity
  8
NOTE
  6
Continuous
 62
     4
100
AcDbLine
 10
645.7271194249547
 20
-158.1999999999994
 30
0.0
 11
609.2728805750444
 21
-158.1999999999994
 31
0.0
  0
LINE
  5
6C3
330
6F
100
AcDbEntity
  8
SIZE
  6
Continuous
 62
    30
100
AcDbLine
 10
564.4999999999996
 20
-2.999999999999663
 30
0.0
 11
951.3031000554816
 21
-2.999999999999774
 31
0.0
  0
LINE
  5
6C4
330
6F
100
AcDbEntity
  8
SIZE
  6
Continuous
 62
    30
100
AcDbLine
 10
644.7271194249545
 20
-125.1999999999995
 30
0.0
 11
951.3031000554816
 21
-125.1999999999995
 31
0.0
  0
LINE
  5
6C5
330
6F
100
AcDbEntity
  8
SIZE
  6
Continuous
 62
    30
100
AcDbLine
 10
931.3031000554815
 20
-2.999999999999768
 30
0.0
 11
931.3031000554815
 21
-125.1999999999995
 31
0.0
  0
CIRCLE
  5
6C6
330
6F
100
AcDbEntity
  8
SIZE
  6
Continuous
 62
    30
100
AcDbCircle
 10
931.3031000554815
 20
-2.999999999999768
 30
0.0
 40
7.5
  0
CIRCLE
  5
6C7
330
6F
100
AcDbEntity
  8
SIZE
  6
Continuous
 62
    30
100
AcDbCircle
 10
931.3031000554815
 20
-125.1999999999995
 30
0.0
 40
7.5
  0
TEXT
  5
6C8
330
6F
100
AcDbEntity
  8
SIZE
  6
Continuous
 62
    30
100
AcDbText
 10
911.3031000554816
 20
-99.76348264276598
 30
0.0
 40
40.0
  1
122
 50
90.0
 41
0.9
 72
     1
 11
911.3031000554816
 21
-56.90633978562313
 31
0.0
100
AcDbText
  0
POINT
  5
6C9
330
6F
100
AcDbEntity
  8
DEFPOINTS
  6
Continuous
 62
    30
100
AcDbPoint
 10
544.4999999999996
 20
-2.999999999999658
 30
0.0
  0
POINT
  5
6CA
330
6F
100
AcDbEntity
  8
DEFPOINTS
  6
Continuous
 62
    30
100
AcDbPoint
 10
624.7271194249547
 20
-125.1999999999995
 30
0.0
  0
POINT
  5
6CB
330
6F
100
AcDbEntity
  8
DEFPOINTS
  6
Continuous
 62
    30
100
AcDbPoint
 10
931.3031000554815
 20
-125.1999999999995
 30
0.0
  0
LINE
  5
6CC
330
6F
100
AcDbEntity
  8
SIZE
  6
Continuous
 62
    30
100
AcDbLine
 10
665.7271194249545
 20
-158.1999999999994
 30
0.0
 11
951.3031000554816
 21
-158.1999999999995
 31
0.0
  0
LINE
  5
6CD
330
6F
100
AcDbEntity
  8
SIZE
  6
Continuous
 62
    30
100
AcDbLine
 10
644.7271194249545
 20
-125.1999999999995
 30
0.0
 11
951.3031000554816
 21
-125.1999999999995
 31
0.0
  0
LINE
  5
6CE
330
6F
100
AcDbEntity
  8
SIZE
  6
Continuous
 62
    30
100
AcDbLine
 10
931.3031000554815
 20
-125.1999999999995
 30
0.0
 11
931.3031000554815
 21
-95.19999999999956
 31
0.0
  0
LINE
  5
6CF
330
6F
100
AcDbEntity
  8
SIZE
  6
Continuous
 62
    30
100
AcDbLine
 10
931.3031000554815
 20
-158.1999999999995
 30
0.0
 11
931.3031000554813
 21
-323.8994608754266
 31
0.0
  0
LINE
  5
6D0
330
6F
100
AcDbEntity
  8
SIZE
  6
Continuous
 62
    30
100
AcDbLine
 10
931.3031000554815
 20
-125.1999999999995
 30
0.0
 11
931.3031000554815
 21
-158.1999999999995
 31
0.0
  0
CIRCLE
  5
6D1
330
6F
100
AcDbEntity
  8
SIZE
  6
Continuous
 62
    30
100
AcDbCircle
 10
931.3031000554815
 20
-125.1999999999995
 30
0.0
 40
7.5
  0
CIRCLE
  5
6D2
330
6F
100
AcDbEntity
  8
SIZE
  6
Continuous
 62
    30
100
AcDbCircle
 10
931.3031000554815
 20
-158.1999999999995
 30
0.0
 40
7.5
  0
TEXT
  5
6D3
330
6F
100
AcDbEntity
  8
SIZE
  6
Continuous
 62
    30
100
AcDbText
 10
911.3031000554816
 20
-303.8994608754265
 30
0.0
 40
40.0
  1
33
 50
90.0
 41
0.9
 72
     1
 11
911.3031000554816
 21
-274.7566037325693
 31
0.0
100
AcDbText
  0
POINT
  5
6D4
330
6F
100
AcDbEntity
  8
DEFPOINTS
  6
Continuous
 62
    30
100
AcDbPoint
 10
645.7271194249547
 20
-158.1999999999994
 30
0.0
  0
POINT
  5
6D5
330
6F
100
AcDbEntity
  8
DEFPOINTS
  6
Continuous
 62
    30
100
AcDbPoint
 10
624.7271194249547
 20
-125.1999999999995
 30
0.0
  0
POINT
  5
6D6
330
6F
100
AcDbEntity
  8
DEFPOINTS
  6
Continuous
 62
    30
100
AcDbPoint
 10
931.3031000554815
 20
-125.1999999999995
 30
0.0
  0
LINE
  5
6D7
330
6F
100
AcDbEntity
  8
SIZE
  6
Continuous
 62
    30
100
AcDbLine
 10
549.9999999999996
 20
20.00000000000034
 30
0.0
 11
549.9999999999996
 21
210.9890570364619
 31
0.0
  0
LINE
  5
6D8
330
6F
100
AcDbEntity
  8
SIZE
  6
Continuous
 62
    30
100
AcDbLine
 10
599.9999999999996
 20
-0.6999999999994772
 30
0.0
 11
599.9999999999996
 21
210.9890570364619
 31
0.0
  0
LINE
  5
6D9
330
6F
100
AcDbEntity
  8
SIZE
  6
Continuous
 62
    30
100
AcDbLine
 10
549.9999999999996
 20
190.9890570364616
 30
0.0
 11
599.9999999999996
 21
190.9890570364616
 31
0.0
  0
LINE
  5
6DA
330
6F
100
AcDbEntity
  8
SIZE
  6
Continuous
 62
    30
100
AcDbLine
 10
599.9999999999996
 20
190.9890570364616
 30
0.0
 11
728.2857142857136
 21
190.9890570364616
 31
0.0
  0
CIRCLE
  5
6DB
330
6F
100
AcDbEntity
  8
SIZE
  6
Continuous
 62
    30
100
AcDbCircle
 10
549.9999999999996
 20
190.9890570364616
 30
0.0
 40
7.5
  0
CIRCLE
  5
6DC
330
6F
100
AcDbEntity
  8
SIZE
  6
Continuous
 62
    30
100
AcDbCircle
 10
599.9999999999996
 20
190.9890570364616
 30
0.0
 40
7.5
  0
TEXT
  5
6DD
330
6F
100
AcDbEntity
  8
SIZE
  6
Continuous
 62
    30
100
AcDbText
 10
649.9999999999996
 20
210.9890570364617
 30
0.0
 40
40.0
  1
50
 41
0.9
 72
     1
 11
679.1428571428568
 21
210.9890570364617
 31
0.0
100
AcDbText
  0
POINT
  5
6DE
330
6F
100
AcDbEntity
  8
DEFPOINTS
  6
Continuous
 62
    30
100
AcDbPoint
 10
549.9999999999996
 20
0.0000000000003411
 30
0.0
  0
POINT
  5
6DF
330
6F
100
AcDbEntity
  8
DEFPOINTS
  6
Continuous
 62
    30
100
AcDbPoint
 10
599.9999999999996
 20
-20.69999999999948
 30
0.0
  0
POINT
  5
6E0
330
6F
100
AcDbEntity
  8
DEFPOINTS
  6
Continuous
 62
    30
100
AcDbPoint
 10
599.9999999999996
 20
190.9890570364616
 30
0.0
  0
LINE
  5
6E1
330
6F
100
AcDbEntity
  8
SIZE
  6
Continuous
 62
    30
100
AcDbLine
 10
549.9999999999996
 20
-19.99999999999965
 30
0.0
 11
549.9999999999996
 21
-514.5601015817708
 31
0.0
  0
LINE
  5
6E2
330
6F
100
AcDbEntity
  8
SIZE
  6
Continuous
 62
    30
100
AcDbLine
 10
606.4999999999996
 20
-124.9306456746786
 30
0.0
 11
606.4999999999996
 21
-514.5601015817708
 31
0.0
  0
LINE
  5
6E3
330
6F
100
AcDbEntity
  8
SIZE
  6
Continuous
 62
    30
100
AcDbLine
 10
549.9999999999996
 20
-494.5601015817707
 30
0.0
 11
606.4999999999996
 21
-494.5601015817707
 31
0.0
  0
CIRCLE
  5
6E4
330
6F
100
AcDbEntity
  8
SIZE
  6
Continuous
 62
    30
100
AcDbCircle
 10
549.9999999999996
 20
-494.5601015817707
 30
0.0
 40
7.5
  0
CIRCLE
  5
6E5
330
6F
100
AcDbEntity
  8
SIZE
  6
Continuous
 62
    30
100
AcDbCircle
 10
606.4999999999996
 20
-494.5601015817707
 30
0.0
 40
7.5
  0
TEXT
  5
6E6
330
6F
100
AcDbEntity
  8
SIZE
  6
Continuous
 62
    30
100
AcDbText
 10
549.1071428571427
 20
-474.5601015817706
 30
0.0
 40
40.0
  1
57
 41
0.9
 72
     1
 11
578.2499999999997
 21
-474.5601015817706
 31
0.0
100
AcDbText
  0
POINT
  5
6E7
330
6F
100
AcDbEntity
  8
DEFPOINTS
  6
Continuous
 62
    30
100
AcDbPoint
 10
549.9999999999996
 20
0.0000000000003411
 30
0.0
  0
POINT
  5
6E8
330
6F
100
AcDbEntity
  8
DEFPOINTS
  6
Continuous
 62
    30
100
AcDbPoint
 10
606.4999999999996
 20
-104.9306456746786
 30
0.0
  0
POINT
  5
6E9
330
6F
100
AcDbEntity
  8
DEFPOINTS
  6
Continuous
 62
    30
100
AcDbPoint
 10
606.4999999999996
 20
-494.5601015817707
 30
0.0
  0
LINE
  5
6EA
330
6F
100
AcDbEntity
  8
SIZE
  6
Continuous
 62
    30
100
AcDbLine
 10
549.9999999999996
 20
-22.80337814370125
 30
0.0
 11
549.9999999999996
 21
-602.1413713442822
 31
0.0
  0
LINE
  5
6EB
330
6F
100
AcDbEntity
  8
SIZE
  6
Continuous
 62
    30
100
AcDbLine
 10
627.4999999999996
 20
-157.9306456746786
 30
0.0
 11
627.4999999999996
 21
-602.1413713442822
 31
0.0
  0
LINE
  5
6EC
330
6F
100
AcDbEntity
  8
SIZE
  6
Continuous
 62
    30
100
AcDbLine
 10
549.9999999999996
 20
-582.141371344282
 30
0.0
 11
627.4999999999996
 21
-582.141371344282
 31
0.0
  0
CIRCLE
  5
6ED
330
6F
100
AcDbEntity
  8
SIZE
  6
Continuous
 62
    30
100
AcDbCircle
 10
549.9999999999996
 20
-582.141371344282
 30
0.0
 40
7.5
  0
CIRCLE
  5
6EE
330
6F
100
AcDbEntity
  8
SIZE
  6
Continuous
 62
    30
100
AcDbCircle
 10
627.4999999999996
 20
-582.141371344282
 30
0.0
 40
7.5
  0
TEXT
  5
6EF
330
6F
100
AcDbEntity
  8
SIZE
  6
Continuous
 62
    30
100
AcDbText
 10
559.6071428571425
 20
-562.141371344282
 30
0.0
 40
40.0
  1
78
 41
0.9
 72
     1
 11
588.7499999999996
 21
-562.141371344282
 31
0.0
100
AcDbText
  0
POINT
  5
6F0
330
6F
100
AcDbEntity
  8
DEFPOINTS
  6
Continuous
 62
    30
100
AcDbPoint
 10
549.9999999999996
 20
-2.803378143701251
 30
0.0
  0
POINT
  5
6F1
330
6F
100
AcDbEntity
  8
DEFPOINTS
  6
Continuous
 62
    30
100
AcDbPoint
 10
627.4999999999996
 20
-137.9306456746786
 30
0.0
  0
POINT
  5
6F2
330
6F
100
AcDbEntity
  8
DEFPOINTS
  6
Continuous
 62
    30
100
AcDbPoint
 10
627.4999999999996
 20
-582.141371344282
 30
0.0
  0
LINE
  5
6F3
330
6F
100
AcDbEntity
  8
NOTE
  6
Continuous
 62
     4
100
AcDbLine
 10
648.6425687779609
 20
-180.9510192529615
 30
0.0
 11
627.4999999999996
 21
-158.1999999999994
 31
0.0
  0
LINE
  5
6F4
330
6F
100
AcDbEntity
  8
NOTE
  6
Continuous
 62
     4
100
AcDbLine
 10
627.4999999999996
 20
-158.1999999999994
 30
0.0
 11
657.1855112480289
 21
-167.3316763807421
 31
0.0
  0
LINE
  5
6F5
330
6F
100
AcDbEntity
  8
NOTE
  6
Continuous
 62
     4
100
AcDbLine
 10
627.4999999999996
 20
-158.1999999999994
 30
0.0
 11
652.9140400129947
 21
-174.1413478168518
 31
0.0
  0
LINE
  5
6F6
330
6F
100
AcDbEntity
  8
NOTE
  6
Continuous
 62
     4
100
AcDbLine
 10
652.9140400129947
 20
-174.1413478168518
 30
0.0
 11
1221.986270375168
 21
-531.1006644967862
 31
0.0
  0
LINE
  5
6F7
330
6F
100
AcDbEntity
  8
NOTE
  6
Continuous
 62
     4
100
AcDbLine
 10
1221.986270375168
 20
-531.1006644967862
 30
0.0
 11
1725.863694694029
 21
-531.1006644967862
 31
0.0
  0
LINE
  5
6F8
330
6F
100
AcDbEntity
  8
NOTE
  6
Continuous
 62
     4
100
AcDbLine
 10
634.9908791473588
 20
-112.5659015612711
 30
0.0
 11
606.4999999999996
 21
-124.9306456746786
 31
0.0
  0
LINE
  5
6F9
330
6F
100
AcDbEntity
  8
NOTE
  6
Continuous
 62
     4
100
AcDbLine
 10
606.4999999999996
 20
-124.9306456746786
 30
0.0
 11
624.9914531742644
 21
-99.97702367138105
 31
0.0
  0
LINE
  5
6FA
330
6F
100
AcDbEntity
  8
NOTE
  6
Continuous
 62
     4
100
AcDbLine
 10
606.4999999999996
 20
-124.9306456746786
 30
0.0
 11
629.9911661608119
 21
-106.2714626163262
 31
0.0
  0
LINE
  5
6FB
330
6F
100
AcDbEntity
  8
NOTE
  6
Continuous
 62
     4
100
AcDbLine
 10
629.9911661608119
 20
-106.2714626163262
 30
0.0
 11
892.0730948545438
 21
101.9018843476182
 31
0.0
  0
LINE
  5
6FC
330
6F
100
AcDbEntity
  8
NOTE
  6
Continuous
 62
     4
100
AcDbLine
 10
892.0730948545438
 20
101.9018843476182
 30
0.0
 11
1337.628947636241
 21
101.9018843476182
 31
0.0
  0
TEXT
  5
6FD
330
6F
100
AcDbEntity
  8
NOTE
  6
Continuous
 62
     4
100
AcDbText
 10
1246.111246298894
 20
-502.0463968821538
 30
0.0
 40
64.0
  1
RG %%c15.88
100
AcDbText
  0
TEXT
  5
6FE
330
6F
100
AcDbEntity
  8
NOTE
  6
Continuous
 62
     4
100
AcDbText
 10
910.4900708261393
 20
131.8761946659937
 30
0.0
 40
64.0
  1
RL %%c9.52
100
AcDbText
  0
LINE
  5
6FF
330
6F
100
AcDbEntity
  8
NOTE
  6
Continuous
 62
     4
100
AcDbLine
 10
-577.0000000000005
 20
-55.99999999999965
 30
0.0
 11
-577.0000000000005
 21
20.00000000000034
 31
0.0
  0
LINE
  5
700
330
6F
100
AcDbEntity
  8
NOTE
  6
Continuous
 62
     4
100
AcDbLine
 10
-546.0876330378201
 20
-17.99999999999966
 30
0.0
 11
-607.912366962179
 21
-17.99999999999966
 31
0.0
  0
CIRCLE
  5
701
330
6F
100
AcDbEntity
  8
FIX
  6
Continuous
 62
    11
100
AcDbCircle
 10
-577.0000000000005
 20
-17.99999999999966
 30
0.0
 40
12.0
  0
LINE
  5
702
330
6F
100
AcDbEntity
  8
NOTE
  6
Continuous
 62
     4
100
AcDbLine
 10
576.9999999999996
 20
-55.99999999999965
 30
0.0
 11
576.9999999999996
 21
20.00000000000034
 31
0.0
  0
LINE
  5
703
330
6F
100
AcDbEntity
  8
NOTE
  6
Continuous
 62
     4
100
AcDbLine
 10
607.9123669621797
 20
-17.99999999999966
 30
0.0
 11
546.0876330378191
 21
-17.99999999999966
 31
0.0
  0
CIRCLE
  5
704
330
6F
100
AcDbEntity
  8
FIX
  6
Continuous
 62
    11
100
AcDbCircle
 10
576.9999999999996
 20
-17.99999999999966
 30
0.0
 40
12.0
  0
TEXT
  5
705
330
6F
100
AcDbEntity
  8
ETC
  6
Continuous
 62
    61
100
AcDbText
 10
-922.7784485125184
 20
607.557540756044
 30
0.0
 40
64.0
  1
加湿器組込（後吸込）
 41
0.9
100
AcDbText
  0
LINE
  5
706
330
6F
100
AcDbEntity
  8
BASIS
  6
DASHDOT
 62
     6
100
AcDbLine
 10
-0.0000000000004547
 20
87.39948312614556
 30
0.0
 11
-0.0000000000004547
 21
-450.9860258596678
 31
0.0
  0
CIRCLE
  5
707
330
6F
100
AcDbEntity
  8
ARRANGE
  6
Continuous
 62
     1
100
AcDbCircle
 10
0.0
 20
0.0
 30
0.0
 40
40.0
  0
LINE
  5
708
330
6F
100
AcDbEntity
  8
ARRANGE
  6
Continuous
 62
     1
100
AcDbLine
 10
-36.84543740734897
 20
-36.84543740734807
 30
0.0
 11
36.84543740734897
 21
36.84543740734989
 31
0.0
  0
LINE
  5
709
330
6F
100
AcDbEntity
  8
ARRANGE
  6
Continuous
 62
     1
100
AcDbLine
 10
-36.84543740734897
 20
36.84543740734989
 30
0.0
 11
36.84543740734897
 21
-36.84543740734989
 31
0.0
  0
LINE
  5
70A
330
6F
100
AcDbEntity
  8
OUTLINE
  6
Continuous
 62
     3
100
AcDbLine
 10
-554.0000000000005
 20
-23.41837661844568
 30
0.0
 11
-556.9183766185018
 21
-20.49999999999966
 31
0.0
  0
LINE
  5
70B
330
6F
100
AcDbEntity
  8
OUTLINE
  6
Continuous
 62
     3
100
AcDbLine
 10
-556.9183766185018
 20
-20.49999999999966
 30
0.0
 11
-597.3000000000015
 21
-20.49999999999966
 31
0.0
  0
ARC
  5
70C
330
6F
100
AcDbEntity
  8
OUTLINE
  6
Continuous
 62
     3
100
AcDbCircle
 10
-597.2999999999996
 20
-20.69999999999948
 30
0.0
 40
0.2000000000000455
100
AcDbArc
 50
90.00000000010418
 51
180.0
  0
LINE
  5
70D
330
6F
100
AcDbEntity
  8
OUTLINE
  6
Continuous
 62
     3
100
AcDbLine
 10
-597.5000000000005
 20
-20.69999999999948
 30
0.0
 11
-597.5000000000005
 21
-29.99999999999966
 31
0.0
  0
LINE
  5
70E
330
6F
100
AcDbEntity
  8
OUTLINE
  6
Continuous
 62
     3
100
AcDbLine
 10
-597.5000000000005
 20
-29.99999999999966
 30
0.0
 11
-600.0000000000006
 21
-29.99999999999966
 31
0.0
  0
LINE
  5
70F
330
6F
100
AcDbEntity
  8
OUTLINE
  6
Continuous
 62
     3
100
AcDbLine
 10
-600.0000000000006
 20
-29.99999999999966
 30
0.0
 11
-600.0000000000006
 21
-20.69999999999948
 31
0.0
  0
ARC
  5
710
330
6F
100
AcDbEntity
  8
OUTLINE
  6
Continuous
 62
     3
100
AcDbCircle
 10
-597.3000000000015
 20
-20.69999999999948
 30
0.0
 40
2.700000000000044
100
AcDbArc
 50
90.0
 51
180.0
  0
LINE
  5
711
330
6F
100
AcDbEntity
  8
OUTLINE
  6
Continuous
 62
     3
100
AcDbLine
 10
-597.3000000000015
 20
-17.99999999999966
 30
0.0
 11
-554.0000000000005
 21
-17.99999999999966
 31
0.0
  0
LINE
  5
712
330
6F
100
AcDbEntity
  8
OUTLINE
  6
Continuous
 62
     3
100
AcDbLine
 10
-554.0000000000005
 20
-17.99999999999966
 30
0.0
 11
-554.0000000000005
 21
-14.99999999999966
 31
0.0
  0
LINE
  5
713
330
6F
100
AcDbEntity
  8
OUTLINE
  6
Continuous
 62
     3
100
AcDbLine
 10
-554.0000000000005
 20
-14.99999999999966
 30
0.0
 11
-550.0000000000006
 21
-14.99999999999966
 31
0.0
  0
LINE
  5
714
330
6F
100
AcDbEntity
  8
OUTLINE
  6
Continuous
 62
     3
100
AcDbLine
 10
-550.0000000000006
 20
-14.99999999999966
 30
0.0
 11
-550.0000000000006
 21
0.0000000000003411
 31
0.0
  0
LINE
  5
715
330
6F
100
AcDbEntity
  8
OUTLINE
  6
Continuous
 62
     3
100
AcDbLine
 10
-550.0000000000006
 20
0.0000000000003411
 30
0.0
 11
549.9999999999996
 21
0.0000000000003411
 31
0.0
  0
LINE
  5
716
330
6F
100
AcDbEntity
  8
OUTLINE
  6
Continuous
 62
     3
100
AcDbLine
 10
549.9999999999996
 20
0.0000000000003411
 30
0.0
 11
549.9999999999996
 21
-16.49999999999966
 31
0.0
  0
LINE
  5
717
330
6F
100
AcDbEntity
  8
OUTLINE
  6
Continuous
 62
     3
100
AcDbLine
 10
549.9999999999996
 20
-16.49999999999966
 30
0.0
 11
552.9999999999996
 21
-16.49999999999966
 31
0.0
  0
LINE
  5
718
330
6F
100
AcDbEntity
  8
OUTLINE
  6
Continuous
 62
     3
100
AcDbLine
 10
552.9999999999996
 20
-16.49999999999966
 30
0.0
 11
552.9999999999996
 21
-17.99999999999966
 31
0.0
  0
LINE
  5
719
330
6F
100
AcDbEntity
  8
OUTLINE
  6
Continuous
 62
     3
100
AcDbLine
 10
552.9999999999996
 20
-17.99999999999966
 30
0.0
 11
597.3000000000006
 21
-17.99999999999966
 31
0.0
  0
ARC
  5
71A
330
6F
100
AcDbEntity
  8
OUTLINE
  6
Continuous
 62
     3
100
AcDbCircle
 10
597.3000000000006
 20
-20.69999999999948
 30
0.0
 40
2.699999999999818
100
AcDbArc
 50
0.0
 51
90.0
  0
LINE
  5
71B
330
6F
100
AcDbEntity
  8
OUTLINE
  6
Continuous
 62
     3
100
AcDbLine
 10
599.9999999999996
 20
-20.69999999999948
 30
0.0
 11
599.9999999999996
 21
-27.99999999999966
 31
0.0
  0
LINE
  5
71C
330
6F
100
AcDbEntity
  8
OUTLINE
  6
Continuous
 62
     3
100
AcDbLine
 10
599.9999999999996
 20
-27.99999999999966
 30
0.0
 11
607.9999999999996
 21
-27.99999999999966
 31
0.0
  0
LINE
  5
71D
330
6F
100
AcDbEntity
  8
OUTLINE
  6
Continuous
 62
     3
100
AcDbLine
 10
607.9999999999996
 20
-27.99999999999966
 30
0.0
 11
607.9999999999996
 21
-59.99999999999966
 31
0.0
  0
LINE
  5
71E
330
6F
100
AcDbEntity
  8
OUTLINE
  6
Continuous
 62
     3
100
AcDbLine
 10
607.9999999999996
 20
-59.99999999999966
 30
0.0
 11
582.9999999999996
 21
-59.99999999999966
 31
0.0
  0
LINE
  5
71F
330
6F
100
AcDbEntity
  8
OUTLINE
  6
Continuous
 62
     3
100
AcDbLine
 10
582.9999999999996
 20
-59.99999999999966
 30
0.0
 11
582.9999999999996
 21
-60.24999999999966
 31
0.0
  0
LINE
  5
720
330
6F
100
AcDbEntity
  8
OUTLINE
  6
Continuous
 62
     3
100
AcDbLine
 10
582.9999999999996
 20
-60.24999999999966
 30
0.0
 11
553.9825475935624
 21
-60.75650151584307
 31
0.0
  0
ARC
  5
721
330
6F
100
AcDbEntity
  8
OUTLINE
  6
Continuous
 62
     3
100
AcDbCircle
 10
553.9999999999996
 20
-61.75634921099993
 30
0.0
 40
1.000000000000012
100
AcDbArc
 50
90.99999999997569
 51
180.0
  0
LINE
  5
722
330
6F
100
AcDbEntity
  8
OUTLINE
  6
Continuous
 62
     3
100
AcDbLine
 10
552.9999999999996
 20
-61.75634921099993
 30
0.0
 11
552.9999999999996
 21
-71.49999999999966
 31
0.0
  0
LINE
  5
723
330
6F
100
AcDbEntity
  8
OUTLINE
  6
Continuous
 62
     3
100
AcDbLine
 10
552.9999999999996
 20
-71.49999999999966
 30
0.0
 11
552.5999999999998
 21
-92.99999999999966
 31
0.0
  0
LINE
  5
724
330
6F
100
AcDbEntity
  8
OUTLINE
  6
Continuous
 62
     3
100
AcDbLine
 10
552.5999999999998
 20
-92.99999999999966
 30
0.0
 11
553.9999999999996
 21
-92.99999999999966
 31
0.0
  0
LINE
  5
725
330
6F
100
AcDbEntity
  8
OUTLINE
  6
Continuous
 62
     3
100
AcDbLine
 10
553.9999999999996
 20
-92.99999999999966
 30
0.0
 11
553.9999999999996
 21
-108.6999999999995
 31
0.0
  0
LINE
  5
726
330
6F
100
AcDbEntity
  8
OUTLINE
  6
Continuous
 62
     3
100
AcDbLine
 10
553.9999999999996
 20
-108.6999999999995
 30
0.0
 11
572.9999999999996
 21
-108.6999999999995
 31
0.0
  0
LINE
  5
727
330
6F
100
AcDbEntity
  8
OUTLINE
  6
Continuous
 62
     3
100
AcDbLine
 10
572.9999999999996
 20
-108.6999999999995
 30
0.0
 11
572.9999999999996
 21
-115.3850454237996
 31
0.0
  0
LINE
  5
728
330
6F
100
AcDbEntity
  8
OUTLINE
  6
Continuous
 62
     3
100
AcDbLine
 10
572.9999999999996
 20
-115.3850454237996
 30
0.0
 11
585.6850454237004
 21
-115.3850454237996
 31
0.0
  0
LINE
  5
729
330
6F
100
AcDbEntity
  8
OUTLINE
  6
Continuous
 62
     3
100
AcDbLine
 10
585.6850454237004
 20
-115.3850454237996
 30
0.0
 11
586.9999999999996
 21
-116.6999999999994
 31
0.0
  0
LINE
  5
72A
330
6F
100
AcDbEntity
  8
OUTLINE
  6
Continuous
 62
     3
100
AcDbLine
 10
586.9999999999996
 20
-116.6999999999994
 30
0.0
 11
586.9999999999996
 21
-117.2599999999998
 31
0.0
  0
LINE
  5
72B
330
6F
100
AcDbEntity
  8
OUTLINE
  6
Continuous
 62
     3
100
AcDbLine
 10
586.9999999999996
 20
-117.2599999999998
 30
0.0
 11
588.4999999999998
 21
-117.2599999999998
 31
0.0
  0
LINE
  5
72C
330
6F
100
AcDbEntity
  8
OUTLINE
  6
Continuous
 62
     3
100
AcDbLine
 10
588.4999999999998
 20
-117.2599999999998
 30
0.0
 11
588.4999999999998
 21
-115.6737205586543
 31
0.0
  0
LINE
  5
72D
330
6F
100
AcDbEntity
  8
OUTLINE
  6
Continuous
 62
     3
100
AcDbLine
 10
588.4999999999998
 20
-115.6737205586543
 30
0.0
 11
588.4486760139311
 21
-115.2989131672917
 31
0.0
  0
LINE
  5
72E
330
6F
100
AcDbEntity
  8
OUTLINE
  6
Continuous
 62
     3
100
AcDbLine
 10
588.4486760139311
 20
-115.2989131672917
 30
0.0
 11
588.4999999999998
 21
-115.1723989698008
 31
0.0
  0
LINE
  5
72F
330
6F
100
AcDbEntity
  8
OUTLINE
  6
Continuous
 62
     3
100
AcDbLine
 10
588.4999999999998
 20
-115.1723989698008
 30
0.0
 11
588.4999999999998
 21
-114.1999999999995
 31
0.0
  0
LINE
  5
730
330
6F
100
AcDbEntity
  8
OUTLINE
  6
Continuous
 62
     3
100
AcDbLine
 10
588.4999999999998
 20
-114.1999999999995
 30
0.0
 11
590.2017059220992
 21
-112.4982940777996
 31
0.0
  0
LINE
  5
731
330
6F
100
AcDbEntity
  8
OUTLINE
  6
Continuous
 62
     3
100
AcDbLine
 10
590.2017059220992
 20
-112.4982940777996
 30
0.0
 11
604.7982940777996
 21
-112.4982940777996
 31
0.0
  0
LINE
  5
732
330
6F
100
AcDbEntity
  8
OUTLINE
  6
Continuous
 62
     3
100
AcDbLine
 10
604.7982940777996
 20
-112.4982940777996
 30
0.0
 11
606.4999999999996
 21
-114.1999999999995
 31
0.0
  0
LINE
  5
733
330
6F
100
AcDbEntity
  8
OUTLINE
  6
Continuous
 62
     3
100
AcDbLine
 10
606.4999999999996
 20
-114.1999999999995
 30
0.0
 11
606.4999999999996
 21
-121.0560426210996
 31
0.0
  0
LINE
  5
734
330
6F
100
AcDbEntity
  8
OUTLINE
  6
Continuous
 62
     3
100
AcDbLine
 10
606.4999999999996
 20
-121.0560426210996
 30
0.0
 11
607.2728904619992
 21
-121.5756376753994
 31
0.0
  0
LINE
  5
735
330
6F
100
AcDbEntity
  8
OUTLINE
  6
Continuous
 62
     3
100
AcDbLine
 10
607.2728904619992
 20
-121.5756376753994
 30
0.0
 11
607.9776490776999
 21
-122.5042123929994
 31
0.0
  0
LINE
  5
736
330
6F
100
AcDbEntity
  8
OUTLINE
  6
Continuous
 62
     3
100
AcDbLine
 10
607.9776490776999
 20
-122.5042123929994
 30
0.0
 11
608.4048089793007
 21
-123.7103858247998
 31
0.0
  0
LINE
  5
737
330
6F
100
AcDbEntity
  8
OUTLINE
  6
Continuous
 62
     3
100
AcDbLine
 10
608.4048089793007
 20
-123.7103858247998
 30
0.0
 11
608.5485281373999
 21
-125.1999999999995
 31
0.0
  0
LINE
  5
738
330
6F
100
AcDbEntity
  8
OUTLINE
  6
Continuous
 62
     3
100
AcDbLine
 10
608.5485281373999
 20
-125.1999999999995
 30
0.0
 11
608.4048089793007
 21
-126.6896141752
 31
0.0
  0
LINE
  5
739
330
6F
100
AcDbEntity
  8
OUTLINE
  6
Continuous
 62
     3
100
AcDbLine
 10
608.4048089793007
 20
-126.6896141752
 30
0.0
 11
607.9776490776999
 21
-127.895787607
 31
0.0
  0
LINE
  5
73A
330
6F
100
AcDbEntity
  8
OUTLINE
  6
Continuous
 62
     3
100
AcDbLine
 10
607.9776490776999
 20
-127.895787607
 30
0.0
 11
607.2728904619992
 21
-128.8243623245994
 31
0.0
  0
LINE
  5
73B
330
6F
100
AcDbEntity
  8
OUTLINE
  6
Continuous
 62
     3
100
AcDbLine
 10
607.2728904619992
 20
-128.8243623245994
 30
0.0
 11
606.4999999999996
 21
-129.3439573788997
 31
0.0
  0
LINE
  5
73C
330
6F
100
AcDbEntity
  8
OUTLINE
  6
Continuous
 62
     3
100
AcDbLine
 10
606.4999999999996
 20
-129.3439573788997
 30
0.0
 11
606.4999999999996
 21
-136.1999999999999
 31
0.0
  0
LINE
  5
73D
330
6F
100
AcDbEntity
  8
OUTLINE
  6
Continuous
 62
     3
100
AcDbLine
 10
606.4999999999996
 20
-136.1999999999999
 30
0.0
 11
604.7982940777996
 21
-137.9017059221997
 31
0.0
  0
LINE
  5
73E
330
6F
100
AcDbEntity
  8
OUTLINE
  6
Continuous
 62
     3
100
AcDbLine
 10
604.7982940777996
 20
-137.9017059221997
 30
0.0
 11
590.2017059220992
 21
-137.9017059221997
 31
0.0
  0
LINE
  5
73F
330
6F
100
AcDbEntity
  8
OUTLINE
  6
Continuous
 62
     3
100
AcDbLine
 10
590.2017059220992
 20
-137.9017059221997
 30
0.0
 11
588.4999999999998
 21
-136.1999999999994
 31
0.0
  0
LINE
  5
740
330
6F
100
AcDbEntity
  8
OUTLINE
  6
Continuous
 62
     3
100
AcDbLine
 10
588.4999999999998
 20
-136.1999999999994
 30
0.0
 11
588.4999999999998
 21
-133.14
 31
0.0
  0
LINE
  5
741
330
6F
100
AcDbEntity
  8
OUTLINE
  6
Continuous
 62
     3
100
AcDbLine
 10
588.4999999999998
 20
-133.14
 30
0.0
 11
586.9999999999996
 21
-133.14
 31
0.0
  0
LINE
  5
742
330
6F
100
AcDbEntity
  8
OUTLINE
  6
Continuous
 62
     3
100
AcDbLine
 10
586.9999999999996
 20
-133.14
 30
0.0
 11
586.9999999999996
 21
-133.6999999999995
 31
0.0
  0
LINE
  5
743
330
6F
100
AcDbEntity
  8
OUTLINE
  6
Continuous
 62
     3
100
AcDbLine
 10
586.9999999999996
 20
-133.6999999999995
 30
0.0
 11
585.6850454237004
 21
-135.0149545761998
 31
0.0
  0
LINE
  5
744
330
6F
100
AcDbEntity
  8
OUTLINE
  6
Continuous
 62
     3
100
AcDbLine
 10
585.6850454237004
 20
-135.0149545761998
 30
0.0
 11
572.9999999999996
 21
-135.0149545761998
 31
0.0
  0
LINE
  5
745
330
6F
100
AcDbEntity
  8
OUTLINE
  6
Continuous
 62
     3
100
AcDbLine
 10
572.9999999999996
 20
-135.0149545761998
 30
0.0
 11
572.9999999999996
 21
-139.1999999999995
 31
0.0
  0
LINE
  5
746
330
6F
100
AcDbEntity
  8
OUTLINE
  6
Continuous
 62
     3
100
AcDbLine
 10
572.9999999999996
 20
-139.1999999999995
 30
0.0
 11
579.9999999999996
 21
-139.1999999999995
 31
0.0
  0
LINE
  5
747
330
6F
100
AcDbEntity
  8
OUTLINE
  6
Continuous
 62
     3
100
AcDbLine
 10
579.9999999999996
 20
-139.1999999999995
 30
0.0
 11
579.9999999999996
 21
-144.9209438085996
 31
0.0
  0
LINE
  5
748
330
6F
100
AcDbEntity
  8
OUTLINE
  6
Continuous
 62
     3
100
AcDbLine
 10
579.9999999999996
 20
-144.9209438085996
 30
0.0
 11
595.2209438086006
 21
-144.9209438085996
 31
0.0
  0
LINE
  5
749
330
6F
100
AcDbEntity
  8
OUTLINE
  6
Continuous
 62
     3
100
AcDbLine
 10
595.2209438086006
 20
-144.9209438085996
 30
0.0
 11
597.3999999999992
 21
-147.1
 31
0.0
  0
LINE
  5
74A
330
6F
100
AcDbEntity
  8
OUTLINE
  6
Continuous
 62
     3
100
AcDbLine
 10
597.3999999999992
 20
-147.1
 30
0.0
 11
601.4999999999997
 21
-147.1
 31
0.0
  0
LINE
  5
74B
330
6F
100
AcDbEntity
  8
OUTLINE
  6
Continuous
 62
     3
100
AcDbLine
 10
601.4999999999997
 20
-147.1
 30
0.0
 11
601.4999999999997
 21
-143.4499999999995
 31
0.0
  0
LINE
  5
74C
330
6F
100
AcDbEntity
  8
OUTLINE
  6
Continuous
 62
     3
100
AcDbLine
 10
601.4999999999997
 20
-143.4499999999995
 30
0.0
 11
603.4999999999996
 21
-141.4499999999994
 31
0.0
  0
LINE
  5
74D
330
6F
100
AcDbEntity
  8
OUTLINE
  6
Continuous
 62
     3
100
AcDbLine
 10
603.4999999999996
 20
-141.4499999999994
 30
0.0
 11
621.4999999999996
 21
-141.4499999999994
 31
0.0
  0
LINE
  5
74E
330
6F
100
AcDbEntity
  8
OUTLINE
  6
Continuous
 62
     3
100
AcDbLine
 10
621.4999999999996
 20
-141.4499999999994
 30
0.0
 11
623.4999999999996
 21
-143.4499999999995
 31
0.0
  0
LINE
  5
74F
330
6F
100
AcDbEntity
  8
OUTLINE
  6
Continuous
 62
     3
100
AcDbLine
 10
623.4999999999996
 20
-143.4499999999995
 30
0.0
 11
627.4999999999996
 21
-146.6999999999995
 31
0.0
  0
LINE
  5
750
330
6F
100
AcDbEntity
  8
OUTLINE
  6
Continuous
 62
     3
100
AcDbLine
 10
627.4999999999996
 20
-146.6999999999995
 30
0.0
 11
627.4999999999996
 21
-151.2441023409998
 31
0.0
  0
LINE
  5
751
330
6F
100
AcDbEntity
  8
OUTLINE
  6
Continuous
 62
     3
100
AcDbLine
 10
627.4999999999996
 20
-151.2441023409998
 30
0.0
 11
628.3339009918996
 21
-151.6946704365997
 31
0.0
  0
LINE
  5
752
330
6F
100
AcDbEntity
  8
OUTLINE
  6
Continuous
 62
     3
100
AcDbLine
 10
628.3339009918996
 20
-151.6946704365997
 30
0.0
 11
629.4962908768005
 21
-152.8251376945997
 31
0.0
  0
LINE
  5
753
330
6F
100
AcDbEntity
  8
OUTLINE
  6
Continuous
 62
     3
100
AcDbLine
 10
629.4962908768005
 20
-152.8251376945997
 30
0.0
 11
630.3298823676993
 21
-154.2844033465995
 31
0.0
  0
LINE
  5
754
330
6F
100
AcDbEntity
  8
OUTLINE
  6
Continuous
 62
     3
100
AcDbLine
 10
630.3298823676993
 20
-154.2844033465995
 30
0.0
 11
630.8320169279007
 21
-156.0751259291993
 31
0.0
  0
LINE
  5
755
330
6F
100
AcDbEntity
  8
OUTLINE
  6
Continuous
 62
     3
100
AcDbLine
 10
630.8320169279007
 20
-156.0751259291993
 30
0.0
 11
630.9999999999996
 21
-158.199999999999
 31
0.0
  0
LINE
  5
756
330
6F
100
AcDbEntity
  8
OUTLINE
  6
Continuous
 62
     3
100
AcDbLine
 10
630.9999999999996
 20
-158.199999999999
 30
0.0
 11
630.8320169279007
 21
-160.324874070899
 31
0.0
  0
LINE
  5
757
330
6F
100
AcDbEntity
  8
OUTLINE
  6
Continuous
 62
     3
100
AcDbLine
 10
630.8320169279007
 20
-160.324874070899
 30
0.0
 11
630.3298823676993
 21
-162.1155966534994
 31
0.0
  0
LINE
  5
758
330
6F
100
AcDbEntity
  8
OUTLINE
  6
Continuous
 62
     3
100
AcDbLine
 10
630.3298823676993
 20
-162.1155966534994
 30
0.0
 11
629.4962908768005
 21
-163.5748623053993
 31
0.0
  0
LINE
  5
759
330
6F
100
AcDbEntity
  8
OUTLINE
  6
Continuous
 62
     3
100
AcDbLine
 10
629.4962908768005
 20
-163.5748623053993
 30
0.0
 11
628.3339009918996
 21
-164.7053295633997
 31
0.0
  0
LINE
  5
75A
330
6F
100
AcDbEntity
  8
OUTLINE
  6
Continuous
 62
     3
100
AcDbLine
 10
628.3339009918996
 20
-164.7053295633997
 30
0.0
 11
627.4999999999996
 21
-165.155897659
 31
0.0
  0
LINE
  5
75B
330
6F
100
AcDbEntity
  8
OUTLINE
  6
Continuous
 62
     3
100
AcDbLine
 10
627.4999999999996
 20
-165.155897659
 30
0.0
 11
627.4999999999996
 21
-169.6999999999994
 31
0.0
  0
LINE
  5
75C
330
6F
100
AcDbEntity
  8
OUTLINE
  6
Continuous
 62
     3
100
AcDbLine
 10
627.4999999999996
 20
-169.6999999999994
 30
0.0
 11
623.4999999999996
 21
-172.9500000000004
 31
0.0
  0
LINE
  5
75D
330
6F
100
AcDbEntity
  8
OUTLINE
  6
Continuous
 62
     3
100
AcDbLine
 10
623.4999999999996
 20
-172.9500000000004
 30
0.0
 11
621.4999999999996
 21
-174.9499999999994
 31
0.0
  0
LINE
  5
75E
330
6F
100
AcDbEntity
  8
OUTLINE
  6
Continuous
 62
     3
100
AcDbLine
 10
621.4999999999996
 20
-174.9499999999994
 30
0.0
 11
603.4999999999996
 21
-174.9499999999994
 31
0.0
  0
LINE
  5
75F
330
6F
100
AcDbEntity
  8
OUTLINE
  6
Continuous
 62
     3
100
AcDbLine
 10
603.4999999999996
 20
-174.9499999999994
 30
0.0
 11
601.4999999999997
 21
-172.9499999999994
 31
0.0
  0
LINE
  5
760
330
6F
100
AcDbEntity
  8
OUTLINE
  6
Continuous
 62
     3
100
AcDbLine
 10
601.4999999999997
 20
-172.9499999999994
 30
0.0
 11
601.4999999999997
 21
-169.2999999999998
 31
0.0
  0
LINE
  5
761
330
6F
100
AcDbEntity
  8
OUTLINE
  6
Continuous
 62
     3
100
AcDbLine
 10
601.4999999999997
 20
-169.2999999999998
 30
0.0
 11
597.3999999999992
 21
-169.2999999999998
 31
0.0
  0
LINE
  5
762
330
6F
100
AcDbEntity
  8
OUTLINE
  6
Continuous
 62
     3
100
AcDbLine
 10
597.3999999999992
 20
-169.2999999999998
 30
0.0
 11
595.2209438086006
 21
-171.4790561913997
 31
0.0
  0
LINE
  5
763
330
6F
100
AcDbEntity
  8
OUTLINE
  6
Continuous
 62
     3
100
AcDbLine
 10
595.2209438086006
 20
-171.4790561913997
 30
0.0
 11
579.9999999999996
 21
-171.4790561913997
 31
0.0
  0
LINE
  5
764
330
6F
100
AcDbEntity
  8
OUTLINE
  6
Continuous
 62
     3
100
AcDbLine
 10
579.9999999999996
 20
-171.4790561913997
 30
0.0
 11
579.9999999999996
 21
-177.1999999999995
 31
0.0
  0
LINE
  5
765
330
6F
100
AcDbEntity
  8
OUTLINE
  6
Continuous
 62
     3
100
AcDbLine
 10
579.9999999999996
 20
-177.1999999999995
 30
0.0
 11
553.9999999999996
 21
-177.1999999999995
 31
0.0
  0
LINE
  5
766
330
6F
100
AcDbEntity
  8
OUTLINE
  6
Continuous
 62
     3
100
AcDbLine
 10
553.9999999999996
 20
-177.1999999999995
 30
0.0
 11
553.9999999999996
 21
-200.2999999999998
 31
0.0
  0
LINE
  5
767
330
6F
100
AcDbEntity
  8
OUTLINE
  6
Continuous
 62
     3
100
AcDbLine
 10
553.9999999999996
 20
-200.2999999999998
 30
0.0
 11
589.9999999999996
 21
-200.2999999999998
 31
0.0
  0
LINE
  5
768
330
6F
100
AcDbEntity
  8
OUTLINE
  6
Continuous
 62
     3
100
AcDbLine
 10
589.9999999999996
 20
-200.2999999999998
 30
0.0
 11
589.9999999999996
 21
-240.2999999999998
 31
0.0
  0
LINE
  5
769
330
6F
100
AcDbEntity
  8
OUTLINE
  6
Continuous
 62
     3
100
AcDbLine
 10
589.9999999999996
 20
-240.2999999999998
 30
0.0
 11
552.3037011669198
 21
-240.2999999999998
 31
0.0
  0
ARC
  5
76A
330
6F
100
AcDbEntity
  8
OUTLINE
  6
Continuous
 62
     3
100
AcDbCircle
 10
549.5999999999997
 20
-238.9999999999997
 30
0.0
 40
3.00000000000006
100
AcDbArc
 50
324.7524930078989
 51
334.3207113805349
  0
LINE
  5
76B
330
6F
100
AcDbEntity
  8
OUTLINE
  6
Continuous
 62
     3
100
AcDbLine
 10
552.0500000000006
 20
-240.731328969318
 30
0.0
 11
552.0500000000006
 21
-249.9499999999995
 31
0.0
  0
ARC
  5
76C
330
6F
100
AcDbEntity
  8
OUTLINE
  6
Continuous
 62
     3
100
AcDbCircle
 10
549.9999999999996
 20
-249.9499999999995
 30
0.0
 40
2.049999999999726
100
AcDbArc
 50
270.0
 51
0.0
  0
LINE
  5
76D
330
6F
100
AcDbEntity
  8
OUTLINE
  6
Continuous
 62
     3
100
AcDbLine
 10
549.9999999999996
 20
-251.9999999999996
 30
0.0
 11
500.0000000000012
 21
-251.9999999999996
 31
0.0
  0
LINE
  5
76E
330
6F
100
AcDbEntity
  8
OUTLINE
  6
Continuous
 62
     3
100
AcDbLine
 10
500.0000000000012
 20
-251.9999999999996
 30
0.0
 11
500.0000000000012
 21
-259.999999999996
 31
0.0
  0
LINE
  5
76F
330
6F
100
AcDbEntity
  8
OUTLINE
  6
Continuous
 62
     3
100
AcDbLine
 10
500.0000000000012
 20
-259.999999999996
 30
0.0
 11
-499.9999999999984
 21
-259.999999999996
 31
0.0
  0
LINE
  5
770
330
6F
100
AcDbEntity
  8
OUTLINE
  6
Continuous
 62
     3
100
AcDbLine
 10
-499.9999999999984
 20
-259.999999999996
 30
0.0
 11
-499.9999999999984
 21
-251.9999999999996
 31
0.0
  0
LINE
  5
771
330
6F
100
AcDbEntity
  8
OUTLINE
  6
Continuous
 62
     3
100
AcDbLine
 10
-499.9999999999984
 20
-251.9999999999996
 30
0.0
 11
-550.0000000000006
 21
-251.9999999999996
 31
0.0
  0
ARC
  5
772
330
6F
100
AcDbEntity
  8
OUTLINE
  6
Continuous
 62
     3
100
AcDbCircle
 10
-550.0000000000006
 20
-249.9499999999995
 30
0.0
 40
2.049999999999954
100
AcDbArc
 50
180.0
 51
270.0
  0
LINE
  5
773
330
6F
100
AcDbEntity
  8
OUTLINE
  6
Continuous
 62
     3
100
AcDbLine
 10
-552.0499999999997
 20
-249.9499999999995
 30
0.0
 11
-552.0500000000015
 21
-239.9999999999997
 31
0.0
  0
LINE
  5
774
330
6F
100
AcDbEntity
  8
OUTLINE
  6
Continuous
 62
     3
100
AcDbLine
 10
-552.0500000000015
 20
-239.9999999999997
 30
0.0
 11
-554.0000000000005
 21
-239.9999999999997
 31
0.0
  0
LINE
  5
775
330
6F
100
AcDbEntity
  8
OUTLINE
  6
Continuous
 62
     3
100
AcDbLine
 10
-554.0000000000005
 20
-239.9999999999997
 30
0.0
 11
-554.0000000000005
 21
-23.41837661844568
 31
0.0
  0
LINE
  5
776
330
6F
100
AcDbEntity
  8
OUTLINE
  6
Continuous
 62
     3
100
AcDbLine
 10
-554.0000000000005
 20
-23.41837661844568
 30
0.0
 11
-554.0000000000005
 21
-23.41837661844568
 31
0.0
  0
LINE
  5
777
330
6F
100
AcDbEntity
  8
OUTLINE
  6
Continuous
 62
     3
100
AcDbLine
 10
-601.000123483484
 20
-404.9603951084542
 30
0.0
 11
-601.000123483484
 21
-402.9603951084537
 31
0.0
  0
LINE
  5
778
330
6F
100
AcDbEntity
  8
OUTLINE
  6
Continuous
 62
     3
100
AcDbLine
 10
-601.000123483484
 20
-402.9603951084537
 30
0.0
 11
-589.000123483484
 21
-402.9603951084537
 31
0.0
  0
LINE
  5
779
330
6F
100
AcDbEntity
  8
OUTLINE
  6
Continuous
 62
     3
100
AcDbLine
 10
-589.000123483484
 20
-402.9603951084537
 30
0.0
 11
-589.000123483484
 21
-399.9603951084542
 31
0.0
  0
LINE
  5
77A
330
6F
100
AcDbEntity
  8
OUTLINE
  6
Continuous
 62
     3
100
AcDbLine
 10
-589.000123483484
 20
-399.9603951084542
 30
0.0
 11
-584.7001234834829
 21
-399.9603951084542
 31
0.0
  0
LINE
  5
77B
330
6F
100
AcDbEntity
  8
OUTLINE
  6
Continuous
 62
     3
100
AcDbLine
 10
-584.7001234834829
 20
-399.9603951084542
 30
0.0
 11
-584.7001234834829
 21
-379.9603951084542
 31
0.0
  0
LINE
  5
77C
330
6F
100
AcDbEntity
  8
OUTLINE
  6
Continuous
 62
     3
100
AcDbLine
 10
-584.7001234834829
 20
-379.9603951084542
 30
0.0
 11
-589.000123483484
 21
-379.9603951084542
 31
0.0
  0
LINE
  5
77D
330
6F
100
AcDbEntity
  8
OUTLINE
  6
Continuous
 62
     3
100
AcDbLine
 10
-589.000123483484
 20
-379.9603951084542
 30
0.0
 11
-589.000123483484
 21
-369.460395108428
 31
0.0
  0
LINE
  5
77E
330
6F
100
AcDbEntity
  8
OUTLINE
  6
Continuous
 62
     3
100
AcDbLine
 10
-589.000123483484
 20
-369.460395108428
 30
0.0
 11
-584.7001234834829
 21
-369.460395108428
 31
0.0
  0
LINE
  5
77F
330
6F
100
AcDbEntity
  8
OUTLINE
  6
Continuous
 62
     3
100
AcDbLine
 10
-584.7001234834829
 20
-369.460395108428
 30
0.0
 11
-584.7001234834829
 21
-344.9603951084537
 31
0.0
  0
LINE
  5
780
330
6F
100
AcDbEntity
  8
OUTLINE
  6
Continuous
 62
     3
100
AcDbLine
 10
-584.7001234834829
 20
-344.9603951084537
 30
0.0
 11
822.7000000000073
 21
-344.9603951084542
 31
0.0
  0
LINE
  5
781
330
6F
100
AcDbEntity
  8
OUTLINE
  6
Continuous
 62
     3
100
AcDbLine
 10
822.7000000000073
 20
-344.9603951084542
 30
0.0
 11
822.7000000000073
 21
-369.4603951084423
 31
0.0
  0
LINE
  5
782
330
6F
100
AcDbEntity
  8
OUTLINE
  6
Continuous
 62
     3
100
AcDbLine
 10
822.7000000000073
 20
-369.4603951084423
 30
0.0
 11
827.0000000000088
 21
-369.4603951084423
 31
0.0
  0
LINE
  5
783
330
6F
100
AcDbEntity
  8
OUTLINE
  6
Continuous
 62
     3
100
AcDbLine
 10
827.0000000000088
 20
-369.4603951084423
 30
0.0
 11
827.0000000000088
 21
-379.9603951084542
 31
0.0
  0
LINE
  5
784
330
6F
100
AcDbEntity
  8
OUTLINE
  6
Continuous
 62
     3
100
AcDbLine
 10
827.0000000000088
 20
-379.9603951084542
 30
0.0
 11
822.7000000000073
 21
-379.9603951084542
 31
0.0
  0
LINE
  5
785
330
6F
100
AcDbEntity
  8
OUTLINE
  6
Continuous
 62
     3
100
AcDbLine
 10
822.7000000000073
 20
-379.9603951084542
 30
0.0
 11
822.7000000000073
 21
-399.9603951084537
 31
0.0
  0
LINE
  5
786
330
6F
100
AcDbEntity
  8
OUTLINE
  6
Continuous
 62
     3
100
AcDbLine
 10
822.7000000000073
 20
-399.9603951084537
 30
0.0
 11
827.0000000000088
 21
-399.9603951084537
 31
0.0
  0
LINE
  5
787
330
6F
100
AcDbEntity
  8
OUTLINE
  6
Continuous
 62
     3
100
AcDbLine
 10
827.0000000000088
 20
-399.9603951084537
 30
0.0
 11
827.0000000000088
 21
-402.9603951084537
 31
0.0
  0
LINE
  5
788
330
6F
100
AcDbEntity
  8
OUTLINE
  6
Continuous
 62
     3
100
AcDbLine
 10
827.0000000000088
 20
-402.9603951084537
 30
0.0
 11
839.0000000000085
 21
-402.9603951084537
 31
0.0
  0
LINE
  5
789
330
6F
100
AcDbEntity
  8
OUTLINE
  6
Continuous
 62
     3
100
AcDbLine
 10
839.0000000000085
 20
-402.9603951084537
 30
0.0
 11
839.0000000000085
 21
-404.9603951084535
 31
0.0
  0
LINE
  5
78A
330
6F
100
AcDbEntity
  8
OUTLINE
  6
Continuous
 62
     3
100
AcDbLine
 10
839.0000000000085
 20
-404.9603951084535
 30
0.0
 11
-601.000123483484
 21
-404.9603951084542
 31
0.0
  0
LINE
  5
78B
330
6F
100
AcDbEntity
  8
OUTLINE
  6
Continuous
 62
     3
100
AcDbLine
 10
-601.000123483484
 20
-404.9603951084542
 30
0.0
 11
-601.000123483484
 21
-404.9603951084542
 31
0.0
  0
LINE
  5
78C
330
6F
100
AcDbEntity
  8
SIZE
  6
Continuous
 62
    30
100
AcDbLine
 10
-577.0000000000005
 20
40.00000000000032
 30
0.0
 11
-577.0000000000005
 21
322.6835812552776
 31
0.0
  0
LINE
  5
78D
330
6F
100
AcDbEntity
  8
SIZE
  6
Continuous
 62
    30
100
AcDbLine
 10
576.9999999999996
 20
40.00000000000032
 30
0.0
 11
576.9999999999996
 21
322.6835812552776
 31
0.0
  0
LINE
  5
78E
330
6F
100
AcDbEntity
  8
SIZE
  6
Continuous
 62
    30
100
AcDbLine
 10
-577.0000000000005
 20
302.6835812552775
 30
0.0
 11
576.9999999999996
 21
302.6835812552775
 31
0.0
  0
CIRCLE
  5
78F
330
6F
100
AcDbEntity
  8
SIZE
  6
Continuous
 62
    30
100
AcDbCircle
 10
-577.0000000000005
 20
302.6835812552775
 30
0.0
 40
7.5
  0
CIRCLE
  5
790
330
6F
100
AcDbEntity
  8
SIZE
  6
Continuous
 62
    30
100
AcDbCircle
 10
576.9999999999996
 20
302.6835812552775
 30
0.0
 40
7.5
  0
TEXT
  5
791
330
6F
100
AcDbEntity
  8
SIZE
  6
Continuous
 62
    30
100
AcDbText
 10
-57.42857142857188
 20
322.6835812552775
 30
0.0
 40
40.0
  1
1154
 41
0.9
 72
     1
 11
-0.0000000000004547
 21
322.6835812552775
 31
0.0
100
AcDbText
  0
POINT
  5
792
330
6F
100
AcDbEntity
  8
DEFPOINTS
  6
Continuous
 62
    30
100
AcDbPoint
 10
-577.0000000000005
 20
20.00000000000034
 30
0.0
  0
POINT
  5
793
330
6F
100
AcDbEntity
  8
DEFPOINTS
  6
Continuous
 62
    30
100
AcDbPoint
 10
576.9999999999996
 20
20.00000000000034
 30
0.0
  0
POINT
  5
794
330
6F
100
AcDbEntity
  8
DEFPOINTS
  6
Continuous
 62
    30
100
AcDbPoint
 10
576.9999999999996
 20
302.6835812552775
 30
0.0
  0
LINE
  5
795
330
6F
100
AcDbEntity
  8
SIZE
  6
Continuous
 62
    30
100
AcDbLine
 10
-600.0000000000006
 20
-0.6999999999994772
 30
0.0
 11
-600.0000000000006
 21
322.6835812552776
 31
0.0
  0
LINE
  5
796
330
6F
100
AcDbEntity
  8
SIZE
  6
Continuous
 62
    30
100
AcDbLine
 10
-577.0000000000005
 20
40.00000000000032
 30
0.0
 11
-577.0000000000005
 21
322.6835812552776
 31
0.0
  0
LINE
  5
797
330
6F
100
AcDbEntity
  8
SIZE
  6
Continuous
 62
    30
100
AcDbLine
 10
-577.0000000000005
 20
302.6835812552775
 30
0.0
 11
-547.0000000000005
 21
302.6835812552775
 31
0.0
  0
LINE
  5
798
330
6F
100
AcDbEntity
  8
SIZE
  6
Continuous
 62
    30
100
AcDbLine
 10
-600.0000000000006
 20
302.6835812552775
 30
0.0
 11
-758.285714285715
 21
302.6835812552775
 31
0.0
  0
LINE
  5
799
330
6F
100
AcDbEntity
  8
SIZE
  6
Continuous
 62
    30
100
AcDbLine
 10
-577.0000000000005
 20
302.6835812552775
 30
0.0
 11
-600.0000000000006
 21
302.6835812552775
 31
0.0
  0
CIRCLE
  5
79A
330
6F
100
AcDbEntity
  8
SIZE
  6
Continuous
 62
    30
100
AcDbCircle
 10
-577.0000000000005
 20
302.6835812552775
 30
0.0
 40
7.5
  0
CIRCLE
  5
79B
330
6F
100
AcDbEntity
  8
SIZE
  6
Continuous
 62
    30
100
AcDbCircle
 10
-600.0000000000006
 20
302.6835812552775
 30
0.0
 40
7.5
  0
TEXT
  5
79C
330
6F
100
AcDbEntity
  8
SIZE
  6
Continuous
 62
    30
100
AcDbText
 10
-738.2857142857147
 20
322.6835812552775
 30
0.0
 40
40.0
  1
23
 41
0.9
 72
     1
 11
-709.1428571428576
 21
322.6835812552775
 31
0.0
100
AcDbText
  0
POINT
  5
79D
330
6F
100
AcDbEntity
  8
DEFPOINTS
  6
Continuous
 62
    30
100
AcDbPoint
 10
-600.0000000000006
 20
-20.69999999999948
 30
0.0
  0
POINT
  5
79E
330
6F
100
AcDbEntity
  8
DEFPOINTS
  6
Continuous
 62
    30
100
AcDbPoint
 10
-577.0000000000005
 20
20.00000000000034
 30
0.0
  0
POINT
  5
79F
330
6F
100
AcDbEntity
  8
DEFPOINTS
  6
Continuous
 62
    30
100
AcDbPoint
 10
-577.0000000000005
 20
302.6835812552775
 30
0.0
  0
LINE
  5
7A0
330
6F
100
AcDbEntity
  8
SIZE
  6
Continuous
 62
    30
100
AcDbLine
 10
599.9999999999996
 20
-0.6999999999994772
 30
0.0
 11
599.9999999999996
 21
322.6835812552776
 31
0.0
  0
LINE
  5
7A1
330
6F
100
AcDbEntity
  8
SIZE
  6
Continuous
 62
    30
100
AcDbLine
 10
576.9999999999996
 20
40.00000000000032
 30
0.0
 11
576.9999999999996
 21
322.6835812552776
 31
0.0
  0
LINE
  5
7A2
330
6F
100
AcDbEntity
  8
SIZE
  6
Continuous
 62
    30
100
AcDbLine
 10
576.9999999999996
 20
302.6835812552775
 30
0.0
 11
546.9999999999997
 21
302.6835812552775
 31
0.0
  0
LINE
  5
7A3
330
6F
100
AcDbEntity
  8
SIZE
  6
Continuous
 62
    30
100
AcDbLine
 10
599.9999999999996
 20
302.6835812552775
 30
0.0
 11
758.2857142857137
 21
302.6835812552775
 31
0.0
  0
LINE
  5
7A4
330
6F
100
AcDbEntity
  8
SIZE
  6
Continuous
 62
    30
100
AcDbLine
 10
576.9999999999996
 20
302.6835812552775
 30
0.0
 11
599.9999999999996
 21
302.6835812552775
 31
0.0
  0
CIRCLE
  5
7A5
330
6F
100
AcDbEntity
  8
SIZE
  6
Continuous
 62
    30
100
AcDbCircle
 10
576.9999999999996
 20
302.6835812552775
 30
0.0
 40
7.5
  0
CIRCLE
  5
7A6
330
6F
100
AcDbEntity
  8
SIZE
  6
Continuous
 62
    30
100
AcDbCircle
 10
599.9999999999996
 20
302.6835812552775
 30
0.0
 40
7.5
  0
TEXT
  5
7A7
330
6F
100
AcDbEntity
  8
SIZE
  6
Continuous
 62
    30
100
AcDbText
 10
679.9999999999997
 20
322.6835812552775
 30
0.0
 40
40.0
  1
23
 41
0.9
 72
     1
 11
709.1428571428568
 21
322.6835812552775
 31
0.0
100
AcDbText
  0
POINT
  5
7A8
330
6F
100
AcDbEntity
  8
DEFPOINTS
  6
Continuous
 62
    30
100
AcDbPoint
 10
599.9999999999996
 20
-20.69999999999948
 30
0.0
  0
POINT
  5
7A9
330
6F
100
AcDbEntity
  8
DEFPOINTS
  6
Continuous
 62
    30
100
AcDbPoint
 10
576.9999999999996
 20
20.00000000000034
 30
0.0
  0
POINT
  5
7AA
330
6F
100
AcDbEntity
  8
DEFPOINTS
  6
Continuous
 62
    30
100
AcDbPoint
 10
576.9999999999996
 20
302.6835812552775
 30
0.0
  0
LINE
  5
7AB
330
6F
100
AcDbEntity
  8
NOTE
  6
Continuous
 62
     4
100
AcDbLine
 10
-595.1707581120132
 20
7.18810515331063
 30
0.0
 11
-577.0000000000005
 21
-17.99999999999966
 31
0.0
  0
LINE
  5
7AC
330
6F
100
AcDbEntity
  8
NOTE
  6
Continuous
 62
     4
100
AcDbLine
 10
-577.0000000000005
 20
-17.99999999999966
 30
0.0
 11
-605.3303906499387
 21
-5.271839991523733
 31
0.0
  0
LINE
  5
7AD
330
6F
100
AcDbEntity
  8
NOTE
  6
Continuous
 62
     4
100
AcDbLine
 10
-577.0000000000005
 20
-17.99999999999966
 30
0.0
 11
-600.2505743809761
 21
0.9581325808934479
 31
0.0
  0
LINE
  5
7AE
330
6F
100
AcDbEntity
  8
NOTE
  6
Continuous
 62
     4
100
AcDbLine
 10
-600.2505743809761
 20
0.9581325808934479
 30
0.0
 11
-672.3603551531364
 21
59.75525138998079
 31
0.0
  0
LINE
  5
7AF
330
6F
100
AcDbEntity
  8
NOTE
  6
Continuous
 62
     4
100
AcDbLine
 10
-672.3603551531364
 20
59.75525138998079
 30
0.0
 11
-1584.677785408613
 21
59.75525138998079
 31
0.0
  0
TEXT
  5
7B0
330
6F
100
AcDbEntity
  8
NOTE
  6
Continuous
 62
     4
100
AcDbText
 10
-1568.600238124608
 20
89.7295617083563
 30
0.0
 40
64.0
  1
AH 2×2 M10ボルト用
100
AcDbText
  0
LINE
  5
7B1
330
6F
100
AcDbEntity
  8
SIZE
  6
Continuous
 62
    30
100
AcDbLine
 10
839.0000000000085
 20
-424.9603951084536
 30
0.0
 11
839.0000000000085
 21
-703.9850270961766
 31
0.0
  0
LINE
  5
7B2
330
6F
100
AcDbEntity
  8
SIZE
  6
Continuous
 62
    30
100
AcDbLine
 10
-601.000123483484
 20
-424.9603951084536
 30
0.0
 11
-601.000123483484
 21
-703.9850270961766
 31
0.0
  0
LINE
  5
7B3
330
6F
100
AcDbEntity
  8
SIZE
  6
Continuous
 62
    30
100
AcDbLine
 10
839.0000000000085
 20
-683.9850270961766
 30
0.0
 11
-601.000123483484
 21
-683.9850270961766
 31
0.0
  0
CIRCLE
  5
7B4
330
6F
100
AcDbEntity
  8
SIZE
  6
Continuous
 62
    30
100
AcDbCircle
 10
839.0000000000085
 20
-683.9850270961766
 30
0.0
 40
7.5
  0
CIRCLE
  5
7B5
330
6F
100
AcDbEntity
  8
SIZE
  6
Continuous
 62
    30
100
AcDbCircle
 10
-601.000123483484
 20
-683.9850270961766
 30
0.0
 40
7.5
  0
TEXT
  5
7B6
330
6F
100
AcDbEntity
  8
SIZE
  6
Continuous
 62
    30
100
AcDbText
 10
58.99993825826229
 20
-663.9850270961765
 30
0.0
 40
40.0
  1
1440
 41
0.9
 72
     1
 11
118.9999382582623
 21
-663.9850270961765
 31
0.0
100
AcDbText
  0
POINT
  5
7B7
330
6F
100
AcDbEntity
  8
DEFPOINTS
  6
Continuous
 62
    30
100
AcDbPoint
 10
839.0000000000085
 20
-404.9603951084535
 30
0.0
  0
POINT
  5
7B8
330
6F
100
AcDbEntity
  8
DEFPOINTS
  6
Continuous
 62
    30
100
AcDbPoint
 10
-601.000123483484
 20
-404.9603951084535
 30
0.0
  0
POINT
  5
7B9
330
6F
100
AcDbEntity
  8
DEFPOINTS
  6
Continuous
 62
    30
100
AcDbPoint
 10
-601.000123483484
 20
-683.9850270961766
 30
0.0
  0
LINE
  5
7BA
330
6F
100
AcDbEntity
  8
SIZE
  6
Continuous
 62
    30
100
AcDbLine
 10
-550.0000000000006
 20
20.00000000000034
 30
0.0
 11
-550.0000000000006
 21
210.9890570364619
 31
0.0
  0
LINE
  5
7BB
330
6F
100
AcDbEntity
  8
SIZE
  6
Continuous
 62
    30
100
AcDbLine
 10
-600.0000000000006
 20
-0.6999999999994772
 30
0.0
 11
-600.0000000000006
 21
210.9890570364619
 31
0.0
  0
LINE
  5
7BC
330
6F
100
AcDbEntity
  8
SIZE
  6
Continuous
 62
    30
100
AcDbLine
 10
-550.0000000000006
 20
190.9890570364616
 30
0.0
 11
-600.0000000000006
 21
190.9890570364616
 31
0.0
  0
LINE
  5
7BD
330
6F
100
AcDbEntity
  8
SIZE
  6
Continuous
 62
    30
100
AcDbLine
 10
-600.0000000000006
 20
190.9890570364616
 30
0.0
 11
-728.2857142857145
 21
190.9890570364616
 31
0.0
  0
CIRCLE
  5
7BE
330
6F
100
AcDbEntity
  8
SIZE
  6
Continuous
 62
    30
100
AcDbCircle
 10
-550.0000000000006
 20
190.9890570364616
 30
0.0
 40
7.5
  0
CIRCLE
  5
7BF
330
6F
100
AcDbEntity
  8
SIZE
  6
Continuous
 62
    30
100
AcDbCircle
 10
-600.0000000000006
 20
190.9890570364616
 30
0.0
 40
7.5
  0
TEXT
  5
7C0
330
6F
100
AcDbEntity
  8
SIZE
  6
Continuous
 62
    30
100
AcDbText
 10
-708.2857142857147
 20
210.9890570364617
 30
0.0
 40
40.0
  1
50
 41
0.9
 72
     1
 11
-679.1428571428575
 21
210.9890570364617
 31
0.0
100
AcDbText
  0
POINT
  5
7C1
330
6F
100
AcDbEntity
  8
DEFPOINTS
  6
Continuous
 62
    30
100
AcDbPoint
 10
-550.0000000000006
 20
0.0000000000003411
 30
0.0
  0
POINT
  5
7C2
330
6F
100
AcDbEntity
  8
DEFPOINTS
  6
Continuous
 62
    30
100
AcDbPoint
 10
-600.0000000000006
 20
-20.69999999999948
 30
0.0
  0
POINT
  5
7C3
330
6F
100
AcDbEntity
  8
DEFPOINTS
  6
Continuous
 62
    30
100
AcDbPoint
 10
-600.0000000000006
 20
190.9890570364616
 30
0.0
  0
LINE
  5
7C4
330
6F
100
AcDbEntity
  8
DETAIL
  6
Continuous
 62
     5
100
AcDbLine
 10
-370.1737628133001
 20
-183.9999999999996
 30
0.0
 11
-269.9262371868012
 21
-183.9999999999996
 31
0.0
  0
LINE
  5
7C5
330
6F
100
AcDbEntity
  8
DETAIL
  6
Continuous
 62
     5
100
AcDbLine
 10
-376.3351119601016
 20
-178.8054097012997
 30
0.0
 11
-265.3355519966013
 21
-180.2031819377995
 31
0.0
  0
LINE
  5
7C6
330
6F
100
AcDbEntity
  8
DETAIL
  6
Continuous
 62
     5
100
AcDbLine
 10
-289.6924538233002
 20
-41.82301084199989
 30
0.0
 11
-350.4075461767993
 21
-41.82301084199989
 31
0.0
  0
LINE
  5
7C7
330
6F
100
AcDbEntity
  8
DETAIL
  6
Continuous
 62
     5
100
AcDbLine
 10
-297.8142482468998
 20
-39.08114134519986
 30
0.0
 11
-342.2857517532016
 21
-39.08114134519986
 31
0.0
  0
LWPOLYLINE
  5
7C8
330
6F
100
AcDbEntity
  8
DETAIL
  6
Continuous
 62
     5
100
AcDbPolyline
 90
       23
 70
     0
 43
0.0
 10
-373.6310000166
 20
-208.8008105292999
 10
-370.7462360742999
 20
-210.1714822134996
 10
-367.5781586653998
 20
-211.5382168675998
 10
-364.0665287682009
 20
-212.8694528791999
 10
-360.1522613458005
 20
-214.1269369490997
 10
-355.7765728028012
 20
-215.2652310598996
 10
-350.8716449112002
 20
-216.2440252277999
 10
-345.385199168099
 20
-217.0296104064997
 10
-339.3901570539006
 20
-217.5980807815
 10
-333.0721003341992
 20
-217.9586161921994
 10
-326.5910397597004
 20
-218.1499066292996
 10
-320.0500000000015
 20
-218.2088645075997
 10
-313.5089602403991
 20
-218.1499066292996
 10
-307.0278996659003
 20
-217.9586161921994
 10
-300.7098429462008
 20
-217.5980807815
 10
-294.7148008319004
 20
-217.0296104064997
 10
-289.2283550888992
 20
-216.2440252277999
 10
-284.3234271973001
 20
-215.2652310598996
 10
-279.947738654299
 20
-214.1269369490997
 10
-276.0334712319004
 20
-212.8694528791999
 10
-272.5218413347016
 20
-211.5382168675998
 10
-269.3537639258015
 20
-210.1714822134996
 10
-266.4689999833995
 20
-208.8008105292999
  0
LWPOLYLINE
  5
7E1
330
6F
100
AcDbEntity
  8
DETAIL
  6
Continuous
 62
     5
100
AcDbPolyline
 90
       30
 70
     0
 43
0.0
 10
-373.6310000166
 20
-208.8008105292999
 10
-371.3948059687012
 20
-210.4095783002
 10
-369.0013435786991
 20
-212.0143322112996
 10
-366.4264496615001
 20
-213.5940361155996
 10
-363.6439363131017
 20
-215.1245069018997
 10
-360.6282752368011
 20
-216.5794112995997
 10
-357.3570978512003
 20
-217.9267759506998
 10
-353.8049193607008
 20
-219.1404107196996
 10
-349.9476050750004
 20
-220.1956107060997
 10
-345.7778995030007
 20
-221.0736913249999
 10
-341.3426994632014
 20
-221.7610883205995
 10
-336.7259717455004
 20
-222.2624415713996
 10
-332.0068585331997
 20
-222.6008104314999
 10
-327.236731810101
 20
-222.8056011452996
 10
-322.4465863647005
 20
-222.9012643311996
 10
-317.6534136354007
 20
-222.9012643311996
 10
-312.8632681899002
 20
-222.8056011452996
 10
-308.0931414669017
 20
-222.6008104314999
 10
-303.3740282544991
 20
-222.2624415713996
 10
-298.7573005367999
 20
-221.7610883205995
 10
-294.3221004971006
 20
-221.0736913249999
 10
-290.1523949249991
 20
-220.1956107060997
 10
-286.2950806394006
 20
-219.1404107196996
 10
-282.7429021488011
 20
-217.9267759506998
 10
-279.4717247633002
 20
-216.5794112995997
 10
-276.4560636869997
 20
-215.1245069018997
 10
-273.6735503385994
 20
-213.5940361155996
 10
-271.0986564214004
 20
-212.0143322112996
 10
-268.7051940312999
 20
-210.4095783002
 10
-266.4689999833995
 20
-208.8008105292999
  0
LWPOLYLINE
  5
801
330
6F
100
AcDbEntity
  8
DETAIL
  6
Continuous
 62
     5
100
AcDbPolyline
 90
       23
 70
     0
 43
0.0
 10
-267.0790529110004
 20
-27.83998285069959
 10
-269.9594195244013
 20
-26.49229740359954
 10
-273.1218947461007
 20
-25.14830192609963
 10
-276.6249869113003
 20
-23.83864644070002
 10
-280.5257382020995
 20
-22.60043705999999
 10
-284.8793077481992
 20
-21.47773815179937
 10
-289.747827260801
 20
-20.50975007689942
 10
-295.1741511950991
 20
-19.72943460339967
 10
-301.0788078016999
 20
-19.16048772969964
 10
-307.2832779851002
 20
-18.7952370938998
 10
-313.6387644978008
 20
-18.59873446899985
 10
-320.0500000000015
 20
-18.53758870399962
 10
-326.4612355023005
 20
-18.59873446899985
 10
-332.8167220150012
 20
-18.7952370938998
 10
-339.0211921983014
 20
-19.16048772969964
 10
-344.9258488050004
 20
-19.72943460339967
 10
-350.3521727393004
 20
-20.50975007689942
 10
-355.2206922519002
 20
-21.47773815179937
 10
-359.574261798
 20
-22.60043705999999
 10
-363.4750130886991
 20
-23.83864644070002
 10
-366.9781052539005
 20
-25.14830192609963
 10
-370.1405804757002
 20
-26.49229740359954
 10
-373.0209470891009
 20
-27.83998285069959
  0
LWPOLYLINE
  5
81A
330
6F
100
AcDbEntity
  8
DETAIL
  6
Continuous
 62
     5
100
AcDbPolyline
 90
       30
 70
     0
 43
0.0
 10
-267.0790529110004
 20
-27.83998285069959
 10
-269.3110572751016
 20
-26.25875875869963
 10
-271.6997458507017
 20
-24.68130461129988
 10
-274.2687433754004
 20
-23.1279981428994
 10
-277.0432996733002
 20
-21.62228729740002
 10
-280.0479685904015
 20
-20.18977718799999
 10
-283.3034066833993
 20
-18.8614875212994
 10
-286.8328512538014
 20
-17.6629507468998
 10
-290.6571741590001
 20
-16.6181470957996
 10
-294.7793530736003
 20
-15.74553170799993
 10
-299.150264177601
 20
-15.05851559730001
 10
-303.6889652906016
 20
-14.55320115959978
 10
-308.3217684622
 20
-14.20854493359968
 10
-313.001439124901
 20
-13.99774296239968
 10
-317.6995445484995
 20
-13.89849488089987
 10
-322.4004554516
 20
-13.89849488089987
 10
-327.0985608752003
 20
-13.99774296239968
 10
-331.7782315378011
 20
-14.20854493359968
 10
-336.4110347094997
 20
-14.55320115959978
 10
-340.9497358225003
 20
-15.05851559730001
 10
-345.3206469263991
 20
-15.74553170799993
 10
-349.4428258411013
 20
-16.6181470957996
 10
-353.2671487462999
 20
-17.6629507468998
 10
-356.7965933166
 20
-18.8614875212994
 10
-360.0520314096998
 20
-20.18977718799999
 10
-363.0567003267011
 20
-21.62228729740002
 10
-365.8312566246991
 20
-23.1279981428994
 10
-368.4002541493996
 20
-24.68130461129988
 10
-370.7889427249997
 20
-26.25875875869963
 10
-373.0209470891009
 20
-27.83998285069959
  0
ARC
  5
83A
330
6F
100
AcDbEntity
  8
DETAIL
  6
Continuous
 62
     5
100
AcDbCircle
 10
-320.0500000000015
 20
-118.4999999999996
 30
0.0
 40
105.0007616402
100
AcDbArc
 50
120.2969426106851
 51
239.3167491915118
  0
ARC
  5
83B
330
6F
100
AcDbEntity
  8
DETAIL
  6
Continuous
 62
     5
100
AcDbCircle
 10
-320.0500000000015
 20
-118.4999999999996
 30
0.0
 40
105.0007616402
100
AcDbArc
 50
300.6832508084882
 51
59.70305738931489
  0
CIRCLE
  5
83C
330
6F
100
AcDbEntity
  8
DETAIL
  6
Continuous
 62
     5
100
AcDbCircle
 10
-320.0500000000015
 20
-118.4999999999996
 30
0.0
 40
100.0
  0
CIRCLE
  5
83D
330
6F
100
AcDbEntity
  8
DETAIL
  6
Continuous
 62
     5
100
AcDbCircle
 10
-320.0500000000015
 20
-118.4999999999996
 30
0.0
 40
94.9847543461
  0
CIRCLE
  5
83E
330
6F
100
AcDbEntity
  8
DETAIL
  6
Continuous
 62
     5
100
AcDbCircle
 10
-320.0500000000015
 20
-118.4999999999996
 30
0.0
 40
94.9847543461
  0
CIRCLE
  5
83F
330
6F
100
AcDbEntity
  8
DETAIL
  6
Continuous
 62
     5
100
AcDbCircle
 10
-320.0500000000015
 20
-118.4999999999996
 30
0.0
 40
82.50266545079998
  0
LINE
  5
840
330
6F
100
AcDbEntity
  8
NOTE
  6
Continuous
 62
     4
100
AcDbLine
 10
-447.0196852390457
 20
-118.4999999999996
 30
0.0
 11
-320.0500000000015
 21
-118.4999999999996
 31
0.0
  0
LINE
  5
841
330
6F
100
AcDbEntity
  8
NOTE
  6
Continuous
 62
     4
100
AcDbLine
 10
-320.0500000000015
 20
-245.4696852390449
 30
0.0
 11
-320.0500000000015
 21
-118.4999999999996
 31
0.0
  0
LINE
  5
842
330
6F
100
AcDbEntity
  8
NOTE
  6
Continuous
 62
     4
100
AcDbLine
 10
-193.0803147609554
 20
-118.4999999999996
 30
0.0
 11
-320.0499999999997
 21
-118.4999999999996
 31
0.0
  0
LINE
  5
843
330
6F
100
AcDbEntity
  8
NOTE
  6
Continuous
 62
     4
100
AcDbLine
 10
-320.0499999999997
 20
8.469685239045587
 30
0.0
 11
-320.0500000000015
 21
-118.4999999999996
 31
0.0
  0
LINE
  5
844
330
6F
100
AcDbEntity
  8
SIZE
  6
Continuous
 62
    30
100
AcDbLine
 10
-0.0500000000015449
 20
28.46968523904559
 30
0.0
 11
-0.050000000001539
 21
125.3151590295014
 31
0.0
  0
LINE
  5
845
330
6F
100
AcDbEntity
  8
SIZE
  6
Continuous
 62
    30
100
AcDbLine
 10
-320.0500000000034
 20
28.46968523904559
 30
0.0
 11
-320.0500000000034
 21
125.3151590295014
 31
0.0
  0
LINE
  5
846
330
6F
100
AcDbEntity
  8
SIZE
  6
Continuous
 62
    30
100
AcDbLine
 10
-0.0500000000015402
 20
105.3151590295014
 30
0.0
 11
-320.0500000000034
 21
105.3151590295014
 31
0.0
  0
CIRCLE
  5
847
330
6F
100
AcDbEntity
  8
SIZE
  6
Continuous
 62
    30
100
AcDbCircle
 10
-0.0500000000015402
 20
105.3151590295014
 30
0.0
 40
7.5
  0
CIRCLE
  5
848
330
6F
100
AcDbEntity
  8
SIZE
  6
Continuous
 62
    30
100
AcDbCircle
 10
-320.0500000000034
 20
105.3151590295014
 30
0.0
 40
7.5
  0
TEXT
  5
849
330
6F
100
AcDbEntity
  8
SIZE
  6
Continuous
 62
    30
100
AcDbText
 10
-206.3357142857167
 20
125.3151590295014
 30
0.0
 40
40.0
  1
320
 41
0.9
 72
     1
 11
-160.0500000000024
 21
125.3151590295014
 31
0.0
100
AcDbText
  0
POINT
  5
84A
330
6F
100
AcDbEntity
  8
DEFPOINTS
  6
Continuous
 62
    30
100
AcDbPoint
 10
-0.0500000000015462
 20
8.469685239045587
 30
0.0
  0
POINT
  5
84B
330
6F
100
AcDbEntity
  8
DEFPOINTS
  6
Continuous
 62
    30
100
AcDbPoint
 10
-320.0500000000034
 20
8.469685239045587
 30
0.0
  0
POINT
  5
84C
330
6F
100
AcDbEntity
  8
DEFPOINTS
  6
Continuous
 62
    30
100
AcDbPoint
 10
-320.0500000000034
 20
105.3151590295014
 30
0.0
  0
LINE
  5
84D
330
6F
100
AcDbEntity
  8
NOTE
  6
Continuous
 62
     4
100
AcDbLine
 10
-322.1936801582826
 20
-87.51578261503928
 30
0.0
 11
-320.0500000000015
 21
-118.4999999999996
 31
0.0
  0
LINE
  5
84E
330
6F
100
AcDbEntity
  8
NOTE
  6
Continuous
 62
     4
100
AcDbLine
 10
-320.0500000000015
 20
-118.4999999999996
 30
0.0
 11
-337.3985900502749
 21
-92.73872062868255
 31
0.0
  0
LINE
  5
84F
330
6F
100
AcDbEntity
  8
NOTE
  6
Continuous
 62
     4
100
AcDbLine
 10
-320.0500000000015
 20
-118.4999999999996
 30
0.0
 11
-329.7961351042787
 21
-90.12725162186086
 31
0.0
  0
LINE
  5
850
330
6F
100
AcDbEntity
  8
NOTE
  6
Continuous
 62
     4
100
AcDbLine
 10
-329.7961351042787
 20
-90.12725162186086
 30
0.0
 11
-518.6826341633672
 21
459.7552456440642
 31
0.0
  0
LINE
  5
851
330
6F
100
AcDbEntity
  8
NOTE
  6
Continuous
 62
     4
100
AcDbLine
 10
-518.6826341633672
 20
459.7552456440642
 30
0.0
 11
-1431.000064418843
 21
459.7552456440642
 31
0.0
  0
TEXT
  5
852
330
6F
100
AcDbEntity
  8
NOTE
  6
Continuous
 62
     4
100
AcDbText
 10
-1408.921863128421
 20
486.2259256620649
 30
0.0
 40
64.0
  1
%%C200吹出円形フランジ
100
AcDbText
  0
TEXT
  5
853
330
6F
100
AcDbEntity
  8
ETC
  6
Continuous
 62
    61
100
AcDbText
 10
-922.7784485125184
 20
734.9259431648674
 30
0.0
 40
64.0
  1
PDFY-P71_80_90GMG9_2
 41
0.9
100
AcDbText
  0
ENDSEC
  0
SECTION
  2
OBJECTS
  0
DICTIONARY
  5
C
330
0
100
AcDbDictionary
281
     1
  3
ACAD_CIP_PREVIOUS_PRODUCT_INFO
350
854
  3
ACAD_COLOR
350
62
  3
ACAD_DETAILVIEWSTYLE
350
69
  3
ACAD_GROUP
350
D
  3
ACAD_LAYOUT
350
61
  3
ACAD_MATERIAL
350
10
  3
ACAD_MLEADERSTYLE
350
65
  3
ACAD_MLINESTYLE
350
5E
  3
ACAD_PLOTSETTINGS
350
60
  3
ACAD_PLOTSTYLENAME
350
E
  3
ACAD_SCALELIST
350
42
  3
ACAD_SECTIONVIEWSTYLE
350
67
  3
ACAD_TABLESTYLE
350
63
  3
ACAD_VISUALSTYLE
350
29
  3
ACDB_RECOMPOSE_DATA
350
8C2
  3
AcDbVariableDictionary
350
86D
  3
DWGPROPS
350
8C3
  0
DICTIONARY
  5
857
330
54
100
AcDbDictionary
280
     1
281
     1
  3
ADSK_XREC_LAYER_RECONCILED
360
858
  0
DICTIONARY
  5
859
330
73
100
AcDbDictionary
280
     1
281
     1
  3
ADSK_XREC_LAYER_RECONCILED
360
85A
  0
DICTIONARY
  5
85B
330
76
100
AcDbDictionary
280
     1
281
     1
  3
ADSK_XREC_LAYER_RECONCILED
360
85C
  0
DICTIONARY
  5
85D
330
77
100
AcDbDictionary
280
     1
281
     1
  3
ADSK_XREC_LAYER_RECONCILED
360
85E
  0
DICTIONARY
  5
85F
330
78
100
AcDbDictionary
280
     1
281
     1
  3
ADSK_XREC_LAYER_RECONCILED
360
860
  0
DICTIONARY
  5
861
330
79
100
AcDbDictionary
280
     1
281
     1
  3
ADSK_XREC_LAYER_RECONCILED
360
862
  0
DICTIONARY
  5
863
330
7A
100
AcDbDictionary
280
     1
281
     1
  3
ADSK_XREC_LAYER_RECONCILED
360
864
  0
DICTIONARY
  5
865
330
7B
100
AcDbDictionary
280
     1
281
     1
  3
ADSK_XREC_LAYER_RECONCILED
360
866
  0
DICTIONARY
  5
867
330
7C
100
AcDbDictionary
280
     1
281
     1
  3
ADSK_XREC_LAYER_RECONCILED
360
868
  0
DICTIONARY
  5
869
330
7D
100
AcDbDictionary
280
     1
281
     1
  3
ADSK_XREC_LAYER_RECONCILED
360
86A
  0
DICTIONARY
  5
86B
330
7E
100
AcDbDictionary
280
     1
281
     1
  3
ADSK_XREC_LAYER_RECONCILED
360
86C
  0
XRECORD
  5
854
102
{ACAD_REACTORS
330
C
102
}
330
C
100
AcDbXrecord
280
     1
300
ACD
300
2018
300
86830ACD_2018_0F
  0
DICTIONARY
  5
62
102
{ACAD_REACTORS
330
C
102
}
330
C
100
AcDbDictionary
281
     1
  0
DICTIONARY
  5
69
102
{ACAD_REACTORS
330
C
102
}
330
C
100
AcDbDictionary
281
     1
  3
Imperial24
350
6A
  0
DICTIONARY
  5
D
102
{ACAD_REACTORS
330
C
102
}
330
C
100
AcDbDictionary
281
     1
  0
DICTIONARY
  5
61
102
{ACAD_REACTORS
330
C
102
}
330
C
100
AcDbDictionary
281
     1
  3
Model
350
72
  3
レイアウト1
350
6E
  0
DICTIONARY
  5
10
102
{ACAD_REACTORS
330
C
102
}
330
C
100
AcDbDictionary
281
     1
  3
ByBlock
350
19
  3
ByLayer
350
11
  3
Global
350
21
  0
DICTIONARY
  5
65
102
{ACAD_REACTORS
330
C
102
}
330
C
100
AcDbDictionary
281
     1
  3
Standard
350
66
  0
DICTIONARY
  5
5E
102
{ACAD_REACTORS
330
C
102
}
330
C
100
AcDbDictionary
281
     1
  3
Standard
350
5F
  0
DICTIONARY
  5
60
102
{ACAD_REACTORS
330
C
102
}
330
C
100
AcDbDictionary
281
     1
  0
ACDBDICTIONARYWDFLT
  5
E
102
{ACAD_REACTORS
330
C
102
}
330
C
100
AcDbDictionary
281
     1
  3
Normal
350
F
100
AcDbDictionaryWithDefault
340
F
  0
DICTIONARY
  5
42
102
{ACAD_REACTORS
330
C
102
}
330
C
100
AcDbDictionary
281
     1
  3
A0
350
43
  3
A1
350
44
  3
A2
350
45
  3
A3
350
46
  3
A4
350
47
  3
A5
350
48
  3
A6
350
49
  3
A7
350
4A
  3
A8
350
4B
  3
A9
350
4C
  3
B0
350
4D
  3
B1
350
4E
  3
B2
350
4F
  3
B3
350
50
  3
B4
350
51
  3
B5
350
52
  3
B6
350
53
  0
DICTIONARY
  5
67
102
{ACAD_REACTORS
330
C
102
}
330
C
100
AcDbDictionary
281
     1
  3
Imperial24
350
68
  0
DICTIONARY
  5
63
102
{ACAD_REACTORS
330
C
102
}
330
C
100
AcDbDictionary
281
     1
  3
Standard
350
64
  0
DICTIONARY
  5
29
102
{ACAD_REACTORS
330
C
102
}
330
C
100
AcDbDictionary
281
     1
  3
2dWireframe
350
2F
  3
Basic
350
2E
  3
Brighten
350
35
  3
ColorChange
350
39
  3
Conceptual
350
32
  3
Dim
350
34
  3
EdgeColorOff
350
41
  3
Facepattern
350
38
  3
Flat
350
2A
  3
FlatWithEdges
350
2B
  3
Gouraud
350
2C
  3
GouraudWithEdges
350
2D
  3
Hidden
350
31
  3
JitterOff
350
3F
  3
Linepattern
350
37
  3
OverhangOff
350
40
  3
Realistic
350
33
  3
Shaded
350
3E
  3
Shaded with edges
350
3D
  3
Shades of Gray
350
3A
  3
Sketchy
350
3B
  3
Thicken
350
36
  3
Wireframe
350
30
  3
X-Ray
350
3C
  0
XRECORD
  5
8C2
102
{ACAD_REACTORS
330
C
102
}
330
C
100
AcDbXrecord
280
     1
 90
        1
330
64
  0
DICTIONARY
  5
86D
102
{ACAD_REACTORS
330
C
102
}
330
C
100
AcDbDictionary
281
     1
  3
CANNOSCALE
350
872
  3
CMLEADERSTYLE
350
86F
  3
CTABLESTYLE
350
86E
  3
CVIEWDETAILSTYLE
350
870
  3
CVIEWSECTIONSTYLE
350
871
  3
DIMASSOC
350
875
  3
INDEXCTL
350
874
  3
SORTENTS
350
873
  3
XCLIPFRAME
350
8C0
  0
XRECORD
  5
8C3
102
{ACAD_REACTORS
330
C
102
}
330
C
100
AcDbXrecord
280
     1
  1
DWGPROPS COOKIE
  2

  3

  4

  6

  7

  8
y_uebo
  9

300
=
301
=
302
=
303
=
304
=
305
=
306
=
307
=
308
=
309
=
 40
1.639327048611111
 41
2455902.607164352
 42
2459096.624618056
  1

 90
        0
  0
XRECORD
  5
858
102
{ACAD_REACTORS
330
857
102
}
330
857
100
AcDbXrecord
280
     1
290
     1
  0
XRECORD
  5
85A
102
{ACAD_REACTORS
330
859
102
}
330
859
100
AcDbXrecord
280
     1
290
     1
  0
XRECORD
  5
85C
102
{ACAD_REACTORS
330
85B
102
}
330
85B
100
AcDbXrecord
280
     1
290
     1
  0
XRECORD
  5
85E
102
{ACAD_REACTORS
330
85D
102
}
330
85D
100
AcDbXrecord
280
     1
290
     1
  0
XRECORD
  5
860
102
{ACAD_REACTORS
330
85F
102
}
330
85F
100
AcDbXrecord
280
     1
290
     1
  0
XRECORD
  5
862
102
{ACAD_REACTORS
330
861
102
}
330
861
100
AcDbXrecord
280
     1
290
     1
  0
XRECORD
  5
864
102
{ACAD_REACTORS
330
863
102
}
330
863
100
AcDbXrecord
280
     1
290
     1
  0
XRECORD
  5
866
102
{ACAD_REACTORS
330
865
102
}
330
865
100
AcDbXrecord
280
     1
290
     1
  0
XRECORD
  5
868
102
{ACAD_REACTORS
330
867
102
}
330
867
100
AcDbXrecord
280
     1
290
     1
  0
XRECORD
  5
86A
102
{ACAD_REACTORS
330
869
102
}
330
869
100
AcDbXrecord
280
     1
290
     1
  0
XRECORD
  5
86C
102
{ACAD_REACTORS
330
86B
102
}
330
86B
100
AcDbXrecord
280
     1
290
     1
  0
ACDBDETAILVIEWSTYLE
  5
6A
102
{ACAD_XDICTIONARY
360
8F7
102
}
102
{ACAD_REACTORS
330
69
102
}
330
69
100
AcDbModelDocViewStyle
 70
     0
  3
Imperial24
290
     0
100
AcDbDetailViewStyle
 70
     0
 71
     0
 90
        3
 71
     1
340
55
 40
0.24
340
0
 40
0.24
300

 40
0.36
280
     3
 71
     2
340
5C
 90
       25
 71
     3
340
55
 40
0.24
 90
        1
 40
0.75
 90
        1
300
%<\AcVar ViewType \f "%tc1">% %<\AcVar ViewDetailId>%\PSCALE %<\AcVar ViewScale \f "%sn">%
 71
     4
340
5C
 90
       25
340
5C
 90
       25
280
     0
  0
LAYOUT
  5
72
102
{ACAD_XDICTIONARY
360
8FB
102
}
102
{ACAD_REACTORS
330
61
102
}
330
61
100
AcDbPlotSettings
  1

  2
OKI C931(PS)
  4

  6

 40
0.0
 41
0.0
 42
0.0
 43
0.0
 44
0.0
 45
0.0
 46
0.0
 47
0.0
 48
0.0
 49
0.0
140
0.0
141
0.0
142
1.0
143
1.0
 70
  1712
 72
     0
 73
     0
 74
     0
  7

 75
     0
147
1.0
148
0.0
149
0.0
100
AcDbLayout
  1
Model
 70
     1
 71
     0
 10
0.0
 20
0.0
 11
12.0
 21
9.0
 12
0.0
 22
0.0
 32
0.0
 14
0.0
 24
0.0
 34
0.0
 15
0.0
 25
0.0
 35
0.0
146
0.0
 13
0.0
 23
0.0
 33
0.0
 16
1.0
 26
0.0
 36
0.0
 17
0.0
 27
1.0
 37
0.0
 76
     0
330
6F
331
81
  0
LAYOUT
  5
6E
102
{ACAD_XDICTIONARY
360
8F9
102
}
102
{ACAD_REACTORS
330
61
102
}
330
61
100
AcDbPlotSettings
  1

  2
OKI C931(PS)
  4

  6

 40
0.0
 41
0.0
 42
0.0
 43
0.0
 44
0.0
 45
0.0
 46
0.0
 47
0.0
 48
0.0
 49
0.0
140
0.0
141
0.0
142
1.0
143
1.0
 70
   688
 72
     0
 73
     0
 74
     5
  7

 75
    16
147
1.0
148
0.0
149
0.0
100
AcDbLayout
  1
レイアウト1
 70
     1
 71
     1
 10
0.0
 20
0.0
 11
12.0
 21
9.0
 12
0.0
 22
0.0
 32
0.0
 14
1.000000000000000E+20
 24
1.000000000000000E+20
 34
1.000000000000000E+20
 15
-1.000000000000000E+20
 25
-1.000000000000000E+20
 35
-1.000000000000000E+20
146
0.0
 13
0.0
 23
0.0
 33
0.0
 16
1.0
 26
0.0
 36
0.0
 17
0.0
 27
1.0
 37
0.0
 76
     0
330
6B
  0
MATERIAL
  5
19
102
{ACAD_XDICTIONARY
360
1A
102
}
102
{ACAD_REACTORS
330
10
102
}
330
10
100
AcDbMaterial
  1
ByBlock
 72
     0
 43
0.0208333333333333
 43
0.0
 43
0.0
 43
0.0
 43
0.0
 43
0.0208333333333333
 43
0.0
 43
0.0
 43
0.0
 43
0.0
 43
1.0
 43
0.0
 43
0.0
 43
0.0
 43
0.0
 43
1.0
 77
     0
 47
0.0208333333333333
 47
0.0
 47
0.0
 47
0.0
 47
0.0
 47
0.0208333333333333
 47
0.0
 47
0.0
 47
0.0
 47
0.0
 47
1.0
 47
0.0
 47
0.0
 47
0.0
 47
0.0
 47
1.0
171
     0
 49
0.0208333333333333
 49
0.0
 49
0.0
 49
0.0
 49
0.0
 49
0.0208333333333333
 49
0.0
 49
0.0
 49
0.0
 49
0.0
 49
1.0
 49
0.0
 49
0.0
 49
0.0
 49
0.0
 49
1.0
175
     0
142
0.0208333333333333
142
0.0
142
0.0
142
0.0
142
0.0
142
0.0208333333333333
142
0.0
142
0.0
142
0.0
142
0.0
142
1.0
142
0.0
142
0.0
142
0.0
142
0.0
142
1.0
179
     0
144
0.0208333333333333
144
0.0
144
0.0
144
0.0
144
0.0
144
0.0208333333333333
144
0.0
144
0.0
144
0.0
144
0.0
144
1.0
144
0.0
144
0.0
144
0.0
144
0.0
144
1.0
147
0.0208333333333333
147
0.0
147
0.0
147
0.0
147
0.0
147
0.0208333333333333
147
0.0
147
0.0
147
0.0
147
0.0
147
1.0
147
0.0
147
0.0
147
0.0
147
0.0
147
1.0
  0
MATERIAL
  5
11
102
{ACAD_XDICTIONARY
360
12
102
}
102
{ACAD_REACTORS
330
10
102
}
330
10
100
AcDbMaterial
  1
ByLayer
 72
     0
 43
0.0208333333333333
 43
0.0
 43
0.0
 43
0.0
 43
0.0
 43
0.0208333333333333
 43
0.0
 43
0.0
 43
0.0
 43
0.0
 43
1.0
 43
0.0
 43
0.0
 43
0.0
 43
0.0
 43
1.0
 77
     0
 47
0.0208333333333333
 47
0.0
 47
0.0
 47
0.0
 47
0.0
 47
0.0208333333333333
 47
0.0
 47
0.0
 47
0.0
 47
0.0
 47
1.0
 47
0.0
 47
0.0
 47
0.0
 47
0.0
 47
1.0
171
     0
 49
0.0208333333333333
 49
0.0
 49
0.0
 49
0.0
 49
0.0
 49
0.0208333333333333
 49
0.0
 49
0.0
 49
0.0
 49
0.0
 49
1.0
 49
0.0
 49
0.0
 49
0.0
 49
0.0
 49
1.0
175
     0
142
0.0208333333333333
142
0.0
142
0.0
142
0.0
142
0.0
142
0.0208333333333333
142
0.0
142
0.0
142
0.0
142
0.0
142
1.0
142
0.0
142
0.0
142
0.0
142
0.0
142
1.0
179
     0
144
0.0208333333333333
144
0.0
144
0.0
144
0.0
144
0.0
144
0.0208333333333333
144
0.0
144
0.0
144
0.0
144
0.0
144
1.0
144
0.0
144
0.0
144
0.0
144
0.0
144
1.0
147
0.0208333333333333
147
0.0
147
0.0
147
0.0
147
0.0
147
0.0208333333333333
147
0.0
147
0.0
147
0.0
147
0.0
147
1.0
147
0.0
147
0.0
147
0.0
147
0.0
147
1.0
  0
MATERIAL
  5
21
102
{ACAD_XDICTIONARY
360
22
102
}
102
{ACAD_REACTORS
330
10
102
}
330
10
100
AcDbMaterial
  1
Global
 72
     0
 43
0.0208333333333333
 43
0.0
 43
0.0
 43
0.0
 43
0.0
 43
0.0208333333333333
 43
0.0
 43
0.0
 43
0.0
 43
0.0
 43
1.0
 43
0.0
 43
0.0
 43
0.0
 43
0.0
 43
1.0
 77
     0
 47
0.0208333333333333
 47
0.0
 47
0.0
 47
0.0
 47
0.0
 47
0.0208333333333333
 47
0.0
 47
0.0
 47
0.0
 47
0.0
 47
1.0
 47
0.0
 47
0.0
 47
0.0
 47
0.0
 47
1.0
171
     0
 49
0.0208333333333333
 49
0.0
 49
0.0
 49
0.0
 49
0.0
 49
0.0208333333333333
 49
0.0
 49
0.0
 49
0.0
 49
0.0
 49
1.0
 49
0.0
 49
0.0
 49
0.0
 49
0.0
 49
1.0
175
     0
142
0.0208333333333333
142
0.0
142
0.0
142
0.0
142
0.0
142
0.0208333333333333
142
0.0
142
0.0
142
0.0
142
0.0
142
1.0
142
0.0
142
0.0
142
0.0
142
0.0
142
1.0
179
     0
144
0.0208333333333333
144
0.0
144
0.0
144
0.0
144
0.0
144
0.0208333333333333
144
0.0
144
0.0
144
0.0
144
0.0
144
1.0
144
0.0
144
0.0
144
0.0
144
0.0
144
1.0
147
0.0208333333333333
147
0.0
147
0.0
147
0.0
147
0.0
147
0.0208333333333333
147
0.0
147
0.0
147
0.0
147
0.0
147
1.0
147
0.0
147
0.0
147
0.0
147
0.0
147
1.0
  0
MLEADERSTYLE
  5
66
102
{ACAD_REACTORS
330
65
102
}
330
65
100
AcDbMLeaderStyle
170
     2
171
     1
172
     0
 90
        2
 40
0.0
 41
0.0
173
     1
 91
-1056964608
340
5A
 92
       -2
290
     1
 42
0.09
291
     1
 43
0.36
  3
Standard
 44
0.18
300

342
55
174
     1
178
     6
175
     1
176
     0
 93
-1056964608
 45
0.18
292
     0
297
     0
 46
0.18
 94
-1056964608
 47
1.0
 49
1.0
140
1.0
293
     1
141
0.0
294
     1
177
     0
142
1.0
295
     0
296
     0
143
0.125
1001
ACAD_MLEADERVER
1070
     2
  0
MLINESTYLE
  5
5F
102
{ACAD_REACTORS
330
5E
102
}
330
5E
100
AcDbMlineStyle
  2
STANDARD
 70
     0
  3

 62
   256
 51
90.0
 52
90.0
 71
     2
 49
0.5
 62
   256
  6
BYLAYER
 49
-0.5
 62
   256
  6
BYLAYER
  0
ACDBPLACEHOLDER
  5
F
102
{ACAD_REACTORS
330
E
102
}
330
E
  0
SCALE
  5
43
102
{ACAD_REACTORS
330
42
102
}
330
42
100
AcDbScale
 70
     0
300
1:1
140
1.0
141
1.0
290
     1
  0
SCALE
  5
44
102
{ACAD_REACTORS
330
42
102
}
330
42
100
AcDbScale
 70
     0
300
1/128" = 1'-0"
140
0.0078125
141
12.0
290
     0
  0
SCALE
  5
45
102
{ACAD_REACTORS
330
42
102
}
330
42
100
AcDbScale
 70
     0
300
1/64" = 1'-0"
140
0.015625
141
12.0
290
     0
  0
SCALE
  5
46
102
{ACAD_REACTORS
330
42
102
}
330
42
100
AcDbScale
 70
     0
300
1/32" = 1'-0"
140
0.03125
141
12.0
290
     0
  0
SCALE
  5
47
102
{ACAD_REACTORS
330
42
102
}
330
42
100
AcDbScale
 70
     0
300
1/16" = 1'-0"
140
0.0625
141
12.0
290
     0
  0
SCALE
  5
48
102
{ACAD_REACTORS
330
42
102
}
330
42
100
AcDbScale
 70
     0
300
3/32" = 1'-0"
140
0.09375
141
12.0
290
     0
  0
SCALE
  5
49
102
{ACAD_REACTORS
330
42
102
}
330
42
100
AcDbScale
 70
     0
300
1/8" = 1'-0"
140
0.125
141
12.0
290
     0
  0
SCALE
  5
4A
102
{ACAD_REACTORS
330
42
102
}
330
42
100
AcDbScale
 70
     0
300
3/16" = 1'-0"
140
0.1875
141
12.0
290
     0
  0
SCALE
  5
4B
102
{ACAD_REACTORS
330
42
102
}
330
42
100
AcDbScale
 70
     0
300
1/4" = 1'-0"
140
0.25
141
12.0
290
     0
  0
SCALE
  5
4C
102
{ACAD_REACTORS
330
42
102
}
330
42
100
AcDbScale
 70
     0
300
3/8" = 1'-0"
140
0.375
141
12.0
290
     0
  0
SCALE
  5
4D
102
{ACAD_REACTORS
330
42
102
}
330
42
100
AcDbScale
 70
     0
300
1/2" = 1'-0"
140
0.5
141
12.0
290
     0
  0
SCALE
  5
4E
102
{ACAD_REACTORS
330
42
102
}
330
42
100
AcDbScale
 70
     0
300
3/4" = 1'-0"
140
0.75
141
12.0
290
     0
  0
SCALE
  5
4F
102
{ACAD_REACTORS
330
42
102
}
330
42
100
AcDbScale
 70
     0
300
1" = 1'-0"
140
1.0
141
12.0
290
     0
  0
SCALE
  5
50
102
{ACAD_REACTORS
330
42
102
}
330
42
100
AcDbScale
 70
     0
300
1-1/2" = 1'-0"
140
1.5
141
12.0
290
     0
  0
SCALE
  5
51
102
{ACAD_REACTORS
330
42
102
}
330
42
100
AcDbScale
 70
     0
300
3" = 1'-0"
140
3.0
141
12.0
290
     0
  0
SCALE
  5
52
102
{ACAD_REACTORS
330
42
102
}
330
42
100
AcDbScale
 70
     0
300
6" = 1'-0"
140
6.0
141
12.0
290
     0
  0
SCALE
  5
53
102
{ACAD_REACTORS
330
42
102
}
330
42
100
AcDbScale
 70
     0
300
1'-0" = 1'-0"
140
12.0
141
12.0
290
     0
  0
ACDBSECTIONVIEWSTYLE
  5
68
102
{ACAD_XDICTIONARY
360
8F5
102
}
102
{ACAD_REACTORS
330
67
102
}
330
67
100
AcDbModelDocViewStyle
 70
     0
  3
Imperial24
290
     0
100
AcDbSectionViewStyle
 70
     0
 71
     0
 90
       78
 71
     1
340
55
 40
0.24
340
0
340
0
 40
0.24
300
I, O, Q, S, X, Z
 40
0.48
 90
        3
 40
0.18
 90
        1
 71
     2
340
5C
 90
       25
340
5C
 90
       50
 40
0.24
 40
0.0
 40
0.24
 71
     3
340
55
 40
0.24
 90
        1
 40
0.75
 90
        1
300
%<\AcVar ViewType \f "%tc1">% %<\AcVar ViewSectionStartId>%-%<\AcVar ViewSectionEndId>%\PSCALE %<\AcVar ViewScale \f "%sn">%
 71
     4
300
ANSI31
 40
1.0
 90
        0
290
     0
290
     0
 90
        6
 40
0.0
 40
1.570796326794896
 40
0.2617993877991494
 40
1.308996938995747
 40
-0.2617993877991494
 40
1.832595714594045
  0
TABLESTYLE
  5
64
102
{ACAD_XDICTIONARY
360
878
102
}
102
{ACAD_REACTORS
330
63
102
}
330
63
100
AcDbTableStyle
  3
Standard
 70
     0
 71
     0
 40
0.06
 41
0.06
280
     0
281
     0
  7
STANDARD
140
0.18
170
     2
 62
     0
 63
     7
283
     0
274
    -2
284
     1
 64
     0
275
    -2
285
     1
 65
     0
276
    -2
286
     1
 66
     0
277
    -2
287
     1
 67
     0
278
    -2
288
     1
 68
     0
279
    -2
289
     1
 69
     0
  7
STANDARD
140
0.25
170
     5
 62
     0
 63
     7
283
     0
274
    -2
284
     1
 64
     0
275
    -2
285
     1
 65
     0
276
    -2
286
     1
 66
     0
277
    -2
287
     1
 67
     0
278
    -2
288
     1
 68
     0
279
    -2
289
     1
 69
     0
  7
STANDARD
140
0.18
170
     5
 62
     0
 63
     7
283
     0
274
    -2
284
     1
 64
     0
275
    -2
285
     1
 65
     0
276
    -2
286
     1
 66
     0
277
    -2
287
     1
 67
     0
278
    -2
288
     1
 68
     0
279
    -2
289
     1
 69
     0
  0
VISUALSTYLE
  5
2F
102
{ACAD_XDICTIONARY
360
8CE
102
}
102
{ACAD_REACTORS
330
29
102
}
330
29
100
AcDbVisualStyle
  2

 70
     4
 71
     0
 72
     2
 73
     0
 90
        0
 40
-0.6
 41
-30.0
 62
     5
 63
     7
 74
     1
 91
        4
 64
     7
 65
   257
 75
     1
175
     1
 42
1.0
 92
        0
 66
   257
 43
1.0
 76
     1
 77
     6
 78
     2
 67
     7
 79
     5
170
     0
171
     0
290
     0
174
     0
 93
        1
 44
0.0
173
     0
291
     0
 45
0.0
1001
ACAD
1000
AcDbSavedByObjectVersion
1070
     0
  0
VISUALSTYLE
  5
2E
102
{ACAD_XDICTIONARY
360
8CC
102
}
102
{ACAD_REACTORS
330
29
102
}
330
29
100
AcDbVisualStyle
  2

 70
     7
 71
     1
 72
     0
 73
     1
 90
        0
 40
-0.6
 41
-30.0
 62
     5
 63
     7
 74
     0
 91
        4
 64
     7
 65
   257
 75
     1
175
     1
 42
1.0
 92
        8
 66
     7
 43
1.0
 76
     1
 77
     6
 78
     2
 67
     7
 79
     5
170
     0
171
     0
290
     0
174
     0
 93
        1
 44
0.0
173
     0
291
     1
 45
0.0
1001
ACAD
1000
AcDbSavedByObjectVersion
1070
     0
  0
VISUALSTYLE
  5
35
102
{ACAD_XDICTIONARY
360
8DA
102
}
102
{ACAD_REACTORS
330
29
102
}
330
29
100
AcDbVisualStyle
  2

 70
    12
 71
     2
 72
     2
 73
     0
 90
        0
 40
-0.6
 41
-30.0
 62
     5
 63
     7
 74
     1
 91
        4
 64
     7
 65
   257
 75
     1
175
     1
 42
1.0
 92
        8
 66
     7
 43
1.0
 76
     1
 77
     6
 78
     2
 67
     7
 79
     5
170
     0
171
     0
290
     0
174
     0
 93
        1
 44
50.0
173
     0
291
     1
 45
0.0
1001
ACAD
1000
AcDbSavedByObjectVersion
1070
     0
  0
VISUALSTYLE
  5
39
102
{ACAD_XDICTIONARY
360
8E2
102
}
102
{ACAD_REACTORS
330
29
102
}
330
29
100
AcDbVisualStyle
  2

 70
    16
 71
     2
 72
     2
 73
     3
 90
        0
 40
-0.6
 41
-30.0
 62
     5
 63
     8
 74
     1
 91
        4
 64
     7
 65
   257
 75
     1
175
     1
 42
1.0
 92
        8
 66
     8
 43
1.0
 76
     1
 77
     6
 78
     2
 67
     7
 79
     5
170
     0
171
     0
290
     0
174
     0
 93
        1
 44
0.0
173
     0
291
     1
 45
0.0
1001
ACAD
1000
AcDbSavedByObjectVersion
1070
     0
  0
VISUALSTYLE
  5
32
102
{ACAD_XDICTIONARY
360
8D4
102
}
102
{ACAD_REACTORS
330
29
102
}
330
29
100
AcDbVisualStyle
  2

 70
     9
 71
     3
 72
     2
 73
     0
 90
        0
 40
-0.6
 41
-30.0
 62
     5
 63
     7
 74
     2
 91
        2
 64
     7
 65
   257
 75
     1
175
     1
 42
179.0
 92
        8
 66
     7
 43
1.0
 76
     1
 77
     6
 78
     2
 67
     7
 79
     3
170
     0
171
     0
290
     0
174
     0
 93
        1
 44
0.0
173
     0
291
     0
 45
0.0
1001
ACAD
1000
AcDbSavedByObjectVersion
1070
     0
  0
VISUALSTYLE
  5
34
102
{ACAD_XDICTIONARY
360
8D8
102
}
102
{ACAD_REACTORS
330
29
102
}
330
29
100
AcDbVisualStyle
  2

 70
    11
 71
     2
 72
     2
 73
     0
 90
        0
 40
-0.6
 41
-30.0
 62
     5
 63
     7
 74
     1
 91
        4
 64
     7
 65
   257
 75
     1
175
     1
 42
1.0
 92
        8
 66
     7
 43
1.0
 76
     1
 77
     6
 78
     2
 67
     7
 79
     5
170
     0
171
     0
290
     0
174
     0
 93
        1
 44
-50.0
173
     0
291
     1
 45
0.0
1001
ACAD
1000
AcDbSavedByObjectVersion
1070
     0
  0
VISUALSTYLE
  5
41
102
{ACAD_XDICTIONARY
360
8F2
102
}
102
{ACAD_REACTORS
330
29
102
}
330
29
100
AcDbVisualStyle
  2

 70
    22
 71
     2
 72
     2
 73
     0
 90
        0
 40
-0.6
 41
-30.0
 62
     5
 63
     7
 74
     1
 91
        4
 64
     7
 65
   257
 75
     1
175
     1
 42
1.0
 92
        8
 66
     7
 43
1.0
 76
     1
 77
     6
 78
     2
 67
     7
 79
     5
170
     0
171
     0
290
     0
174
     0
 93
        1
 44
0.0
173
     0
291
     1
 45
0.0
1001
ACAD
1000
AcDbSavedByObjectVersion
1070
     0
  0
VISUALSTYLE
  5
38
102
{ACAD_XDICTIONARY
360
8E0
102
}
102
{ACAD_REACTORS
330
29
102
}
330
29
100
AcDbVisualStyle
  2

 70
    15
 71
     2
 72
     2
 73
     0
 90
        0
 40
-0.6
 41
-30.0
 62
     5
 63
     7
 74
     1
 91
        4
 64
     7
 65
   257
 75
     1
175
     1
 42
1.0
 92
        8
 66
     7
 43
1.0
 76
     1
 77
     6
 78
     2
 67
     7
 79
     5
170
     0
171
     0
290
     0
174
     0
 93
        1
 44
0.0
173
     0
291
     1
 45
0.0
1001
ACAD
1000
AcDbSavedByObjectVersion
1070
     0
  0
VISUALSTYLE
  5
2A
102
{ACAD_XDICTIONARY
360
8C4
102
}
102
{ACAD_REACTORS
330
29
102
}
330
29
100
AcDbVisualStyle
  2

 70
     0
 71
     2
 72
     1
 73
     1
 90
        2
 40
-0.6
 41
30.0
 62
     5
 63
     7
 74
     0
 91
        0
 64
     7
 65
   257
 75
     1
175
     1
 42
1.0
 92
        8
 66
     7
 43
1.0
 76
     1
 77
     6
 78
     2
 67
     7
 79
     5
170
     0
171
     0
290
     0
174
     0
 93
       13
 44
0.0
173
     0
291
     1
 45
0.0
1001
ACAD
1000
AcDbSavedByObjectVersion
1070
     0
  0
VISUALSTYLE
  5
2B
102
{ACAD_XDICTIONARY
360
8C6
102
}
102
{ACAD_REACTORS
330
29
102
}
330
29
100
AcDbVisualStyle
  2

 70
     1
 71
     2
 72
     1
 73
     1
 90
        2
 40
-0.6
 41
30.0
 62
     5
 63
     7
 74
     1
 91
        0
 64
     7
 65
   257
 75
     1
175
     1
 42
1.0
 92
        0
 66
   257
 43
1.0
 76
     1
 77
     6
 78
     2
 67
     7
 79
     5
170
     0
171
     0
290
     0
174
     0
 93
       13
 44
0.0
173
     0
291
     1
 45
0.0
1001
ACAD
1000
AcDbSavedByObjectVersion
1070
     0
  0
VISUALSTYLE
  5
2C
102
{ACAD_XDICTIONARY
360
8C8
102
}
102
{ACAD_REACTORS
330
29
102
}
330
29
100
AcDbVisualStyle
  2

 70
     2
 71
     2
 72
     2
 73
     1
 90
        2
 40
-0.6
 41
30.0
 62
     5
 63
     7
 74
     0
 91
        0
 64
     7
 65
   257
 75
     1
175
     1
 42
1.0
 92
        0
 66
     7
 43
1.0
 76
     1
 77
     6
 78
     2
 67
     7
 79
     5
170
     0
171
     0
290
     0
174
     0
 93
       13
 44
0.0
173
     0
291
     1
 45
0.0
1001
ACAD
1000
AcDbSavedByObjectVersion
1070
     0
  0
VISUALSTYLE
  5
2D
102
{ACAD_XDICTIONARY
360
8CA
102
}
102
{ACAD_REACTORS
330
29
102
}
330
29
100
AcDbVisualStyle
  2

 70
     3
 71
     2
 72
     2
 73
     1
 90
        2
 40
-0.6
 41
30.0
 62
     5
 63
     7
 74
     1
 91
        0
 64
     7
 65
   257
 75
     1
175
     1
 42
1.0
 92
        0
 66
   257
 43
1.0
 76
     1
 77
     6
 78
     2
 67
     7
 79
     5
170
     0
171
     0
290
     0
174
     0
 93
       13
 44
0.0
173
     0
291
     1
 45
0.0
1001
ACAD
1000
AcDbSavedByObjectVersion
1070
     0
  0
VISUALSTYLE
  5
31
102
{ACAD_XDICTIONARY
360
8D2
102
}
102
{ACAD_REACTORS
330
29
102
}
330
29
100
AcDbVisualStyle
  2

 70
     6
 71
     1
 72
     2
 73
     2
 90
        0
 40
-0.6
 41
-30.0
 62
     5
 63
     7
 74
     2
 91
        2
 64
     7
 65
   257
 75
     2
175
     1
 42
40.0
 92
        0
 66
   257
 43
1.0
 76
     1
 77
     6
 78
     2
 67
     7
 79
     3
170
     0
171
     0
290
     0
174
     0
 93
        1
 44
0.0
173
     0
291
     0
 45
0.0
1001
ACAD
1000
AcDbSavedByObjectVersion
1070
     0
  0
VISUALSTYLE
  5
3F
102
{ACAD_XDICTIONARY
360
8EE
102
}
102
{ACAD_REACTORS
330
29
102
}
330
29
100
AcDbVisualStyle
  2

 70
    20
 71
     2
 72
     2
 73
     0
 90
        0
 40
-0.6
 41
-30.0
 62
     5
 63
     7
 74
     1
 91
        4
 64
     7
 65
   257
 75
     1
175
     1
 42
1.0
 92
       10
 66
     7
 43
1.0
 76
     1
 77
     6
 78
     2
 67
     7
 79
     5
170
     0
171
     0
290
     0
174
     0
 93
        1
 44
0.0
173
     0
291
     1
 45
0.0
1001
ACAD
1000
AcDbSavedByObjectVersion
1070
     0
  0
VISUALSTYLE
  5
37
102
{ACAD_XDICTIONARY
360
8DE
102
}
102
{ACAD_REACTORS
330
29
102
}
330
29
100
AcDbVisualStyle
  2

 70
    14
 71
     2
 72
     2
 73
     0
 90
        0
 40
-0.6
 41
-30.0
 62
     5
 63
     7
 74
     1
 91
        4
 64
     7
 65
   257
 75
     7
175
     7
 42
1.0
 92
        8
 66
     7
 43
1.0
 76
     1
 77
     6
 78
     2
 67
     7
 79
     5
170
     0
171
     0
290
     0
174
     0
 93
        1
 44
0.0
173
     0
291
     1
 45
0.0
1001
ACAD
1000
AcDbSavedByObjectVersion
1070
     0
  0
VISUALSTYLE
  5
40
102
{ACAD_XDICTIONARY
360
8F0
102
}
102
{ACAD_REACTORS
330
29
102
}
330
29
100
AcDbVisualStyle
  2

 70
    21
 71
     2
 72
     2
 73
     0
 90
        0
 40
-0.6
 41
-30.0
 62
     5
 63
     7
 74
     1
 91
        4
 64
     7
 65
   257
 75
     1
175
     1
 42
1.0
 92
        9
 66
     7
 43
1.0
 76
     1
 77
     6
 78
     2
 67
     7
 79
     5
170
     0
171
     0
290
     0
174
     0
 93
        1
 44
0.0
173
     0
291
     1
 45
0.0
1001
ACAD
1000
AcDbSavedByObjectVersion
1070
     0
  0
VISUALSTYLE
  5
33
102
{ACAD_XDICTIONARY
360
8D6
102
}
102
{ACAD_REACTORS
330
29
102
}
330
29
100
AcDbVisualStyle
  2

 70
     8
 71
     2
 72
     3
 73
     0
 90
        2
 40
-0.6
 41
30.0
 62
     5
 63
     7
 74
     0
 91
        0
 64
     7
 65
   257
 75
     1
175
     1
 42
1.0
 92
        8
 66
   257
 43
1.0
 76
     1
 77
     6
 78
     2
 67
     7
 79
     3
170
     0
171
     0
290
     0
174
     0
 93
       13
 44
0.0
173
     0
291
     0
 45
0.0
1001
ACAD
1000
AcDbSavedByObjectVersion
1070
     0
  0
VISUALSTYLE
  5
3E
102
{ACAD_XDICTIONARY
360
8EC
102
}
102
{ACAD_REACTORS
330
29
102
}
330
29
100
AcDbVisualStyle
  2

 70
    27
 71
     2
 72
     2
 73
     1
 90
        2
 40
-0.6
 41
30.0
 62
     5
 63
     7
 74
     0
 91
        4
 64
     7
 65
   257
 75
     1
175
     1
 42
1.0
 92
        8
 66
   257
 43
1.0
 76
     1
 77
     6
 78
     2
 67
     8
 79
     3
170
     0
171
     0
290
     0
174
     0
 93
        5
 44
0.0
173
     0
291
     0
 45
0.0
1001
ACAD
1000
AcDbSavedByObjectVersion
1070
     0
  0
VISUALSTYLE
  5
3D
102
{ACAD_XDICTIONARY
360
8EA
102
}
102
{ACAD_REACTORS
330
29
102
}
330
29
100
AcDbVisualStyle
  2

 70
    26
 71
     2
 72
     2
 73
     1
 90
        2
 40
-0.6
 41
30.0
 62
     5
 63
     7
 74
     1
 91
        2
 64
     7
 65
   257
 75
     2
175
     1
 42
1.0
 92
        8
 66
   257
 43
1.0
 76
     1
 77
     6
 78
     2
 67
     7
 79
     3
170
     0
171
     0
290
     0
174
     0
 93
        5
 44
0.0
173
     0
291
     0
 45
0.0
1001
ACAD
1000
AcDbSavedByObjectVersion
1070
     0
  0
VISUALSTYLE
  5
3A
102
{ACAD_XDICTIONARY
360
8E4
102
}
102
{ACAD_REACTORS
330
29
102
}
330
29
100
AcDbVisualStyle
  2

 70
    23
 71
     2
 72
     2
 73
     3
 90
        0
 40
-0.6
 41
-30.0
 62
     5
 63
     7
 74
     2
 91
        2
 64
     7
 65
     7
 75
     1
175
     1
 42
40.0
 92
        8
 66
     7
 43
1.0
 76
     1
 77
     6
 78
     2
 67
     7
 79
     3
170
     0
171
     0
290
     0
174
     0
 93
        1
 44
0.0
173
     0
291
     0
 45
0.0
1001
ACAD
1000
AcDbSavedByObjectVersion
1070
     0
  0
VISUALSTYLE
  5
3B
102
{ACAD_XDICTIONARY
360
8E6
102
}
102
{ACAD_REACTORS
330
29
102
}
330
29
100
AcDbVisualStyle
  2

 70
    24
 71
     1
 72
     2
 73
     2
 90
        0
 40
-0.6
 41
-30.0
 62
     5
 63
     7
 74
     2
 91
        2
 64
     7
 65
     7
 75
     1
175
     1
 42
40.0
 92
       11
 66
     7
 43
1.0
 76
     1
 77
     6
 78
     2
 67
     7
 79
     6
170
     0
171
     0
290
     0
174
     0
 93
        1
 44
0.0
173
     0
291
     0
 45
0.0
1001
ACAD
1000
AcDbSavedByObjectVersion
1070
     0
  0
VISUALSTYLE
  5
36
102
{ACAD_XDICTIONARY
360
8DC
102
}
102
{ACAD_REACTORS
330
29
102
}
330
29
100
AcDbVisualStyle
  2

 70
    13
 71
     2
 72
     2
 73
     0
 90
        0
 40
-0.6
 41
-30.0
 62
     5
 63
     7
 74
     1
 91
        4
 64
     7
 65
   257
 75
     1
175
     1
 42
1.0
 92
       12
 66
     7
 43
1.0
 76
     1
 77
     6
 78
     2
 67
     7
 79
     5
170
     0
171
     0
290
     0
174
     0
 93
        1
 44
0.0
173
     0
291
     1
 45
0.0
1001
ACAD
1000
AcDbSavedByObjectVersion
1070
     0
  0
VISUALSTYLE
  5
30
102
{ACAD_XDICTIONARY
360
8D0
102
}
102
{ACAD_REACTORS
330
29
102
}
330
29
100
AcDbVisualStyle
  2

 70
     5
 71
     0
 72
     2
 73
     0
 90
        0
 40
-0.6
 41
-30.0
 62
     5
 63
     7
 74
     1
 91
        4
 64
     7
 65
   257
 75
     1
175
     1
 42
1.0
 92
        0
 66
   257
 43
1.0
 76
     1
 77
     6
 78
     2
 67
     7
 79
     3
170
     0
171
     0
290
     0
174
     0
 93
        1
 44
0.0
173
     0
291
     0
 45
0.0
1001
ACAD
1000
AcDbSavedByObjectVersion
1070
     0
  0
VISUALSTYLE
  5
3C
102
{ACAD_XDICTIONARY
360
8E8
102
}
102
{ACAD_REACTORS
330
29
102
}
330
29
100
AcDbVisualStyle
  2

 70
    25
 71
     2
 72
     2
 73
     1
 90
        1
 40
0.5
 41
-30.0
 62
     5
 63
     7
 74
     1
 91
        0
 64
     7
 65
   257
 75
     1
175
     1
 42
1.0
 92
        8
 66
     7
 43
1.0
 76
     1
 77
     6
 78
     2
 67
     7
 79
     3
170
     0
171
     0
290
     0
174
     0
 93
       13
 44
0.0
173
     0
291
     0
 45
0.0
1001
ACAD
1000
AcDbSavedByObjectVersion
1070
     0
  0
DICTIONARYVAR
  5
872
102
{ACAD_REACTORS
330
86D
102
}
330
86D
100
DictionaryVariables
280
     0
  1
1:1
  0
DICTIONARYVAR
  5
86F
102
{ACAD_REACTORS
330
86D
102
}
330
86D
100
DictionaryVariables
280
     0
  1
STANDARD
  0
DICTIONARYVAR
  5
86E
102
{ACAD_REACTORS
330
86D
102
}
330
86D
100
DictionaryVariables
280
     0
  1
STANDARD
  0
DICTIONARYVAR
  5
870
102
{ACAD_REACTORS
330
86D
102
}
330
86D
100
DictionaryVariables
280
     0
  1
Imperial24
  0
DICTIONARYVAR
  5
871
102
{ACAD_REACTORS
330
86D
102
}
330
86D
100
DictionaryVariables
280
     0
  1
Imperial24
  0
DICTIONARYVAR
  5
875
102
{ACAD_REACTORS
330
86D
102
}
330
86D
100
DictionaryVariables
280
     0
  1
1
  0
DICTIONARYVAR
  5
874
102
{ACAD_REACTORS
330
86D
102
}
330
86D
100
DictionaryVariables
280
     0
  1
0
  0
DICTIONARYVAR
  5
873
102
{ACAD_REACTORS
330
86D
102
}
330
86D
100
DictionaryVariables
280
     0
  1
127
  0
DICTIONARYVAR
  5
8C0
102
{ACAD_REACTORS
330
86D
102
}
330
86D
100
DictionaryVariables
280
     0
  1
2
  0
DICTIONARY
  5
8F7
330
6A
100
AcDbDictionary
280
     1
281
     1
  3
ACAD_XREC_ROUNDTRIP
360
8F8
  0
DICTIONARY
  5
8FB
330
72
100
AcDbDictionary
280
     1
281
     1
  3
ACAD_XREC_ROUNDTRIP
360
8FC
  0
DICTIONARY
  5
8F9
330
6E
100
AcDbDictionary
280
     1
281
     1
  3
ACAD_XREC_ROUNDTRIP
360
8FA
  0
DICTIONARY
  5
1A
330
19
100
AcDbDictionary
280
     1
281
     1
  3
ACAD_XREC_ROUNDTRIP
360
87D
  3
BUMPTILE
360
1C
  3
DIFFUSETILE
360
1B
  3
OPACITYTILE
360
1F
  3
REFLECTIONTILE
360
1E
  3
REFRACTIONTILE
360
20
  3
SPECULARTILE
360
1D
  0
DICTIONARY
  5
12
330
11
100
AcDbDictionary
280
     1
281
     1
  3
ACAD_XREC_ROUNDTRIP
360
87C
  3
BUMPTILE
360
14
  3
DIFFUSETILE
360
13
  3
OPACITYTILE
360
17
  3
REFLECTIONTILE
360
16
  3
REFRACTIONTILE
360
18
  3
SPECULARTILE
360
15
  0
DICTIONARY
  5
22
330
21
100
AcDbDictionary
280
     1
281
     1
  3
ACAD_XREC_ROUNDTRIP
360
87E
  3
BUMPTILE
360
24
  3
DIFFUSETILE
360
23
  3
OPACITYTILE
360
27
  3
REFLECTIONTILE
360
26
  3
REFRACTIONTILE
360
28
  3
SPECULARTILE
360
25
  0
DICTIONARY
  5
8F5
330
68
100
AcDbDictionary
280
     1
281
     1
  3
ACAD_XREC_ROUNDTRIP
360
8F6
  0
DICTIONARY
  5
878
330
64
100
AcDbDictionary
280
     1
281
     1
  3
ACAD_ROUNDTRIP_2008_TABLESTYLE_CELLSTYLEMAP
360
8C1
  3
ACAD_XREC_ROUNDTRIP
360
8F4
  0
DICTIONARY
  5
8CE
330
2F
100
AcDbDictionary
280
     1
281
     1
  3
ACAD_XREC_ROUNDTRIP
360
8CF
  0
DICTIONARY
  5
8CC
330
2E
100
AcDbDictionary
280
     1
281
     1
  3
ACAD_XREC_ROUNDTRIP
360
8CD
  0
DICTIONARY
  5
8DA
330
35
100
AcDbDictionary
280
     1
281
     1
  3
ACAD_XREC_ROUNDTRIP
360
8DB
  0
DICTIONARY
  5
8E2
330
39
100
AcDbDictionary
280
     1
281
     1
  3
ACAD_XREC_ROUNDTRIP
360
8E3
  0
DICTIONARY
  5
8D4
330
32
100
AcDbDictionary
280
     1
281
     1
  3
ACAD_XREC_ROUNDTRIP
360
8D5
  0
DICTIONARY
  5
8D8
330
34
100
AcDbDictionary
280
     1
281
     1
  3
ACAD_XREC_ROUNDTRIP
360
8D9
  0
DICTIONARY
  5
8F2
330
41
100
AcDbDictionary
280
     1
281
     1
  3
ACAD_XREC_ROUNDTRIP
360
8F3
  0
DICTIONARY
  5
8E0
330
38
100
AcDbDictionary
280
     1
281
     1
  3
ACAD_XREC_ROUNDTRIP
360
8E1
  0
DICTIONARY
  5
8C4
330
2A
100
AcDbDictionary
280
     1
281
     1
  3
ACAD_XREC_ROUNDTRIP
360
8C5
  0
DICTIONARY
  5
8C6
330
2B
100
AcDbDictionary
280
     1
281
     1
  3
ACAD_XREC_ROUNDTRIP
360
8C7
  0
DICTIONARY
  5
8C8
330
2C
100
AcDbDictionary
280
     1
281
     1
  3
ACAD_XREC_ROUNDTRIP
360
8C9
  0
DICTIONARY
  5
8CA
330
2D
100
AcDbDictionary
280
     1
281
     1
  3
ACAD_XREC_ROUNDTRIP
360
8CB
  0
DICTIONARY
  5
8D2
330
31
100
AcDbDictionary
280
     1
281
     1
  3
ACAD_XREC_ROUNDTRIP
360
8D3
  0
DICTIONARY
  5
8EE
330
3F
100
AcDbDictionary
280
     1
281
     1
  3
ACAD_XREC_ROUNDTRIP
360
8EF
  0
DICTIONARY
  5
8DE
330
37
100
AcDbDictionary
280
     1
281
     1
  3
ACAD_XREC_ROUNDTRIP
360
8DF
  0
DICTIONARY
  5
8F0
330
40
100
AcDbDictionary
280
     1
281
     1
  3
ACAD_XREC_ROUNDTRIP
360
8F1
  0
DICTIONARY
  5
8D6
330
33
100
AcDbDictionary
280
     1
281
     1
  3
ACAD_XREC_ROUNDTRIP
360
8D7
  0
DICTIONARY
  5
8EC
330
3E
100
AcDbDictionary
280
     1
281
     1
  3
ACAD_XREC_ROUNDTRIP
360
8ED
  0
DICTIONARY
  5
8EA
330
3D
100
AcDbDictionary
280
     1
281
     1
  3
ACAD_XREC_ROUNDTRIP
360
8EB
  0
DICTIONARY
  5
8E4
330
3A
100
AcDbDictionary
280
     1
281
     1
  3
ACAD_XREC_ROUNDTRIP
360
8E5
  0
DICTIONARY
  5
8E6
330
3B
100
AcDbDictionary
280
     1
281
     1
  3
ACAD_XREC_ROUNDTRIP
360
8E7
  0
DICTIONARY
  5
8DC
330
36
100
AcDbDictionary
280
     1
281
     1
  3
ACAD_XREC_ROUNDTRIP
360
8DD
  0
DICTIONARY
  5
8D0
330
30
100
AcDbDictionary
280
     1
281
     1
  3
ACAD_XREC_ROUNDTRIP
360
8D1
  0
DICTIONARY
  5
8E8
330
3C
100
AcDbDictionary
280
     1
281
     1
  3
ACAD_XREC_ROUNDTRIP
360
8E9
  0
XRECORD
  5
8F8
102
{ACAD_REACTORS
330
8F7
102
}
330
8F7
100
AcDbXrecord
280
     1
102
DISPLAYNAME
  1
Imperial24
102
FLAGS
 90
        0
  0
XRECORD
  5
8FC
102
{ACAD_REACTORS
330
8FB
102
}
330
8FB
100
AcDbXrecord
280
     1
102
SHADEPLOT
 70
     0
102
SHADEPLOTRESLEVEL
 70
     2
102
SHADEPLOTCUSTOMDPI
 70
   300
  0
XRECORD
  5
8FA
102
{ACAD_REACTORS
330
8F9
102
}
330
8F9
100
AcDbXrecord
280
     1
102
SHADEPLOT
 70
     0
102
SHADEPLOTRESLEVEL
 70
     2
102
SHADEPLOTCUSTOMDPI
 70
   300
  0
XRECORD
  5
87D
102
{ACAD_REACTORS
330
1A
102
}
330
1A
100
AcDbXrecord
280
     1
102
MATERIAL
148
0.0
149
0.0
149
0.0
 93
        0
 94
      127
282
     0
 72
     0
 77
     0
171
     0
175
     0
179
     0
273
     0
  0
XRECORD
  5
1C
102
{ACAD_REACTORS
330
1A
102
}
330
1A
100
AcDbXrecord
280
     1
270
     1
271
     1
  0
XRECORD
  5
1B
102
{ACAD_REACTORS
330
1A
102
}
330
1A
100
AcDbXrecord
280
     1
270
     1
271
     1
  0
XRECORD
  5
1F
102
{ACAD_REACTORS
330
1A
102
}
330
1A
100
AcDbXrecord
280
     1
270
     1
271
     1
  0
XRECORD
  5
1E
102
{ACAD_REACTORS
330
1A
102
}
330
1A
100
AcDbXrecord
280
     1
270
     1
271
     1
  0
XRECORD
  5
20
102
{ACAD_REACTORS
330
1A
102
}
330
1A
100
AcDbXrecord
280
     1
270
     1
271
     1
  0
XRECORD
  5
1D
102
{ACAD_REACTORS
330
1A
102
}
330
1A
100
AcDbXrecord
280
     1
270
     1
271
     1
  0
XRECORD
  5
87C
102
{ACAD_REACTORS
330
12
102
}
330
12
100
AcDbXrecord
280
     1
102
MATERIAL
148
0.0
149
0.0
149
0.0
 93
        0
 94
      127
282
     0
 72
     0
 77
     0
171
     0
175
     0
179
     0
273
     0
  0
XRECORD
  5
14
102
{ACAD_REACTORS
330
12
102
}
330
12
100
AcDbXrecord
280
     1
270
     1
271
     1
  0
XRECORD
  5
13
102
{ACAD_REACTORS
330
12
102
}
330
12
100
AcDbXrecord
280
     1
270
     1
271
     1
  0
XRECORD
  5
17
102
{ACAD_REACTORS
330
12
102
}
330
12
100
AcDbXrecord
280
     1
270
     1
271
     1
  0
XRECORD
  5
16
102
{ACAD_REACTORS
330
12
102
}
330
12
100
AcDbXrecord
280
     1
270
     1
271
     1
  0
XRECORD
  5
18
102
{ACAD_REACTORS
330
12
102
}
330
12
100
AcDbXrecord
280
     1
270
     1
271
     1
  0
XRECORD
  5
15
102
{ACAD_REACTORS
330
12
102
}
330
12
100
AcDbXrecord
280
     1
270
     1
271
     1
  0
XRECORD
  5
87E
102
{ACAD_REACTORS
330
22
102
}
330
22
100
AcDbXrecord
280
     1
102
MATERIAL
148
0.0
149
0.0
149
0.0
 93
        0
 94
      127
282
     0
 72
     0
 77
     0
171
     0
175
     0
179
     0
273
     0
  0
XRECORD
  5
24
102
{ACAD_REACTORS
330
22
102
}
330
22
100
AcDbXrecord
280
     1
270
     1
271
     1
  0
XRECORD
  5
23
102
{ACAD_REACTORS
330
22
102
}
330
22
100
AcDbXrecord
280
     1
270
     1
271
     1
  0
XRECORD
  5
27
102
{ACAD_REACTORS
330
22
102
}
330
22
100
AcDbXrecord
280
     1
270
     1
271
     1
  0
XRECORD
  5
26
102
{ACAD_REACTORS
330
22
102
}
330
22
100
AcDbXrecord
280
     1
270
     1
271
     1
  0
XRECORD
  5
28
102
{ACAD_REACTORS
330
22
102
}
330
22
100
AcDbXrecord
280
     1
270
     1
271
     1
  0
XRECORD
  5
25
102
{ACAD_REACTORS
330
22
102
}
330
22
100
AcDbXrecord
280
     1
270
     1
271
     1
  0
XRECORD
  5
8F6
102
{ACAD_REACTORS
330
8F5
102
}
330
8F5
100
AcDbXrecord
280
     1
102
DISPLAYNAME
  1
Imperial24
102
FLAGS
 90
        0
  0
CELLSTYLEMAP
  5
8C1
102
{ACAD_REACTORS
330
878
102
}
330
878
100
AcDbCellStyleMap
 90
        3
300
CELLSTYLE
  1
TABLEFORMAT_BEGIN
 90
        5
170
     1
 91
        0
 92
    32768
 62
   257
 93
        1
300
CONTENTFORMAT
  1
CONTENTFORMAT_BEGIN
 90
        0
 91
        0
 92
      512
 93
        0
300

 40
0.0
140
1.0
 94
        5
 62
     0
340
55
144
0.25
309
CONTENTFORMAT_END
171
     1
301
MARGIN
  1
CELLMARGIN_BEGIN
 40
0.06
 40
0.06
 40
0.06
 40
0.06
 40
0.18
 40
0.18
309
CELLMARGIN_END
 94
        6
 95
        1
302
GRIDFORMAT
  1
GRIDFORMAT_BEGIN
 90
        0
 91
        1
 62
     0
 92
       -2
340
0
 93
        0
 40
0.045
309
GRIDFORMAT_END
 95
        2
302
GRIDFORMAT
  1
GRIDFORMAT_BEGIN
 90
        0
 91
        1
 62
     0
 92
       -2
340
0
 93
        0
 40
0.045
309
GRIDFORMAT_END
 95
        4
302
GRIDFORMAT
  1
GRIDFORMAT_BEGIN
 90
        0
 91
        1
 62
     0
 92
       -2
340
0
 93
        0
 40
0.045
309
GRIDFORMAT_END
 95
        8
302
GRIDFORMAT
  1
GRIDFORMAT_BEGIN
 90
        0
 91
        1
 62
     0
 92
       -2
340
0
 93
        0
 40
0.045
309
GRIDFORMAT_END
 95
       16
302
GRIDFORMAT
  1
GRIDFORMAT_BEGIN
 90
        0
 91
        1
 62
     0
 92
       -2
340
0
 93
        0
 40
0.045
309
GRIDFORMAT_END
 95
       32
302
GRIDFORMAT
  1
GRIDFORMAT_BEGIN
 90
        0
 91
        1
 62
     0
 92
       -2
340
0
 93
        0
 40
0.045
309
GRIDFORMAT_END
309
TABLEFORMAT_END
  1
CELLSTYLE_BEGIN
 90
        1
 91
        1
300
_TITLE
309
CELLSTYLE_END
300
CELLSTYLE
  1
TABLEFORMAT_BEGIN
 90
        5
170
     1
 91
        0
 92
        0
 62
   257
 93
        1
300
CONTENTFORMAT
  1
CONTENTFORMAT_BEGIN
 90
        0
 91
        0
 92
      512
 93
        0
300

 40
0.0
140
1.0
 94
        5
 62
     0
340
55
144
0.18
309
CONTENTFORMAT_END
171
     1
301
MARGIN
  1
CELLMARGIN_BEGIN
 40
0.06
 40
0.06
 40
0.06
 40
0.06
 40
0.18
 40
0.18
309
CELLMARGIN_END
 94
        6
 95
        1
302
GRIDFORMAT
  1
GRIDFORMAT_BEGIN
 90
        0
 91
        1
 62
     0
 92
       -2
340
0
 93
        0
 40
0.045
309
GRIDFORMAT_END
 95
        2
302
GRIDFORMAT
  1
GRIDFORMAT_BEGIN
 90
        0
 91
        1
 62
     0
 92
       -2
340
0
 93
        0
 40
0.045
309
GRIDFORMAT_END
 95
        4
302
GRIDFORMAT
  1
GRIDFORMAT_BEGIN
 90
        0
 91
        1
 62
     0
 92
       -2
340
0
 93
        0
 40
0.045
309
GRIDFORMAT_END
 95
        8
302
GRIDFORMAT
  1
GRIDFORMAT_BEGIN
 90
        0
 91
        1
 62
     0
 92
       -2
340
0
 93
        0
 40
0.045
309
GRIDFORMAT_END
 95
       16
302
GRIDFORMAT
  1
GRIDFORMAT_BEGIN
 90
        0
 91
        1
 62
     0
 92
       -2
340
0
 93
        0
 40
0.045
309
GRIDFORMAT_END
 95
       32
302
GRIDFORMAT
  1
GRIDFORMAT_BEGIN
 90
        0
 91
        1
 62
     0
 92
       -2
340
0
 93
        0
 40
0.045
309
GRIDFORMAT_END
309
TABLEFORMAT_END
  1
CELLSTYLE_BEGIN
 90
        2
 91
        1
300
_HEADER
309
CELLSTYLE_END
300
CELLSTYLE
  1
TABLEFORMAT_BEGIN
 90
        5
170
     1
 91
        0
 92
        0
 62
   257
 93
        1
300
CONTENTFORMAT
  1
CONTENTFORMAT_BEGIN
 90
        0
 91
        0
 92
      512
 93
        0
300

 40
0.0
140
1.0
 94
        2
 62
     0
340
55
144
0.18
309
CONTENTFORMAT_END
171
     1
301
MARGIN
  1
CELLMARGIN_BEGIN
 40
0.06
 40
0.06
 40
0.06
 40
0.06
 40
0.18
 40
0.18
309
CELLMARGIN_END
 94
        6
 95
        1
302
GRIDFORMAT
  1
GRIDFORMAT_BEGIN
 90
        0
 91
        1
 62
     0
 92
       -2
340
0
 93
        0
 40
0.045
309
GRIDFORMAT_END
 95
        2
302
GRIDFORMAT
  1
GRIDFORMAT_BEGIN
 90
        0
 91
        1
 62
     0
 92
       -2
340
0
 93
        0
 40
0.045
309
GRIDFORMAT_END
 95
        4
302
GRIDFORMAT
  1
GRIDFORMAT_BEGIN
 90
        0
 91
        1
 62
     0
 92
       -2
340
0
 93
        0
 40
0.045
309
GRIDFORMAT_END
 95
        8
302
GRIDFORMAT
  1
GRIDFORMAT_BEGIN
 90
        0
 91
        1
 62
     0
 92
       -2
340
0
 93
        0
 40
0.045
309
GRIDFORMAT_END
 95
       16
302
GRIDFORMAT
  1
GRIDFORMAT_BEGIN
 90
        0
 91
        1
 62
     0
 92
       -2
340
0
 93
        0
 40
0.045
309
GRIDFORMAT_END
 95
       32
302
GRIDFORMAT
  1
GRIDFORMAT_BEGIN
 90
        0
 91
        1
 62
     0
 92
       -2
340
0
 93
        0
 40
0.045
309
GRIDFORMAT_END
309
TABLEFORMAT_END
  1
CELLSTYLE_BEGIN
 90
        3
 91
        2
300
_DATA
309
CELLSTYLE_END
  0
XRECORD
  5
8F4
102
{ACAD_REACTORS
330
878
102
}
330
878
100
AcDbXrecord
280
     1
102
ACAD_ROUNDTRIP_PRE2007_TABLESTYLE
 90
      512
 91
        0
  1

 92
      512
 93
        0
  2

 94
      512
 95
        0
  3

  0
XRECORD
  5
8CF
102
{ACAD_REACTORS
330
8CE
102
}
330
8CE
100
AcDbXrecord
280
     1
102
RTVSPost2010Prop28
280
     1
102
RTVSPost2010PropOp28
 70
     1
102
RTVSPost2010Prop29
280
     1
102
RTVSPost2010PropOp29
 70
     1
102
RTVSPost2010Prop30
280
     0
102
RTVSPost2010PropOp30
 70
     1
102
RTVSPost2010Prop31
280
     0
102
RTVSPost2010PropOp31
 70
     1
102
RTVSPost2010Prop32
280
     0
102
RTVSPost2010PropOp32
 70
     1
102
RTVSPost2010Prop33
280
     0
102
RTVSPost2010PropOp33
 70
     1
102
RTVSPost2010Prop34
280
     0
102
RTVSPost2010PropOp34
 70
     1
102
RTVSPost2010Prop35
280
     0
102
RTVSPost2010PropOp35
 70
     1
102
RTVSPost2010Prop36
280
     0
102
RTVSPost2010PropOp36
 70
     1
102
RTVSPost2010Prop37
 90
       50
102
RTVSPost2010PropOp37
 70
     1
102
RTVSPost2010Prop38
140
0.0
102
RTVSPost2010PropOp38
 70
     1
102
RTVSPost2010Prop39
140
1.0
102
RTVSPost2010PropOp39
 70
     1
102
RTVSPost2010Prop40
 90
        0
102
RTVSPost2010PropOp40
 70
     1
102
RTVSPost2010Prop41ColorIndex
 90
       18
102
RTVSPost2010Prop41ColorRGB
 90
        0
102
RTVSPost2010PropOp41
 70
     1
102
RTVSPost2010Prop42
 90
       50
102
RTVSPost2010PropOp42
 70
     1
102
RTVSPost2010Prop43
 90
        3
102
RTVSPost2010PropOp43
 70
     1
102
RTVSPost2010Prop44ColorIndex
 90
        5
102
RTVSPost2010Prop44ColorRGB
 90
      255
102
RTVSPost2010PropOp44
 70
     1
102
RTVSPost2010Prop45
280
     0
102
RTVSPost2010PropOp45
 70
     1
102
RTVSPost2010Prop46
 90
       50
102
RTVSPost2010PropOp46
 70
     1
102
RTVSPost2010Prop47
 90
       50
102
RTVSPost2010PropOp47
 70
     1
102
RTVSPost2010Prop48
 90
       50
102
RTVSPost2010PropOp48
 70
     1
102
RTVSPost2010Prop49
280
     0
102
RTVSPost2010PropOp49
 70
     1
102
RTVSPost2010Prop50
 90
       50
102
RTVSPost2010PropOp50
 70
     1
102
RTVSPost2010Prop51ColorIndex
 90
      256
102
RTVSPost2010Prop51ColorRGB
 90
-16777216
102
RTVSPost2010PropOp51
 70
     0
102
RTVSPost2010Prop52
140
1.0
102
RTVSPost2010PropOp52
 70
     0
102
RTVSPost2010Prop53
 90
        2
102
RTVSPost2010PropOp53
 70
     1
102
RTVSPost2010Prop54
  1
strokes_ogs.tif
102
RTVSPost2010PropOp54
 70
     1
102
RTVSPost2010Prop55
280
     0
102
RTVSPost2010PropOp55
 70
     1
102
RTVSPost2010Prop56
140
1.0
102
RTVSPost2010PropOp56
 70
     1
102
RTVSPost2010Prop57
140
1.0
102
RTVSPost2010PropOp57
 70
     1
102
RTVSPropertyOp0
 70
     1
102
RTVSPropertyOp1
 70
     1
102
RTVSPropertyOp2
 70
     1
102
RTVSPropertyOp3
 70
     1
102
RTVSPropertyOp4
 70
     1
102
RTVSPropertyOp5
 70
     1
102
RTVSPropertyOp6
 70
     1
102
RTVSPropertyOp7
 70
     1
102
RTVSPropertyOp8
 70
     1
102
RTVSPropertyOp9
 70
     1
102
RTVSPropertyOp10
 70
     1
102
RTVSPropertyOp11
 70
     1
102
RTVSPropertyOp12
 70
     1
102
RTVSPropertyOp13
 70
     1
102
RTVSPropertyOp14
 70
     1
102
RTVSPropertyOp15
 70
     1
102
RTVSPropertyOp16
 70
     1
102
RTVSPropertyOp17
 70
     1
102
RTVSPropertyOp18
 70
     1
102
RTVSPropertyOp19
 70
     1
102
RTVSPropertyOp20
 70
     1
102
RTVSPropertyOp21
 70
     1
102
RTVSPropertyOp22
 70
     1
102
RTVSPropertyOp23
 70
     1
102
RTVSPropertyOp24
 70
     1
102
RTVSPropertyOp25
 70
     1
102
RTVSPropertyOp26
 70
     1
102
RTVSPropertyOp27
 70
     1
102
RTVSPropertyOp28
 70
     1
102
RTVSPropertyOp29
 70
     1
102
RTVSPropertyOp30
 70
     1
102
RTVSPropertyOp31
 70
     1
102
RTVSPropertyOp32
 70
     1
102
RTVSPropertyOp33
 70
     1
102
RTVSPropertyOp34
 70
     1
102
RTVSPropertyOp35
 70
     1
102
RTVSPropertyOp36
 70
     1
102
RTVSPropertyOp37
 70
     1
102
RTVSPropertyOp38
 70
     1
102
RTVSPropertyOp39
 70
     1
102
RTVSPropertyOp40
 70
     1
102
RTVSPropertyOp41
 70
     1
102
RTVSPropertyOp42
 70
     1
102
RTVSPropertyOp43
 70
     1
102
RTVSPropertyOp44
 70
     1
102
RTVSPropertyOp45
 70
     1
102
RTVSPropertyOp46
 70
     1
102
RTVSPropertyOp47
 70
     1
102
RTVSPropertyOp48
 70
     1
102
RTVSPropertyOp49
 70
     1
102
RTVSPropertyOp50
 70
     1
102
RTVSPropertyOp51
 70
     0
102
RTVSPropertyOp52
 70
     0
102
RTVSPropertyOp53
 70
     1
102
RTVSPropertyOp54
 70
     1
102
RTVSPropertyOp55
 70
     1
102
RTVSPropertyOp56
 70
     1
102
RTVSPropertyOp57
 70
     1
102
RTVSPropertyOp58
 70
     1
102
RTVSPropertyOp59
 70
     1
102
RTVSPropertyOp60
 70
     1
102
RTVSPropertyOp61
 70
     1
102
RTVSPropertyOp62
 70
     1
  0
XRECORD
  5
8CD
102
{ACAD_REACTORS
330
8CC
102
}
330
8CC
100
AcDbXrecord
280
     1
102
RTVSPost2010Prop28
280
     0
102
RTVSPost2010PropOp28
 70
     1
102
RTVSPost2010Prop29
280
     1
102
RTVSPost2010PropOp29
 70
     1
102
RTVSPost2010Prop30
280
     1
102
RTVSPost2010PropOp30
 70
     1
102
RTVSPost2010Prop31
280
     0
102
RTVSPost2010PropOp31
 70
     1
102
RTVSPost2010Prop32
280
     0
102
RTVSPost2010PropOp32
 70
     1
102
RTVSPost2010Prop33
280
     0
102
RTVSPost2010PropOp33
 70
     1
102
RTVSPost2010Prop34
280
     0
102
RTVSPost2010PropOp34
 70
     1
102
RTVSPost2010Prop35
280
     0
102
RTVSPost2010PropOp35
 70
     1
102
RTVSPost2010Prop36
280
     0
102
RTVSPost2010PropOp36
 70
     1
102
RTVSPost2010Prop37
 90
       50
102
RTVSPost2010PropOp37
 70
     1
102
RTVSPost2010Prop38
140
0.0
102
RTVSPost2010PropOp38
 70
     1
102
RTVSPost2010Prop39
140
1.0
102
RTVSPost2010PropOp39
 70
     1
102
RTVSPost2010Prop40
 90
        0
102
RTVSPost2010PropOp40
 70
     1
102
RTVSPost2010Prop41ColorIndex
 90
       18
102
RTVSPost2010Prop41ColorRGB
 90
        0
102
RTVSPost2010PropOp41
 70
     1
102
RTVSPost2010Prop42
 90
       50
102
RTVSPost2010PropOp42
 70
     1
102
RTVSPost2010Prop43
 90
        3
102
RTVSPost2010PropOp43
 70
     1
102
RTVSPost2010Prop44ColorIndex
 90
        5
102
RTVSPost2010Prop44ColorRGB
 90
      255
102
RTVSPost2010PropOp44
 70
     1
102
RTVSPost2010Prop45
280
     0
102
RTVSPost2010PropOp45
 70
     1
102
RTVSPost2010Prop46
 90
       50
102
RTVSPost2010PropOp46
 70
     1
102
RTVSPost2010Prop47
 90
       50
102
RTVSPost2010PropOp47
 70
     1
102
RTVSPost2010Prop48
 90
       50
102
RTVSPost2010PropOp48
 70
     1
102
RTVSPost2010Prop49
280
     0
102
RTVSPost2010PropOp49
 70
     1
102
RTVSPost2010Prop50
 90
       50
102
RTVSPost2010PropOp50
 70
     1
102
RTVSPost2010Prop51ColorIndex
 90
      256
102
RTVSPost2010Prop51ColorRGB
 90
-16777216
102
RTVSPost2010PropOp51
 70
     0
102
RTVSPost2010Prop52
140
1.0
102
RTVSPost2010PropOp52
 70
     0
102
RTVSPost2010Prop53
 90
        2
102
RTVSPost2010PropOp53
 70
     1
102
RTVSPost2010Prop54
  1
strokes_ogs.tif
102
RTVSPost2010PropOp54
 70
     1
102
RTVSPost2010Prop55
280
     0
102
RTVSPost2010PropOp55
 70
     1
102
RTVSPost2010Prop56
140
1.0
102
RTVSPost2010PropOp56
 70
     1
102
RTVSPost2010Prop57
140
1.0
102
RTVSPost2010PropOp57
 70
     1
102
RTVSPropertyOp0
 70
     1
102
RTVSPropertyOp1
 70
     1
102
RTVSPropertyOp2
 70
     1
102
RTVSPropertyOp3
 70
     1
102
RTVSPropertyOp4
 70
     1
102
RTVSPropertyOp5
 70
     1
102
RTVSPropertyOp6
 70
     1
102
RTVSPropertyOp7
 70
     1
102
RTVSPropertyOp8
 70
     1
102
RTVSPropertyOp9
 70
     1
102
RTVSPropertyOp10
 70
     1
102
RTVSPropertyOp11
 70
     1
102
RTVSPropertyOp12
 70
     1
102
RTVSPropertyOp13
 70
     1
102
RTVSPropertyOp14
 70
     1
102
RTVSPropertyOp15
 70
     1
102
RTVSPropertyOp16
 70
     1
102
RTVSPropertyOp17
 70
     1
102
RTVSPropertyOp18
 70
     1
102
RTVSPropertyOp19
 70
     1
102
RTVSPropertyOp20
 70
     1
102
RTVSPropertyOp21
 70
     1
102
RTVSPropertyOp22
 70
     1
102
RTVSPropertyOp23
 70
     1
102
RTVSPropertyOp24
 70
     1
102
RTVSPropertyOp25
 70
     1
102
RTVSPropertyOp26
 70
     1
102
RTVSPropertyOp27
 70
     1
102
RTVSPropertyOp28
 70
     1
102
RTVSPropertyOp29
 70
     1
102
RTVSPropertyOp30
 70
     1
102
RTVSPropertyOp31
 70
     1
102
RTVSPropertyOp32
 70
     1
102
RTVSPropertyOp33
 70
     1
102
RTVSPropertyOp34
 70
     1
102
RTVSPropertyOp35
 70
     1
102
RTVSPropertyOp36
 70
     1
102
RTVSPropertyOp37
 70
     1
102
RTVSPropertyOp38
 70
     1
102
RTVSPropertyOp39
 70
     1
102
RTVSPropertyOp40
 70
     1
102
RTVSPropertyOp41
 70
     1
102
RTVSPropertyOp42
 70
     1
102
RTVSPropertyOp43
 70
     1
102
RTVSPropertyOp44
 70
     1
102
RTVSPropertyOp45
 70
     1
102
RTVSPropertyOp46
 70
     1
102
RTVSPropertyOp47
 70
     1
102
RTVSPropertyOp48
 70
     1
102
RTVSPropertyOp49
 70
     1
102
RTVSPropertyOp50
 70
     1
102
RTVSPropertyOp51
 70
     0
102
RTVSPropertyOp52
 70
     0
102
RTVSPropertyOp53
 70
     1
102
RTVSPropertyOp54
 70
     1
102
RTVSPropertyOp55
 70
     1
102
RTVSPropertyOp56
 70
     1
102
RTVSPropertyOp57
 70
     1
102
RTVSPropertyOp58
 70
     1
102
RTVSPropertyOp59
 70
     1
102
RTVSPropertyOp60
 70
     1
102
RTVSPropertyOp61
 70
     1
102
RTVSPropertyOp62
 70
     1
  0
XRECORD
  5
8DB
102
{ACAD_REACTORS
330
8DA
102
}
330
8DA
100
AcDbXrecord
280
     1
102
RTVSPost2010Prop28
280
     0
102
RTVSPost2010PropOp28
 70
     1
102
RTVSPost2010Prop29
280
     1
102
RTVSPost2010PropOp29
 70
     1
102
RTVSPost2010Prop30
280
     1
102
RTVSPost2010PropOp30
 70
     1
102
RTVSPost2010Prop31
280
     0
102
RTVSPost2010PropOp31
 70
     1
102
RTVSPost2010Prop32
280
     0
102
RTVSPost2010PropOp32
 70
     1
102
RTVSPost2010Prop33
280
     0
102
RTVSPost2010PropOp33
 70
     1
102
RTVSPost2010Prop34
280
     0
102
RTVSPost2010PropOp34
 70
     1
102
RTVSPost2010Prop35
280
     0
102
RTVSPost2010PropOp35
 70
     1
102
RTVSPost2010Prop36
280
     0
102
RTVSPost2010PropOp36
 70
     1
102
RTVSPost2010Prop37
 90
       50
102
RTVSPost2010PropOp37
 70
     1
102
RTVSPost2010Prop38
140
0.0
102
RTVSPost2010PropOp38
 70
     1
102
RTVSPost2010Prop39
140
1.0
102
RTVSPost2010PropOp39
 70
     1
102
RTVSPost2010Prop40
 90
        0
102
RTVSPost2010PropOp40
 70
     1
102
RTVSPost2010Prop41ColorIndex
 90
       18
102
RTVSPost2010Prop41ColorRGB
 90
        0
102
RTVSPost2010PropOp41
 70
     1
102
RTVSPost2010Prop42
 90
       50
102
RTVSPost2010PropOp42
 70
     1
102
RTVSPost2010Prop43
 90
        3
102
RTVSPost2010PropOp43
 70
     1
102
RTVSPost2010Prop44ColorIndex
 90
        5
102
RTVSPost2010Prop44ColorRGB
 90
      255
102
RTVSPost2010PropOp44
 70
     1
102
RTVSPost2010Prop45
280
     0
102
RTVSPost2010PropOp45
 70
     1
102
RTVSPost2010Prop46
 90
       50
102
RTVSPost2010PropOp46
 70
     1
102
RTVSPost2010Prop47
 90
       50
102
RTVSPost2010PropOp47
 70
     1
102
RTVSPost2010Prop48
 90
       50
102
RTVSPost2010PropOp48
 70
     1
102
RTVSPost2010Prop49
280
     0
102
RTVSPost2010PropOp49
 70
     1
102
RTVSPost2010Prop50
 90
       50
102
RTVSPost2010PropOp50
 70
     1
102
RTVSPost2010Prop51ColorIndex
 90
      256
102
RTVSPost2010Prop51ColorRGB
 90
-16777216
102
RTVSPost2010PropOp51
 70
     0
102
RTVSPost2010Prop52
140
1.0
102
RTVSPost2010PropOp52
 70
     0
102
RTVSPost2010Prop53
 90
        2
102
RTVSPost2010PropOp53
 70
     1
102
RTVSPost2010Prop54
  1
strokes_ogs.tif
102
RTVSPost2010PropOp54
 70
     1
102
RTVSPost2010Prop55
280
     0
102
RTVSPost2010PropOp55
 70
     1
102
RTVSPost2010Prop56
140
1.0
102
RTVSPost2010PropOp56
 70
     1
102
RTVSPost2010Prop57
140
1.0
102
RTVSPost2010PropOp57
 70
     1
102
RTVSPropertyOp0
 70
     1
102
RTVSPropertyOp1
 70
     1
102
RTVSPropertyOp2
 70
     1
102
RTVSPropertyOp3
 70
     1
102
RTVSPropertyOp4
 70
     1
102
RTVSPropertyOp5
 70
     1
102
RTVSPropertyOp6
 70
     1
102
RTVSPropertyOp7
 70
     1
102
RTVSPropertyOp8
 70
     1
102
RTVSPropertyOp9
 70
     1
102
RTVSPropertyOp10
 70
     1
102
RTVSPropertyOp11
 70
     1
102
RTVSPropertyOp12
 70
     1
102
RTVSPropertyOp13
 70
     1
102
RTVSPropertyOp14
 70
     1
102
RTVSPropertyOp15
 70
     1
102
RTVSPropertyOp16
 70
     1
102
RTVSPropertyOp17
 70
     1
102
RTVSPropertyOp18
 70
     1
102
RTVSPropertyOp19
 70
     1
102
RTVSPropertyOp20
 70
     1
102
RTVSPropertyOp21
 70
     1
102
RTVSPropertyOp22
 70
     1
102
RTVSPropertyOp23
 70
     1
102
RTVSPropertyOp24
 70
     1
102
RTVSPropertyOp25
 70
     1
102
RTVSPropertyOp26
 70
     1
102
RTVSPropertyOp27
 70
     1
102
RTVSPropertyOp28
 70
     1
102
RTVSPropertyOp29
 70
     1
102
RTVSPropertyOp30
 70
     1
102
RTVSPropertyOp31
 70
     1
102
RTVSPropertyOp32
 70
     1
102
RTVSPropertyOp33
 70
     1
102
RTVSPropertyOp34
 70
     1
102
RTVSPropertyOp35
 70
     1
102
RTVSPropertyOp36
 70
     1
102
RTVSPropertyOp37
 70
     1
102
RTVSPropertyOp38
 70
     1
102
RTVSPropertyOp39
 70
     1
102
RTVSPropertyOp40
 70
     1
102
RTVSPropertyOp41
 70
     1
102
RTVSPropertyOp42
 70
     1
102
RTVSPropertyOp43
 70
     1
102
RTVSPropertyOp44
 70
     1
102
RTVSPropertyOp45
 70
     1
102
RTVSPropertyOp46
 70
     1
102
RTVSPropertyOp47
 70
     1
102
RTVSPropertyOp48
 70
     1
102
RTVSPropertyOp49
 70
     1
102
RTVSPropertyOp50
 70
     1
102
RTVSPropertyOp51
 70
     0
102
RTVSPropertyOp52
 70
     0
102
RTVSPropertyOp53
 70
     1
102
RTVSPropertyOp54
 70
     1
102
RTVSPropertyOp55
 70
     1
102
RTVSPropertyOp56
 70
     1
102
RTVSPropertyOp57
 70
     1
102
RTVSPropertyOp58
 70
     1
102
RTVSPropertyOp59
 70
     1
102
RTVSPropertyOp60
 70
     1
102
RTVSPropertyOp61
 70
     1
102
RTVSPropertyOp62
 70
     1
  0
XRECORD
  5
8E3
102
{ACAD_REACTORS
330
8E2
102
}
330
8E2
100
AcDbXrecord
280
     1
102
RTVSPost2010Prop28
280
     0
102
RTVSPost2010PropOp28
 70
     1
102
RTVSPost2010Prop29
280
     1
102
RTVSPost2010PropOp29
 70
     1
102
RTVSPost2010Prop30
280
     1
102
RTVSPost2010PropOp30
 70
     1
102
RTVSPost2010Prop31
280
     0
102
RTVSPost2010PropOp31
 70
     1
102
RTVSPost2010Prop32
280
     0
102
RTVSPost2010PropOp32
 70
     1
102
RTVSPost2010Prop33
280
     0
102
RTVSPost2010PropOp33
 70
     1
102
RTVSPost2010Prop34
280
     0
102
RTVSPost2010PropOp34
 70
     1
102
RTVSPost2010Prop35
280
     0
102
RTVSPost2010PropOp35
 70
     1
102
RTVSPost2010Prop36
280
     0
102
RTVSPost2010PropOp36
 70
     1
102
RTVSPost2010Prop37
 90
       50
102
RTVSPost2010PropOp37
 70
     1
102
RTVSPost2010Prop38
140
0.0
102
RTVSPost2010PropOp38
 70
     1
102
RTVSPost2010Prop39
140
1.0
102
RTVSPost2010PropOp39
 70
     1
102
RTVSPost2010Prop40
 90
        0
102
RTVSPost2010PropOp40
 70
     1
102
RTVSPost2010Prop41ColorIndex
 90
       18
102
RTVSPost2010Prop41ColorRGB
 90
        0
102
RTVSPost2010PropOp41
 70
     1
102
RTVSPost2010Prop42
 90
       50
102
RTVSPost2010PropOp42
 70
     1
102
RTVSPost2010Prop43
 90
        3
102
RTVSPost2010PropOp43
 70
     1
102
RTVSPost2010Prop44ColorIndex
 90
        5
102
RTVSPost2010Prop44ColorRGB
 90
      255
102
RTVSPost2010PropOp44
 70
     1
102
RTVSPost2010Prop45
280
     0
102
RTVSPost2010PropOp45
 70
     1
102
RTVSPost2010Prop46
 90
       50
102
RTVSPost2010PropOp46
 70
     1
102
RTVSPost2010Prop47
 90
       50
102
RTVSPost2010PropOp47
 70
     1
102
RTVSPost2010Prop48
 90
       50
102
RTVSPost2010PropOp48
 70
     1
102
RTVSPost2010Prop49
280
     0
102
RTVSPost2010PropOp49
 70
     1
102
RTVSPost2010Prop50
 90
       50
102
RTVSPost2010PropOp50
 70
     1
102
RTVSPost2010Prop51ColorIndex
 90
      256
102
RTVSPost2010Prop51ColorRGB
 90
-16777216
102
RTVSPost2010PropOp51
 70
     0
102
RTVSPost2010Prop52
140
1.0
102
RTVSPost2010PropOp52
 70
     0
102
RTVSPost2010Prop53
 90
        2
102
RTVSPost2010PropOp53
 70
     1
102
RTVSPost2010Prop54
  1
strokes_ogs.tif
102
RTVSPost2010PropOp54
 70
     1
102
RTVSPost2010Prop55
280
     0
102
RTVSPost2010PropOp55
 70
     1
102
RTVSPost2010Prop56
140
1.0
102
RTVSPost2010PropOp56
 70
     1
102
RTVSPost2010Prop57
140
1.0
102
RTVSPost2010PropOp57
 70
     1
102
RTVSPropertyOp0
 70
     1
102
RTVSPropertyOp1
 70
     1
102
RTVSPropertyOp2
 70
     1
102
RTVSPropertyOp3
 70
     1
102
RTVSPropertyOp4
 70
     1
102
RTVSPropertyOp5
 70
     1
102
RTVSPropertyOp6
 70
     1
102
RTVSPropertyOp7
 70
     1
102
RTVSPropertyOp8
 70
     1
102
RTVSPropertyOp9
 70
     1
102
RTVSPropertyOp10
 70
     1
102
RTVSPropertyOp11
 70
     1
102
RTVSPropertyOp12
 70
     1
102
RTVSPropertyOp13
 70
     1
102
RTVSPropertyOp14
 70
     1
102
RTVSPropertyOp15
 70
     1
102
RTVSPropertyOp16
 70
     1
102
RTVSPropertyOp17
 70
     1
102
RTVSPropertyOp18
 70
     1
102
RTVSPropertyOp19
 70
     1
102
RTVSPropertyOp20
 70
     1
102
RTVSPropertyOp21
 70
     1
102
RTVSPropertyOp22
 70
     1
102
RTVSPropertyOp23
 70
     1
102
RTVSPropertyOp24
 70
     1
102
RTVSPropertyOp25
 70
     1
102
RTVSPropertyOp26
 70
     1
102
RTVSPropertyOp27
 70
     1
102
RTVSPropertyOp28
 70
     1
102
RTVSPropertyOp29
 70
     1
102
RTVSPropertyOp30
 70
     1
102
RTVSPropertyOp31
 70
     1
102
RTVSPropertyOp32
 70
     1
102
RTVSPropertyOp33
 70
     1
102
RTVSPropertyOp34
 70
     1
102
RTVSPropertyOp35
 70
     1
102
RTVSPropertyOp36
 70
     1
102
RTVSPropertyOp37
 70
     1
102
RTVSPropertyOp38
 70
     1
102
RTVSPropertyOp39
 70
     1
102
RTVSPropertyOp40
 70
     1
102
RTVSPropertyOp41
 70
     1
102
RTVSPropertyOp42
 70
     1
102
RTVSPropertyOp43
 70
     1
102
RTVSPropertyOp44
 70
     1
102
RTVSPropertyOp45
 70
     1
102
RTVSPropertyOp46
 70
     1
102
RTVSPropertyOp47
 70
     1
102
RTVSPropertyOp48
 70
     1
102
RTVSPropertyOp49
 70
     1
102
RTVSPropertyOp50
 70
     1
102
RTVSPropertyOp51
 70
     0
102
RTVSPropertyOp52
 70
     0
102
RTVSPropertyOp53
 70
     1
102
RTVSPropertyOp54
 70
     1
102
RTVSPropertyOp55
 70
     1
102
RTVSPropertyOp56
 70
     1
102
RTVSPropertyOp57
 70
     1
102
RTVSPropertyOp58
 70
     1
102
RTVSPropertyOp59
 70
     1
102
RTVSPropertyOp60
 70
     1
102
RTVSPropertyOp61
 70
     1
102
RTVSPropertyOp62
 70
     1
  0
XRECORD
  5
8D5
102
{ACAD_REACTORS
330
8D4
102
}
330
8D4
100
AcDbXrecord
280
     1
102
RTVSPost2010Prop28
280
     0
102
RTVSPost2010PropOp28
 70
     1
102
RTVSPost2010Prop29
280
     1
102
RTVSPost2010PropOp29
 70
     1
102
RTVSPost2010Prop30
280
     1
102
RTVSPost2010PropOp30
 70
     1
102
RTVSPost2010Prop31
280
     0
102
RTVSPost2010PropOp31
 70
     1
102
RTVSPost2010Prop32
280
     0
102
RTVSPost2010PropOp32
 70
     1
102
RTVSPost2010Prop33
280
     0
102
RTVSPost2010PropOp33
 70
     1
102
RTVSPost2010Prop34
280
     0
102
RTVSPost2010PropOp34
 70
     1
102
RTVSPost2010Prop35
280
     0
102
RTVSPost2010PropOp35
 70
     1
102
RTVSPost2010Prop36
280
     0
102
RTVSPost2010PropOp36
 70
     1
102
RTVSPost2010Prop37
 90
       50
102
RTVSPost2010PropOp37
 70
     1
102
RTVSPost2010Prop38
140
0.0
102
RTVSPost2010PropOp38
 70
     1
102
RTVSPost2010Prop39
140
1.0
102
RTVSPost2010PropOp39
 70
     1
102
RTVSPost2010Prop40
 90
        0
102
RTVSPost2010PropOp40
 70
     1
102
RTVSPost2010Prop41ColorIndex
 90
       18
102
RTVSPost2010Prop41ColorRGB
 90
        0
102
RTVSPost2010PropOp41
 70
     1
102
RTVSPost2010Prop42
 90
       50
102
RTVSPost2010PropOp42
 70
     1
102
RTVSPost2010Prop43
 90
        3
102
RTVSPost2010PropOp43
 70
     1
102
RTVSPost2010Prop44ColorIndex
 90
        5
102
RTVSPost2010Prop44ColorRGB
 90
      255
102
RTVSPost2010PropOp44
 70
     1
102
RTVSPost2010Prop45
280
     0
102
RTVSPost2010PropOp45
 70
     1
102
RTVSPost2010Prop46
 90
       50
102
RTVSPost2010PropOp46
 70
     1
102
RTVSPost2010Prop47
 90
       50
102
RTVSPost2010PropOp47
 70
     1
102
RTVSPost2010Prop48
 90
       50
102
RTVSPost2010PropOp48
 70
     1
102
RTVSPost2010Prop49
280
     0
102
RTVSPost2010PropOp49
 70
     1
102
RTVSPost2010Prop50
 90
       50
102
RTVSPost2010PropOp50
 70
     1
102
RTVSPost2010Prop51ColorIndex
 90
      256
102
RTVSPost2010Prop51ColorRGB
 90
-16777216
102
RTVSPost2010PropOp51
 70
     0
102
RTVSPost2010Prop52
140
1.0
102
RTVSPost2010PropOp52
 70
     0
102
RTVSPost2010Prop53
 90
        2
102
RTVSPost2010PropOp53
 70
     1
102
RTVSPost2010Prop54
  1
strokes_ogs.tif
102
RTVSPost2010PropOp54
 70
     1
102
RTVSPost2010Prop55
280
     0
102
RTVSPost2010PropOp55
 70
     1
102
RTVSPost2010Prop56
140
1.0
102
RTVSPost2010PropOp56
 70
     1
102
RTVSPost2010Prop57
140
1.0
102
RTVSPost2010PropOp57
 70
     1
102
RTVSPropertyOp0
 70
     1
102
RTVSPropertyOp1
 70
     1
102
RTVSPropertyOp2
 70
     1
102
RTVSPropertyOp3
 70
     1
102
RTVSPropertyOp4
 70
     1
102
RTVSPropertyOp5
 70
     1
102
RTVSPropertyOp6
 70
     1
102
RTVSPropertyOp7
 70
     1
102
RTVSPropertyOp8
 70
     1
102
RTVSPropertyOp9
 70
     1
102
RTVSPropertyOp10
 70
     1
102
RTVSPropertyOp11
 70
     1
102
RTVSPropertyOp12
 70
     1
102
RTVSPropertyOp13
 70
     1
102
RTVSPropertyOp14
 70
     1
102
RTVSPropertyOp15
 70
     1
102
RTVSPropertyOp16
 70
     1
102
RTVSPropertyOp17
 70
     1
102
RTVSPropertyOp18
 70
     1
102
RTVSPropertyOp19
 70
     1
102
RTVSPropertyOp20
 70
     1
102
RTVSPropertyOp21
 70
     1
102
RTVSPropertyOp22
 70
     1
102
RTVSPropertyOp23
 70
     1
102
RTVSPropertyOp24
 70
     1
102
RTVSPropertyOp25
 70
     1
102
RTVSPropertyOp26
 70
     1
102
RTVSPropertyOp27
 70
     1
102
RTVSPropertyOp28
 70
     1
102
RTVSPropertyOp29
 70
     1
102
RTVSPropertyOp30
 70
     1
102
RTVSPropertyOp31
 70
     1
102
RTVSPropertyOp32
 70
     1
102
RTVSPropertyOp33
 70
     1
102
RTVSPropertyOp34
 70
     1
102
RTVSPropertyOp35
 70
     1
102
RTVSPropertyOp36
 70
     1
102
RTVSPropertyOp37
 70
     1
102
RTVSPropertyOp38
 70
     1
102
RTVSPropertyOp39
 70
     1
102
RTVSPropertyOp40
 70
     1
102
RTVSPropertyOp41
 70
     1
102
RTVSPropertyOp42
 70
     1
102
RTVSPropertyOp43
 70
     1
102
RTVSPropertyOp44
 70
     1
102
RTVSPropertyOp45
 70
     1
102
RTVSPropertyOp46
 70
     1
102
RTVSPropertyOp47
 70
     1
102
RTVSPropertyOp48
 70
     1
102
RTVSPropertyOp49
 70
     1
102
RTVSPropertyOp50
 70
     1
102
RTVSPropertyOp51
 70
     0
102
RTVSPropertyOp52
 70
     0
102
RTVSPropertyOp53
 70
     1
102
RTVSPropertyOp54
 70
     1
102
RTVSPropertyOp55
 70
     1
102
RTVSPropertyOp56
 70
     1
102
RTVSPropertyOp57
 70
     1
102
RTVSPropertyOp58
 70
     1
102
RTVSPropertyOp59
 70
     1
102
RTVSPropertyOp60
 70
     1
102
RTVSPropertyOp61
 70
     1
102
RTVSPropertyOp62
 70
     1
  0
XRECORD
  5
8D9
102
{ACAD_REACTORS
330
8D8
102
}
330
8D8
100
AcDbXrecord
280
     1
102
RTVSPost2010Prop28
280
     0
102
RTVSPost2010PropOp28
 70
     1
102
RTVSPost2010Prop29
280
     1
102
RTVSPost2010PropOp29
 70
     1
102
RTVSPost2010Prop30
280
     1
102
RTVSPost2010PropOp30
 70
     1
102
RTVSPost2010Prop31
280
     0
102
RTVSPost2010PropOp31
 70
     1
102
RTVSPost2010Prop32
280
     0
102
RTVSPost2010PropOp32
 70
     1
102
RTVSPost2010Prop33
280
     0
102
RTVSPost2010PropOp33
 70
     1
102
RTVSPost2010Prop34
280
     0
102
RTVSPost2010PropOp34
 70
     1
102
RTVSPost2010Prop35
280
     0
102
RTVSPost2010PropOp35
 70
     1
102
RTVSPost2010Prop36
280
     0
102
RTVSPost2010PropOp36
 70
     1
102
RTVSPost2010Prop37
 90
       50
102
RTVSPost2010PropOp37
 70
     1
102
RTVSPost2010Prop38
140
0.0
102
RTVSPost2010PropOp38
 70
     1
102
RTVSPost2010Prop39
140
1.0
102
RTVSPost2010PropOp39
 70
     1
102
RTVSPost2010Prop40
 90
        0
102
RTVSPost2010PropOp40
 70
     1
102
RTVSPost2010Prop41ColorIndex
 90
       18
102
RTVSPost2010Prop41ColorRGB
 90
        0
102
RTVSPost2010PropOp41
 70
     1
102
RTVSPost2010Prop42
 90
       50
102
RTVSPost2010PropOp42
 70
     1
102
RTVSPost2010Prop43
 90
        3
102
RTVSPost2010PropOp43
 70
     1
102
RTVSPost2010Prop44ColorIndex
 90
        5
102
RTVSPost2010Prop44ColorRGB
 90
      255
102
RTVSPost2010PropOp44
 70
     1
102
RTVSPost2010Prop45
280
     0
102
RTVSPost2010PropOp45
 70
     1
102
RTVSPost2010Prop46
 90
       50
102
RTVSPost2010PropOp46
 70
     1
102
RTVSPost2010Prop47
 90
       50
102
RTVSPost2010PropOp47
 70
     1
102
RTVSPost2010Prop48
 90
       50
102
RTVSPost2010PropOp48
 70
     1
102
RTVSPost2010Prop49
280
     0
102
RTVSPost2010PropOp49
 70
     1
102
RTVSPost2010Prop50
 90
       50
102
RTVSPost2010PropOp50
 70
     1
102
RTVSPost2010Prop51ColorIndex
 90
      256
102
RTVSPost2010Prop51ColorRGB
 90
-16777216
102
RTVSPost2010PropOp51
 70
     0
102
RTVSPost2010Prop52
140
1.0
102
RTVSPost2010PropOp52
 70
     0
102
RTVSPost2010Prop53
 90
        2
102
RTVSPost2010PropOp53
 70
     1
102
RTVSPost2010Prop54
  1
strokes_ogs.tif
102
RTVSPost2010PropOp54
 70
     1
102
RTVSPost2010Prop55
280
     0
102
RTVSPost2010PropOp55
 70
     1
102
RTVSPost2010Prop56
140
1.0
102
RTVSPost2010PropOp56
 70
     1
102
RTVSPost2010Prop57
140
1.0
102
RTVSPost2010PropOp57
 70
     1
102
RTVSPropertyOp0
 70
     1
102
RTVSPropertyOp1
 70
     1
102
RTVSPropertyOp2
 70
     1
102
RTVSPropertyOp3
 70
     1
102
RTVSPropertyOp4
 70
     1
102
RTVSPropertyOp5
 70
     1
102
RTVSPropertyOp6
 70
     1
102
RTVSPropertyOp7
 70
     1
102
RTVSPropertyOp8
 70
     1
102
RTVSPropertyOp9
 70
     1
102
RTVSPropertyOp10
 70
     1
102
RTVSPropertyOp11
 70
     1
102
RTVSPropertyOp12
 70
     1
102
RTVSPropertyOp13
 70
     1
102
RTVSPropertyOp14
 70
     1
102
RTVSPropertyOp15
 70
     1
102
RTVSPropertyOp16
 70
     1
102
RTVSPropertyOp17
 70
     1
102
RTVSPropertyOp18
 70
     1
102
RTVSPropertyOp19
 70
     1
102
RTVSPropertyOp20
 70
     1
102
RTVSPropertyOp21
 70
     1
102
RTVSPropertyOp22
 70
     1
102
RTVSPropertyOp23
 70
     1
102
RTVSPropertyOp24
 70
     1
102
RTVSPropertyOp25
 70
     1
102
RTVSPropertyOp26
 70
     1
102
RTVSPropertyOp27
 70
     1
102
RTVSPropertyOp28
 70
     1
102
RTVSPropertyOp29
 70
     1
102
RTVSPropertyOp30
 70
     1
102
RTVSPropertyOp31
 70
     1
102
RTVSPropertyOp32
 70
     1
102
RTVSPropertyOp33
 70
     1
102
RTVSPropertyOp34
 70
     1
102
RTVSPropertyOp35
 70
     1
102
RTVSPropertyOp36
 70
     1
102
RTVSPropertyOp37
 70
     1
102
RTVSPropertyOp38
 70
     1
102
RTVSPropertyOp39
 70
     1
102
RTVSPropertyOp40
 70
     1
102
RTVSPropertyOp41
 70
     1
102
RTVSPropertyOp42
 70
     1
102
RTVSPropertyOp43
 70
     1
102
RTVSPropertyOp44
 70
     1
102
RTVSPropertyOp45
 70
     1
102
RTVSPropertyOp46
 70
     1
102
RTVSPropertyOp47
 70
     1
102
RTVSPropertyOp48
 70
     1
102
RTVSPropertyOp49
 70
     1
102
RTVSPropertyOp50
 70
     1
102
RTVSPropertyOp51
 70
     0
102
RTVSPropertyOp52
 70
     0
102
RTVSPropertyOp53
 70
     1
102
RTVSPropertyOp54
 70
     1
102
RTVSPropertyOp55
 70
     1
102
RTVSPropertyOp56
 70
     1
102
RTVSPropertyOp57
 70
     1
102
RTVSPropertyOp58
 70
     1
102
RTVSPropertyOp59
 70
     1
102
RTVSPropertyOp60
 70
     1
102
RTVSPropertyOp61
 70
     1
102
RTVSPropertyOp62
 70
     1
  0
XRECORD
  5
8F3
102
{ACAD_REACTORS
330
8F2
102
}
330
8F2
100
AcDbXrecord
280
     1
102
RTVSPost2010Prop28
280
     0
102
RTVSPost2010PropOp28
 70
     1
102
RTVSPost2010Prop29
280
     1
102
RTVSPost2010PropOp29
 70
     1
102
RTVSPost2010Prop30
280
     1
102
RTVSPost2010PropOp30
 70
     1
102
RTVSPost2010Prop31
280
     0
102
RTVSPost2010PropOp31
 70
     1
102
RTVSPost2010Prop32
280
     0
102
RTVSPost2010PropOp32
 70
     1
102
RTVSPost2010Prop33
280
     0
102
RTVSPost2010PropOp33
 70
     1
102
RTVSPost2010Prop34
280
     0
102
RTVSPost2010PropOp34
 70
     1
102
RTVSPost2010Prop35
280
     0
102
RTVSPost2010PropOp35
 70
     1
102
RTVSPost2010Prop36
280
     0
102
RTVSPost2010PropOp36
 70
     1
102
RTVSPost2010Prop37
 90
       50
102
RTVSPost2010PropOp37
 70
     0
102
RTVSPost2010Prop38
140
0.0
102
RTVSPost2010PropOp38
 70
     0
102
RTVSPost2010Prop39
140
1.0
102
RTVSPost2010PropOp39
 70
     0
102
RTVSPost2010Prop40
 90
        0
102
RTVSPost2010PropOp40
 70
     0
102
RTVSPost2010Prop41ColorIndex
 90
       18
102
RTVSPost2010Prop41ColorRGB
 90
        0
102
RTVSPost2010PropOp41
 70
     0
102
RTVSPost2010Prop42
 90
       50
102
RTVSPost2010PropOp42
 70
     0
102
RTVSPost2010Prop43
 90
        3
102
RTVSPost2010PropOp43
 70
     0
102
RTVSPost2010Prop44ColorIndex
 90
        5
102
RTVSPost2010Prop44ColorRGB
 90
      255
102
RTVSPost2010PropOp44
 70
     0
102
RTVSPost2010Prop45
280
     0
102
RTVSPost2010PropOp45
 70
     1
102
RTVSPost2010Prop46
 90
       50
102
RTVSPost2010PropOp46
 70
     0
102
RTVSPost2010Prop47
 90
       50
102
RTVSPost2010PropOp47
 70
     0
102
RTVSPost2010Prop48
 90
       50
102
RTVSPost2010PropOp48
 70
     0
102
RTVSPost2010Prop49
280
     0
102
RTVSPost2010PropOp49
 70
     1
102
RTVSPost2010Prop50
 90
       50
102
RTVSPost2010PropOp50
 70
     0
102
RTVSPost2010Prop51ColorIndex
 90
      256
102
RTVSPost2010Prop51ColorRGB
 90
-16777216
102
RTVSPost2010PropOp51
 70
     0
102
RTVSPost2010Prop52
140
1.0
102
RTVSPost2010PropOp52
 70
     0
102
RTVSPost2010Prop53
 90
        2
102
RTVSPost2010PropOp53
 70
     0
102
RTVSPost2010Prop54
  1
strokes_ogs.tif
102
RTVSPost2010PropOp54
 70
     0
102
RTVSPost2010Prop55
280
     0
102
RTVSPost2010PropOp55
 70
     1
102
RTVSPost2010Prop56
140
1.0
102
RTVSPost2010PropOp56
 70
     0
102
RTVSPost2010Prop57
140
1.0
102
RTVSPost2010PropOp57
 70
     0
102
RTVSPropertyOp0
 70
     0
102
RTVSPropertyOp1
 70
     0
102
RTVSPropertyOp2
 70
     0
102
RTVSPropertyOp3
 70
     0
102
RTVSPropertyOp4
 70
     0
102
RTVSPropertyOp5
 70
     0
102
RTVSPropertyOp6
 70
     0
102
RTVSPropertyOp7
 70
     0
102
RTVSPropertyOp8
 70
     0
102
RTVSPropertyOp9
 70
     0
102
RTVSPropertyOp10
 70
     0
102
RTVSPropertyOp11
 70
     0
102
RTVSPropertyOp12
 70
     0
102
RTVSPropertyOp13
 70
     0
102
RTVSPropertyOp14
 70
     2
102
RTVSPropertyOp15
 70
     0
102
RTVSPropertyOp16
 70
     0
102
RTVSPropertyOp17
 70
     0
102
RTVSPropertyOp18
 70
     0
102
RTVSPropertyOp19
 70
     0
102
RTVSPropertyOp20
 70
     0
102
RTVSPropertyOp21
 70
     0
102
RTVSPropertyOp22
 70
     0
102
RTVSPropertyOp23
 70
     0
102
RTVSPropertyOp24
 70
     0
102
RTVSPropertyOp25
 70
     0
102
RTVSPropertyOp26
 70
     0
102
RTVSPropertyOp27
 70
     0
102
RTVSPropertyOp28
 70
     1
102
RTVSPropertyOp29
 70
     1
102
RTVSPropertyOp30
 70
     1
102
RTVSPropertyOp31
 70
     1
102
RTVSPropertyOp32
 70
     1
102
RTVSPropertyOp33
 70
     1
102
RTVSPropertyOp34
 70
     1
102
RTVSPropertyOp35
 70
     1
102
RTVSPropertyOp36
 70
     1
102
RTVSPropertyOp37
 70
     0
102
RTVSPropertyOp38
 70
     0
102
RTVSPropertyOp39
 70
     0
102
RTVSPropertyOp40
 70
     0
102
RTVSPropertyOp41
 70
     0
102
RTVSPropertyOp42
 70
     0
102
RTVSPropertyOp43
 70
     0
102
RTVSPropertyOp44
 70
     0
102
RTVSPropertyOp45
 70
     1
102
RTVSPropertyOp46
 70
     0
102
RTVSPropertyOp47
 70
     0
102
RTVSPropertyOp48
 70
     0
102
RTVSPropertyOp49
 70
     1
102
RTVSPropertyOp50
 70
     0
102
RTVSPropertyOp51
 70
     0
102
RTVSPropertyOp52
 70
     0
102
RTVSPropertyOp53
 70
     0
102
RTVSPropertyOp54
 70
     0
102
RTVSPropertyOp55
 70
     1
102
RTVSPropertyOp56
 70
     0
102
RTVSPropertyOp57
 70
     0
102
RTVSPropertyOp58
 70
     0
102
RTVSPropertyOp59
 70
     0
102
RTVSPropertyOp60
 70
     0
102
RTVSPropertyOp61
 70
     0
102
RTVSPropertyOp62
 70
     0
  0
XRECORD
  5
8E1
102
{ACAD_REACTORS
330
8E0
102
}
330
8E0
100
AcDbXrecord
280
     1
102
RTVSPost2010Prop28
280
     0
102
RTVSPost2010PropOp28
 70
     1
102
RTVSPost2010Prop29
280
     1
102
RTVSPost2010PropOp29
 70
     1
102
RTVSPost2010Prop30
280
     1
102
RTVSPost2010PropOp30
 70
     1
102
RTVSPost2010Prop31
280
     0
102
RTVSPost2010PropOp31
 70
     1
102
RTVSPost2010Prop32
280
     0
102
RTVSPost2010PropOp32
 70
     1
102
RTVSPost2010Prop33
280
     0
102
RTVSPost2010PropOp33
 70
     1
102
RTVSPost2010Prop34
280
     0
102
RTVSPost2010PropOp34
 70
     1
102
RTVSPost2010Prop35
280
     0
102
RTVSPost2010PropOp35
 70
     1
102
RTVSPost2010Prop36
280
     0
102
RTVSPost2010PropOp36
 70
     1
102
RTVSPost2010Prop37
 90
       50
102
RTVSPost2010PropOp37
 70
     1
102
RTVSPost2010Prop38
140
0.0
102
RTVSPost2010PropOp38
 70
     1
102
RTVSPost2010Prop39
140
1.0
102
RTVSPost2010PropOp39
 70
     1
102
RTVSPost2010Prop40
 90
        0
102
RTVSPost2010PropOp40
 70
     1
102
RTVSPost2010Prop41ColorIndex
 90
       18
102
RTVSPost2010Prop41ColorRGB
 90
        0
102
RTVSPost2010PropOp41
 70
     1
102
RTVSPost2010Prop42
 90
       50
102
RTVSPost2010PropOp42
 70
     1
102
RTVSPost2010Prop43
 90
        3
102
RTVSPost2010PropOp43
 70
     1
102
RTVSPost2010Prop44ColorIndex
 90
        5
102
RTVSPost2010Prop44ColorRGB
 90
      255
102
RTVSPost2010PropOp44
 70
     1
102
RTVSPost2010Prop45
280
     0
102
RTVSPost2010PropOp45
 70
     1
102
RTVSPost2010Prop46
 90
       50
102
RTVSPost2010PropOp46
 70
     1
102
RTVSPost2010Prop47
 90
       50
102
RTVSPost2010PropOp47
 70
     1
102
RTVSPost2010Prop48
 90
       50
102
RTVSPost2010PropOp48
 70
     1
102
RTVSPost2010Prop49
280
     0
102
RTVSPost2010PropOp49
 70
     1
102
RTVSPost2010Prop50
 90
       50
102
RTVSPost2010PropOp50
 70
     1
102
RTVSPost2010Prop51ColorIndex
 90
      256
102
RTVSPost2010Prop51ColorRGB
 90
-16777216
102
RTVSPost2010PropOp51
 70
     0
102
RTVSPost2010Prop52
140
1.0
102
RTVSPost2010PropOp52
 70
     0
102
RTVSPost2010Prop53
 90
        2
102
RTVSPost2010PropOp53
 70
     1
102
RTVSPost2010Prop54
  1
strokes_ogs.tif
102
RTVSPost2010PropOp54
 70
     1
102
RTVSPost2010Prop55
280
     0
102
RTVSPost2010PropOp55
 70
     1
102
RTVSPost2010Prop56
140
1.0
102
RTVSPost2010PropOp56
 70
     1
102
RTVSPost2010Prop57
140
1.0
102
RTVSPost2010PropOp57
 70
     1
102
RTVSPropertyOp0
 70
     1
102
RTVSPropertyOp1
 70
     1
102
RTVSPropertyOp2
 70
     1
102
RTVSPropertyOp3
 70
     1
102
RTVSPropertyOp4
 70
     1
102
RTVSPropertyOp5
 70
     1
102
RTVSPropertyOp6
 70
     1
102
RTVSPropertyOp7
 70
     1
102
RTVSPropertyOp8
 70
     1
102
RTVSPropertyOp9
 70
     1
102
RTVSPropertyOp10
 70
     1
102
RTVSPropertyOp11
 70
     1
102
RTVSPropertyOp12
 70
     1
102
RTVSPropertyOp13
 70
     1
102
RTVSPropertyOp14
 70
     1
102
RTVSPropertyOp15
 70
     1
102
RTVSPropertyOp16
 70
     1
102
RTVSPropertyOp17
 70
     1
102
RTVSPropertyOp18
 70
     1
102
RTVSPropertyOp19
 70
     1
102
RTVSPropertyOp20
 70
     1
102
RTVSPropertyOp21
 70
     1
102
RTVSPropertyOp22
 70
     1
102
RTVSPropertyOp23
 70
     1
102
RTVSPropertyOp24
 70
     1
102
RTVSPropertyOp25
 70
     1
102
RTVSPropertyOp26
 70
     1
102
RTVSPropertyOp27
 70
     1
102
RTVSPropertyOp28
 70
     1
102
RTVSPropertyOp29
 70
     1
102
RTVSPropertyOp30
 70
     1
102
RTVSPropertyOp31
 70
     1
102
RTVSPropertyOp32
 70
     1
102
RTVSPropertyOp33
 70
     1
102
RTVSPropertyOp34
 70
     1
102
RTVSPropertyOp35
 70
     1
102
RTVSPropertyOp36
 70
     1
102
RTVSPropertyOp37
 70
     1
102
RTVSPropertyOp38
 70
     1
102
RTVSPropertyOp39
 70
     1
102
RTVSPropertyOp40
 70
     1
102
RTVSPropertyOp41
 70
     1
102
RTVSPropertyOp42
 70
     1
102
RTVSPropertyOp43
 70
     1
102
RTVSPropertyOp44
 70
     1
102
RTVSPropertyOp45
 70
     1
102
RTVSPropertyOp46
 70
     1
102
RTVSPropertyOp47
 70
     1
102
RTVSPropertyOp48
 70
     1
102
RTVSPropertyOp49
 70
     1
102
RTVSPropertyOp50
 70
     1
102
RTVSPropertyOp51
 70
     0
102
RTVSPropertyOp52
 70
     0
102
RTVSPropertyOp53
 70
     1
102
RTVSPropertyOp54
 70
     1
102
RTVSPropertyOp55
 70
     1
102
RTVSPropertyOp56
 70
     1
102
RTVSPropertyOp57
 70
     1
102
RTVSPropertyOp58
 70
     1
102
RTVSPropertyOp59
 70
     1
102
RTVSPropertyOp60
 70
     1
102
RTVSPropertyOp61
 70
     1
102
RTVSPropertyOp62
 70
     1
  0
XRECORD
  5
8C5
102
{ACAD_REACTORS
330
8C4
102
}
330
8C4
100
AcDbXrecord
280
     1
102
RTVSPost2010Prop28
280
     0
102
RTVSPost2010PropOp28
 70
     1
102
RTVSPost2010Prop29
280
     1
102
RTVSPost2010PropOp29
 70
     1
102
RTVSPost2010Prop30
280
     1
102
RTVSPost2010PropOp30
 70
     1
102
RTVSPost2010Prop31
280
     0
102
RTVSPost2010PropOp31
 70
     1
102
RTVSPost2010Prop32
280
     0
102
RTVSPost2010PropOp32
 70
     1
102
RTVSPost2010Prop33
280
     0
102
RTVSPost2010PropOp33
 70
     1
102
RTVSPost2010Prop34
280
     0
102
RTVSPost2010PropOp34
 70
     1
102
RTVSPost2010Prop35
280
     0
102
RTVSPost2010PropOp35
 70
     1
102
RTVSPost2010Prop36
280
     0
102
RTVSPost2010PropOp36
 70
     1
102
RTVSPost2010Prop37
 90
       50
102
RTVSPost2010PropOp37
 70
     1
102
RTVSPost2010Prop38
140
0.0
102
RTVSPost2010PropOp38
 70
     1
102
RTVSPost2010Prop39
140
1.0
102
RTVSPost2010PropOp39
 70
     1
102
RTVSPost2010Prop40
 90
        0
102
RTVSPost2010PropOp40
 70
     1
102
RTVSPost2010Prop41ColorIndex
 90
       18
102
RTVSPost2010Prop41ColorRGB
 90
        0
102
RTVSPost2010PropOp41
 70
     1
102
RTVSPost2010Prop42
 90
       50
102
RTVSPost2010PropOp42
 70
     1
102
RTVSPost2010Prop43
 90
        3
102
RTVSPost2010PropOp43
 70
     1
102
RTVSPost2010Prop44ColorIndex
 90
        5
102
RTVSPost2010Prop44ColorRGB
 90
      255
102
RTVSPost2010PropOp44
 70
     1
102
RTVSPost2010Prop45
280
     0
102
RTVSPost2010PropOp45
 70
     1
102
RTVSPost2010Prop46
 90
       50
102
RTVSPost2010PropOp46
 70
     1
102
RTVSPost2010Prop47
 90
       50
102
RTVSPost2010PropOp47
 70
     1
102
RTVSPost2010Prop48
 90
       50
102
RTVSPost2010PropOp48
 70
     1
102
RTVSPost2010Prop49
280
     0
102
RTVSPost2010PropOp49
 70
     1
102
RTVSPost2010Prop50
 90
       50
102
RTVSPost2010PropOp50
 70
     1
102
RTVSPost2010Prop51ColorIndex
 90
      256
102
RTVSPost2010Prop51ColorRGB
 90
-16777216
102
RTVSPost2010PropOp51
 70
     0
102
RTVSPost2010Prop52
140
1.0
102
RTVSPost2010PropOp52
 70
     0
102
RTVSPost2010Prop53
 90
        2
102
RTVSPost2010PropOp53
 70
     1
102
RTVSPost2010Prop54
  1
strokes_ogs.tif
102
RTVSPost2010PropOp54
 70
     1
102
RTVSPost2010Prop55
280
     0
102
RTVSPost2010PropOp55
 70
     1
102
RTVSPost2010Prop56
140
1.0
102
RTVSPost2010PropOp56
 70
     1
102
RTVSPost2010Prop57
140
1.0
102
RTVSPost2010PropOp57
 70
     1
102
RTVSPropertyOp0
 70
     1
102
RTVSPropertyOp1
 70
     1
102
RTVSPropertyOp2
 70
     1
102
RTVSPropertyOp3
 70
     1
102
RTVSPropertyOp4
 70
     1
102
RTVSPropertyOp5
 70
     1
102
RTVSPropertyOp6
 70
     1
102
RTVSPropertyOp7
 70
     1
102
RTVSPropertyOp8
 70
     1
102
RTVSPropertyOp9
 70
     1
102
RTVSPropertyOp10
 70
     1
102
RTVSPropertyOp11
 70
     1
102
RTVSPropertyOp12
 70
     1
102
RTVSPropertyOp13
 70
     1
102
RTVSPropertyOp14
 70
     1
102
RTVSPropertyOp15
 70
     1
102
RTVSPropertyOp16
 70
     1
102
RTVSPropertyOp17
 70
     1
102
RTVSPropertyOp18
 70
     1
102
RTVSPropertyOp19
 70
     1
102
RTVSPropertyOp20
 70
     1
102
RTVSPropertyOp21
 70
     1
102
RTVSPropertyOp22
 70
     1
102
RTVSPropertyOp23
 70
     1
102
RTVSPropertyOp24
 70
     1
102
RTVSPropertyOp25
 70
     1
102
RTVSPropertyOp26
 70
     1
102
RTVSPropertyOp27
 70
     1
102
RTVSPropertyOp28
 70
     1
102
RTVSPropertyOp29
 70
     1
102
RTVSPropertyOp30
 70
     1
102
RTVSPropertyOp31
 70
     1
102
RTVSPropertyOp32
 70
     1
102
RTVSPropertyOp33
 70
     1
102
RTVSPropertyOp34
 70
     1
102
RTVSPropertyOp35
 70
     1
102
RTVSPropertyOp36
 70
     1
102
RTVSPropertyOp37
 70
     1
102
RTVSPropertyOp38
 70
     1
102
RTVSPropertyOp39
 70
     1
102
RTVSPropertyOp40
 70
     1
102
RTVSPropertyOp41
 70
     1
102
RTVSPropertyOp42
 70
     1
102
RTVSPropertyOp43
 70
     1
102
RTVSPropertyOp44
 70
     1
102
RTVSPropertyOp45
 70
     1
102
RTVSPropertyOp46
 70
     1
102
RTVSPropertyOp47
 70
     1
102
RTVSPropertyOp48
 70
     1
102
RTVSPropertyOp49
 70
     1
102
RTVSPropertyOp50
 70
     1
102
RTVSPropertyOp51
 70
     0
102
RTVSPropertyOp52
 70
     0
102
RTVSPropertyOp53
 70
     1
102
RTVSPropertyOp54
 70
     1
102
RTVSPropertyOp55
 70
     1
102
RTVSPropertyOp56
 70
     1
102
RTVSPropertyOp57
 70
     1
102
RTVSPropertyOp58
 70
     1
102
RTVSPropertyOp59
 70
     1
102
RTVSPropertyOp60
 70
     1
102
RTVSPropertyOp61
 70
     1
102
RTVSPropertyOp62
 70
     1
  0
XRECORD
  5
8C7
102
{ACAD_REACTORS
330
8C6
102
}
330
8C6
100
AcDbXrecord
280
     1
102
RTVSPost2010Prop28
280
     0
102
RTVSPost2010PropOp28
 70
     1
102
RTVSPost2010Prop29
280
     1
102
RTVSPost2010PropOp29
 70
     1
102
RTVSPost2010Prop30
280
     1
102
RTVSPost2010PropOp30
 70
     1
102
RTVSPost2010Prop31
280
     0
102
RTVSPost2010PropOp31
 70
     1
102
RTVSPost2010Prop32
280
     0
102
RTVSPost2010PropOp32
 70
     1
102
RTVSPost2010Prop33
280
     0
102
RTVSPost2010PropOp33
 70
     1
102
RTVSPost2010Prop34
280
     0
102
RTVSPost2010PropOp34
 70
     1
102
RTVSPost2010Prop35
280
     0
102
RTVSPost2010PropOp35
 70
     1
102
RTVSPost2010Prop36
280
     0
102
RTVSPost2010PropOp36
 70
     1
102
RTVSPost2010Prop37
 90
       50
102
RTVSPost2010PropOp37
 70
     1
102
RTVSPost2010Prop38
140
0.0
102
RTVSPost2010PropOp38
 70
     1
102
RTVSPost2010Prop39
140
1.0
102
RTVSPost2010PropOp39
 70
     1
102
RTVSPost2010Prop40
 90
        0
102
RTVSPost2010PropOp40
 70
     1
102
RTVSPost2010Prop41ColorIndex
 90
       18
102
RTVSPost2010Prop41ColorRGB
 90
        0
102
RTVSPost2010PropOp41
 70
     1
102
RTVSPost2010Prop42
 90
       50
102
RTVSPost2010PropOp42
 70
     1
102
RTVSPost2010Prop43
 90
        3
102
RTVSPost2010PropOp43
 70
     1
102
RTVSPost2010Prop44ColorIndex
 90
        5
102
RTVSPost2010Prop44ColorRGB
 90
      255
102
RTVSPost2010PropOp44
 70
     1
102
RTVSPost2010Prop45
280
     0
102
RTVSPost2010PropOp45
 70
     1
102
RTVSPost2010Prop46
 90
       50
102
RTVSPost2010PropOp46
 70
     1
102
RTVSPost2010Prop47
 90
       50
102
RTVSPost2010PropOp47
 70
     1
102
RTVSPost2010Prop48
 90
       50
102
RTVSPost2010PropOp48
 70
     1
102
RTVSPost2010Prop49
280
     0
102
RTVSPost2010PropOp49
 70
     1
102
RTVSPost2010Prop50
 90
       50
102
RTVSPost2010PropOp50
 70
     1
102
RTVSPost2010Prop51ColorIndex
 90
      256
102
RTVSPost2010Prop51ColorRGB
 90
-16777216
102
RTVSPost2010PropOp51
 70
     0
102
RTVSPost2010Prop52
140
1.0
102
RTVSPost2010PropOp52
 70
     0
102
RTVSPost2010Prop53
 90
        2
102
RTVSPost2010PropOp53
 70
     1
102
RTVSPost2010Prop54
  1
strokes_ogs.tif
102
RTVSPost2010PropOp54
 70
     1
102
RTVSPost2010Prop55
280
     0
102
RTVSPost2010PropOp55
 70
     1
102
RTVSPost2010Prop56
140
1.0
102
RTVSPost2010PropOp56
 70
     1
102
RTVSPost2010Prop57
140
1.0
102
RTVSPost2010PropOp57
 70
     1
102
RTVSPropertyOp0
 70
     1
102
RTVSPropertyOp1
 70
     1
102
RTVSPropertyOp2
 70
     1
102
RTVSPropertyOp3
 70
     1
102
RTVSPropertyOp4
 70
     1
102
RTVSPropertyOp5
 70
     1
102
RTVSPropertyOp6
 70
     1
102
RTVSPropertyOp7
 70
     1
102
RTVSPropertyOp8
 70
     1
102
RTVSPropertyOp9
 70
     1
102
RTVSPropertyOp10
 70
     1
102
RTVSPropertyOp11
 70
     1
102
RTVSPropertyOp12
 70
     1
102
RTVSPropertyOp13
 70
     1
102
RTVSPropertyOp14
 70
     1
102
RTVSPropertyOp15
 70
     1
102
RTVSPropertyOp16
 70
     1
102
RTVSPropertyOp17
 70
     1
102
RTVSPropertyOp18
 70
     1
102
RTVSPropertyOp19
 70
     1
102
RTVSPropertyOp20
 70
     1
102
RTVSPropertyOp21
 70
     1
102
RTVSPropertyOp22
 70
     1
102
RTVSPropertyOp23
 70
     1
102
RTVSPropertyOp24
 70
     1
102
RTVSPropertyOp25
 70
     1
102
RTVSPropertyOp26
 70
     1
102
RTVSPropertyOp27
 70
     1
102
RTVSPropertyOp28
 70
     1
102
RTVSPropertyOp29
 70
     1
102
RTVSPropertyOp30
 70
     1
102
RTVSPropertyOp31
 70
     1
102
RTVSPropertyOp32
 70
     1
102
RTVSPropertyOp33
 70
     1
102
RTVSPropertyOp34
 70
     1
102
RTVSPropertyOp35
 70
     1
102
RTVSPropertyOp36
 70
     1
102
RTVSPropertyOp37
 70
     1
102
RTVSPropertyOp38
 70
     1
102
RTVSPropertyOp39
 70
     1
102
RTVSPropertyOp40
 70
     1
102
RTVSPropertyOp41
 70
     1
102
RTVSPropertyOp42
 70
     1
102
RTVSPropertyOp43
 70
     1
102
RTVSPropertyOp44
 70
     1
102
RTVSPropertyOp45
 70
     1
102
RTVSPropertyOp46
 70
     1
102
RTVSPropertyOp47
 70
     1
102
RTVSPropertyOp48
 70
     1
102
RTVSPropertyOp49
 70
     1
102
RTVSPropertyOp50
 70
     1
102
RTVSPropertyOp51
 70
     0
102
RTVSPropertyOp52
 70
     0
102
RTVSPropertyOp53
 70
     1
102
RTVSPropertyOp54
 70
     1
102
RTVSPropertyOp55
 70
     1
102
RTVSPropertyOp56
 70
     1
102
RTVSPropertyOp57
 70
     1
102
RTVSPropertyOp58
 70
     1
102
RTVSPropertyOp59
 70
     1
102
RTVSPropertyOp60
 70
     1
102
RTVSPropertyOp61
 70
     1
102
RTVSPropertyOp62
 70
     1
  0
XRECORD
  5
8C9
102
{ACAD_REACTORS
330
8C8
102
}
330
8C8
100
AcDbXrecord
280
     1
102
RTVSPost2010Prop28
280
     0
102
RTVSPost2010PropOp28
 70
     1
102
RTVSPost2010Prop29
280
     1
102
RTVSPost2010PropOp29
 70
     1
102
RTVSPost2010Prop30
280
     1
102
RTVSPost2010PropOp30
 70
     1
102
RTVSPost2010Prop31
280
     0
102
RTVSPost2010PropOp31
 70
     1
102
RTVSPost2010Prop32
280
     0
102
RTVSPost2010PropOp32
 70
     1
102
RTVSPost2010Prop33
280
     0
102
RTVSPost2010PropOp33
 70
     1
102
RTVSPost2010Prop34
280
     0
102
RTVSPost2010PropOp34
 70
     1
102
RTVSPost2010Prop35
280
     0
102
RTVSPost2010PropOp35
 70
     1
102
RTVSPost2010Prop36
280
     0
102
RTVSPost2010PropOp36
 70
     1
102
RTVSPost2010Prop37
 90
       50
102
RTVSPost2010PropOp37
 70
     1
102
RTVSPost2010Prop38
140
0.0
102
RTVSPost2010PropOp38
 70
     1
102
RTVSPost2010Prop39
140
1.0
102
RTVSPost2010PropOp39
 70
     1
102
RTVSPost2010Prop40
 90
        0
102
RTVSPost2010PropOp40
 70
     1
102
RTVSPost2010Prop41ColorIndex
 90
       18
102
RTVSPost2010Prop41ColorRGB
 90
        0
102
RTVSPost2010PropOp41
 70
     1
102
RTVSPost2010Prop42
 90
       50
102
RTVSPost2010PropOp42
 70
     1
102
RTVSPost2010Prop43
 90
        3
102
RTVSPost2010PropOp43
 70
     1
102
RTVSPost2010Prop44ColorIndex
 90
        5
102
RTVSPost2010Prop44ColorRGB
 90
      255
102
RTVSPost2010PropOp44
 70
     1
102
RTVSPost2010Prop45
280
     0
102
RTVSPost2010PropOp45
 70
     1
102
RTVSPost2010Prop46
 90
       50
102
RTVSPost2010PropOp46
 70
     1
102
RTVSPost2010Prop47
 90
       50
102
RTVSPost2010PropOp47
 70
     1
102
RTVSPost2010Prop48
 90
       50
102
RTVSPost2010PropOp48
 70
     1
102
RTVSPost2010Prop49
280
     0
102
RTVSPost2010PropOp49
 70
     1
102
RTVSPost2010Prop50
 90
       50
102
RTVSPost2010PropOp50
 70
     1
102
RTVSPost2010Prop51ColorIndex
 90
      256
102
RTVSPost2010Prop51ColorRGB
 90
-16777216
102
RTVSPost2010PropOp51
 70
     0
102
RTVSPost2010Prop52
140
1.0
102
RTVSPost2010PropOp52
 70
     0
102
RTVSPost2010Prop53
 90
        2
102
RTVSPost2010PropOp53
 70
     1
102
RTVSPost2010Prop54
  1
strokes_ogs.tif
102
RTVSPost2010PropOp54
 70
     1
102
RTVSPost2010Prop55
280
     0
102
RTVSPost2010PropOp55
 70
     1
102
RTVSPost2010Prop56
140
1.0
102
RTVSPost2010PropOp56
 70
     1
102
RTVSPost2010Prop57
140
1.0
102
RTVSPost2010PropOp57
 70
     1
102
RTVSPropertyOp0
 70
     1
102
RTVSPropertyOp1
 70
     1
102
RTVSPropertyOp2
 70
     1
102
RTVSPropertyOp3
 70
     1
102
RTVSPropertyOp4
 70
     1
102
RTVSPropertyOp5
 70
     1
102
RTVSPropertyOp6
 70
     1
102
RTVSPropertyOp7
 70
     1
102
RTVSPropertyOp8
 70
     1
102
RTVSPropertyOp9
 70
     1
102
RTVSPropertyOp10
 70
     1
102
RTVSPropertyOp11
 70
     1
102
RTVSPropertyOp12
 70
     1
102
RTVSPropertyOp13
 70
     1
102
RTVSPropertyOp14
 70
     1
102
RTVSPropertyOp15
 70
     1
102
RTVSPropertyOp16
 70
     1
102
RTVSPropertyOp17
 70
     1
102
RTVSPropertyOp18
 70
     1
102
RTVSPropertyOp19
 70
     1
102
RTVSPropertyOp20
 70
     1
102
RTVSPropertyOp21
 70
     1
102
RTVSPropertyOp22
 70
     1
102
RTVSPropertyOp23
 70
     1
102
RTVSPropertyOp24
 70
     1
102
RTVSPropertyOp25
 70
     1
102
RTVSPropertyOp26
 70
     1
102
RTVSPropertyOp27
 70
     1
102
RTVSPropertyOp28
 70
     1
102
RTVSPropertyOp29
 70
     1
102
RTVSPropertyOp30
 70
     1
102
RTVSPropertyOp31
 70
     1
102
RTVSPropertyOp32
 70
     1
102
RTVSPropertyOp33
 70
     1
102
RTVSPropertyOp34
 70
     1
102
RTVSPropertyOp35
 70
     1
102
RTVSPropertyOp36
 70
     1
102
RTVSPropertyOp37
 70
     1
102
RTVSPropertyOp38
 70
     1
102
RTVSPropertyOp39
 70
     1
102
RTVSPropertyOp40
 70
     1
102
RTVSPropertyOp41
 70
     1
102
RTVSPropertyOp42
 70
     1
102
RTVSPropertyOp43
 70
     1
102
RTVSPropertyOp44
 70
     1
102
RTVSPropertyOp45
 70
     1
102
RTVSPropertyOp46
 70
     1
102
RTVSPropertyOp47
 70
     1
102
RTVSPropertyOp48
 70
     1
102
RTVSPropertyOp49
 70
     1
102
RTVSPropertyOp50
 70
     1
102
RTVSPropertyOp51
 70
     0
102
RTVSPropertyOp52
 70
     0
102
RTVSPropertyOp53
 70
     1
102
RTVSPropertyOp54
 70
     1
102
RTVSPropertyOp55
 70
     1
102
RTVSPropertyOp56
 70
     1
102
RTVSPropertyOp57
 70
     1
102
RTVSPropertyOp58
 70
     1
102
RTVSPropertyOp59
 70
     1
102
RTVSPropertyOp60
 70
     1
102
RTVSPropertyOp61
 70
     1
102
RTVSPropertyOp62
 70
     1
  0
XRECORD
  5
8CB
102
{ACAD_REACTORS
330
8CA
102
}
330
8CA
100
AcDbXrecord
280
     1
102
RTVSPost2010Prop28
280
     0
102
RTVSPost2010PropOp28
 70
     1
102
RTVSPost2010Prop29
280
     1
102
RTVSPost2010PropOp29
 70
     1
102
RTVSPost2010Prop30
280
     1
102
RTVSPost2010PropOp30
 70
     1
102
RTVSPost2010Prop31
280
     0
102
RTVSPost2010PropOp31
 70
     1
102
RTVSPost2010Prop32
280
     0
102
RTVSPost2010PropOp32
 70
     1
102
RTVSPost2010Prop33
280
     0
102
RTVSPost2010PropOp33
 70
     1
102
RTVSPost2010Prop34
280
     0
102
RTVSPost2010PropOp34
 70
     1
102
RTVSPost2010Prop35
280
     0
102
RTVSPost2010PropOp35
 70
     1
102
RTVSPost2010Prop36
280
     0
102
RTVSPost2010PropOp36
 70
     1
102
RTVSPost2010Prop37
 90
       50
102
RTVSPost2010PropOp37
 70
     1
102
RTVSPost2010Prop38
140
0.0
102
RTVSPost2010PropOp38
 70
     1
102
RTVSPost2010Prop39
140
1.0
102
RTVSPost2010PropOp39
 70
     1
102
RTVSPost2010Prop40
 90
        0
102
RTVSPost2010PropOp40
 70
     1
102
RTVSPost2010Prop41ColorIndex
 90
       18
102
RTVSPost2010Prop41ColorRGB
 90
        0
102
RTVSPost2010PropOp41
 70
     1
102
RTVSPost2010Prop42
 90
       50
102
RTVSPost2010PropOp42
 70
     1
102
RTVSPost2010Prop43
 90
        3
102
RTVSPost2010PropOp43
 70
     1
102
RTVSPost2010Prop44ColorIndex
 90
        5
102
RTVSPost2010Prop44ColorRGB
 90
      255
102
RTVSPost2010PropOp44
 70
     1
102
RTVSPost2010Prop45
280
     0
102
RTVSPost2010PropOp45
 70
     1
102
RTVSPost2010Prop46
 90
       50
102
RTVSPost2010PropOp46
 70
     1
102
RTVSPost2010Prop47
 90
       50
102
RTVSPost2010PropOp47
 70
     1
102
RTVSPost2010Prop48
 90
       50
102
RTVSPost2010PropOp48
 70
     1
102
RTVSPost2010Prop49
280
     0
102
RTVSPost2010PropOp49
 70
     1
102
RTVSPost2010Prop50
 90
       50
102
RTVSPost2010PropOp50
 70
     1
102
RTVSPost2010Prop51ColorIndex
 90
      256
102
RTVSPost2010Prop51ColorRGB
 90
-16777216
102
RTVSPost2010PropOp51
 70
     0
102
RTVSPost2010Prop52
140
1.0
102
RTVSPost2010PropOp52
 70
     0
102
RTVSPost2010Prop53
 90
        2
102
RTVSPost2010PropOp53
 70
     1
102
RTVSPost2010Prop54
  1
strokes_ogs.tif
102
RTVSPost2010PropOp54
 70
     1
102
RTVSPost2010Prop55
280
     0
102
RTVSPost2010PropOp55
 70
     1
102
RTVSPost2010Prop56
140
1.0
102
RTVSPost2010PropOp56
 70
     1
102
RTVSPost2010Prop57
140
1.0
102
RTVSPost2010PropOp57
 70
     1
102
RTVSPropertyOp0
 70
     1
102
RTVSPropertyOp1
 70
     1
102
RTVSPropertyOp2
 70
     1
102
RTVSPropertyOp3
 70
     1
102
RTVSPropertyOp4
 70
     1
102
RTVSPropertyOp5
 70
     1
102
RTVSPropertyOp6
 70
     1
102
RTVSPropertyOp7
 70
     1
102
RTVSPropertyOp8
 70
     1
102
RTVSPropertyOp9
 70
     1
102
RTVSPropertyOp10
 70
     1
102
RTVSPropertyOp11
 70
     1
102
RTVSPropertyOp12
 70
     1
102
RTVSPropertyOp13
 70
     1
102
RTVSPropertyOp14
 70
     1
102
RTVSPropertyOp15
 70
     1
102
RTVSPropertyOp16
 70
     1
102
RTVSPropertyOp17
 70
     1
102
RTVSPropertyOp18
 70
     1
102
RTVSPropertyOp19
 70
     1
102
RTVSPropertyOp20
 70
     1
102
RTVSPropertyOp21
 70
     1
102
RTVSPropertyOp22
 70
     1
102
RTVSPropertyOp23
 70
     1
102
RTVSPropertyOp24
 70
     1
102
RTVSPropertyOp25
 70
     1
102
RTVSPropertyOp26
 70
     1
102
RTVSPropertyOp27
 70
     1
102
RTVSPropertyOp28
 70
     1
102
RTVSPropertyOp29
 70
     1
102
RTVSPropertyOp30
 70
     1
102
RTVSPropertyOp31
 70
     1
102
RTVSPropertyOp32
 70
     1
102
RTVSPropertyOp33
 70
     1
102
RTVSPropertyOp34
 70
     1
102
RTVSPropertyOp35
 70
     1
102
RTVSPropertyOp36
 70
     1
102
RTVSPropertyOp37
 70
     1
102
RTVSPropertyOp38
 70
     1
102
RTVSPropertyOp39
 70
     1
102
RTVSPropertyOp40
 70
     1
102
RTVSPropertyOp41
 70
     1
102
RTVSPropertyOp42
 70
     1
102
RTVSPropertyOp43
 70
     1
102
RTVSPropertyOp44
 70
     1
102
RTVSPropertyOp45
 70
     1
102
RTVSPropertyOp46
 70
     1
102
RTVSPropertyOp47
 70
     1
102
RTVSPropertyOp48
 70
     1
102
RTVSPropertyOp49
 70
     1
102
RTVSPropertyOp50
 70
     1
102
RTVSPropertyOp51
 70
     0
102
RTVSPropertyOp52
 70
     0
102
RTVSPropertyOp53
 70
     1
102
RTVSPropertyOp54
 70
     1
102
RTVSPropertyOp55
 70
     1
102
RTVSPropertyOp56
 70
     1
102
RTVSPropertyOp57
 70
     1
102
RTVSPropertyOp58
 70
     1
102
RTVSPropertyOp59
 70
     1
102
RTVSPropertyOp60
 70
     1
102
RTVSPropertyOp61
 70
     1
102
RTVSPropertyOp62
 70
     1
  0
XRECORD
  5
8D3
102
{ACAD_REACTORS
330
8D2
102
}
330
8D2
100
AcDbXrecord
280
     1
102
RTVSPost2010Prop28
280
     0
102
RTVSPost2010PropOp28
 70
     1
102
RTVSPost2010Prop29
280
     1
102
RTVSPost2010PropOp29
 70
     1
102
RTVSPost2010Prop30
280
     1
102
RTVSPost2010PropOp30
 70
     1
102
RTVSPost2010Prop31
280
     0
102
RTVSPost2010PropOp31
 70
     1
102
RTVSPost2010Prop32
280
     0
102
RTVSPost2010PropOp32
 70
     1
102
RTVSPost2010Prop33
280
     0
102
RTVSPost2010PropOp33
 70
     1
102
RTVSPost2010Prop34
280
     0
102
RTVSPost2010PropOp34
 70
     1
102
RTVSPost2010Prop35
280
     0
102
RTVSPost2010PropOp35
 70
     1
102
RTVSPost2010Prop36
280
     0
102
RTVSPost2010PropOp36
 70
     1
102
RTVSPost2010Prop37
 90
       50
102
RTVSPost2010PropOp37
 70
     1
102
RTVSPost2010Prop38
140
0.0
102
RTVSPost2010PropOp38
 70
     1
102
RTVSPost2010Prop39
140
1.0
102
RTVSPost2010PropOp39
 70
     1
102
RTVSPost2010Prop40
 90
        0
102
RTVSPost2010PropOp40
 70
     1
102
RTVSPost2010Prop41ColorIndex
 90
       18
102
RTVSPost2010Prop41ColorRGB
 90
        0
102
RTVSPost2010PropOp41
 70
     1
102
RTVSPost2010Prop42
 90
       50
102
RTVSPost2010PropOp42
 70
     1
102
RTVSPost2010Prop43
 90
        3
102
RTVSPost2010PropOp43
 70
     1
102
RTVSPost2010Prop44ColorIndex
 90
        5
102
RTVSPost2010Prop44ColorRGB
 90
      255
102
RTVSPost2010PropOp44
 70
     1
102
RTVSPost2010Prop45
280
     0
102
RTVSPost2010PropOp45
 70
     1
102
RTVSPost2010Prop46
 90
       50
102
RTVSPost2010PropOp46
 70
     1
102
RTVSPost2010Prop47
 90
       50
102
RTVSPost2010PropOp47
 70
     1
102
RTVSPost2010Prop48
 90
       50
102
RTVSPost2010PropOp48
 70
     1
102
RTVSPost2010Prop49
280
     0
102
RTVSPost2010PropOp49
 70
     1
102
RTVSPost2010Prop50
 90
       50
102
RTVSPost2010PropOp50
 70
     1
102
RTVSPost2010Prop51ColorIndex
 90
      256
102
RTVSPost2010Prop51ColorRGB
 90
-16777216
102
RTVSPost2010PropOp51
 70
     0
102
RTVSPost2010Prop52
140
1.0
102
RTVSPost2010PropOp52
 70
     0
102
RTVSPost2010Prop53
 90
        2
102
RTVSPost2010PropOp53
 70
     1
102
RTVSPost2010Prop54
  1
strokes_ogs.tif
102
RTVSPost2010PropOp54
 70
     1
102
RTVSPost2010Prop55
280
     0
102
RTVSPost2010PropOp55
 70
     1
102
RTVSPost2010Prop56
140
1.0
102
RTVSPost2010PropOp56
 70
     1
102
RTVSPost2010Prop57
140
1.0
102
RTVSPost2010PropOp57
 70
     1
102
RTVSPropertyOp0
 70
     1
102
RTVSPropertyOp1
 70
     1
102
RTVSPropertyOp2
 70
     1
102
RTVSPropertyOp3
 70
     1
102
RTVSPropertyOp4
 70
     1
102
RTVSPropertyOp5
 70
     1
102
RTVSPropertyOp6
 70
     1
102
RTVSPropertyOp7
 70
     1
102
RTVSPropertyOp8
 70
     1
102
RTVSPropertyOp9
 70
     1
102
RTVSPropertyOp10
 70
     1
102
RTVSPropertyOp11
 70
     1
102
RTVSPropertyOp12
 70
     1
102
RTVSPropertyOp13
 70
     1
102
RTVSPropertyOp14
 70
     1
102
RTVSPropertyOp15
 70
     1
102
RTVSPropertyOp16
 70
     1
102
RTVSPropertyOp17
 70
     1
102
RTVSPropertyOp18
 70
     1
102
RTVSPropertyOp19
 70
     1
102
RTVSPropertyOp20
 70
     1
102
RTVSPropertyOp21
 70
     1
102
RTVSPropertyOp22
 70
     1
102
RTVSPropertyOp23
 70
     1
102
RTVSPropertyOp24
 70
     1
102
RTVSPropertyOp25
 70
     1
102
RTVSPropertyOp26
 70
     1
102
RTVSPropertyOp27
 70
     1
102
RTVSPropertyOp28
 70
     1
102
RTVSPropertyOp29
 70
     1
102
RTVSPropertyOp30
 70
     1
102
RTVSPropertyOp31
 70
     1
102
RTVSPropertyOp32
 70
     1
102
RTVSPropertyOp33
 70
     1
102
RTVSPropertyOp34
 70
     1
102
RTVSPropertyOp35
 70
     1
102
RTVSPropertyOp36
 70
     1
102
RTVSPropertyOp37
 70
     1
102
RTVSPropertyOp38
 70
     1
102
RTVSPropertyOp39
 70
     1
102
RTVSPropertyOp40
 70
     1
102
RTVSPropertyOp41
 70
     1
102
RTVSPropertyOp42
 70
     1
102
RTVSPropertyOp43
 70
     1
102
RTVSPropertyOp44
 70
     1
102
RTVSPropertyOp45
 70
     1
102
RTVSPropertyOp46
 70
     1
102
RTVSPropertyOp47
 70
     1
102
RTVSPropertyOp48
 70
     1
102
RTVSPropertyOp49
 70
     1
102
RTVSPropertyOp50
 70
     1
102
RTVSPropertyOp51
 70
     0
102
RTVSPropertyOp52
 70
     0
102
RTVSPropertyOp53
 70
     1
102
RTVSPropertyOp54
 70
     1
102
RTVSPropertyOp55
 70
     1
102
RTVSPropertyOp56
 70
     1
102
RTVSPropertyOp57
 70
     1
102
RTVSPropertyOp58
 70
     1
102
RTVSPropertyOp59
 70
     1
102
RTVSPropertyOp60
 70
     1
102
RTVSPropertyOp61
 70
     1
102
RTVSPropertyOp62
 70
     1
  0
XRECORD
  5
8EF
102
{ACAD_REACTORS
330
8EE
102
}
330
8EE
100
AcDbXrecord
280
     1
102
RTVSPost2010Prop28
280
     0
102
RTVSPost2010PropOp28
 70
     1
102
RTVSPost2010Prop29
280
     1
102
RTVSPost2010PropOp29
 70
     1
102
RTVSPost2010Prop30
280
     1
102
RTVSPost2010PropOp30
 70
     1
102
RTVSPost2010Prop31
280
     0
102
RTVSPost2010PropOp31
 70
     1
102
RTVSPost2010Prop32
280
     0
102
RTVSPost2010PropOp32
 70
     1
102
RTVSPost2010Prop33
280
     0
102
RTVSPost2010PropOp33
 70
     1
102
RTVSPost2010Prop34
280
     0
102
RTVSPost2010PropOp34
 70
     1
102
RTVSPost2010Prop35
280
     0
102
RTVSPost2010PropOp35
 70
     1
102
RTVSPost2010Prop36
280
     0
102
RTVSPost2010PropOp36
 70
     1
102
RTVSPost2010Prop37
 90
       50
102
RTVSPost2010PropOp37
 70
     0
102
RTVSPost2010Prop38
140
0.0
102
RTVSPost2010PropOp38
 70
     0
102
RTVSPost2010Prop39
140
1.0
102
RTVSPost2010PropOp39
 70
     0
102
RTVSPost2010Prop40
 90
        0
102
RTVSPost2010PropOp40
 70
     0
102
RTVSPost2010Prop41ColorIndex
 90
       18
102
RTVSPost2010Prop41ColorRGB
 90
        0
102
RTVSPost2010PropOp41
 70
     0
102
RTVSPost2010Prop42
 90
       50
102
RTVSPost2010PropOp42
 70
     0
102
RTVSPost2010Prop43
 90
        3
102
RTVSPost2010PropOp43
 70
     0
102
RTVSPost2010Prop44ColorIndex
 90
        5
102
RTVSPost2010Prop44ColorRGB
 90
      255
102
RTVSPost2010PropOp44
 70
     0
102
RTVSPost2010Prop45
280
     0
102
RTVSPost2010PropOp45
 70
     1
102
RTVSPost2010Prop46
 90
       50
102
RTVSPost2010PropOp46
 70
     0
102
RTVSPost2010Prop47
 90
       50
102
RTVSPost2010PropOp47
 70
     0
102
RTVSPost2010Prop48
 90
       50
102
RTVSPost2010PropOp48
 70
     0
102
RTVSPost2010Prop49
280
     0
102
RTVSPost2010PropOp49
 70
     1
102
RTVSPost2010Prop50
 90
       50
102
RTVSPost2010PropOp50
 70
     0
102
RTVSPost2010Prop51ColorIndex
 90
      256
102
RTVSPost2010Prop51ColorRGB
 90
-16777216
102
RTVSPost2010PropOp51
 70
     0
102
RTVSPost2010Prop52
140
1.0
102
RTVSPost2010PropOp52
 70
     0
102
RTVSPost2010Prop53
 90
        2
102
RTVSPost2010PropOp53
 70
     0
102
RTVSPost2010Prop54
  1
strokes_ogs.tif
102
RTVSPost2010PropOp54
 70
     0
102
RTVSPost2010Prop55
280
     0
102
RTVSPost2010PropOp55
 70
     1
102
RTVSPost2010Prop56
140
1.0
102
RTVSPost2010PropOp56
 70
     0
102
RTVSPost2010Prop57
140
1.0
102
RTVSPost2010PropOp57
 70
     0
102
RTVSPropertyOp0
 70
     0
102
RTVSPropertyOp1
 70
     0
102
RTVSPropertyOp2
 70
     0
102
RTVSPropertyOp3
 70
     0
102
RTVSPropertyOp4
 70
     0
102
RTVSPropertyOp5
 70
     0
102
RTVSPropertyOp6
 70
     0
102
RTVSPropertyOp7
 70
     0
102
RTVSPropertyOp8
 70
     0
102
RTVSPropertyOp9
 70
     0
102
RTVSPropertyOp10
 70
     0
102
RTVSPropertyOp11
 70
     0
102
RTVSPropertyOp12
 70
     0
102
RTVSPropertyOp13
 70
     0
102
RTVSPropertyOp14
 70
     2
102
RTVSPropertyOp15
 70
     0
102
RTVSPropertyOp16
 70
     0
102
RTVSPropertyOp17
 70
     0
102
RTVSPropertyOp18
 70
     0
102
RTVSPropertyOp19
 70
     0
102
RTVSPropertyOp20
 70
     0
102
RTVSPropertyOp21
 70
     0
102
RTVSPropertyOp22
 70
     0
102
RTVSPropertyOp23
 70
     0
102
RTVSPropertyOp24
 70
     0
102
RTVSPropertyOp25
 70
     0
102
RTVSPropertyOp26
 70
     0
102
RTVSPropertyOp27
 70
     0
102
RTVSPropertyOp28
 70
     1
102
RTVSPropertyOp29
 70
     1
102
RTVSPropertyOp30
 70
     1
102
RTVSPropertyOp31
 70
     1
102
RTVSPropertyOp32
 70
     1
102
RTVSPropertyOp33
 70
     1
102
RTVSPropertyOp34
 70
     1
102
RTVSPropertyOp35
 70
     1
102
RTVSPropertyOp36
 70
     1
102
RTVSPropertyOp37
 70
     0
102
RTVSPropertyOp38
 70
     0
102
RTVSPropertyOp39
 70
     0
102
RTVSPropertyOp40
 70
     0
102
RTVSPropertyOp41
 70
     0
102
RTVSPropertyOp42
 70
     0
102
RTVSPropertyOp43
 70
     0
102
RTVSPropertyOp44
 70
     0
102
RTVSPropertyOp45
 70
     1
102
RTVSPropertyOp46
 70
     0
102
RTVSPropertyOp47
 70
     0
102
RTVSPropertyOp48
 70
     0
102
RTVSPropertyOp49
 70
     1
102
RTVSPropertyOp50
 70
     0
102
RTVSPropertyOp51
 70
     0
102
RTVSPropertyOp52
 70
     0
102
RTVSPropertyOp53
 70
     0
102
RTVSPropertyOp54
 70
     0
102
RTVSPropertyOp55
 70
     1
102
RTVSPropertyOp56
 70
     0
102
RTVSPropertyOp57
 70
     0
102
RTVSPropertyOp58
 70
     0
102
RTVSPropertyOp59
 70
     0
102
RTVSPropertyOp60
 70
     0
102
RTVSPropertyOp61
 70
     0
102
RTVSPropertyOp62
 70
     0
  0
XRECORD
  5
8DF
102
{ACAD_REACTORS
330
8DE
102
}
330
8DE
100
AcDbXrecord
280
     1
102
RTVSPost2010Prop28
280
     0
102
RTVSPost2010PropOp28
 70
     1
102
RTVSPost2010Prop29
280
     1
102
RTVSPost2010PropOp29
 70
     1
102
RTVSPost2010Prop30
280
     1
102
RTVSPost2010PropOp30
 70
     1
102
RTVSPost2010Prop31
280
     0
102
RTVSPost2010PropOp31
 70
     1
102
RTVSPost2010Prop32
280
     0
102
RTVSPost2010PropOp32
 70
     1
102
RTVSPost2010Prop33
280
     0
102
RTVSPost2010PropOp33
 70
     1
102
RTVSPost2010Prop34
280
     0
102
RTVSPost2010PropOp34
 70
     1
102
RTVSPost2010Prop35
280
     0
102
RTVSPost2010PropOp35
 70
     1
102
RTVSPost2010Prop36
280
     0
102
RTVSPost2010PropOp36
 70
     1
102
RTVSPost2010Prop37
 90
       50
102
RTVSPost2010PropOp37
 70
     1
102
RTVSPost2010Prop38
140
0.0
102
RTVSPost2010PropOp38
 70
     1
102
RTVSPost2010Prop39
140
1.0
102
RTVSPost2010PropOp39
 70
     1
102
RTVSPost2010Prop40
 90
        0
102
RTVSPost2010PropOp40
 70
     1
102
RTVSPost2010Prop41ColorIndex
 90
       18
102
RTVSPost2010Prop41ColorRGB
 90
        0
102
RTVSPost2010PropOp41
 70
     1
102
RTVSPost2010Prop42
 90
       50
102
RTVSPost2010PropOp42
 70
     1
102
RTVSPost2010Prop43
 90
        3
102
RTVSPost2010PropOp43
 70
     1
102
RTVSPost2010Prop44ColorIndex
 90
        5
102
RTVSPost2010Prop44ColorRGB
 90
      255
102
RTVSPost2010PropOp44
 70
     1
102
RTVSPost2010Prop45
280
     0
102
RTVSPost2010PropOp45
 70
     1
102
RTVSPost2010Prop46
 90
       50
102
RTVSPost2010PropOp46
 70
     1
102
RTVSPost2010Prop47
 90
       50
102
RTVSPost2010PropOp47
 70
     1
102
RTVSPost2010Prop48
 90
       50
102
RTVSPost2010PropOp48
 70
     1
102
RTVSPost2010Prop49
280
     0
102
RTVSPost2010PropOp49
 70
     1
102
RTVSPost2010Prop50
 90
       50
102
RTVSPost2010PropOp50
 70
     1
102
RTVSPost2010Prop51ColorIndex
 90
      256
102
RTVSPost2010Prop51ColorRGB
 90
-16777216
102
RTVSPost2010PropOp51
 70
     0
102
RTVSPost2010Prop52
140
1.0
102
RTVSPost2010PropOp52
 70
     0
102
RTVSPost2010Prop53
 90
        2
102
RTVSPost2010PropOp53
 70
     1
102
RTVSPost2010Prop54
  1
strokes_ogs.tif
102
RTVSPost2010PropOp54
 70
     1
102
RTVSPost2010Prop55
280
     0
102
RTVSPost2010PropOp55
 70
     1
102
RTVSPost2010Prop56
140
1.0
102
RTVSPost2010PropOp56
 70
     1
102
RTVSPost2010Prop57
140
1.0
102
RTVSPost2010PropOp57
 70
     1
102
RTVSPropertyOp0
 70
     1
102
RTVSPropertyOp1
 70
     1
102
RTVSPropertyOp2
 70
     1
102
RTVSPropertyOp3
 70
     1
102
RTVSPropertyOp4
 70
     1
102
RTVSPropertyOp5
 70
     1
102
RTVSPropertyOp6
 70
     1
102
RTVSPropertyOp7
 70
     1
102
RTVSPropertyOp8
 70
     1
102
RTVSPropertyOp9
 70
     1
102
RTVSPropertyOp10
 70
     1
102
RTVSPropertyOp11
 70
     1
102
RTVSPropertyOp12
 70
     1
102
RTVSPropertyOp13
 70
     1
102
RTVSPropertyOp14
 70
     1
102
RTVSPropertyOp15
 70
     1
102
RTVSPropertyOp16
 70
     1
102
RTVSPropertyOp17
 70
     1
102
RTVSPropertyOp18
 70
     1
102
RTVSPropertyOp19
 70
     1
102
RTVSPropertyOp20
 70
     1
102
RTVSPropertyOp21
 70
     1
102
RTVSPropertyOp22
 70
     1
102
RTVSPropertyOp23
 70
     1
102
RTVSPropertyOp24
 70
     1
102
RTVSPropertyOp25
 70
     1
102
RTVSPropertyOp26
 70
     1
102
RTVSPropertyOp27
 70
     1
102
RTVSPropertyOp28
 70
     1
102
RTVSPropertyOp29
 70
     1
102
RTVSPropertyOp30
 70
     1
102
RTVSPropertyOp31
 70
     1
102
RTVSPropertyOp32
 70
     1
102
RTVSPropertyOp33
 70
     1
102
RTVSPropertyOp34
 70
     1
102
RTVSPropertyOp35
 70
     1
102
RTVSPropertyOp36
 70
     1
102
RTVSPropertyOp37
 70
     1
102
RTVSPropertyOp38
 70
     1
102
RTVSPropertyOp39
 70
     1
102
RTVSPropertyOp40
 70
     1
102
RTVSPropertyOp41
 70
     1
102
RTVSPropertyOp42
 70
     1
102
RTVSPropertyOp43
 70
     1
102
RTVSPropertyOp44
 70
     1
102
RTVSPropertyOp45
 70
     1
102
RTVSPropertyOp46
 70
     1
102
RTVSPropertyOp47
 70
     1
102
RTVSPropertyOp48
 70
     1
102
RTVSPropertyOp49
 70
     1
102
RTVSPropertyOp50
 70
     1
102
RTVSPropertyOp51
 70
     0
102
RTVSPropertyOp52
 70
     0
102
RTVSPropertyOp53
 70
     1
102
RTVSPropertyOp54
 70
     1
102
RTVSPropertyOp55
 70
     1
102
RTVSPropertyOp56
 70
     1
102
RTVSPropertyOp57
 70
     1
102
RTVSPropertyOp58
 70
     1
102
RTVSPropertyOp59
 70
     1
102
RTVSPropertyOp60
 70
     1
102
RTVSPropertyOp61
 70
     1
102
RTVSPropertyOp62
 70
     1
  0
XRECORD
  5
8F1
102
{ACAD_REACTORS
330
8F0
102
}
330
8F0
100
AcDbXrecord
280
     1
102
RTVSPost2010Prop28
280
     0
102
RTVSPost2010PropOp28
 70
     1
102
RTVSPost2010Prop29
280
     1
102
RTVSPost2010PropOp29
 70
     1
102
RTVSPost2010Prop30
280
     1
102
RTVSPost2010PropOp30
 70
     1
102
RTVSPost2010Prop31
280
     0
102
RTVSPost2010PropOp31
 70
     1
102
RTVSPost2010Prop32
280
     0
102
RTVSPost2010PropOp32
 70
     1
102
RTVSPost2010Prop33
280
     0
102
RTVSPost2010PropOp33
 70
     1
102
RTVSPost2010Prop34
280
     0
102
RTVSPost2010PropOp34
 70
     1
102
RTVSPost2010Prop35
280
     0
102
RTVSPost2010PropOp35
 70
     1
102
RTVSPost2010Prop36
280
     0
102
RTVSPost2010PropOp36
 70
     1
102
RTVSPost2010Prop37
 90
       50
102
RTVSPost2010PropOp37
 70
     0
102
RTVSPost2010Prop38
140
0.0
102
RTVSPost2010PropOp38
 70
     0
102
RTVSPost2010Prop39
140
1.0
102
RTVSPost2010PropOp39
 70
     0
102
RTVSPost2010Prop40
 90
        0
102
RTVSPost2010PropOp40
 70
     0
102
RTVSPost2010Prop41ColorIndex
 90
       18
102
RTVSPost2010Prop41ColorRGB
 90
        0
102
RTVSPost2010PropOp41
 70
     0
102
RTVSPost2010Prop42
 90
       50
102
RTVSPost2010PropOp42
 70
     0
102
RTVSPost2010Prop43
 90
        3
102
RTVSPost2010PropOp43
 70
     0
102
RTVSPost2010Prop44ColorIndex
 90
        5
102
RTVSPost2010Prop44ColorRGB
 90
      255
102
RTVSPost2010PropOp44
 70
     0
102
RTVSPost2010Prop45
280
     0
102
RTVSPost2010PropOp45
 70
     1
102
RTVSPost2010Prop46
 90
       50
102
RTVSPost2010PropOp46
 70
     0
102
RTVSPost2010Prop47
 90
       50
102
RTVSPost2010PropOp47
 70
     0
102
RTVSPost2010Prop48
 90
       50
102
RTVSPost2010PropOp48
 70
     0
102
RTVSPost2010Prop49
280
     0
102
RTVSPost2010PropOp49
 70
     1
102
RTVSPost2010Prop50
 90
       50
102
RTVSPost2010PropOp50
 70
     0
102
RTVSPost2010Prop51ColorIndex
 90
      256
102
RTVSPost2010Prop51ColorRGB
 90
-16777216
102
RTVSPost2010PropOp51
 70
     0
102
RTVSPost2010Prop52
140
1.0
102
RTVSPost2010PropOp52
 70
     0
102
RTVSPost2010Prop53
 90
        2
102
RTVSPost2010PropOp53
 70
     0
102
RTVSPost2010Prop54
  1
strokes_ogs.tif
102
RTVSPost2010PropOp54
 70
     0
102
RTVSPost2010Prop55
280
     0
102
RTVSPost2010PropOp55
 70
     1
102
RTVSPost2010Prop56
140
1.0
102
RTVSPost2010PropOp56
 70
     0
102
RTVSPost2010Prop57
140
1.0
102
RTVSPost2010PropOp57
 70
     0
102
RTVSPropertyOp0
 70
     0
102
RTVSPropertyOp1
 70
     0
102
RTVSPropertyOp2
 70
     0
102
RTVSPropertyOp3
 70
     0
102
RTVSPropertyOp4
 70
     0
102
RTVSPropertyOp5
 70
     0
102
RTVSPropertyOp6
 70
     0
102
RTVSPropertyOp7
 70
     0
102
RTVSPropertyOp8
 70
     0
102
RTVSPropertyOp9
 70
     0
102
RTVSPropertyOp10
 70
     0
102
RTVSPropertyOp11
 70
     0
102
RTVSPropertyOp12
 70
     0
102
RTVSPropertyOp13
 70
     0
102
RTVSPropertyOp14
 70
     2
102
RTVSPropertyOp15
 70
     0
102
RTVSPropertyOp16
 70
     0
102
RTVSPropertyOp17
 70
     0
102
RTVSPropertyOp18
 70
     0
102
RTVSPropertyOp19
 70
     0
102
RTVSPropertyOp20
 70
     0
102
RTVSPropertyOp21
 70
     0
102
RTVSPropertyOp22
 70
     0
102
RTVSPropertyOp23
 70
     0
102
RTVSPropertyOp24
 70
     0
102
RTVSPropertyOp25
 70
     0
102
RTVSPropertyOp26
 70
     0
102
RTVSPropertyOp27
 70
     0
102
RTVSPropertyOp28
 70
     1
102
RTVSPropertyOp29
 70
     1
102
RTVSPropertyOp30
 70
     1
102
RTVSPropertyOp31
 70
     1
102
RTVSPropertyOp32
 70
     1
102
RTVSPropertyOp33
 70
     1
102
RTVSPropertyOp34
 70
     1
102
RTVSPropertyOp35
 70
     1
102
RTVSPropertyOp36
 70
     1
102
RTVSPropertyOp37
 70
     0
102
RTVSPropertyOp38
 70
     0
102
RTVSPropertyOp39
 70
     0
102
RTVSPropertyOp40
 70
     0
102
RTVSPropertyOp41
 70
     0
102
RTVSPropertyOp42
 70
     0
102
RTVSPropertyOp43
 70
     0
102
RTVSPropertyOp44
 70
     0
102
RTVSPropertyOp45
 70
     1
102
RTVSPropertyOp46
 70
     0
102
RTVSPropertyOp47
 70
     0
102
RTVSPropertyOp48
 70
     0
102
RTVSPropertyOp49
 70
     1
102
RTVSPropertyOp50
 70
     0
102
RTVSPropertyOp51
 70
     0
102
RTVSPropertyOp52
 70
     0
102
RTVSPropertyOp53
 70
     0
102
RTVSPropertyOp54
 70
     0
102
RTVSPropertyOp55
 70
     1
102
RTVSPropertyOp56
 70
     0
102
RTVSPropertyOp57
 70
     0
102
RTVSPropertyOp58
 70
     0
102
RTVSPropertyOp59
 70
     0
102
RTVSPropertyOp60
 70
     0
102
RTVSPropertyOp61
 70
     0
102
RTVSPropertyOp62
 70
     0
  0
XRECORD
  5
8D7
102
{ACAD_REACTORS
330
8D6
102
}
330
8D6
100
AcDbXrecord
280
     1
102
RTVSPost2010Prop28
280
     0
102
RTVSPost2010PropOp28
 70
     1
102
RTVSPost2010Prop29
280
     1
102
RTVSPost2010PropOp29
 70
     1
102
RTVSPost2010Prop30
280
     1
102
RTVSPost2010PropOp30
 70
     1
102
RTVSPost2010Prop31
280
     0
102
RTVSPost2010PropOp31
 70
     1
102
RTVSPost2010Prop32
280
     0
102
RTVSPost2010PropOp32
 70
     1
102
RTVSPost2010Prop33
280
     0
102
RTVSPost2010PropOp33
 70
     1
102
RTVSPost2010Prop34
280
     0
102
RTVSPost2010PropOp34
 70
     1
102
RTVSPost2010Prop35
280
     0
102
RTVSPost2010PropOp35
 70
     1
102
RTVSPost2010Prop36
280
     0
102
RTVSPost2010PropOp36
 70
     1
102
RTVSPost2010Prop37
 90
       50
102
RTVSPost2010PropOp37
 70
     1
102
RTVSPost2010Prop38
140
0.0
102
RTVSPost2010PropOp38
 70
     1
102
RTVSPost2010Prop39
140
1.0
102
RTVSPost2010PropOp39
 70
     1
102
RTVSPost2010Prop40
 90
        0
102
RTVSPost2010PropOp40
 70
     1
102
RTVSPost2010Prop41ColorIndex
 90
       18
102
RTVSPost2010Prop41ColorRGB
 90
        0
102
RTVSPost2010PropOp41
 70
     1
102
RTVSPost2010Prop42
 90
       50
102
RTVSPost2010PropOp42
 70
     1
102
RTVSPost2010Prop43
 90
        3
102
RTVSPost2010PropOp43
 70
     1
102
RTVSPost2010Prop44ColorIndex
 90
        5
102
RTVSPost2010Prop44ColorRGB
 90
      255
102
RTVSPost2010PropOp44
 70
     1
102
RTVSPost2010Prop45
280
     0
102
RTVSPost2010PropOp45
 70
     1
102
RTVSPost2010Prop46
 90
       50
102
RTVSPost2010PropOp46
 70
     1
102
RTVSPost2010Prop47
 90
       50
102
RTVSPost2010PropOp47
 70
     1
102
RTVSPost2010Prop48
 90
       50
102
RTVSPost2010PropOp48
 70
     1
102
RTVSPost2010Prop49
280
     0
102
RTVSPost2010PropOp49
 70
     1
102
RTVSPost2010Prop50
 90
       50
102
RTVSPost2010PropOp50
 70
     1
102
RTVSPost2010Prop51ColorIndex
 90
      256
102
RTVSPost2010Prop51ColorRGB
 90
-16777216
102
RTVSPost2010PropOp51
 70
     0
102
RTVSPost2010Prop52
140
1.0
102
RTVSPost2010PropOp52
 70
     0
102
RTVSPost2010Prop53
 90
        2
102
RTVSPost2010PropOp53
 70
     1
102
RTVSPost2010Prop54
  1
strokes_ogs.tif
102
RTVSPost2010PropOp54
 70
     1
102
RTVSPost2010Prop55
280
     0
102
RTVSPost2010PropOp55
 70
     1
102
RTVSPost2010Prop56
140
1.0
102
RTVSPost2010PropOp56
 70
     1
102
RTVSPost2010Prop57
140
1.0
102
RTVSPost2010PropOp57
 70
     1
102
RTVSPropertyOp0
 70
     1
102
RTVSPropertyOp1
 70
     1
102
RTVSPropertyOp2
 70
     1
102
RTVSPropertyOp3
 70
     1
102
RTVSPropertyOp4
 70
     1
102
RTVSPropertyOp5
 70
     1
102
RTVSPropertyOp6
 70
     1
102
RTVSPropertyOp7
 70
     1
102
RTVSPropertyOp8
 70
     1
102
RTVSPropertyOp9
 70
     1
102
RTVSPropertyOp10
 70
     1
102
RTVSPropertyOp11
 70
     1
102
RTVSPropertyOp12
 70
     1
102
RTVSPropertyOp13
 70
     1
102
RTVSPropertyOp14
 70
     1
102
RTVSPropertyOp15
 70
     1
102
RTVSPropertyOp16
 70
     1
102
RTVSPropertyOp17
 70
     1
102
RTVSPropertyOp18
 70
     1
102
RTVSPropertyOp19
 70
     1
102
RTVSPropertyOp20
 70
     1
102
RTVSPropertyOp21
 70
     1
102
RTVSPropertyOp22
 70
     1
102
RTVSPropertyOp23
 70
     1
102
RTVSPropertyOp24
 70
     1
102
RTVSPropertyOp25
 70
     1
102
RTVSPropertyOp26
 70
     1
102
RTVSPropertyOp27
 70
     1
102
RTVSPropertyOp28
 70
     1
102
RTVSPropertyOp29
 70
     1
102
RTVSPropertyOp30
 70
     1
102
RTVSPropertyOp31
 70
     1
102
RTVSPropertyOp32
 70
     1
102
RTVSPropertyOp33
 70
     1
102
RTVSPropertyOp34
 70
     1
102
RTVSPropertyOp35
 70
     1
102
RTVSPropertyOp36
 70
     1
102
RTVSPropertyOp37
 70
     1
102
RTVSPropertyOp38
 70
     1
102
RTVSPropertyOp39
 70
     1
102
RTVSPropertyOp40
 70
     1
102
RTVSPropertyOp41
 70
     1
102
RTVSPropertyOp42
 70
     1
102
RTVSPropertyOp43
 70
     1
102
RTVSPropertyOp44
 70
     1
102
RTVSPropertyOp45
 70
     1
102
RTVSPropertyOp46
 70
     1
102
RTVSPropertyOp47
 70
     1
102
RTVSPropertyOp48
 70
     1
102
RTVSPropertyOp49
 70
     1
102
RTVSPropertyOp50
 70
     1
102
RTVSPropertyOp51
 70
     0
102
RTVSPropertyOp52
 70
     0
102
RTVSPropertyOp53
 70
     1
102
RTVSPropertyOp54
 70
     1
102
RTVSPropertyOp55
 70
     1
102
RTVSPropertyOp56
 70
     1
102
RTVSPropertyOp57
 70
     1
102
RTVSPropertyOp58
 70
     1
102
RTVSPropertyOp59
 70
     1
102
RTVSPropertyOp60
 70
     1
102
RTVSPropertyOp61
 70
     1
102
RTVSPropertyOp62
 70
     1
  0
XRECORD
  5
8ED
102
{ACAD_REACTORS
330
8EC
102
}
330
8EC
100
AcDbXrecord
280
     1
102
RTVSPost2010Prop28
280
     0
102
RTVSPost2010PropOp28
 70
     1
102
RTVSPost2010Prop29
280
     1
102
RTVSPost2010PropOp29
 70
     1
102
RTVSPost2010Prop30
280
     1
102
RTVSPost2010PropOp30
 70
     1
102
RTVSPost2010Prop31
280
     0
102
RTVSPost2010PropOp31
 70
     1
102
RTVSPost2010Prop32
280
     0
102
RTVSPost2010PropOp32
 70
     1
102
RTVSPost2010Prop33
280
     0
102
RTVSPost2010PropOp33
 70
     1
102
RTVSPost2010Prop34
280
     0
102
RTVSPost2010PropOp34
 70
     1
102
RTVSPost2010Prop35
280
     0
102
RTVSPost2010PropOp35
 70
     1
102
RTVSPost2010Prop36
280
     0
102
RTVSPost2010PropOp36
 70
     1
102
RTVSPost2010Prop37
 90
       50
102
RTVSPost2010PropOp37
 70
     1
102
RTVSPost2010Prop38
140
0.0
102
RTVSPost2010PropOp38
 70
     1
102
RTVSPost2010Prop39
140
1.0
102
RTVSPost2010PropOp39
 70
     1
102
RTVSPost2010Prop40
 90
        0
102
RTVSPost2010PropOp40
 70
     1
102
RTVSPost2010Prop41ColorIndex
 90
       18
102
RTVSPost2010Prop41ColorRGB
 90
        0
102
RTVSPost2010PropOp41
 70
     1
102
RTVSPost2010Prop42
 90
       50
102
RTVSPost2010PropOp42
 70
     1
102
RTVSPost2010Prop43
 90
        3
102
RTVSPost2010PropOp43
 70
     1
102
RTVSPost2010Prop44ColorIndex
 90
        5
102
RTVSPost2010Prop44ColorRGB
 90
      255
102
RTVSPost2010PropOp44
 70
     1
102
RTVSPost2010Prop45
280
     0
102
RTVSPost2010PropOp45
 70
     1
102
RTVSPost2010Prop46
 90
       50
102
RTVSPost2010PropOp46
 70
     1
102
RTVSPost2010Prop47
 90
       50
102
RTVSPost2010PropOp47
 70
     1
102
RTVSPost2010Prop48
 90
       50
102
RTVSPost2010PropOp48
 70
     1
102
RTVSPost2010Prop49
280
     0
102
RTVSPost2010PropOp49
 70
     1
102
RTVSPost2010Prop50
 90
       50
102
RTVSPost2010PropOp50
 70
     1
102
RTVSPost2010Prop51ColorIndex
 90
      256
102
RTVSPost2010Prop51ColorRGB
 90
-16777216
102
RTVSPost2010PropOp51
 70
     0
102
RTVSPost2010Prop52
140
1.0
102
RTVSPost2010PropOp52
 70
     0
102
RTVSPost2010Prop53
 90
        2
102
RTVSPost2010PropOp53
 70
     1
102
RTVSPost2010Prop54
  1
strokes_ogs.tif
102
RTVSPost2010PropOp54
 70
     1
102
RTVSPost2010Prop55
280
     0
102
RTVSPost2010PropOp55
 70
     1
102
RTVSPost2010Prop56
140
1.0
102
RTVSPost2010PropOp56
 70
     1
102
RTVSPost2010Prop57
140
1.0
102
RTVSPost2010PropOp57
 70
     1
102
RTVSPropertyOp0
 70
     1
102
RTVSPropertyOp1
 70
     1
102
RTVSPropertyOp2
 70
     1
102
RTVSPropertyOp3
 70
     1
102
RTVSPropertyOp4
 70
     1
102
RTVSPropertyOp5
 70
     1
102
RTVSPropertyOp6
 70
     1
102
RTVSPropertyOp7
 70
     1
102
RTVSPropertyOp8
 70
     1
102
RTVSPropertyOp9
 70
     1
102
RTVSPropertyOp10
 70
     1
102
RTVSPropertyOp11
 70
     1
102
RTVSPropertyOp12
 70
     1
102
RTVSPropertyOp13
 70
     1
102
RTVSPropertyOp14
 70
     1
102
RTVSPropertyOp15
 70
     1
102
RTVSPropertyOp16
 70
     1
102
RTVSPropertyOp17
 70
     1
102
RTVSPropertyOp18
 70
     1
102
RTVSPropertyOp19
 70
     1
102
RTVSPropertyOp20
 70
     1
102
RTVSPropertyOp21
 70
     1
102
RTVSPropertyOp22
 70
     1
102
RTVSPropertyOp23
 70
     1
102
RTVSPropertyOp24
 70
     1
102
RTVSPropertyOp25
 70
     1
102
RTVSPropertyOp26
 70
     1
102
RTVSPropertyOp27
 70
     1
102
RTVSPropertyOp28
 70
     1
102
RTVSPropertyOp29
 70
     1
102
RTVSPropertyOp30
 70
     1
102
RTVSPropertyOp31
 70
     1
102
RTVSPropertyOp32
 70
     1
102
RTVSPropertyOp33
 70
     1
102
RTVSPropertyOp34
 70
     1
102
RTVSPropertyOp35
 70
     1
102
RTVSPropertyOp36
 70
     1
102
RTVSPropertyOp37
 70
     1
102
RTVSPropertyOp38
 70
     1
102
RTVSPropertyOp39
 70
     1
102
RTVSPropertyOp40
 70
     1
102
RTVSPropertyOp41
 70
     1
102
RTVSPropertyOp42
 70
     1
102
RTVSPropertyOp43
 70
     1
102
RTVSPropertyOp44
 70
     1
102
RTVSPropertyOp45
 70
     1
102
RTVSPropertyOp46
 70
     1
102
RTVSPropertyOp47
 70
     1
102
RTVSPropertyOp48
 70
     1
102
RTVSPropertyOp49
 70
     1
102
RTVSPropertyOp50
 70
     1
102
RTVSPropertyOp51
 70
     0
102
RTVSPropertyOp52
 70
     0
102
RTVSPropertyOp53
 70
     1
102
RTVSPropertyOp54
 70
     1
102
RTVSPropertyOp55
 70
     1
102
RTVSPropertyOp56
 70
     1
102
RTVSPropertyOp57
 70
     1
102
RTVSPropertyOp58
 70
     1
102
RTVSPropertyOp59
 70
     1
102
RTVSPropertyOp60
 70
     1
102
RTVSPropertyOp61
 70
     1
102
RTVSPropertyOp62
 70
     1
  0
XRECORD
  5
8EB
102
{ACAD_REACTORS
330
8EA
102
}
330
8EA
100
AcDbXrecord
280
     1
102
RTVSPost2010Prop28
280
     0
102
RTVSPost2010PropOp28
 70
     1
102
RTVSPost2010Prop29
280
     1
102
RTVSPost2010PropOp29
 70
     1
102
RTVSPost2010Prop30
280
     1
102
RTVSPost2010PropOp30
 70
     1
102
RTVSPost2010Prop31
280
     0
102
RTVSPost2010PropOp31
 70
     1
102
RTVSPost2010Prop32
280
     0
102
RTVSPost2010PropOp32
 70
     1
102
RTVSPost2010Prop33
280
     0
102
RTVSPost2010PropOp33
 70
     1
102
RTVSPost2010Prop34
280
     0
102
RTVSPost2010PropOp34
 70
     1
102
RTVSPost2010Prop35
280
     0
102
RTVSPost2010PropOp35
 70
     1
102
RTVSPost2010Prop36
280
     0
102
RTVSPost2010PropOp36
 70
     1
102
RTVSPost2010Prop37
 90
       50
102
RTVSPost2010PropOp37
 70
     1
102
RTVSPost2010Prop38
140
0.0
102
RTVSPost2010PropOp38
 70
     1
102
RTVSPost2010Prop39
140
1.0
102
RTVSPost2010PropOp39
 70
     1
102
RTVSPost2010Prop40
 90
        0
102
RTVSPost2010PropOp40
 70
     1
102
RTVSPost2010Prop41ColorIndex
 90
       18
102
RTVSPost2010Prop41ColorRGB
 90
        0
102
RTVSPost2010PropOp41
 70
     1
102
RTVSPost2010Prop42
 90
       50
102
RTVSPost2010PropOp42
 70
     1
102
RTVSPost2010Prop43
 90
        3
102
RTVSPost2010PropOp43
 70
     1
102
RTVSPost2010Prop44ColorIndex
 90
        5
102
RTVSPost2010Prop44ColorRGB
 90
      255
102
RTVSPost2010PropOp44
 70
     1
102
RTVSPost2010Prop45
280
     0
102
RTVSPost2010PropOp45
 70
     1
102
RTVSPost2010Prop46
 90
       50
102
RTVSPost2010PropOp46
 70
     1
102
RTVSPost2010Prop47
 90
       50
102
RTVSPost2010PropOp47
 70
     1
102
RTVSPost2010Prop48
 90
       50
102
RTVSPost2010PropOp48
 70
     1
102
RTVSPost2010Prop49
280
     0
102
RTVSPost2010PropOp49
 70
     1
102
RTVSPost2010Prop50
 90
       50
102
RTVSPost2010PropOp50
 70
     1
102
RTVSPost2010Prop51ColorIndex
 90
      256
102
RTVSPost2010Prop51ColorRGB
 90
-16777216
102
RTVSPost2010PropOp51
 70
     0
102
RTVSPost2010Prop52
140
1.0
102
RTVSPost2010PropOp52
 70
     0
102
RTVSPost2010Prop53
 90
        2
102
RTVSPost2010PropOp53
 70
     1
102
RTVSPost2010Prop54
  1
strokes_ogs.tif
102
RTVSPost2010PropOp54
 70
     1
102
RTVSPost2010Prop55
280
     0
102
RTVSPost2010PropOp55
 70
     1
102
RTVSPost2010Prop56
140
1.0
102
RTVSPost2010PropOp56
 70
     1
102
RTVSPost2010Prop57
140
1.0
102
RTVSPost2010PropOp57
 70
     1
102
RTVSPropertyOp0
 70
     1
102
RTVSPropertyOp1
 70
     1
102
RTVSPropertyOp2
 70
     1
102
RTVSPropertyOp3
 70
     1
102
RTVSPropertyOp4
 70
     1
102
RTVSPropertyOp5
 70
     1
102
RTVSPropertyOp6
 70
     1
102
RTVSPropertyOp7
 70
     1
102
RTVSPropertyOp8
 70
     1
102
RTVSPropertyOp9
 70
     1
102
RTVSPropertyOp10
 70
     1
102
RTVSPropertyOp11
 70
     1
102
RTVSPropertyOp12
 70
     1
102
RTVSPropertyOp13
 70
     1
102
RTVSPropertyOp14
 70
     1
102
RTVSPropertyOp15
 70
     1
102
RTVSPropertyOp16
 70
     1
102
RTVSPropertyOp17
 70
     1
102
RTVSPropertyOp18
 70
     1
102
RTVSPropertyOp19
 70
     1
102
RTVSPropertyOp20
 70
     1
102
RTVSPropertyOp21
 70
     1
102
RTVSPropertyOp22
 70
     1
102
RTVSPropertyOp23
 70
     1
102
RTVSPropertyOp24
 70
     1
102
RTVSPropertyOp25
 70
     1
102
RTVSPropertyOp26
 70
     1
102
RTVSPropertyOp27
 70
     1
102
RTVSPropertyOp28
 70
     1
102
RTVSPropertyOp29
 70
     1
102
RTVSPropertyOp30
 70
     1
102
RTVSPropertyOp31
 70
     1
102
RTVSPropertyOp32
 70
     1
102
RTVSPropertyOp33
 70
     1
102
RTVSPropertyOp34
 70
     1
102
RTVSPropertyOp35
 70
     1
102
RTVSPropertyOp36
 70
     1
102
RTVSPropertyOp37
 70
     1
102
RTVSPropertyOp38
 70
     1
102
RTVSPropertyOp39
 70
     1
102
RTVSPropertyOp40
 70
     1
102
RTVSPropertyOp41
 70
     1
102
RTVSPropertyOp42
 70
     1
102
RTVSPropertyOp43
 70
     1
102
RTVSPropertyOp44
 70
     1
102
RTVSPropertyOp45
 70
     1
102
RTVSPropertyOp46
 70
     1
102
RTVSPropertyOp47
 70
     1
102
RTVSPropertyOp48
 70
     1
102
RTVSPropertyOp49
 70
     1
102
RTVSPropertyOp50
 70
     1
102
RTVSPropertyOp51
 70
     0
102
RTVSPropertyOp52
 70
     0
102
RTVSPropertyOp53
 70
     1
102
RTVSPropertyOp54
 70
     1
102
RTVSPropertyOp55
 70
     1
102
RTVSPropertyOp56
 70
     1
102
RTVSPropertyOp57
 70
     1
102
RTVSPropertyOp58
 70
     1
102
RTVSPropertyOp59
 70
     1
102
RTVSPropertyOp60
 70
     1
102
RTVSPropertyOp61
 70
     1
102
RTVSPropertyOp62
 70
     1
  0
XRECORD
  5
8E5
102
{ACAD_REACTORS
330
8E4
102
}
330
8E4
100
AcDbXrecord
280
     1
102
RTVSPost2010Prop28
280
     0
102
RTVSPost2010PropOp28
 70
     1
102
RTVSPost2010Prop29
280
     1
102
RTVSPost2010PropOp29
 70
     1
102
RTVSPost2010Prop30
280
     1
102
RTVSPost2010PropOp30
 70
     1
102
RTVSPost2010Prop31
280
     0
102
RTVSPost2010PropOp31
 70
     1
102
RTVSPost2010Prop32
280
     0
102
RTVSPost2010PropOp32
 70
     1
102
RTVSPost2010Prop33
280
     0
102
RTVSPost2010PropOp33
 70
     1
102
RTVSPost2010Prop34
280
     0
102
RTVSPost2010PropOp34
 70
     1
102
RTVSPost2010Prop35
280
     0
102
RTVSPost2010PropOp35
 70
     1
102
RTVSPost2010Prop36
280
     0
102
RTVSPost2010PropOp36
 70
     1
102
RTVSPost2010Prop37
 90
       50
102
RTVSPost2010PropOp37
 70
     1
102
RTVSPost2010Prop38
140
0.0
102
RTVSPost2010PropOp38
 70
     1
102
RTVSPost2010Prop39
140
1.0
102
RTVSPost2010PropOp39
 70
     1
102
RTVSPost2010Prop40
 90
        0
102
RTVSPost2010PropOp40
 70
     1
102
RTVSPost2010Prop41ColorIndex
 90
       18
102
RTVSPost2010Prop41ColorRGB
 90
        0
102
RTVSPost2010PropOp41
 70
     1
102
RTVSPost2010Prop42
 90
       50
102
RTVSPost2010PropOp42
 70
     1
102
RTVSPost2010Prop43
 90
        3
102
RTVSPost2010PropOp43
 70
     1
102
RTVSPost2010Prop44ColorIndex
 90
        5
102
RTVSPost2010Prop44ColorRGB
 90
      255
102
RTVSPost2010PropOp44
 70
     1
102
RTVSPost2010Prop45
280
     0
102
RTVSPost2010PropOp45
 70
     1
102
RTVSPost2010Prop46
 90
       50
102
RTVSPost2010PropOp46
 70
     1
102
RTVSPost2010Prop47
 90
       50
102
RTVSPost2010PropOp47
 70
     1
102
RTVSPost2010Prop48
 90
       50
102
RTVSPost2010PropOp48
 70
     1
102
RTVSPost2010Prop49
280
     0
102
RTVSPost2010PropOp49
 70
     1
102
RTVSPost2010Prop50
 90
       50
102
RTVSPost2010PropOp50
 70
     1
102
RTVSPost2010Prop51ColorIndex
 90
      256
102
RTVSPost2010Prop51ColorRGB
 90
-16777216
102
RTVSPost2010PropOp51
 70
     0
102
RTVSPost2010Prop52
140
1.0
102
RTVSPost2010PropOp52
 70
     0
102
RTVSPost2010Prop53
 90
        2
102
RTVSPost2010PropOp53
 70
     1
102
RTVSPost2010Prop54
  1
strokes_ogs.tif
102
RTVSPost2010PropOp54
 70
     1
102
RTVSPost2010Prop55
280
     0
102
RTVSPost2010PropOp55
 70
     1
102
RTVSPost2010Prop56
140
1.0
102
RTVSPost2010PropOp56
 70
     1
102
RTVSPost2010Prop57
140
1.0
102
RTVSPost2010PropOp57
 70
     1
102
RTVSPropertyOp0
 70
     1
102
RTVSPropertyOp1
 70
     1
102
RTVSPropertyOp2
 70
     1
102
RTVSPropertyOp3
 70
     1
102
RTVSPropertyOp4
 70
     1
102
RTVSPropertyOp5
 70
     1
102
RTVSPropertyOp6
 70
     1
102
RTVSPropertyOp7
 70
     1
102
RTVSPropertyOp8
 70
     1
102
RTVSPropertyOp9
 70
     1
102
RTVSPropertyOp10
 70
     1
102
RTVSPropertyOp11
 70
     1
102
RTVSPropertyOp12
 70
     1
102
RTVSPropertyOp13
 70
     1
102
RTVSPropertyOp14
 70
     1
102
RTVSPropertyOp15
 70
     1
102
RTVSPropertyOp16
 70
     1
102
RTVSPropertyOp17
 70
     1
102
RTVSPropertyOp18
 70
     1
102
RTVSPropertyOp19
 70
     1
102
RTVSPropertyOp20
 70
     1
102
RTVSPropertyOp21
 70
     1
102
RTVSPropertyOp22
 70
     1
102
RTVSPropertyOp23
 70
     1
102
RTVSPropertyOp24
 70
     1
102
RTVSPropertyOp25
 70
     1
102
RTVSPropertyOp26
 70
     1
102
RTVSPropertyOp27
 70
     1
102
RTVSPropertyOp28
 70
     1
102
RTVSPropertyOp29
 70
     1
102
RTVSPropertyOp30
 70
     1
102
RTVSPropertyOp31
 70
     1
102
RTVSPropertyOp32
 70
     1
102
RTVSPropertyOp33
 70
     1
102
RTVSPropertyOp34
 70
     1
102
RTVSPropertyOp35
 70
     1
102
RTVSPropertyOp36
 70
     1
102
RTVSPropertyOp37
 70
     1
102
RTVSPropertyOp38
 70
     1
102
RTVSPropertyOp39
 70
     1
102
RTVSPropertyOp40
 70
     1
102
RTVSPropertyOp41
 70
     1
102
RTVSPropertyOp42
 70
     1
102
RTVSPropertyOp43
 70
     1
102
RTVSPropertyOp44
 70
     1
102
RTVSPropertyOp45
 70
     1
102
RTVSPropertyOp46
 70
     1
102
RTVSPropertyOp47
 70
     1
102
RTVSPropertyOp48
 70
     1
102
RTVSPropertyOp49
 70
     1
102
RTVSPropertyOp50
 70
     1
102
RTVSPropertyOp51
 70
     0
102
RTVSPropertyOp52
 70
     0
102
RTVSPropertyOp53
 70
     1
102
RTVSPropertyOp54
 70
     1
102
RTVSPropertyOp55
 70
     1
102
RTVSPropertyOp56
 70
     1
102
RTVSPropertyOp57
 70
     1
102
RTVSPropertyOp58
 70
     1
102
RTVSPropertyOp59
 70
     1
102
RTVSPropertyOp60
 70
     1
102
RTVSPropertyOp61
 70
     1
102
RTVSPropertyOp62
 70
     1
  0
XRECORD
  5
8E7
102
{ACAD_REACTORS
330
8E6
102
}
330
8E6
100
AcDbXrecord
280
     1
102
RTVSPost2010Prop28
280
     0
102
RTVSPost2010PropOp28
 70
     1
102
RTVSPost2010Prop29
280
     1
102
RTVSPost2010PropOp29
 70
     1
102
RTVSPost2010Prop30
280
     1
102
RTVSPost2010PropOp30
 70
     1
102
RTVSPost2010Prop31
280
     0
102
RTVSPost2010PropOp31
 70
     1
102
RTVSPost2010Prop32
280
     0
102
RTVSPost2010PropOp32
 70
     1
102
RTVSPost2010Prop33
280
     0
102
RTVSPost2010PropOp33
 70
     1
102
RTVSPost2010Prop34
280
     0
102
RTVSPost2010PropOp34
 70
     1
102
RTVSPost2010Prop35
280
     0
102
RTVSPost2010PropOp35
 70
     1
102
RTVSPost2010Prop36
280
     0
102
RTVSPost2010PropOp36
 70
     1
102
RTVSPost2010Prop37
 90
       50
102
RTVSPost2010PropOp37
 70
     1
102
RTVSPost2010Prop38
140
0.0
102
RTVSPost2010PropOp38
 70
     1
102
RTVSPost2010Prop39
140
1.0
102
RTVSPost2010PropOp39
 70
     1
102
RTVSPost2010Prop40
 90
        0
102
RTVSPost2010PropOp40
 70
     1
102
RTVSPost2010Prop41ColorIndex
 90
       18
102
RTVSPost2010Prop41ColorRGB
 90
        0
102
RTVSPost2010PropOp41
 70
     1
102
RTVSPost2010Prop42
 90
       50
102
RTVSPost2010PropOp42
 70
     1
102
RTVSPost2010Prop43
 90
        3
102
RTVSPost2010PropOp43
 70
     1
102
RTVSPost2010Prop44ColorIndex
 90
        5
102
RTVSPost2010Prop44ColorRGB
 90
      255
102
RTVSPost2010PropOp44
 70
     1
102
RTVSPost2010Prop45
280
     0
102
RTVSPost2010PropOp45
 70
     1
102
RTVSPost2010Prop46
 90
       50
102
RTVSPost2010PropOp46
 70
     1
102
RTVSPost2010Prop47
 90
       50
102
RTVSPost2010PropOp47
 70
     1
102
RTVSPost2010Prop48
 90
       50
102
RTVSPost2010PropOp48
 70
     1
102
RTVSPost2010Prop49
280
     0
102
RTVSPost2010PropOp49
 70
     1
102
RTVSPost2010Prop50
 90
       50
102
RTVSPost2010PropOp50
 70
     1
102
RTVSPost2010Prop51ColorIndex
 90
      256
102
RTVSPost2010Prop51ColorRGB
 90
-16777216
102
RTVSPost2010PropOp51
 70
     0
102
RTVSPost2010Prop52
140
1.0
102
RTVSPost2010PropOp52
 70
     0
102
RTVSPost2010Prop53
 90
        2
102
RTVSPost2010PropOp53
 70
     1
102
RTVSPost2010Prop54
  1
strokes_ogs.tif
102
RTVSPost2010PropOp54
 70
     1
102
RTVSPost2010Prop55
280
     0
102
RTVSPost2010PropOp55
 70
     1
102
RTVSPost2010Prop56
140
1.0
102
RTVSPost2010PropOp56
 70
     1
102
RTVSPost2010Prop57
140
1.0
102
RTVSPost2010PropOp57
 70
     1
102
RTVSPropertyOp0
 70
     1
102
RTVSPropertyOp1
 70
     1
102
RTVSPropertyOp2
 70
     1
102
RTVSPropertyOp3
 70
     1
102
RTVSPropertyOp4
 70
     1
102
RTVSPropertyOp5
 70
     1
102
RTVSPropertyOp6
 70
     1
102
RTVSPropertyOp7
 70
     1
102
RTVSPropertyOp8
 70
     1
102
RTVSPropertyOp9
 70
     1
102
RTVSPropertyOp10
 70
     1
102
RTVSPropertyOp11
 70
     1
102
RTVSPropertyOp12
 70
     1
102
RTVSPropertyOp13
 70
     1
102
RTVSPropertyOp14
 70
     1
102
RTVSPropertyOp15
 70
     1
102
RTVSPropertyOp16
 70
     1
102
RTVSPropertyOp17
 70
     1
102
RTVSPropertyOp18
 70
     1
102
RTVSPropertyOp19
 70
     1
102
RTVSPropertyOp20
 70
     1
102
RTVSPropertyOp21
 70
     1
102
RTVSPropertyOp22
 70
     1
102
RTVSPropertyOp23
 70
     1
102
RTVSPropertyOp24
 70
     1
102
RTVSPropertyOp25
 70
     1
102
RTVSPropertyOp26
 70
     1
102
RTVSPropertyOp27
 70
     1
102
RTVSPropertyOp28
 70
     1
102
RTVSPropertyOp29
 70
     1
102
RTVSPropertyOp30
 70
     1
102
RTVSPropertyOp31
 70
     1
102
RTVSPropertyOp32
 70
     1
102
RTVSPropertyOp33
 70
     1
102
RTVSPropertyOp34
 70
     1
102
RTVSPropertyOp35
 70
     1
102
RTVSPropertyOp36
 70
     1
102
RTVSPropertyOp37
 70
     1
102
RTVSPropertyOp38
 70
     1
102
RTVSPropertyOp39
 70
     1
102
RTVSPropertyOp40
 70
     1
102
RTVSPropertyOp41
 70
     1
102
RTVSPropertyOp42
 70
     1
102
RTVSPropertyOp43
 70
     1
102
RTVSPropertyOp44
 70
     1
102
RTVSPropertyOp45
 70
     1
102
RTVSPropertyOp46
 70
     1
102
RTVSPropertyOp47
 70
     1
102
RTVSPropertyOp48
 70
     1
102
RTVSPropertyOp49
 70
     1
102
RTVSPropertyOp50
 70
     1
102
RTVSPropertyOp51
 70
     0
102
RTVSPropertyOp52
 70
     0
102
RTVSPropertyOp53
 70
     1
102
RTVSPropertyOp54
 70
     1
102
RTVSPropertyOp55
 70
     1
102
RTVSPropertyOp56
 70
     1
102
RTVSPropertyOp57
 70
     1
102
RTVSPropertyOp58
 70
     1
102
RTVSPropertyOp59
 70
     1
102
RTVSPropertyOp60
 70
     1
102
RTVSPropertyOp61
 70
     1
102
RTVSPropertyOp62
 70
     1
  0
XRECORD
  5
8DD
102
{ACAD_REACTORS
330
8DC
102
}
330
8DC
100
AcDbXrecord
280
     1
102
RTVSPost2010Prop28
280
     0
102
RTVSPost2010PropOp28
 70
     1
102
RTVSPost2010Prop29
280
     1
102
RTVSPost2010PropOp29
 70
     1
102
RTVSPost2010Prop30
280
     1
102
RTVSPost2010PropOp30
 70
     1
102
RTVSPost2010Prop31
280
     0
102
RTVSPost2010PropOp31
 70
     1
102
RTVSPost2010Prop32
280
     0
102
RTVSPost2010PropOp32
 70
     1
102
RTVSPost2010Prop33
280
     0
102
RTVSPost2010PropOp33
 70
     1
102
RTVSPost2010Prop34
280
     0
102
RTVSPost2010PropOp34
 70
     1
102
RTVSPost2010Prop35
280
     0
102
RTVSPost2010PropOp35
 70
     1
102
RTVSPost2010Prop36
280
     0
102
RTVSPost2010PropOp36
 70
     1
102
RTVSPost2010Prop37
 90
       50
102
RTVSPost2010PropOp37
 70
     1
102
RTVSPost2010Prop38
140
0.0
102
RTVSPost2010PropOp38
 70
     1
102
RTVSPost2010Prop39
140
1.0
102
RTVSPost2010PropOp39
 70
     1
102
RTVSPost2010Prop40
 90
        0
102
RTVSPost2010PropOp40
 70
     1
102
RTVSPost2010Prop41ColorIndex
 90
       18
102
RTVSPost2010Prop41ColorRGB
 90
        0
102
RTVSPost2010PropOp41
 70
     1
102
RTVSPost2010Prop42
 90
       50
102
RTVSPost2010PropOp42
 70
     1
102
RTVSPost2010Prop43
 90
        3
102
RTVSPost2010PropOp43
 70
     1
102
RTVSPost2010Prop44ColorIndex
 90
        5
102
RTVSPost2010Prop44ColorRGB
 90
      255
102
RTVSPost2010PropOp44
 70
     1
102
RTVSPost2010Prop45
280
     0
102
RTVSPost2010PropOp45
 70
     1
102
RTVSPost2010Prop46
 90
       50
102
RTVSPost2010PropOp46
 70
     1
102
RTVSPost2010Prop47
 90
       50
102
RTVSPost2010PropOp47
 70
     1
102
RTVSPost2010Prop48
 90
       50
102
RTVSPost2010PropOp48
 70
     1
102
RTVSPost2010Prop49
280
     0
102
RTVSPost2010PropOp49
 70
     1
102
RTVSPost2010Prop50
 90
       50
102
RTVSPost2010PropOp50
 70
     1
102
RTVSPost2010Prop51ColorIndex
 90
      256
102
RTVSPost2010Prop51ColorRGB
 90
-16777216
102
RTVSPost2010PropOp51
 70
     0
102
RTVSPost2010Prop52
140
1.0
102
RTVSPost2010PropOp52
 70
     0
102
RTVSPost2010Prop53
 90
        2
102
RTVSPost2010PropOp53
 70
     1
102
RTVSPost2010Prop54
  1
strokes_ogs.tif
102
RTVSPost2010PropOp54
 70
     1
102
RTVSPost2010Prop55
280
     0
102
RTVSPost2010PropOp55
 70
     1
102
RTVSPost2010Prop56
140
1.0
102
RTVSPost2010PropOp56
 70
     1
102
RTVSPost2010Prop57
140
1.0
102
RTVSPost2010PropOp57
 70
     1
102
RTVSPropertyOp0
 70
     1
102
RTVSPropertyOp1
 70
     1
102
RTVSPropertyOp2
 70
     1
102
RTVSPropertyOp3
 70
     1
102
RTVSPropertyOp4
 70
     1
102
RTVSPropertyOp5
 70
     1
102
RTVSPropertyOp6
 70
     1
102
RTVSPropertyOp7
 70
     1
102
RTVSPropertyOp8
 70
     1
102
RTVSPropertyOp9
 70
     1
102
RTVSPropertyOp10
 70
     1
102
RTVSPropertyOp11
 70
     1
102
RTVSPropertyOp12
 70
     1
102
RTVSPropertyOp13
 70
     1
102
RTVSPropertyOp14
 70
     1
102
RTVSPropertyOp15
 70
     1
102
RTVSPropertyOp16
 70
     1
102
RTVSPropertyOp17
 70
     1
102
RTVSPropertyOp18
 70
     1
102
RTVSPropertyOp19
 70
     1
102
RTVSPropertyOp20
 70
     1
102
RTVSPropertyOp21
 70
     1
102
RTVSPropertyOp22
 70
     1
102
RTVSPropertyOp23
 70
     1
102
RTVSPropertyOp24
 70
     1
102
RTVSPropertyOp25
 70
     1
102
RTVSPropertyOp26
 70
     1
102
RTVSPropertyOp27
 70
     1
102
RTVSPropertyOp28
 70
     1
102
RTVSPropertyOp29
 70
     1
102
RTVSPropertyOp30
 70
     1
102
RTVSPropertyOp31
 70
     1
102
RTVSPropertyOp32
 70
     1
102
RTVSPropertyOp33
 70
     1
102
RTVSPropertyOp34
 70
     1
102
RTVSPropertyOp35
 70
     1
102
RTVSPropertyOp36
 70
     1
102
RTVSPropertyOp37
 70
     1
102
RTVSPropertyOp38
 70
     1
102
RTVSPropertyOp39
 70
     1
102
RTVSPropertyOp40
 70
     1
102
RTVSPropertyOp41
 70
     1
102
RTVSPropertyOp42
 70
     1
102
RTVSPropertyOp43
 70
     1
102
RTVSPropertyOp44
 70
     1
102
RTVSPropertyOp45
 70
     1
102
RTVSPropertyOp46
 70
     1
102
RTVSPropertyOp47
 70
     1
102
RTVSPropertyOp48
 70
     1
102
RTVSPropertyOp49
 70
     1
102
RTVSPropertyOp50
 70
     1
102
RTVSPropertyOp51
 70
     0
102
RTVSPropertyOp52
 70
     0
102
RTVSPropertyOp53
 70
     1
102
RTVSPropertyOp54
 70
     1
102
RTVSPropertyOp55
 70
     1
102
RTVSPropertyOp56
 70
     1
102
RTVSPropertyOp57
 70
     1
102
RTVSPropertyOp58
 70
     1
102
RTVSPropertyOp59
 70
     1
102
RTVSPropertyOp60
 70
     1
102
RTVSPropertyOp61
 70
     1
102
RTVSPropertyOp62
 70
     1
  0
XRECORD
  5
8D1
102
{ACAD_REACTORS
330
8D0
102
}
330
8D0
100
AcDbXrecord
280
     1
102
RTVSPost2010Prop28
280
     0
102
RTVSPost2010PropOp28
 70
     1
102
RTVSPost2010Prop29
280
     1
102
RTVSPost2010PropOp29
 70
     1
102
RTVSPost2010Prop30
280
     1
102
RTVSPost2010PropOp30
 70
     1
102
RTVSPost2010Prop31
280
     0
102
RTVSPost2010PropOp31
 70
     1
102
RTVSPost2010Prop32
280
     0
102
RTVSPost2010PropOp32
 70
     1
102
RTVSPost2010Prop33
280
     0
102
RTVSPost2010PropOp33
 70
     1
102
RTVSPost2010Prop34
280
     0
102
RTVSPost2010PropOp34
 70
     1
102
RTVSPost2010Prop35
280
     0
102
RTVSPost2010PropOp35
 70
     1
102
RTVSPost2010Prop36
280
     0
102
RTVSPost2010PropOp36
 70
     1
102
RTVSPost2010Prop37
 90
       50
102
RTVSPost2010PropOp37
 70
     1
102
RTVSPost2010Prop38
140
0.0
102
RTVSPost2010PropOp38
 70
     1
102
RTVSPost2010Prop39
140
1.0
102
RTVSPost2010PropOp39
 70
     1
102
RTVSPost2010Prop40
 90
        0
102
RTVSPost2010PropOp40
 70
     1
102
RTVSPost2010Prop41ColorIndex
 90
       18
102
RTVSPost2010Prop41ColorRGB
 90
        0
102
RTVSPost2010PropOp41
 70
     1
102
RTVSPost2010Prop42
 90
       50
102
RTVSPost2010PropOp42
 70
     1
102
RTVSPost2010Prop43
 90
        3
102
RTVSPost2010PropOp43
 70
     1
102
RTVSPost2010Prop44ColorIndex
 90
        5
102
RTVSPost2010Prop44ColorRGB
 90
      255
102
RTVSPost2010PropOp44
 70
     1
102
RTVSPost2010Prop45
280
     0
102
RTVSPost2010PropOp45
 70
     1
102
RTVSPost2010Prop46
 90
       50
102
RTVSPost2010PropOp46
 70
     1
102
RTVSPost2010Prop47
 90
       50
102
RTVSPost2010PropOp47
 70
     1
102
RTVSPost2010Prop48
 90
       50
102
RTVSPost2010PropOp48
 70
     1
102
RTVSPost2010Prop49
280
     0
102
RTVSPost2010PropOp49
 70
     1
102
RTVSPost2010Prop50
 90
       50
102
RTVSPost2010PropOp50
 70
     1
102
RTVSPost2010Prop51ColorIndex
 90
      256
102
RTVSPost2010Prop51ColorRGB
 90
-16777216
102
RTVSPost2010PropOp51
 70
     0
102
RTVSPost2010Prop52
140
1.0
102
RTVSPost2010PropOp52
 70
     0
102
RTVSPost2010Prop53
 90
        2
102
RTVSPost2010PropOp53
 70
     1
102
RTVSPost2010Prop54
  1
strokes_ogs.tif
102
RTVSPost2010PropOp54
 70
     1
102
RTVSPost2010Prop55
280
     0
102
RTVSPost2010PropOp55
 70
     1
102
RTVSPost2010Prop56
140
1.0
102
RTVSPost2010PropOp56
 70
     1
102
RTVSPost2010Prop57
140
1.0
102
RTVSPost2010PropOp57
 70
     1
102
RTVSPropertyOp0
 70
     1
102
RTVSPropertyOp1
 70
     1
102
RTVSPropertyOp2
 70
     1
102
RTVSPropertyOp3
 70
     1
102
RTVSPropertyOp4
 70
     1
102
RTVSPropertyOp5
 70
     1
102
RTVSPropertyOp6
 70
     1
102
RTVSPropertyOp7
 70
     1
102
RTVSPropertyOp8
 70
     1
102
RTVSPropertyOp9
 70
     1
102
RTVSPropertyOp10
 70
     1
102
RTVSPropertyOp11
 70
     1
102
RTVSPropertyOp12
 70
     1
102
RTVSPropertyOp13
 70
     1
102
RTVSPropertyOp14
 70
     1
102
RTVSPropertyOp15
 70
     1
102
RTVSPropertyOp16
 70
     1
102
RTVSPropertyOp17
 70
     1
102
RTVSPropertyOp18
 70
     1
102
RTVSPropertyOp19
 70
     1
102
RTVSPropertyOp20
 70
     1
102
RTVSPropertyOp21
 70
     1
102
RTVSPropertyOp22
 70
     1
102
RTVSPropertyOp23
 70
     1
102
RTVSPropertyOp24
 70
     1
102
RTVSPropertyOp25
 70
     1
102
RTVSPropertyOp26
 70
     1
102
RTVSPropertyOp27
 70
     1
102
RTVSPropertyOp28
 70
     1
102
RTVSPropertyOp29
 70
     1
102
RTVSPropertyOp30
 70
     1
102
RTVSPropertyOp31
 70
     1
102
RTVSPropertyOp32
 70
     1
102
RTVSPropertyOp33
 70
     1
102
RTVSPropertyOp34
 70
     1
102
RTVSPropertyOp35
 70
     1
102
RTVSPropertyOp36
 70
     1
102
RTVSPropertyOp37
 70
     1
102
RTVSPropertyOp38
 70
     1
102
RTVSPropertyOp39
 70
     1
102
RTVSPropertyOp40
 70
     1
102
RTVSPropertyOp41
 70
     1
102
RTVSPropertyOp42
 70
     1
102
RTVSPropertyOp43
 70
     1
102
RTVSPropertyOp44
 70
     1
102
RTVSPropertyOp45
 70
     1
102
RTVSPropertyOp46
 70
     1
102
RTVSPropertyOp47
 70
     1
102
RTVSPropertyOp48
 70
     1
102
RTVSPropertyOp49
 70
     1
102
RTVSPropertyOp50
 70
     1
102
RTVSPropertyOp51
 70
     0
102
RTVSPropertyOp52
 70
     0
102
RTVSPropertyOp53
 70
     1
102
RTVSPropertyOp54
 70
     1
102
RTVSPropertyOp55
 70
     1
102
RTVSPropertyOp56
 70
     1
102
RTVSPropertyOp57
 70
     1
102
RTVSPropertyOp58
 70
     1
102
RTVSPropertyOp59
 70
     1
102
RTVSPropertyOp60
 70
     1
102
RTVSPropertyOp61
 70
     1
102
RTVSPropertyOp62
 70
     1
  0
XRECORD
  5
8E9
102
{ACAD_REACTORS
330
8E8
102
}
330
8E8
100
AcDbXrecord
280
     1
102
RTVSPost2010Prop28
280
     0
102
RTVSPost2010PropOp28
 70
     1
102
RTVSPost2010Prop29
280
     1
102
RTVSPost2010PropOp29
 70
     1
102
RTVSPost2010Prop30
280
     1
102
RTVSPost2010PropOp30
 70
     1
102
RTVSPost2010Prop31
280
     0
102
RTVSPost2010PropOp31
 70
     1
102
RTVSPost2010Prop32
280
     0
102
RTVSPost2010PropOp32
 70
     1
102
RTVSPost2010Prop33
280
     0
102
RTVSPost2010PropOp33
 70
     1
102
RTVSPost2010Prop34
280
     0
102
RTVSPost2010PropOp34
 70
     1
102
RTVSPost2010Prop35
280
     0
102
RTVSPost2010PropOp35
 70
     1
102
RTVSPost2010Prop36
280
     0
102
RTVSPost2010PropOp36
 70
     1
102
RTVSPost2010Prop37
 90
       50
102
RTVSPost2010PropOp37
 70
     1
102
RTVSPost2010Prop38
140
0.0
102
RTVSPost2010PropOp38
 70
     1
102
RTVSPost2010Prop39
140
1.0
102
RTVSPost2010PropOp39
 70
     1
102
RTVSPost2010Prop40
 90
        0
102
RTVSPost2010PropOp40
 70
     1
102
RTVSPost2010Prop41ColorIndex
 90
       18
102
RTVSPost2010Prop41ColorRGB
 90
        0
102
RTVSPost2010PropOp41
 70
     1
102
RTVSPost2010Prop42
 90
       50
102
RTVSPost2010PropOp42
 70
     1
102
RTVSPost2010Prop43
 90
        3
102
RTVSPost2010PropOp43
 70
     1
102
RTVSPost2010Prop44ColorIndex
 90
        5
102
RTVSPost2010Prop44ColorRGB
 90
      255
102
RTVSPost2010PropOp44
 70
     1
102
RTVSPost2010Prop45
280
     0
102
RTVSPost2010PropOp45
 70
     1
102
RTVSPost2010Prop46
 90
       50
102
RTVSPost2010PropOp46
 70
     1
102
RTVSPost2010Prop47
 90
       50
102
RTVSPost2010PropOp47
 70
     1
102
RTVSPost2010Prop48
 90
       50
102
RTVSPost2010PropOp48
 70
     1
102
RTVSPost2010Prop49
280
     0
102
RTVSPost2010PropOp49
 70
     1
102
RTVSPost2010Prop50
 90
       50
102
RTVSPost2010PropOp50
 70
     1
102
RTVSPost2010Prop51ColorIndex
 90
      256
102
RTVSPost2010Prop51ColorRGB
 90
-16777216
102
RTVSPost2010PropOp51
 70
     0
102
RTVSPost2010Prop52
140
1.0
102
RTVSPost2010PropOp52
 70
     0
102
RTVSPost2010Prop53
 90
        2
102
RTVSPost2010PropOp53
 70
     1
102
RTVSPost2010Prop54
  1
strokes_ogs.tif
102
RTVSPost2010PropOp54
 70
     1
102
RTVSPost2010Prop55
280
     0
102
RTVSPost2010PropOp55
 70
     1
102
RTVSPost2010Prop56
140
1.0
102
RTVSPost2010PropOp56
 70
     1
102
RTVSPost2010Prop57
140
1.0
102
RTVSPost2010PropOp57
 70
     1
102
RTVSPropertyOp0
 70
     1
102
RTVSPropertyOp1
 70
     1
102
RTVSPropertyOp2
 70
     1
102
RTVSPropertyOp3
 70
     1
102
RTVSPropertyOp4
 70
     1
102
RTVSPropertyOp5
 70
     1
102
RTVSPropertyOp6
 70
     1
102
RTVSPropertyOp7
 70
     1
102
RTVSPropertyOp8
 70
     1
102
RTVSPropertyOp9
 70
     1
102
RTVSPropertyOp10
 70
     1
102
RTVSPropertyOp11
 70
     1
102
RTVSPropertyOp12
 70
     1
102
RTVSPropertyOp13
 70
     1
102
RTVSPropertyOp14
 70
     1
102
RTVSPropertyOp15
 70
     1
102
RTVSPropertyOp16
 70
     1
102
RTVSPropertyOp17
 70
     1
102
RTVSPropertyOp18
 70
     1
102
RTVSPropertyOp19
 70
     1
102
RTVSPropertyOp20
 70
     1
102
RTVSPropertyOp21
 70
     1
102
RTVSPropertyOp22
 70
     1
102
RTVSPropertyOp23
 70
     1
102
RTVSPropertyOp24
 70
     1
102
RTVSPropertyOp25
 70
     1
102
RTVSPropertyOp26
 70
     1
102
RTVSPropertyOp27
 70
     1
102
RTVSPropertyOp28
 70
     1
102
RTVSPropertyOp29
 70
     1
102
RTVSPropertyOp30
 70
     1
102
RTVSPropertyOp31
 70
     1
102
RTVSPropertyOp32
 70
     1
102
RTVSPropertyOp33
 70
     1
102
RTVSPropertyOp34
 70
     1
102
RTVSPropertyOp35
 70
     1
102
RTVSPropertyOp36
 70
     1
102
RTVSPropertyOp37
 70
     1
102
RTVSPropertyOp38
 70
     1
102
RTVSPropertyOp39
 70
     1
102
RTVSPropertyOp40
 70
     1
102
RTVSPropertyOp41
 70
     1
102
RTVSPropertyOp42
 70
     1
102
RTVSPropertyOp43
 70
     1
102
RTVSPropertyOp44
 70
     1
102
RTVSPropertyOp45
 70
     1
102
RTVSPropertyOp46
 70
     1
102
RTVSPropertyOp47
 70
     1
102
RTVSPropertyOp48
 70
     1
102
RTVSPropertyOp49
 70
     1
102
RTVSPropertyOp50
 70
     1
102
RTVSPropertyOp51
 70
     0
102
RTVSPropertyOp52
 70
     0
102
RTVSPropertyOp53
 70
     1
102
RTVSPropertyOp54
 70
     1
102
RTVSPropertyOp55
 70
     1
102
RTVSPropertyOp56
 70
     1
102
RTVSPropertyOp57
 70
     1
102
RTVSPropertyOp58
 70
     1
102
RTVSPropertyOp59
 70
     1
102
RTVSPropertyOp60
 70
     1
102
RTVSPropertyOp61
 70
     1
102
RTVSPropertyOp62
 70
     1
  0
ENDSEC
  0
EOF
