  0
SECTION
  2
HEADER
  9
$ACADVER
  1
AC1009
  9
$INSBASE
 10
0.0
 20
0.0
 30
0.0
  9
$EXTMIN
 10
-1157.864949036139
 20
-318.98521551881453
 30
0.0
  9
$EXTMAX
 10
1172.9546648911
 20
1298.948791347208
 30
0.0
  9
$LIMMIN
 10
-4267.1522210604826
 20
-2696.083210198412
  9
$LIMMAX
 10
7190.7174225864646
 20
5141.155363923066
  9
$ORTHOMODE
 70
     0
  9
$REGENMODE
 70
     1
  9
$FILLMODE
 70
     1
  9
$QTEXTMODE
 70
     0
  9
$MIRRTEXT
 70
     0
  9
$DRAGMODE
 70
     2
  9
$LTSCALE
 40
20.0
  9
$OSMODE
 70
   175
  9
$ATTMODE
 70
     1
  9
$TEXTSIZE
 40
64.0
  9
$TRACEWID
 40
0.05
  9
$TEXTSTYLE
  7
NOTE
  9
$CLAYER
  8
SYMBOLLINE
  9
$CELTYPE
  6
CONTINUOUS
  9
$CECOLOR
 62
     7
  9
$DIMSCALE
 40
1.0
  9
$DIMASZ
 40
30.0
  9
$DIMEXO
 40
10.0
  9
$DIMDLI
 40
70.0
  9
$DIMRND
 40
0.0
  9
$DIMDLE
 40
0.0
  9
$DIMEXE
 40
20.0
  9
$DIMTP
 40
0.0
  9
$DIMTM
 40
0.0
  9
$DIMTXT
 40
50.0
  9
$DIMCEN
 40
0.09
  9
$DIMTSZ
 40
0.0
  9
$DIMTOL
 70
     0
  9
$DIMLIM
 70
     0
  9
$DIMTIH
 70
     0
  9
$DIMTOH
 70
     0
  9
$DIMSE1
 70
     0
  9
$DIMSE2
 70
     0
  9
$DIMTAD
 70
     1
  9
$DIMZIN
 70
     8
  9
$DIMBLK
  1
SMALL
  9
$DIMASO
 70
     1
  9
$DIMSHO
 70
     0
  9
$DIMPOST
  1

  9
$DIMAPOST
  1

  9
$DIMALT
 70
     0
  9
$DIMALTD
 70
     2
  9
$DIMALTF
 40
25.399999999999999
  9
$DIMLFAC
 40
1.0
  9
$DIMTOFL
 70
     1
  9
$DIMTVP
 40
0.0
  9
$DIMTIX
 70
     0
  9
$DIMSOXD
 70
     0
  9
$DIMSAH
 70
     0
  9
$DIMBLK1
  1

  9
$DIMBLK2
  1

  9
$DIMSTYLE
  2
STANDARD
  9
$DIMCLRD
 70
     0
  9
$DIMCLRE
 70
     0
  9
$DIMCLRT
 70
     0
  9
$DIMTFAC
 40
1.0
  9
$DIMGAP
 40
0.09
  9
$LUNITS
 70
     2
  9
$LUPREC
 70
     4
  9
$SKETCHINC
 40
0.1
  9
$FILLETRAD
 40
30.0
  9
$AUNITS
 70
     1
  9
$AUPREC
 70
     3
  9
$MENU
  1
ACAD
  9
$ELEVATION
 40
0.0
  9
$PELEVATION
 40
0.0
  9
$THICKNESS
 40
0.0
  9
$LIMCHECK
 70
     0
  9
$BLIPMODE
 70
     0
  9
$CHAMFERA
 40
0.0
  9
$CHAMFERB
 40
0.0
  9
$SKPOLY
 70
     0
  9
$TDCREATE
 40
2450330.4399309959
  9
$TDUPDATE
 40
2455336.4526784611
  9
$TDINDWG
 40
4.7801696181000004
  9
$TDUSRTIMER
 40
4.7801678009000002
  9
$USRTIMER
 70
     1
  9
$ANGBASE
 50
0.0
  9
$ANGDIR
 70
     0
  9
$PDMODE
 70
     3
  9
$PDSIZE
 40
-2.0
  9
$PLINEWID
 40
0.0
  9
$COORDS
 70
     0
  9
$SPLFRAME
 70
     0
  9
$SPLINETYPE
 70
     6
  9
$SPLINESEGS
 70
     8
  9
$ATTDIA
 70
     0
  9
$ATTREQ
 70
     1
  9
$HANDLING
 70
     1
  9
$HANDSEED
  5
2EC
  9
$SURFTAB1
 70
     6
  9
$SURFTAB2
 70
     6
  9
$SURFTYPE
 70
     6
  9
$SURFU
 70
     6
  9
$SURFV
 70
     6
  9
$UCSNAME
  2

  9
$UCSORG
 10
0.0
 20
0.0
 30
0.0
  9
$UCSXDIR
 10
1.0
 20
0.0
 30
0.0
  9
$UCSYDIR
 10
0.0
 20
1.0
 30
0.0
  9
$PUCSNAME
  2

  9
$PUCSORG
 10
0.0
 20
0.0
 30
0.0
  9
$PUCSXDIR
 10
1.0
 20
0.0
 30
0.0
  9
$PUCSYDIR
 10
0.0
 20
1.0
 30
0.0
  9
$USERI1
 70
     0
  9
$USERI2
 70
     0
  9
$USERI3
 70
     0
  9
$USERI4
 70
     0
  9
$USERI5
 70
     0
  9
$USERR1
 40
20.0
  9
$USERR2
 40
0.0
  9
$USERR3
 40
0.0
  9
$USERR4
 40
0.0
  9
$USERR5
 40
0.0
  9
$WORLDVIEW
 70
     1
  9
$SHADEDGE
 70
     3
  9
$SHADEDIF
 70
    70
  9
$TILEMODE
 70
     1
  9
$MAXACTVP
 70
    64
  9
$PLIMCHECK
 70
     0
  9
$PEXTMIN
 10
1.0000000000000000E+020
 20
1.0000000000000000E+020
 30
1.0000000000000000E+020
  9
$PEXTMAX
 10
-1.0000000000000000E+020
 20
-1.0000000000000000E+020
 30
-1.0000000000000000E+020
  9
$PLIMMIN
 10
0.0
 20
0.0
  9
$PLIMMAX
 10
12.0
 20
9.0
  9
$UNITMODE
 70
     0
  9
$VISRETAIN
 70
     1
  9
$PLINEGEN
 70
     0
  9
$PSLTSCALE
 70
     1
  0
ENDSEC
  0
SECTION
  2
TABLES
  0
TABLE
  2
VPORT
 70
     1
  0
VPORT
  2
*ACTIVE
 70
     0
 10
0.0
 20
0.0
 11
1.0
 21
1.0
 12
1461.782600762991
 22
1222.536076862327
 13
0.0
 23
0.0
 14
50.0
 24
50.0
 15
100.0
 25
100.0
 16
0.0
 26
0.0
 36
1.0
 17
0.0
 27
0.0
 37
0.0
 40
7896.6866543297328
 41
1.548101265822784
 42
50.0
 43
0.0
 44
0.0
 50
0.0
 51
0.0
 71
     0
 72
  1000
 73
     1
 74
     0
 75
     0
 76
     0
 77
     0
 78
     0
  0
ENDTAB
  0
TABLE
  2
LTYPE
 70
     2
  0
LTYPE
  2
CONTINUOUS
 70
     0
  3
実線
 72
    65
 73
     0
 40
0.0
  0
LTYPE
  2
DASHDOT
 70
     0
  3
____ _ ____ _ ____ _ ____ _ ____ _ ____ _ ____
 72
    65
 73
     4
 40
5.5
 49
4.0
 49
-0.6
 49
0.3
 49
-0.6
  0
ENDTAB
  0
TABLE
  2
LAYER
 70
    12
  0
LAYER
  2
0
 70
     0
 62
     7
  6
CONTINUOUS
  0
LAYER
  2
SIZE
 70
     0
 62
    30
  6
CONTINUOUS
  0
LAYER
  2
OUTLINE
 70
     0
 62
     3
  6
CONTINUOUS
  0
LAYER
  2
DETAIL
 70
     0
 62
     5
  6
CONTINUOUS
  0
LAYER
  2
BASIS
 70
     0
 62
     6
  6
DASHDOT
  0
LAYER
  2
NOTE
 70
     0
 62
     4
  6
CONTINUOUS
  0
LAYER
  2
ARRANGE
 70
     0
 62
     1
  6
CONTINUOUS
  0
LAYER
  2
FIX
 70
     0
 62
    11
  6
CONTINUOUS
  0
LAYER
  2
SERVICESPACE
 70
     0
 62
     2
  6
DASHDOT
  0
LAYER
  2
ETC
 70
     0
 62
    61
  6
CONTINUOUS
  0
LAYER
  2
SYMBOLLINE
 70
     0
 62
    15
  6
CONTINUOUS
  0
LAYER
  2
DEFPOINTS
 70
     0
 62
     7
  6
CONTINUOUS
  0
ENDTAB
  0
TABLE
  2
STYLE
 70
     4
  0
STYLE
  2
STANDARD
 70
     0
 40
0.0
 41
0.9
 50
0.0
 71
     0
 42
64.0
  3
SIMPLEX
  4
BIGFONT
  0
STYLE
  2
ANNOTATIVE
 70
     0
 40
0.0
 41
1.0
 50
0.0
 71
     0
 42
0.2
  3
txt
  4

  0
STYLE
  2
NOTE
 70
     0
 40
0.0
 41
0.7
 50
0.0
 71
     0
 42
64.0
  3
SIMPLEX.shx
  4
BIGFONT.shx
  0
STYLE
  2
STANDARD1
 70
     0
 40
0.0
 41
1.0
 50
0.0
 71
     0
 42
64.0
  3
MONOTXT
  4
BIGFONT
  0
ENDTAB
  0
TABLE
  2
VIEW
 70
     6
  0
VIEW
  2
ALL
 70
     0
 40
9000.0
 10
241.50664699999999
 20
0.0
 41
12483.01
 11
0.0
 21
0.0
 31
1.0
 12
0.0
 22
0.0
 32
0.0
 42
50.0
 43
0.0
 44
0.0
 50
0.0
 71
     0
  0
ENDTAB
  0
TABLE
  2
UCS
 70
     0
  0
ENDTAB
  0
TABLE
  2
APPID
 70
     3
  0
APPID
  2
ACAD
 70
     0
  0
APPID
  2
ACADANNOTATIVE
 70
     0
  0
APPID
  2
ACAD_MLEADERVER
 70
     0
  0
ENDTAB
  0
TABLE
  2
DIMSTYLE
 70
     2
  0
DIMSTYLE
  2
STANDARD
 70
     0
  3

  4

  5

  6

  7

 40
1.0
 41
0.18
 42
0.0625
 43
0.38
 44
0.18
 45
0.0
 46
0.0
 47
0.0
 48
0.0
140
0.18
141
0.09
142
0.0
143
25.399999999999999
144
1.0
145
0.0
146
1.0
147
0.09
 71
     0
 72
     0
 73
     1
 74
     1
 75
     0
 76
     0
 77
     0
 78
     0
170
     0
171
     2
172
     0
173
     0
174
     0
175
     0
176
     0
177
     0
178
     0
  0
DIMSTYLE
  2
ANNOTATIVE
 70
     0
  3

  4

  5

  6

  7

 40
1.0
 41
0.18
 42
0.0625
 43
0.38
 44
0.18
 45
0.0
 46
0.0
 47
0.0
 48
0.0
140
0.18
141
0.09
142
0.0
143
25.399999999999999
144
1.0
145
0.0
146
1.0
147
0.09
 71
     0
 72
     0
 73
     1
 74
     1
 75
     0
 76
     0
 77
     0
 78
     0
170
     0
171
     2
172
     0
173
     0
174
     0
175
     0
176
     0
177
     0
178
     0
  0
ENDTAB
  0
ENDSEC
  0
SECTION
  2
BLOCKS
  0
BLOCK
  8
0
  2
$MODEL_SPACE
 70
     0
 10
0.0
 20
0.0
 30
0.0
  3
$MODEL_SPACE
  1

  0
ENDBLK
  5
76
  8
0
  0
BLOCK
 67
     1
  8
0
  2
$PAPER_SPACE
 70
     0
 10
0.0
 20
0.0
 30
0.0
  3
$PAPER_SPACE
  1

  0
ENDBLK
  5
72
 67
     1
  8
0
  0
BLOCK
  8
0
  2
_SMALL
 70
     0
 10
0.0
 20
0.0
 30
0.0
  3
_SMALL
  1

  0
CIRCLE
  5
8D
  8
0
  6
CONTINUOUS
 62
     7
 10
0.0
 20
0.0
 30
0.0
 40
0.25
  0
ENDBLK
  5
8E
  8
0
  0
ENDSEC
  0
SECTION
  2
ENTITIES
  0
LINE
  5
8F
  8
DETAIL
  6
CONTINUOUS
 62
     5
 10
611.99999915814863
 20
0.0
 30
0.0
 11
-828.00000084185092
 21
0.0
 31
0.0
  0
LINE
  5
90
  8
DETAIL
  6
CONTINUOUS
 62
     5
 10
592.99999965799407
 20
58.999998447819941
 30
0.0
 11
-809.00000134171705
 21
58.999998447819941
 31
0.0
  0
LINE
  5
91
  8
DETAIL
  6
CONTINUOUS
 62
     5
 10
611.99999915814863
 20
-0.9999999736828611
 30
0.0
 11
-828.00000084185092
 21
-0.9999999736828611
 31
0.0
  0
LINE
  5
92
  8
NOTE
  6
CONTINUOUS
 62
     4
 10
-821.00000102601859
 20
20.999999447531081
 30
0.0
 11
-913.70409298145671
 21
20.999999447531081
 31
0.0
  0
LINE
  5
93
  8
NOTE
  6
CONTINUOUS
 62
     4
 10
-821.00000102601859
 20
0.9999999736937753
 30
0.0
 11
-913.70409298145671
 21
0.9999999736937753
 31
0.0
  0
LINE
  5
94
  8
NOTE
  6
CONTINUOUS
 62
     4
 10
-892.66165350208325
 20
0.9999999736937753
 30
0.0
 11
-872.66165402825698
 21
20.999999447531081
 31
0.0
  0
LINE
  5
95
  8
NOTE
  6
CONTINUOUS
 62
     4
 10
-897.66165337055043
 20
0.9999999736937753
 30
0.0
 11
-877.66165389672415
 21
20.999999447531081
 31
0.0
  0
LINE
  5
96
  8
NOTE
  6
CONTINUOUS
 62
     4
 10
-902.66165323901771
 20
0.9999999736937753
 30
0.0
 11
-882.66165376516926
 21
20.999999447531081
 31
0.0
  0
LINE
  5
97
  8
NOTE
  6
CONTINUOUS
 62
     4
 10
-821.00000102601859
 20
0.9999999736937753
 30
0.0
 11
-821.00000102601859
 21
20.999999447531081
 31
0.0
  0
LINE
  5
98
  8
NOTE
  6
CONTINUOUS
 62
     4
 10
-862.66165429134276
 20
0.9999999736937753
 30
0.0
 11
-842.66165481751614
 21
20.999999447531081
 31
0.0
  0
LINE
  5
99
  8
NOTE
  6
CONTINUOUS
 62
     4
 10
-857.6616544228757
 20
0.9999999736937753
 30
0.0
 11
-837.66165494904965
 21
20.999999447531081
 31
0.0
  0
LINE
  5
9A
  8
NOTE
  6
CONTINUOUS
 62
     4
 10
-852.66165455442854
 20
0.9999999736937753
 30
0.0
 11
-832.66165508058214
 21
20.999999447531081
 31
0.0
  0
LINE
  5
9B
  8
DETAIL
  6
CONTINUOUS
 62
     5
 10
-828.00000084185092
 20
-0.9999999736828611
 30
0.0
 11
-828.00000084185092
 21
0.0
 31
0.0
  0
LINE
  5
9C
  8
DETAIL
  6
CONTINUOUS
 62
     5
 10
-809.00000134171705
 20
0.0
 30
0.0
 11
-809.00000134171705
 21
58.999998447819941
 31
0.0
  0
LINE
  5
9D
  8
NOTE
  6
CONTINUOUS
 62
     4
 10
704.99999671146952
 20
0.9999999736937753
 30
0.0
 11
604.99999934229402
 21
0.9999999736937753
 31
0.0
  0
LINE
  5
9E
  8
NOTE
  6
CONTINUOUS
 62
     4
 10
704.99999671146952
 20
20.999999447531081
 30
0.0
 11
604.99999934229402
 21
20.999999447531081
 31
0.0
  0
LINE
  5
9F
  8
NOTE
  6
CONTINUOUS
 62
     4
 10
604.99999934229402
 20
0.9999999736937753
 30
0.0
 11
604.99999934229402
 21
20.999999447531081
 31
0.0
  0
LINE
  5
A0
  8
DETAIL
  6
CONTINUOUS
 62
     5
 10
592.99999965799407
 20
0.0
 30
0.0
 11
592.99999965799407
 21
58.999998447819941
 31
0.0
  0
LINE
  5
A1
  8
NOTE
  6
CONTINUOUS
 62
     4
 10
623.33834449847075
 20
0.9999999736937753
 30
0.0
 11
643.33834397231715
 21
20.999999447531081
 31
0.0
  0
LINE
  5
A2
  8
NOTE
  6
CONTINUOUS
 62
     4
 10
663.33834344614525
 20
0.9999999736937753
 30
0.0
 11
683.33834291997175
 21
20.999999447531081
 31
0.0
  0
LINE
  5
A3
  8
NOTE
  6
CONTINUOUS
 62
     4
 10
628.33834436693769
 20
0.9999999736937753
 30
0.0
 11
648.3383438407642
 21
20.999999447531081
 31
0.0
  0
LINE
  5
A4
  8
NOTE
  6
CONTINUOUS
 62
     4
 10
668.3383433146123
 20
0.9999999736937753
 30
0.0
 11
688.33834278843847
 21
20.999999447531081
 31
0.0
  0
LINE
  5
A5
  8
NOTE
  6
CONTINUOUS
 62
     4
 10
633.33834423538485
 20
0.9999999736937753
 30
0.0
 11
653.33834370923125
 21
20.999999447531081
 31
0.0
  0
LINE
  5
A6
  8
NOTE
  6
CONTINUOUS
 62
     4
 10
673.33834318305765
 20
0.9999999736937753
 30
0.0
 11
693.33834265690575
 21
20.999999447531081
 31
0.0
  0
LINE
  5
A7
  8
DETAIL
  6
CONTINUOUS
 62
     5
 10
611.99999915814863
 20
-0.9999999736828611
 30
0.0
 11
611.99999915814863
 21
0.0
 31
0.0
  0
LINE
  5
A9
  8
DETAIL
  6
CONTINUOUS
 62
     5
 10
575.00000013155352
 20
166.0000070243149
 30
0.0
 11
-575.00000013153294
 21
166.0000070243149
 31
0.0
  0
LINE
  5
AA
  8
DETAIL
  6
CONTINUOUS
 62
     5
 10
575.00000013155352
 20
426.00000018416711
 30
0.0
 11
-575.00000013153294
 21
426.00000018416711
 31
0.0
  0
LINE
  5
AB
  8
DETAIL
  6
CONTINUOUS
 62
     5
 10
538.00000110496012
 20
404.00000076295299
 30
0.0
 11
-538.00000110493966
 21
404.00000076295299
 31
0.0
  0
LINE
  5
AC
  8
DETAIL
  6
CONTINUOUS
 62
     5
 10
538.00000110496012
 20
188.00000644552881
 30
0.0
 11
-538.00000110493966
 21
188.00000644552881
 31
0.0
  0
LINE
  5
AE
  8
DETAIL
  6
CONTINUOUS
 62
     5
 10
-580.0
 20
139.00000002631711
 30
0.0
 11
580.00000000000034
 21
139.00000002631711
 31
0.0
  0
LINE
  5
AF
  8
DETAIL
  6
CONTINUOUS
 62
     5
 10
-562.00000047353933
 20
153.6000073505364
 30
0.0
 11
562.00000047355957
 21
153.6000073505364
 31
0.0
  0
LINE
  5
B0
  8
DETAIL
  6
CONTINUOUS
 62
     5
 10
-580.0
 20
432.00000002631708
 30
0.0
 11
580.00000000000034
 21
432.00000002631708
 31
0.0
  0
LINE
  5
B1
  8
DETAIL
  6
CONTINUOUS
 62
     5
 10
-690.0
 20
169.00000002631711
 30
0.0
 11
-580.0
 21
169.00000002631711
 31
0.0
  0
LINE
  5
B2
  8
DETAIL
  6
CONTINUOUS
 62
     5
 10
-588.9999997632201
 20
339.99999960538838
 30
0.0
 11
-613.99999910551367
 21
339.99999960538838
 31
0.0
  0
LINE
  5
B3
  8
DETAIL
  6
CONTINUOUS
 62
     5
 10
-588.9999997632201
 20
308.0000004472513
 30
0.0
 11
-613.99999910551367
 21
308.0000004472513
 31
0.0
  0
LINE
  5
B4
  8
DETAIL
  6
CONTINUOUS
 62
     5
 10
-595.99999957907482
 20
419.00000002631521
 30
0.0
 11
-690.0
 21
419.00000002631521
 31
0.0
  0
LINE
  5
B5
  8
DETAIL
  6
CONTINUOUS
 62
     5
 10
-580.0
 20
404.0000004209341
 30
0.0
 11
-685.99999721131633
 21
404.0000004209341
 31
0.0
  0
LINE
  5
B6
  8
DETAIL
  6
CONTINUOUS
 62
     5
 10
-616.00000110494307
 20
270.49999975009428
 30
0.0
 11
-603.00000144694957
 21
270.49999975009428
 31
0.0
  0
LINE
  5
B7
  8
DETAIL
  6
CONTINUOUS
 62
     5
 10
-616.00000110494307
 20
249.50000030256339
 30
0.0
 11
-603.00000144694957
 21
249.50000030256339
 31
0.0
  0
LINE
  5
B8
  8
DETAIL
  6
CONTINUOUS
 62
     5
 10
-596.00000052617349
 20
244.99999968431069
 30
0.0
 11
-610.00000015786065
 21
244.99999968431069
 31
0.0
  0
LINE
  5
B9
  8
DETAIL
  6
CONTINUOUS
 62
     5
 10
-596.00000052617349
 20
219.0000003683235
 30
0.0
 11
-610.00000015786065
 21
219.0000003683235
 31
0.0
  0
LINE
  5
BA
  8
DETAIL
  6
CONTINUOUS
 62
     5
 10
-690.0
 20
169.00000002631711
 30
0.0
 11
-690.0
 21
419.00000002631521
 31
0.0
  0
LINE
  5
BB
  8
DETAIL
  6
CONTINUOUS
 62
     5
 10
-610.00000015786065
 20
244.99999968431069
 30
0.0
 11
-610.00000015786065
 21
219.0000003683235
 31
0.0
  0
LINE
  5
BC
  8
DETAIL
  6
CONTINUOUS
 62
     5
 10
-610.00000015786065
 20
244.99999968431069
 30
0.0
 11
-616.0
 21
241.49999977639339
 31
0.0
  0
LINE
  5
BD
  8
DETAIL
  6
CONTINUOUS
 62
     5
 10
-616.0
 20
241.49999977639339
 30
0.0
 11
-616.0
 21
222.50000027624989
 31
0.0
  0
LINE
  5
BE
  8
DETAIL
  6
CONTINUOUS
 62
     5
 10
-616.0
 20
222.50000027624989
 30
0.0
 11
-610.00000015786065
 21
219.0000003683235
 31
0.0
  0
LINE
  5
BF
  8
DETAIL
  6
CONTINUOUS
 62
     5
 10
-613.99999910551367
 20
339.99999960538838
 30
0.0
 11
-613.99999910551367
 21
308.0000004472513
 31
0.0
  0
LINE
  5
C0
  8
DETAIL
  6
CONTINUOUS
 62
     5
 10
-688.98659047796707
 20
407.00000034201361
 30
0.0
 11
-685.98659055688745
 21
404.0000004209341
 31
0.0
  0
LINE
  5
C1
  8
DETAIL
  6
CONTINUOUS
 62
     5
 10
-688.98659047796707
 20
407.00000034201361
 30
0.0
 11
-688.98659047796707
 21
419.00000002631521
 31
0.0
  0
LINE
  5
C2
  8
DETAIL
  6
CONTINUOUS
 62
     5
 10
-619.00000102602462
 20
265.49999988162728
 30
0.0
 11
-616.00000110494307
 21
270.49999975009428
 31
0.0
  0
LINE
  5
C3
  8
DETAIL
  6
CONTINUOUS
 62
     5
 10
-616.00000110494307
 20
249.50000030256339
 30
0.0
 11
-616.00000110494307
 21
270.49999975009428
 31
0.0
  0
LINE
  5
C4
  8
DETAIL
  6
CONTINUOUS
 62
     5
 10
-619.00000102602462
 20
254.50000017101951
 30
0.0
 11
-616.00000110494307
 21
249.50000030256339
 31
0.0
  0
LINE
  5
C5
  8
DETAIL
  6
CONTINUOUS
 62
     5
 10
-619.00000102602462
 20
254.50000017101951
 30
0.0
 11
-619.00000102602462
 21
265.49999988162728
 31
0.0
  0
LINE
  5
C6
  8
DETAIL
  6
CONTINUOUS
 62
     5
 10
-548.00000084187377
 20
198.0000061824521
 30
0.0
 11
-548.00000084187377
 21
394.00000102603002
 31
0.0
  0
LINE
  5
C7
  8
DETAIL
  6
CONTINUOUS
 62
     5
 10
-590.00000068401266
 20
241.49999977639339
 30
0.0
 11
-588.00000073664705
 21
243.49999972377
 31
0.0
  0
LINE
  5
C8
  8
DETAIL
  6
CONTINUOUS
 62
     5
 10
-594.00000057878583
 20
242.99999973692499
 30
0.0
 11
-594.00000057878583
 21
221.00000031570909
 31
0.0
  0
ARC
  5
C9
  8
DETAIL
  6
CONTINUOUS
 62
     5
 10
-575.00000013153294
 20
171.0000068927711
 30
0.0
 40
4.9999998684587599
 50
180.0
 51
270.0
  0
ARC
  5
CA
  8
DETAIL
  6
CONTINUOUS
 62
     5
 10
-538.00000110493966
 20
198.0000061824521
 30
0.0
 40
9.9999997369175464
 50
180.0
 51
270.0
  0
LINE
  5
CB
  8
DETAIL
  6
CONTINUOUS
 62
     5
 10
-565.00000039462054
 20
150.60000742945701
 30
0.0
 11
-565.00000039462054
 21
139.00000002631711
 31
0.0
  0
LINE
  5
CC
  8
DETAIL
  6
CONTINUOUS
 62
     5
 10
-562.00000047353933
 20
153.6000073505364
 30
0.0
 11
-565.00000039462054
 21
150.60000742945701
 31
0.0
  0
LINE
  5
CD
  8
DETAIL
  6
CONTINUOUS
 62
     5
 10
-565.00000039462054
 20
150.60000742946781
 30
0.0
 11
-565.00000039462054
 21
139.00000002631711
 31
0.0
  0
LINE
  5
CE
  8
DETAIL
  6
CONTINUOUS
 62
     5
 10
-562.00000047353933
 20
153.6000073505364
 30
0.0
 11
-565.00000039462054
 21
150.60000742946781
 31
0.0
  0
LINE
  5
D0
  8
DETAIL
  6
CONTINUOUS
 62
     5
 10
-580.0
 20
220.50000032886399
 30
0.0
 11
-588.00000073664705
 21
220.50000032886399
 31
0.0
  0
LINE
  5
D1
  8
DETAIL
  6
CONTINUOUS
 62
     5
 10
-590.00000068401266
 20
241.49999977639339
 30
0.0
 11
-590.00000068401266
 21
222.50000027624989
 31
0.0
  0
LINE
  5
D2
  8
DETAIL
  6
CONTINUOUS
 62
     5
 10
-590.00000068401266
 20
222.50000027624989
 30
0.0
 11
-588.00000073664705
 21
220.50000032886399
 31
0.0
  0
LINE
  5
D3
  8
DETAIL
  6
CONTINUOUS
 62
     5
 10
-594.00000057878583
 20
239.94
 30
0.0
 11
-590.00000068401266
 21
239.94
 31
0.0
  0
LINE
  5
D4
  8
DETAIL
  6
CONTINUOUS
 62
     5
 10
-594.00000057878583
 20
224.06
 30
0.0
 11
-590.00000068401266
 21
224.06
 31
0.0
  0
LINE
  5
D5
  8
DETAIL
  6
CONTINUOUS
 62
     5
 10
-594.00000057878583
 20
221.00000031570909
 30
0.0
 11
-596.00000052617349
 21
219.0000003683235
 31
0.0
  0
ARC
  5
D6
  8
DETAIL
  6
CONTINUOUS
 62
     5
 10
-575.00000013153294
 20
421.00000031570897
 30
0.0
 40
4.9999998684587732
 50
90.0
 51
180.0
  0
ARC
  5
D7
  8
DETAIL
  6
CONTINUOUS
 62
     5
 10
-538.00000110493966
 20
394.00000102603002
 30
0.0
 40
9.9999997369175357
 50
90.0
 51
180.0
  0
LINE
  5
D8
  8
DETAIL
  6
CONTINUOUS
 62
     5
 10
-588.9999997632201
 20
340.1999996001777
 30
0.0
 11
-588.9999997632201
 21
307.80000045256372
 31
0.0
  0
LINE
  5
D9
  8
DETAIL
  6
CONTINUOUS
 62
     5
 10
-588.9999997632201
 20
307.80000045256372
 30
0.0
 11
-580.0
 21
307.64290487234382
 31
0.0
  0
LINE
  5
DA
  8
DETAIL
  6
CONTINUOUS
 62
     5
 10
-588.9999997632201
 20
340.1999996001777
 30
0.0
 11
-580.0
 21
340.35709518039567
 31
0.0
  0
LINE
  5
DB
  8
DETAIL
  6
CONTINUOUS
 62
     5
 10
-580.0
 20
419.00000002631521
 30
0.0
 11
-593.69999963957889
 21
419.00000002631521
 31
0.0
  0
LINE
  5
DC
  8
DETAIL
  6
CONTINUOUS
 62
     5
 10
-602.00000147325761
 20
264.75999999999999
 30
0.0
 11
-600.00000152587006
 21
264.75999999999999
 31
0.0
  0
LINE
  5
DD
  8
DETAIL
  6
CONTINUOUS
 62
     5
 10
-600.00000152587006
 20
268.49999980270678
 30
0.0
 11
-599.0000015521764
 21
269.49999977640061
 31
0.0
  0
LINE
  5
DE
  8
DETAIL
  6
CONTINUOUS
 62
     5
 10
-603.00000144694957
 20
270.49999975009428
 30
0.0
 11
-602.00000147325761
 21
269.49999977640061
 31
0.0
  0
LINE
  5
DF
  8
DETAIL
  6
CONTINUOUS
 62
     5
 10
-602.00000147325761
 20
250.500000276257
 30
0.0
 11
-602.00000147325761
 21
269.49999977640061
 31
0.0
  0
LINE
  5
E0
  8
DETAIL
  6
CONTINUOUS
 62
     5
 10
-600.00000152587006
 20
251.5000002499491
 30
0.0
 11
-600.00000152587006
 21
268.49999980270678
 31
0.0
  0
LINE
  5
E1
  8
DETAIL
  6
CONTINUOUS
 62
     5
 10
-602.00000147325761
 20
255.24000000000001
 30
0.0
 11
-600.00000152587006
 21
255.24000000000001
 31
0.0
  0
LINE
  5
E2
  8
DETAIL
  6
CONTINUOUS
 62
     5
 10
-600.00000152587006
 20
251.5000002499491
 30
0.0
 11
-599.0000015521764
 21
250.500000276257
 31
0.0
  0
LINE
  5
E3
  8
DETAIL
  6
CONTINUOUS
 62
     5
 10
-602.00000147325761
 20
250.500000276257
 30
0.0
 11
-603.00000144694957
 21
249.50000030256339
 31
0.0
  0
LINE
  5
E4
  8
DETAIL
  6
CONTINUOUS
 62
     5
 10
-599.0000015521764
 20
250.500000276257
 30
0.0
 11
-580.0
 21
250.500000276257
 31
0.0
  0
LINE
  5
E5
  8
DETAIL
  6
CONTINUOUS
 62
     5
 10
-599.0000015521764
 20
269.49999977640061
 30
0.0
 11
-580.0
 21
269.49999977640061
 31
0.0
  0
LINE
  5
E6
  8
DETAIL
  6
CONTINUOUS
 62
     5
 10
-580.0
 20
243.49999972377
 30
0.0
 11
-588.00000073664705
 21
243.49999972377
 31
0.0
  0
LINE
  5
E7
  8
DETAIL
  6
CONTINUOUS
 62
     5
 10
-594.00000057878583
 20
242.99999973692499
 30
0.0
 11
-596.00000052617349
 21
244.99999968431069
 31
0.0
  0
ARC
  5
E8
  8
DETAIL
  6
CONTINUOUS
 62
     5
 10
-591.69999969219305
 20
423.30000025520712
 30
0.0
 40
4.2999998868742768
 50
90.0
 51
180.0
  0
LINE
  5
E9
  8
DETAIL
  6
CONTINUOUS
 62
     5
 10
-595.99999957907482
 20
423.30000025520712
 30
0.0
 11
-595.99999957907482
 21
415.60000045777809
 31
0.0
  0
LINE
  5
EA
  8
DETAIL
  6
CONTINUOUS
 62
     5
 10
-580.0
 20
427.6000001420777
 30
0.0
 11
-591.69999969219305
 21
427.6000001420777
 31
0.0
  0
LINE
  5
EB
  8
DETAIL
  6
CONTINUOUS
 62
     5
 10
-580.0
 20
425.3000002025837
 30
0.0
 11
-591.69999969219305
 21
425.3000002025837
 31
0.0
  0
ARC
  5
EC
  8
DETAIL
  6
CONTINUOUS
 62
     5
 10
-591.69999969219305
 20
423.30000025520712
 30
0.0
 40
1.9999999473835079
 50
90.0
 51
180.0
  0
LINE
  5
ED
  8
DETAIL
  6
CONTINUOUS
 62
     5
 10
-593.69999963957889
 20
423.30000025520712
 30
0.0
 11
-593.69999963957889
 21
415.60000045777809
 31
0.0
  0
LINE
  5
EE
  8
DETAIL
  6
CONTINUOUS
 62
     5
 10
-593.69999963957889
 20
415.60000045777809
 30
0.0
 11
-595.99999957907482
 21
415.60000045777809
 31
0.0
  0
ARC
  5
EF
  8
DETAIL
  6
CONTINUOUS
 62
     5
 10
-591.69999969219305
 20
423.30000025520712
 30
0.0
 40
4.2999998868756331
 50
90.0
 51
180.0
  0
LINE
  5
F0
  8
DETAIL
  6
CONTINUOUS
 62
     5
 10
-595.99999957907482
 20
423.30000025520712
 30
0.0
 11
-595.99999957907482
 21
415.60000045777809
 31
0.0
  0
ARC
  5
F1
  8
DETAIL
  6
CONTINUOUS
 62
     5
 10
-591.69999969219305
 20
423.30000025520712
 30
0.0
 40
1.9999999473835079
 50
90.0
 51
180.0
  0
LINE
  5
F2
  8
DETAIL
  6
CONTINUOUS
 62
     5
 10
-593.69999963957889
 20
423.30000025520712
 30
0.0
 11
-593.69999963957889
 21
415.60000045777809
 31
0.0
  0
LINE
  5
F3
  8
DETAIL
  6
CONTINUOUS
 62
     5
 10
-593.69999963957889
 20
415.60000045777809
 30
0.0
 11
-595.99999957907482
 21
415.60000045777809
 31
0.0
  0
LINE
  5
F4
  8
DETAIL
  6
CONTINUOUS
 62
     5
 10
-580.0
 20
427.6000001420777
 30
0.0
 11
-591.69999969219305
 21
427.6000001420777
 31
0.0
  0
LINE
  5
F5
  8
DETAIL
  6
CONTINUOUS
 62
     5
 10
-580.0
 20
425.3000002025928
 30
0.0
 11
-591.69999969219305
 21
425.3000002025928
 31
0.0
  0
LINE
  5
F6
  8
DETAIL
  6
CONTINUOUS
 62
     5
 10
-580.0
 20
139.00000002631711
 30
0.0
 11
-580.0
 21
432.00000002631708
 31
0.0
  0
LINE
  5
F7
  8
DETAIL
  6
CONTINUOUS
 62
     5
 10
-577.00000007892015
 20
399.60000087871413
 30
0.0
 11
-546.28492695785985
 21
399.60000087871413
 31
0.0
  0
LINE
  5
F8
  8
DETAIL
  6
CONTINUOUS
 62
     5
 10
-580.0
 20
402.60000079978272
 30
0.0
 11
-577.00000007892015
 21
399.60000087871413
 31
0.0
  0
LINE
  5
F9
  8
DETAIL
  6
CONTINUOUS
 62
     5
 10
548.00000084187434
 20
198.0000061824521
 30
0.0
 11
548.00000084187434
 21
394.00000102603002
 31
0.0
  0
ARC
  5
FA
  8
DETAIL
  6
CONTINUOUS
 62
     5
 10
575.00000013155352
 20
171.0000068927711
 30
0.0
 40
4.9999998684587599
 50
270.0
 51
0.0
  0
ARC
  5
FB
  8
DETAIL
  6
CONTINUOUS
 62
     5
 10
538.00000110496012
 20
198.0000061824521
 30
0.0
 40
9.9999997369175464
 50
270.0
 51
0.0
  0
LINE
  5
FC
  8
DETAIL
  6
CONTINUOUS
 62
     5
 10
565.00000039462122
 20
150.60000742945701
 30
0.0
 11
565.00000039462122
 21
139.00000002631711
 31
0.0
  0
LINE
  5
FD
  8
DETAIL
  6
CONTINUOUS
 62
     5
 10
565.00000039462122
 20
150.60000742945701
 30
0.0
 11
562.00000047355991
 21
153.6000073505364
 31
0.0
  0
LINE
  5
FE
  8
DETAIL
  6
CONTINUOUS
 62
     5
 10
565.00000039462122
 20
150.60000742946781
 30
0.0
 11
565.00000039462122
 21
139.00000002631711
 31
0.0
  0
LINE
  5
FF
  8
DETAIL
  6
CONTINUOUS
 62
     5
 10
565.00000039462122
 20
150.60000742946781
 30
0.0
 11
562.00000047355991
 21
153.6000073505364
 31
0.0
  0
ARC
  5
101
  8
DETAIL
  6
CONTINUOUS
 62
     5
 10
575.00000013155352
 20
421.00000031570897
 30
0.0
 40
4.9999998684588061
 50
0.0
 51
90.0
  0
ARC
  5
102
  8
DETAIL
  6
CONTINUOUS
 62
     5
 10
538.00000110496012
 20
394.00000102603002
 30
0.0
 40
9.9999997369174434
 50
0.0
 51
90.0
  0
LINE
  5
103
  8
DETAIL
  6
CONTINUOUS
 62
     5
 10
580.00000000000057
 20
432.00000002631708
 30
0.0
 11
580.00000000000057
 21
139.00000002631711
 31
0.0
  0
LINE
  5
104
  8
DETAIL
  6
CONTINUOUS
 62
     5
 10
546.28492695788043
 20
399.60000087871413
 30
0.0
 11
577.00000007892095
 21
399.60000087871413
 31
0.0
  0
LINE
  5
105
  8
DETAIL
  6
CONTINUOUS
 62
     5
 10
577.00000007892095
 20
399.60000087871413
 30
0.0
 11
580.00000000000057
 21
402.60000079978272
 31
0.0
  0
LINE
  5
106
  8
SIZE
  6
CONTINUOUS
 62
    30
 10
580.00000000000057
 20
442.0000000263156
 30
0.0
 11
580.00000000000057
 21
951.06032442660035
 31
0.0
  0
LINE
  5
107
  8
SIZE
  6
CONTINUOUS
 62
    30
 10
-580.0
 20
442.00000002631703
 30
0.0
 11
-580.0
 21
951.06032442660035
 31
0.0
  0
LINE
  5
108
  8
SIZE
  6
CONTINUOUS
 62
    30
 10
580.00000000000057
 20
931.06032442660035
 30
0.0
 11
-580.0
 21
931.06032442660035
 31
0.0
  0
CIRCLE
  5
109
  8
SIZE
  6
CONTINUOUS
 62
    30
 10
580.00000000000057
 20
931.06032442660035
 30
0.0
 40
7.5
  0
CIRCLE
  5
10A
  8
SIZE
  6
CONTINUOUS
 62
    30
 10
-580.0
 20
931.06032442660035
 30
0.0
 40
7.5
  0
TEXT
  5
10B
  8
SIZE
  6
CONTINUOUS
 62
    30
 10
-70.714285714285396
 20
946.06032442660035
 30
0.0
 40
50.0
  1
1160
 41
0.9
 72
     1
 11
0.0000000000002842
 21
946.06032442660035
 31
0.0
  0
POINT
  5
10C
  8
DEFPOINTS
  6
CONTINUOUS
 62
     7
 10
580.00000000000057
 20
432.0000000263156
 30
0.0
  0
POINT
  5
10D
  8
DEFPOINTS
  6
CONTINUOUS
 62
     7
 10
-580.0
 20
432.00000002631708
 30
0.0
  0
POINT
  5
10E
  8
DEFPOINTS
  6
CONTINUOUS
 62
     7
 10
-580.0
 20
931.06032442660035
 30
0.0
  0
LINE
  5
10F
  8
SIZE
  6
CONTINUOUS
 62
    30
 10
-580.0
 20
442.00000002631703
 30
0.0
 11
-580.0
 21
951.06032442660035
 31
0.0
  0
LINE
  5
110
  8
SIZE
  6
CONTINUOUS
 62
    30
 10
-595.99999957907482
 20
433.30000025520712
 30
0.0
 11
-595.99999957907482
 21
951.06032442660035
 31
0.0
  0
LINE
  5
111
  8
SIZE
  6
CONTINUOUS
 62
    30
 10
-580.0
 20
931.06032442660035
 30
0.0
 11
-550.0
 21
931.06032442660035
 31
0.0
  0
LINE
  5
112
  8
SIZE
  6
CONTINUOUS
 62
    30
 10
-595.99999957907482
 20
931.06032442660035
 30
0.0
 11
-748.14285672193205
 21
931.06032442660035
 31
0.0
  0
LINE
  5
113
  8
SIZE
  6
CONTINUOUS
 62
    30
 10
-580.0
 20
931.06032442660035
 30
0.0
 11
-595.99999957907482
 21
931.06032442660035
 31
0.0
  0
CIRCLE
  5
114
  8
SIZE
  6
CONTINUOUS
 62
    30
 10
-580.0
 20
931.06032442660035
 30
0.0
 40
7.5
  0
CIRCLE
  5
115
  8
SIZE
  6
CONTINUOUS
 62
    30
 10
-595.99999957907482
 20
931.06032442660035
 30
0.0
 40
7.5
  0
TEXT
  5
116
  8
SIZE
  6
CONTINUOUS
 62
    30
 10
-733.14285672193205
 20
946.06032442660035
 30
0.0
 40
50.0
  1
16
 41
0.9
 72
     1
 11
-702.07142815050349
 21
946.06032442660035
 31
0.0
  0
POINT
  5
117
  8
DEFPOINTS
  6
CONTINUOUS
 62
     7
 10
-580.0
 20
432.00000002631708
 30
0.0
  0
POINT
  5
118
  8
DEFPOINTS
  6
CONTINUOUS
 62
     7
 10
-595.99999957907482
 20
423.30000025520712
 30
0.0
  0
POINT
  5
119
  8
DEFPOINTS
  6
CONTINUOUS
 62
     7
 10
-595.99999957907482
 20
931.06032442660035
 30
0.0
  0
ARC
  5
11A
  8
DETAIL
  6
CONTINUOUS
 62
     5
 10
591.6999996921918
 20
423.30000025520712
 30
0.0
 40
4.2999998868742768
 50
0.000000000000007
 51
90.0
  0
LINE
  5
11B
  8
DETAIL
  6
CONTINUOUS
 62
     5
 10
595.99999957907357
 20
423.30000025520712
 30
0.0
 11
595.99999957907357
 21
415.60000045777809
 31
0.0
  0
LINE
  5
11C
  8
DETAIL
  6
CONTINUOUS
 62
     5
 10
579.99999999999875
 20
427.6000001420777
 30
0.0
 11
591.6999996921918
 21
427.6000001420777
 31
0.0
  0
LINE
  5
11D
  8
DETAIL
  6
CONTINUOUS
 62
     5
 10
579.99999999999875
 20
425.3000002025837
 30
0.0
 11
591.6999996921918
 21
425.3000002025837
 31
0.0
  0
ARC
  5
11E
  8
DETAIL
  6
CONTINUOUS
 62
     5
 10
591.6999996921918
 20
423.30000025520712
 30
0.0
 40
1.9999999473835079
 50
0.000000000000007
 51
90.0
  0
LINE
  5
11F
  8
DETAIL
  6
CONTINUOUS
 62
     5
 10
593.69999963957764
 20
423.30000025520712
 30
0.0
 11
593.69999963957764
 21
415.60000045777809
 31
0.0
  0
LINE
  5
120
  8
DETAIL
  6
CONTINUOUS
 62
     5
 10
593.69999963957764
 20
415.60000045777809
 30
0.0
 11
595.99999957907357
 21
415.60000045777809
 31
0.0
  0
ARC
  5
121
  8
DETAIL
  6
CONTINUOUS
 62
     5
 10
591.6999996921918
 20
423.30000025520712
 30
0.0
 40
4.2999998868756331
 50
0.000000000000007
 51
90.0
  0
LINE
  5
122
  8
DETAIL
  6
CONTINUOUS
 62
     5
 10
595.99999957907357
 20
423.30000025520712
 30
0.0
 11
595.99999957907357
 21
415.60000045777809
 31
0.0
  0
ARC
  5
123
  8
DETAIL
  6
CONTINUOUS
 62
     5
 10
591.6999996921918
 20
423.30000025520712
 30
0.0
 40
1.9999999473835079
 50
0.000000000000007
 51
90.0
  0
LINE
  5
124
  8
DETAIL
  6
CONTINUOUS
 62
     5
 10
593.69999963957764
 20
423.30000025520712
 30
0.0
 11
593.69999963957764
 21
415.60000045777809
 31
0.0
  0
LINE
  5
125
  8
DETAIL
  6
CONTINUOUS
 62
     5
 10
593.69999963957764
 20
415.60000045777809
 30
0.0
 11
595.99999957907357
 21
415.60000045777809
 31
0.0
  0
LINE
  5
126
  8
DETAIL
  6
CONTINUOUS
 62
     5
 10
579.99999999999875
 20
427.6000001420777
 30
0.0
 11
591.6999996921918
 21
427.6000001420777
 31
0.0
  0
LINE
  5
127
  8
DETAIL
  6
CONTINUOUS
 62
     5
 10
579.99999999999875
 20
425.3000002025928
 30
0.0
 11
591.6999996921918
 21
425.3000002025928
 31
0.0
  0
LINE
  5
128
  8
SIZE
  6
CONTINUOUS
 62
    30
 10
580.00000000000057
 20
442.00000002631703
 30
0.0
 11
580.00000000000057
 21
951.06032442660035
 31
0.0
  0
LINE
  5
129
  8
SIZE
  6
CONTINUOUS
 62
    30
 10
595.99999957906618
 20
433.30000025520712
 30
0.0
 11
595.99999957906618
 21
951.06032442660035
 31
0.0
  0
LINE
  5
12A
  8
SIZE
  6
CONTINUOUS
 62
    30
 10
580.00000000000057
 20
931.06032442660035
 30
0.0
 11
550.00000000000057
 21
931.06032442660035
 31
0.0
  0
LINE
  5
12B
  8
SIZE
  6
CONTINUOUS
 62
    30
 10
595.99999957906618
 20
931.06032442660035
 30
0.0
 11
748.14285672192352
 21
931.06032442660035
 31
0.0
  0
LINE
  5
12C
  8
SIZE
  6
CONTINUOUS
 62
    30
 10
580.00000000000057
 20
931.06032442660035
 30
0.0
 11
595.99999957906618
 21
931.06032442660035
 31
0.0
  0
CIRCLE
  5
12D
  8
SIZE
  6
CONTINUOUS
 62
    30
 10
580.00000000000057
 20
931.06032442660035
 30
0.0
 40
7.5
  0
CIRCLE
  5
12E
  8
SIZE
  6
CONTINUOUS
 62
    30
 10
595.99999957906618
 20
931.06032442660035
 30
0.0
 40
7.5
  0
TEXT
  5
12F
  8
SIZE
  6
CONTINUOUS
 62
    30
 10
670.9999995790663
 20
946.06032442660035
 30
0.0
 40
50.0
  1
16
 41
0.9
 72
     1
 11
702.07142815049485
 21
946.06032442660035
 31
0.0
  0
POINT
  5
130
  8
DEFPOINTS
  6
CONTINUOUS
 62
     7
 10
580.00000000000057
 20
432.00000002631708
 30
0.0
  0
POINT
  5
131
  8
DEFPOINTS
  6
CONTINUOUS
 62
     7
 10
595.99999957906618
 20
423.30000025520712
 30
0.0
  0
POINT
  5
132
  8
DEFPOINTS
  6
CONTINUOUS
 62
     7
 10
595.99999957906618
 20
931.06032442660035
 30
0.0
  0
LINE
  5
133
  8
SIZE
  6
CONTINUOUS
 62
    30
 10
595.99999957906618
 20
433.30000025520712
 30
0.0
 11
595.99999957906618
 21
1119.9592900612661
 31
0.0
  0
LINE
  5
134
  8
SIZE
  6
CONTINUOUS
 62
    30
 10
-595.99999957906743
 20
433.30000025520712
 30
0.0
 11
-595.99999957906743
 21
1119.9592900612661
 31
0.0
  0
LINE
  5
135
  8
SIZE
  6
CONTINUOUS
 62
    30
 10
595.99999957906618
 20
1099.9592900612679
 30
0.0
 11
-595.99999957906743
 21
1099.9592900612679
 31
0.0
  0
CIRCLE
  5
136
  8
SIZE
  6
CONTINUOUS
 62
    30
 10
595.99999957906618
 20
1099.9592900612679
 30
0.0
 40
7.5
  0
CIRCLE
  5
137
  8
SIZE
  6
CONTINUOUS
 62
    30
 10
-595.99999957906743
 20
1099.9592900612679
 30
0.0
 40
7.5
  0
TEXT
  5
138
  8
SIZE
  6
CONTINUOUS
 62
    30
 10
-70.714285714286319
 20
1114.9592900612679
 30
0.0
 40
50.0
  1
1192
 41
0.9
 72
     1
 11
-0.0000000000006253
 21
1114.9592900612679
 31
0.0
  0
POINT
  5
139
  8
DEFPOINTS
  6
CONTINUOUS
 62
     7
 10
595.99999957906618
 20
423.30000025520712
 30
0.0
  0
POINT
  5
13A
  8
DEFPOINTS
  6
CONTINUOUS
 62
     7
 10
-595.99999957906743
 20
423.30000025520712
 30
0.0
  0
POINT
  5
13B
  8
DEFPOINTS
  6
CONTINUOUS
 62
     7
 10
-595.99999957906743
 20
1099.9592900612679
 30
0.0
  0
LINE
  5
13C
  8
NOTE
  6
CONTINUOUS
 62
     4
 10
-613.99999910551367
 20
302.39501806838229
 30
0.0
 11
-613.99999910551367
 21
345.60498198425
 31
0.0
  0
LINE
  5
13D
  8
NOTE
  6
CONTINUOUS
 62
     4
 10
-592.39501714758808
 20
324.00000002631521
 30
0.0
 11
-635.60498106345585
 21
324.00000002631521
 31
0.0
  0
LINE
  5
13E
  8
NOTE
  6
CONTINUOUS
 62
     4
 10
-619.00000102602462
 20
238.3950180683841
 30
0.0
 11
-619.00000102602462
 21
281.60498198425182
 31
0.0
  0
LINE
  5
13F
  8
NOTE
  6
CONTINUOUS
 62
     4
 10
-597.39501906809892
 20
260.00000002631703
 30
0.0
 11
-640.60498298396647
 21
260.00000002631703
 31
0.0
  0
LINE
  5
140
  8
NOTE
  6
CONTINUOUS
 62
     4
 10
-616.0
 20
210.39501806838399
 30
0.0
 11
-616.0
 21
253.60498198425171
 31
0.0
  0
LINE
  5
141
  8
NOTE
  6
CONTINUOUS
 62
     4
 10
-594.3950180420743
 20
232.00000002631711
 30
0.0
 11
-637.60498195794207
 21
232.00000002631711
 31
0.0
  0
LINE
  5
142
  8
SIZE
  6
CONTINUOUS
 62
    30
 10
479.9999968430044
 20
296.00000360424048
 30
0.0
 11
767.91415780734349
 21
296.00000360424048
 31
0.0
  0
LINE
  5
143
  8
SIZE
  6
CONTINUOUS
 62
    30
 10
590.00000000000045
 20
432.00000002631708
 30
0.0
 11
767.91415780734349
 21
432.00000002631708
 31
0.0
  0
LINE
  5
144
  8
SIZE
  6
CONTINUOUS
 62
    30
 10
747.9141578073436
 20
296.00000360424048
 30
0.0
 11
747.9141578073436
 21
432.00000002631708
 31
0.0
  0
CIRCLE
  5
145
  8
SIZE
  6
CONTINUOUS
 62
    30
 10
747.9141578073436
 20
296.00000360424048
 30
0.0
 40
7.5
  0
CIRCLE
  5
146
  8
SIZE
  6
CONTINUOUS
 62
    30
 10
747.9141578073436
 20
432.00000002631708
 30
0.0
 40
7.5
  0
TEXT
  5
147
  8
SIZE
  6
CONTINUOUS
 62
    30
 10
732.9141578073436
 20
311.50000181528412
 30
0.0
 40
50.0
  1
136
 50
90.0
 41
0.9
 72
     1
 11
732.9141578073436
 21
364.00000181528412
 31
0.0
  0
POINT
  5
148
  8
DEFPOINTS
  6
CONTINUOUS
 62
     7
 10
469.99999684300411
 20
296.00000360424048
 30
0.0
  0
POINT
  5
149
  8
DEFPOINTS
  6
CONTINUOUS
 62
     7
 10
580.00000000000057
 20
432.00000002631708
 30
0.0
  0
POINT
  5
14A
  8
DEFPOINTS
  6
CONTINUOUS
 62
     7
 10
747.9141578073436
 20
432.00000002631708
 30
0.0
  0
LINE
  5
14B
  8
SIZE
  6
CONTINUOUS
 62
    30
 10
580.00000000000057
 20
442.00000002631703
 30
0.0
 11
580.00000000000057
 21
537.61609246734042
 31
0.0
  0
LINE
  5
14C
  8
SIZE
  6
CONTINUOUS
 62
    30
 10
350.00000000000051
 20
426.00000044725351
 30
0.0
 11
350.00000000000051
 21
537.61609246734042
 31
0.0
  0
LINE
  5
14D
  8
SIZE
  6
CONTINUOUS
 62
    30
 10
580.00000000000057
 20
517.61609246734031
 30
0.0
 11
350.00000000000051
 21
517.61609246734031
 31
0.0
  0
CIRCLE
  5
14E
  8
SIZE
  6
CONTINUOUS
 62
    30
 10
580.00000000000057
 20
517.61609246734031
 30
0.0
 40
7.5
  0
CIRCLE
  5
14F
  8
SIZE
  6
CONTINUOUS
 62
    30
 10
350.00000000000051
 20
517.61609246734031
 30
0.0
 40
7.5
  0
TEXT
  5
150
  8
SIZE
  6
CONTINUOUS
 62
    30
 10
407.14285714285751
 20
532.61609246734042
 30
0.0
 40
50.0
  1
230
 41
0.9
 72
     1
 11
465.00000000000028
 21
532.61609246734042
 31
0.0
  0
POINT
  5
151
  8
DEFPOINTS
  6
CONTINUOUS
 62
     7
 10
580.00000000000057
 20
432.00000002631708
 30
0.0
  0
POINT
  5
152
  8
DEFPOINTS
  6
CONTINUOUS
 62
     7
 10
350.00000000000051
 20
416.00000044725351
 30
0.0
  0
POINT
  5
153
  8
DEFPOINTS
  6
CONTINUOUS
 62
     7
 10
350.00000000000051
 20
517.61609246734031
 30
0.0
  0
LINE
  5
154
  8
SIZE
  6
CONTINUOUS
 62
    30
 10
350.00000000000051
 20
426.00000044725351
 30
0.0
 11
350.00000000000051
 21
537.61609246734042
 31
0.0
  0
LINE
  5
155
  8
SIZE
  6
CONTINUOUS
 62
    30
 10
30.000000000000551
 20
426.00000044725351
 30
0.0
 11
30.000000000000568
 21
537.61609246734042
 31
0.0
  0
LINE
  5
156
  8
SIZE
  6
CONTINUOUS
 62
    30
 10
350.00000000000051
 20
517.61609246734031
 30
0.0
 11
30.000000000000568
 21
517.61609246734031
 31
0.0
  0
CIRCLE
  5
157
  8
SIZE
  6
CONTINUOUS
 62
    30
 10
350.00000000000051
 20
517.61609246734031
 30
0.0
 40
7.5
  0
CIRCLE
  5
158
  8
SIZE
  6
CONTINUOUS
 62
    30
 10
30.000000000000568
 20
517.61609246734031
 30
0.0
 40
7.5
  0
TEXT
  5
159
  8
SIZE
  6
CONTINUOUS
 62
    30
 10
132.14285714285751
 20
532.61609246734042
 30
0.0
 40
50.0
  1
320
 41
0.9
 72
     1
 11
190.0000000000004
 21
532.61609246734042
 31
0.0
  0
POINT
  5
15A
  8
DEFPOINTS
  6
CONTINUOUS
 62
     7
 10
350.00000000000051
 20
416.00000044725351
 30
0.0
  0
POINT
  5
15B
  8
DEFPOINTS
  6
CONTINUOUS
 62
     7
 10
30.000000000000551
 20
416.00000044725351
 30
0.0
  0
POINT
  5
15C
  8
DEFPOINTS
  6
CONTINUOUS
 62
     7
 10
30.000000000000568
 20
517.61609246734031
 30
0.0
  0
LINE
  5
15D
  8
NOTE
  6
CONTINUOUS
 62
     4
 10
-573.00003093848682
 20
405.9950181841449
 30
0.0
 11
-573.00003093848682
 21
449.20498210001278
 31
0.0
  0
LINE
  5
15E
  8
NOTE
  6
CONTINUOUS
 62
     4
 10
-551.39504898056111
 20
427.6000001420777
 30
0.0
 11
-594.60501289642866
 21
427.6000001420777
 31
0.0
  0
LINE
  5
15F
  8
NOTE
  6
CONTINUOUS
 62
     4
 10
572.99999957908244
 20
405.9950181841449
 30
0.0
 11
572.99999957908244
 21
449.20498210001278
 31
0.0
  0
LINE
  5
160
  8
NOTE
  6
CONTINUOUS
 62
     4
 10
594.60498153700814
 20
427.6000001420777
 30
0.0
 11
551.39501762114071
 21
427.6000001420777
 31
0.0
  0
CIRCLE
  5
161
  8
FIX
  6
CONTINUOUS
 62
    11
 10
572.99999957908244
 20
427.6000001420777
 30
0.0
 40
15.469521245178219
  0
CIRCLE
  5
162
  8
FIX
  6
CONTINUOUS
 62
    11
 10
-573.00003093847761
 20
427.6000001420777
 30
0.0
 40
15.469521245178219
  0
LINE
  5
163
  8
SIZE
  6
CONTINUOUS
 62
    30
 10
572.99999957908244
 20
459.2049821000125
 30
0.0
 11
572.99999957908244
 21
1036.8389297182259
 31
0.0
  0
LINE
  5
164
  8
SIZE
  6
CONTINUOUS
 62
    30
 10
595.99999957907357
 20
433.30000025520712
 30
0.0
 11
595.99999957907357
 21
1036.8389297182259
 31
0.0
  0
LINE
  5
165
  8
SIZE
  6
CONTINUOUS
 62
    30
 10
572.99999957908244
 20
1016.838929718226
 30
0.0
 11
542.99999957908278
 21
1016.838929718226
 31
0.0
  0
LINE
  5
166
  8
SIZE
  6
CONTINUOUS
 62
    30
 10
595.99999957907357
 20
1016.838929718226
 30
0.0
 11
758.85714243621635
 21
1016.838929718226
 31
0.0
  0
LINE
  5
167
  8
SIZE
  6
CONTINUOUS
 62
    30
 10
572.99999957908244
 20
1016.838929718226
 30
0.0
 11
595.99999957907357
 21
1016.838929718226
 31
0.0
  0
CIRCLE
  5
168
  8
SIZE
  6
CONTINUOUS
 62
    30
 10
572.99999957908244
 20
1016.838929718226
 30
0.0
 40
7.5
  0
CIRCLE
  5
169
  8
SIZE
  6
CONTINUOUS
 62
    30
 10
595.99999957907357
 20
1016.838929718226
 30
0.0
 40
7.5
  0
TEXT
  5
16A
  8
SIZE
  6
CONTINUOUS
 62
    30
 10
670.99999957907357
 20
1031.8389297182259
 30
0.0
 40
50.0
  1
23
 41
0.9
 72
     1
 11
707.42857100764513
 21
1031.8389297182259
 31
0.0
  0
POINT
  5
16B
  8
DEFPOINTS
  6
CONTINUOUS
 62
     7
 10
572.99999957908244
 20
449.20498210001278
 30
0.0
  0
POINT
  5
16C
  8
DEFPOINTS
  6
CONTINUOUS
 62
     7
 10
595.99999957907357
 20
423.30000025520712
 30
0.0
  0
POINT
  5
16D
  8
DEFPOINTS
  6
CONTINUOUS
 62
     7
 10
595.99999957907357
 20
1016.838929718226
 30
0.0
  0
LINE
  5
16E
  8
SIZE
  6
CONTINUOUS
 62
    30
 10
572.99999957908244
 20
459.2049821000125
 30
0.0
 11
572.99999957908244
 21
1036.8389297182259
 31
0.0
  0
LINE
  5
16F
  8
SIZE
  6
CONTINUOUS
 62
    30
 10
-573.00003093848682
 20
459.2049821000125
 30
0.0
 11
-573.00003093848682
 21
1036.8389297182259
 31
0.0
  0
LINE
  5
170
  8
SIZE
  6
CONTINUOUS
 62
    30
 10
572.99999957908244
 20
1016.838929718226
 30
0.0
 11
-573.00003093848682
 21
1016.838929718226
 31
0.0
  0
CIRCLE
  5
171
  8
SIZE
  6
CONTINUOUS
 62
    30
 10
572.99999957908244
 20
1016.838929718226
 30
0.0
 40
7.5
  0
CIRCLE
  5
172
  8
SIZE
  6
CONTINUOUS
 62
    30
 10
-573.00003093848682
 20
1016.838929718226
 30
0.0
 40
7.5
  0
TEXT
  5
173
  8
SIZE
  6
CONTINUOUS
 62
    30
 10
-329.1428728225593
 20
1031.8389297182259
 30
0.0
 40
50.0
  1
1146（吊りボルトピッチ）
 41
0.9
 72
     1
 11
-0.0000156797022441
 21
1031.8389297182259
 31
0.0
  0
POINT
  5
174
  8
DEFPOINTS
  6
CONTINUOUS
 62
     7
 10
572.99999957908244
 20
449.20498210001278
 30
0.0
  0
POINT
  5
175
  8
DEFPOINTS
  6
CONTINUOUS
 62
     7
 10
-573.00003093848682
 20
449.20498210001278
 30
0.0
  0
POINT
  5
176
  8
DEFPOINTS
  6
CONTINUOUS
 62
     7
 10
-573.00003093848682
 20
1016.838929718226
 30
0.0
  0
LINE
  5
177
  8
SIZE
  6
CONTINUOUS
 62
    30
 10
-573.00003093848682
 20
459.2049821000125
 30
0.0
 11
-573.00003093848682
 21
1036.8389297182259
 31
0.0
  0
LINE
  5
178
  8
SIZE
  6
CONTINUOUS
 62
    30
 10
-595.99999957907482
 20
433.30000025520712
 30
0.0
 11
-595.99999957907482
 21
1036.8389297182259
 31
0.0
  0
LINE
  5
179
  8
SIZE
  6
CONTINUOUS
 62
    30
 10
-573.00003093848682
 20
1016.838929718226
 30
0.0
 11
-543.00003093848682
 21
1016.838929718226
 31
0.0
  0
LINE
  5
17A
  8
SIZE
  6
CONTINUOUS
 62
    30
 10
-595.99999957907482
 20
1016.838929718226
 30
0.0
 11
-758.85714243621783
 21
1016.838929718226
 31
0.0
  0
LINE
  5
17B
  8
SIZE
  6
CONTINUOUS
 62
    30
 10
-573.00003093848682
 20
1016.838929718226
 30
0.0
 11
-595.99999957907482
 21
1016.838929718226
 31
0.0
  0
CIRCLE
  5
17C
  8
SIZE
  6
CONTINUOUS
 62
    30
 10
-573.00003093848682
 20
1016.838929718226
 30
0.0
 40
7.5
  0
CIRCLE
  5
17D
  8
SIZE
  6
CONTINUOUS
 62
    30
 10
-595.99999957907482
 20
1016.838929718226
 30
0.0
 40
7.5
  0
TEXT
  5
17E
  8
SIZE
  6
CONTINUOUS
 62
    30
 10
-743.85714243621783
 20
1031.8389297182259
 30
0.0
 40
50.0
  1
23
 41
0.9
 72
     1
 11
-707.42857100764638
 21
1031.8389297182259
 31
0.0
  0
POINT
  5
17F
  8
DEFPOINTS
  6
CONTINUOUS
 62
     7
 10
-573.00003093848682
 20
449.20498210001278
 30
0.0
  0
POINT
  5
180
  8
DEFPOINTS
  6
CONTINUOUS
 62
     7
 10
-595.99999957907482
 20
423.30000025520712
 30
0.0
  0
POINT
  5
181
  8
DEFPOINTS
  6
CONTINUOUS
 62
     7
 10
-595.99999957907482
 20
1016.838929718226
 30
0.0
  0
LINE
  5
182
  8
SIZE
  6
CONTINUOUS
 62
    30
 10
-580.0
 20
442.00000002631703
 30
0.0
 11
-580.0
 21
507.2158771271624
 31
0.0
  0
LINE
  5
183
  8
SIZE
  6
CONTINUOUS
 62
    30
 10
-613.99999910551367
 20
355.60498198425
 30
0.0
 11
-613.99999910551367
 21
507.2158771271624
 31
0.0
  0
LINE
  5
184
  8
SIZE
  6
CONTINUOUS
 62
    30
 10
-613.99999910551367
 20
487.2158771271624
 30
0.0
 11
-580.0
 21
487.2158771271624
 31
0.0
  0
LINE
  5
185
  8
SIZE
  6
CONTINUOUS
 62
    30
 10
-580.0
 20
487.2158771271624
 30
0.0
 11
-389.28571428571399
 21
487.2158771271624
 31
0.0
  0
CIRCLE
  5
186
  8
SIZE
  6
CONTINUOUS
 62
    30
 10
-613.99999910551367
 20
487.2158771271624
 30
0.0
 40
7.5
  0
CIRCLE
  5
187
  8
SIZE
  6
CONTINUOUS
 62
    30
 10
-580.0
 20
487.2158771271624
 30
0.0
 40
7.5
  0
TEXT
  5
188
  8
SIZE
  6
CONTINUOUS
 62
    30
 10
-534.99999999999966
 20
515.31111522240053
 30
0.0
 40
50.0
  1
(34)
 41
0.9
 72
     1
 11
-469.64285714285683
 21
515.31111522240053
 31
0.0
  0
POINT
  5
189
  8
DEFPOINTS
  6
CONTINUOUS
 62
     7
 10
-580.0
 20
432.00000002631708
 30
0.0
  0
POINT
  5
18A
  8
DEFPOINTS
  6
CONTINUOUS
 62
     7
 10
-613.99999910551367
 20
345.60498198425
 30
0.0
  0
POINT
  5
18B
  8
DEFPOINTS
  6
CONTINUOUS
 62
     7
 10
-613.99999910551367
 20
487.2158771271624
 30
0.0
  0
LINE
  5
18C
  8
SIZE
  6
CONTINUOUS
 62
    30
 10
590.00000000000045
 20
432.00000002631708
 30
0.0
 11
998.48131780023186
 21
432.00000002631691
 31
0.0
  0
LINE
  5
18D
  8
SIZE
  6
CONTINUOUS
 62
    30
 10
590.00000000000045
 20
139.00000002631711
 30
0.0
 11
998.48131780023186
 21
139.000000026317
 31
0.0
  0
LINE
  5
18E
  8
SIZE
  6
CONTINUOUS
 62
    30
 10
978.48131780023198
 20
432.00000002631691
 30
0.0
 11
978.48131780023198
 21
139.000000026317
 31
0.0
  0
CIRCLE
  5
18F
  8
SIZE
  6
CONTINUOUS
 62
    30
 10
978.48131780023198
 20
432.00000002631691
 30
0.0
 40
7.5
  0
CIRCLE
  5
190
  8
SIZE
  6
CONTINUOUS
 62
    30
 10
978.48131780023198
 20
139.000000026317
 30
0.0
 40
7.5
  0
TEXT
  5
191
  8
SIZE
  6
CONTINUOUS
 62
    30
 10
963.48131780023186
 20
227.64285716917439
 30
0.0
 40
50.0
  1
293
 50
90.0
 41
0.9
 72
     1
 11
963.48131780023186
 21
285.5000000263172
 31
0.0
  0
POINT
  5
192
  8
DEFPOINTS
  6
CONTINUOUS
 62
     7
 10
580.00000000000057
 20
432.00000002631708
 30
0.0
  0
POINT
  5
193
  8
DEFPOINTS
  6
CONTINUOUS
 62
     7
 10
580.00000000000057
 20
139.00000002631711
 30
0.0
  0
POINT
  5
194
  8
DEFPOINTS
  6
CONTINUOUS
 62
     7
 10
978.48131780023198
 20
139.000000026317
 30
0.0
  0
LINE
  5
195
  8
SIZE
  6
CONTINUOUS
 62
    30
 10
611.99999771120406
 20
-10.999999973682851
 30
0.0
 11
611.99999771120406
 21
-318.98521551881453
 31
0.0
  0
LINE
  5
196
  8
SIZE
  6
CONTINUOUS
 62
    30
 10
-828.00000084185092
 20
-10.999999973682851
 30
0.0
 11
-828.00000084185092
 21
-318.98521551881453
 31
0.0
  0
LINE
  5
197
  8
SIZE
  6
CONTINUOUS
 62
    30
 10
611.99999771120406
 20
-298.98521551881453
 30
0.0
 11
-828.00000084185092
 21
-298.98521551881453
 31
0.0
  0
CIRCLE
  5
198
  8
SIZE
  6
CONTINUOUS
 62
    30
 10
611.99999771120406
 20
-298.98521551881453
 30
0.0
 40
7.5
  0
CIRCLE
  5
199
  8
SIZE
  6
CONTINUOUS
 62
    30
 10
-828.00000084185092
 20
-298.98521551881453
 30
0.0
 40
7.5
  0
TEXT
  5
19A
  8
SIZE
  6
CONTINUOUS
 62
    30
 10
-183.00000156532349
 20
-283.98521551881453
 30
0.0
 40
50.0
  1
1440
 41
0.9
 72
     1
 11
-108.0000015653236
 21
-283.98521551881453
 31
0.0
  0
POINT
  5
19B
  8
DEFPOINTS
  6
CONTINUOUS
 62
     7
 10
611.99999771120406
 20
-0.9999999736828611
 30
0.0
  0
POINT
  5
19C
  8
DEFPOINTS
  6
CONTINUOUS
 62
     7
 10
-828.00000084185092
 20
-0.9999999736828611
 30
0.0
  0
POINT
  5
19D
  8
DEFPOINTS
  6
CONTINUOUS
 62
     7
 10
-828.00000084185092
 20
-298.98521551881453
 30
0.0
  0
LINE
  5
19E
  8
SIZE
  6
CONTINUOUS
 62
    30
 10
-821.00000102601859
 20
-9.0000000263062248
 30
0.0
 11
-821.00000102601859
 21
-226.95307779772139
 31
0.0
  0
LINE
  5
19F
  8
SIZE
  6
CONTINUOUS
 62
    30
 10
-828.00000084185092
 20
-10.999999973682851
 30
0.0
 11
-828.00000084185092
 21
-226.95307779772139
 31
0.0
  0
LINE
  5
1A0
  8
SIZE
  6
CONTINUOUS
 62
    30
 10
-821.00000102601859
 20
-206.95307779772139
 30
0.0
 11
-791.00000102601825
 21
-206.95307779772139
 31
0.0
  0
LINE
  5
1A1
  8
SIZE
  6
CONTINUOUS
 62
    30
 10
-828.00000084185092
 20
-206.95307779772139
 30
0.0
 11
-948.00000084185115
 21
-206.95307779772139
 31
0.0
  0
LINE
  5
1A2
  8
SIZE
  6
CONTINUOUS
 62
    30
 10
-821.00000102601859
 20
-206.95307779772139
 30
0.0
 11
-828.00000084185092
 21
-206.95307779772139
 31
0.0
  0
CIRCLE
  5
1A3
  8
SIZE
  6
CONTINUOUS
 62
    30
 10
-821.00000102601859
 20
-206.95307779772139
 30
0.0
 40
7.5
  0
CIRCLE
  5
1A4
  8
SIZE
  6
CONTINUOUS
 62
    30
 10
-828.00000084185092
 20
-206.95307779772139
 30
0.0
 40
7.5
  0
TEXT
  5
1A5
  8
SIZE
  6
CONTINUOUS
 62
    30
 10
-933.00000084185115
 20
-191.95307779772151
 30
0.0
 40
50.0
  1
7
 41
0.9
 72
     1
 11
-918.00000084185115
 21
-191.95307779772151
 31
0.0
  0
POINT
  5
1A6
  8
DEFPOINTS
  6
CONTINUOUS
 62
     7
 10
-821.00000102601859
 20
0.9999999736937753
 30
0.0
  0
POINT
  5
1A7
  8
DEFPOINTS
  6
CONTINUOUS
 62
     7
 10
-828.00000084185092
 20
-0.9999999736828611
 30
0.0
  0
POINT
  5
1A8
  8
DEFPOINTS
  6
CONTINUOUS
 62
     7
 10
-828.00000084185092
 20
-206.95307779772139
 30
0.0
  0
LINE
  5
1A9
  8
SIZE
  6
CONTINUOUS
 62
    30
 10
604.99999934229402
 20
-9.0000000263080437
 30
0.0
 11
604.99999934229402
 21
-226.95307779772139
 31
0.0
  0
LINE
  5
1AA
  8
SIZE
  6
CONTINUOUS
 62
    30
 10
611.99999915814863
 20
-10.999999973682851
 30
0.0
 11
611.99999915814863
 21
-226.95307779772139
 31
0.0
  0
LINE
  5
1AB
  8
SIZE
  6
CONTINUOUS
 62
    30
 10
604.99999934229402
 20
-206.95307779772139
 30
0.0
 11
574.99999934229402
 21
-206.95307779772139
 31
0.0
  0
LINE
  5
1AC
  8
SIZE
  6
CONTINUOUS
 62
    30
 10
611.99999915814863
 20
-206.95307779772139
 30
0.0
 11
731.99999915814863
 21
-206.95307779772139
 31
0.0
  0
LINE
  5
1AD
  8
SIZE
  6
CONTINUOUS
 62
    30
 10
604.99999934229402
 20
-206.95307779772139
 30
0.0
 11
611.99999915814863
 21
-206.95307779772139
 31
0.0
  0
CIRCLE
  5
1AE
  8
SIZE
  6
CONTINUOUS
 62
    30
 10
604.99999934229402
 20
-206.95307779772139
 30
0.0
 40
7.5
  0
CIRCLE
  5
1AF
  8
SIZE
  6
CONTINUOUS
 62
    30
 10
611.99999915814863
 20
-206.95307779772139
 30
0.0
 40
7.5
  0
TEXT
  5
1B0
  8
SIZE
  6
CONTINUOUS
 62
    30
 10
686.99999915814863
 20
-191.95307779772151
 30
0.0
 40
50.0
  1
7
 41
0.9
 72
     1
 11
701.99999915814863
 21
-191.95307779772151
 31
0.0
  0
POINT
  5
1B1
  8
DEFPOINTS
  6
CONTINUOUS
 62
     7
 10
604.99999934229402
 20
0.9999999736919559
 30
0.0
  0
POINT
  5
1B2
  8
DEFPOINTS
  6
CONTINUOUS
 62
     7
 10
611.99999915814863
 20
-0.9999999736828611
 30
0.0
  0
POINT
  5
1B3
  8
DEFPOINTS
  6
CONTINUOUS
 62
     7
 10
611.99999915814863
 20
-206.95307779772139
 30
0.0
  0
LINE
  5
1B4
  8
SIZE
  6
CONTINUOUS
 62
    30
 10
714.99999671146952
 20
0.9999999736937724
 30
0.0
 11
824.87964516219165
 21
0.9999999736937411
 31
0.0
  0
LINE
  5
1B5
  8
SIZE
  6
CONTINUOUS
 62
    30
 10
621.99999915814863
 20
-0.9999999736828639
 30
0.0
 11
824.87964516219165
 21
-0.9999999736829215
 31
0.0
  0
LINE
  5
1B6
  8
SIZE
  6
CONTINUOUS
 62
    30
 10
804.87964516219165
 20
0.9999999736937471
 30
0.0
 11
804.87964516219165
 21
30.99999997369375
 31
0.0
  0
LINE
  5
1B7
  8
SIZE
  6
CONTINUOUS
 62
    30
 10
804.87964516219165
 20
-0.9999999736829158
 30
0.0
 11
804.87964516219165
 21
-120.9999999736829
 31
0.0
  0
LINE
  5
1B8
  8
SIZE
  6
CONTINUOUS
 62
    30
 10
804.87964516219165
 20
0.9999999736937471
 30
0.0
 11
804.87964516219165
 21
-0.9999999736829158
 31
0.0
  0
CIRCLE
  5
1B9
  8
SIZE
  6
CONTINUOUS
 62
    30
 10
804.87964516219165
 20
0.9999999736937471
 30
0.0
 40
7.5
  0
CIRCLE
  5
1BA
  8
SIZE
  6
CONTINUOUS
 62
    30
 10
804.87964516219165
 20
-0.9999999736829158
 30
0.0
 40
7.5
  0
TEXT
  5
1BB
  8
SIZE
  6
CONTINUOUS
 62
    30
 10
789.87964516219165
 20
-105.9999999736827
 30
0.0
 40
50.0
  1
2
 50
90.0
 41
0.9
 72
     1
 11
789.87964516219165
 21
-90.999999973682776
 31
0.0
  0
POINT
  5
1BC
  8
DEFPOINTS
  6
CONTINUOUS
 62
     7
 10
704.99999671146952
 20
0.9999999736937753
 30
0.0
  0
POINT
  5
1BD
  8
DEFPOINTS
  6
CONTINUOUS
 62
     7
 10
611.99999915814863
 20
-0.9999999736828611
 30
0.0
  0
POINT
  5
1BE
  8
DEFPOINTS
  6
CONTINUOUS
 62
     7
 10
804.87964516219165
 20
-0.9999999736829158
 30
0.0
  0
LINE
  5
1BF
  8
SIZE
  6
CONTINUOUS
 62
    30
 10
714.99999671146952
 20
0.9999999736937724
 30
0.0
 11
824.87964516219336
 21
0.9999999736937411
 31
0.0
  0
LINE
  5
1C0
  8
SIZE
  6
CONTINUOUS
 62
    30
 10
602.99999965799418
 20
58.999998447819941
 30
0.0
 11
824.87964516219336
 21
58.999998447819891
 31
0.0
  0
LINE
  5
1C1
  8
SIZE
  6
CONTINUOUS
 62
    30
 10
804.87964516219347
 20
0.9999999736937471
 30
0.0
 11
804.87964516219347
 21
58.999998447819898
 31
0.0
  0
LINE
  5
1C2
  8
SIZE
  6
CONTINUOUS
 62
    30
 10
804.87964516219347
 20
29.999999210756819
 30
0.0
 11
894.10015330305987
 21
15.842819671333761
 31
0.0
  0
LINE
  5
1C3
  8
SIZE
  6
CONTINUOUS
 62
    30
 10
894.10015330305987
 20
15.842819671333761
 30
0.0
 11
894.10015330305987
 21
118.6999625284766
 31
0.0
  0
TEXT
  5
1C4
  8
SIZE
  6
CONTINUOUS
 62
    30
 10
879.10015330305976
 20
30.84281967133392
 30
0.0
 40
50.0
  1
58
 50
90.0
 41
0.9
 72
     1
 11
879.10015330305976
 21
67.271391099905344
 31
0.0
  0
CIRCLE
  5
1C5
  8
SIZE
  6
CONTINUOUS
 62
    30
 10
804.87964516219347
 20
0.9999999736937471
 30
0.0
 40
7.5
  0
CIRCLE
  5
1C6
  8
SIZE
  6
CONTINUOUS
 62
    30
 10
804.87964516219347
 20
58.999998447819898
 30
0.0
 40
7.5
  0
POINT
  5
1C7
  8
DEFPOINTS
  6
CONTINUOUS
 62
     7
 10
704.99999671146952
 20
0.9999999736937753
 30
0.0
  0
POINT
  5
1C8
  8
DEFPOINTS
  6
CONTINUOUS
 62
     7
 10
592.99999965799407
 20
58.999998447819941
 30
0.0
  0
POINT
  5
1C9
  8
DEFPOINTS
  6
CONTINUOUS
 62
     7
 10
804.87964516219347
 20
58.999998447819898
 30
0.0
  0
LINE
  5
1CA
  8
SIZE
  6
CONTINUOUS
 62
    30
 10
590.00000000000045
 20
139.00000002631711
 30
0.0
 11
998.48131780023186
 21
139.000000026317
 31
0.0
  0
LINE
  5
1CB
  8
SIZE
  6
CONTINUOUS
 62
    30
 10
621.99999915814863
 20
-0.9999999736828639
 30
0.0
 11
998.48131780023186
 21
-0.9999999736829707
 31
0.0
  0
LINE
  5
1CC
  8
SIZE
  6
CONTINUOUS
 62
    30
 10
978.48131780023198
 20
139.000000026317
 30
0.0
 11
978.48131780023198
 21
-0.999999973682965
 31
0.0
  0
LINE
  5
1CD
  8
SIZE
  6
CONTINUOUS
 62
    30
 10
978.48131780023198
 20
-0.999999973682965
 30
0.0
 11
978.48131780023164
 21
-288.99999997368292
 31
0.0
  0
CIRCLE
  5
1CE
  8
SIZE
  6
CONTINUOUS
 62
    30
 10
978.48131780023198
 20
139.000000026317
 30
0.0
 40
7.5
  0
CIRCLE
  5
1CF
  8
SIZE
  6
CONTINUOUS
 62
    30
 10
978.48131780023198
 20
-0.999999973682965
 30
0.0
 40
7.5
  0
TEXT
  5
1D0
  8
SIZE
  6
CONTINUOUS
 62
    30
 10
963.48131780023186
 20
-267.9999999736828
 30
0.0
 40
50.0
  1
140以上
 50
90.0
 41
0.9
 72
     1
 11
963.48131780023186
 21
-159.9999999736828
 31
0.0
  0
POINT
  5
1D1
  8
DEFPOINTS
  6
CONTINUOUS
 62
     7
 10
580.00000000000057
 20
139.00000002631711
 30
0.0
  0
POINT
  5
1D2
  8
DEFPOINTS
  6
CONTINUOUS
 62
     7
 10
611.99999915814863
 20
-0.9999999736828611
 30
0.0
  0
POINT
  5
1D3
  8
DEFPOINTS
  6
CONTINUOUS
 62
     7
 10
978.48131780023198
 20
-0.999999973682965
 30
0.0
  0
LINE
  5
1D4
  8
SIZE
  6
CONTINUOUS
 62
    30
 10
604.99999789534945
 20
-9.0000000263062248
 30
0.0
 11
604.99999789534945
 21
-226.95307779772139
 31
0.0
  0
LINE
  5
1D5
  8
SIZE
  6
CONTINUOUS
 62
    30
 10
-821.00000102601859
 20
-9.0000000263062248
 30
0.0
 11
-821.00000102601859
 21
-226.95307779772139
 31
0.0
  0
LINE
  5
1D6
  8
SIZE
  6
CONTINUOUS
 62
    30
 10
604.99999789534945
 20
-206.95307779772139
 30
0.0
 11
-821.00000102601859
 21
-206.95307779772139
 31
0.0
  0
CIRCLE
  5
1D7
  8
SIZE
  6
CONTINUOUS
 62
    30
 10
604.99999789534945
 20
-206.95307779772139
 30
0.0
 40
7.5
  0
CIRCLE
  5
1D8
  8
SIZE
  6
CONTINUOUS
 62
    30
 10
-821.00000102601859
 20
-206.95307779772139
 30
0.0
 40
7.5
  0
TEXT
  5
1D9
  8
SIZE
  6
CONTINUOUS
 62
    30
 10
-387.42857299390579
 20
-191.95307779772151
 30
0.0
 40
50.0
  1
1426（天井開口寸法）
 41
0.9
 72
     1
 11
-108.0000015653344
 21
-191.95307779772151
 31
0.0
  0
POINT
  5
1DA
  8
DEFPOINTS
  6
CONTINUOUS
 62
     7
 10
604.99999789534945
 20
0.9999999736937753
 30
0.0
  0
POINT
  5
1DB
  8
DEFPOINTS
  6
CONTINUOUS
 62
     7
 10
-821.00000102601859
 20
0.9999999736937753
 30
0.0
  0
POINT
  5
1DC
  8
DEFPOINTS
  6
CONTINUOUS
 62
     7
 10
-821.00000102601859
 20
-206.95307779772139
 30
0.0
  0
LINE
  5
1DD
  8
SIZE
  6
CONTINUOUS
 62
    30
 10
-821.00000102601825
 20
-9.0000000263062248
 30
0.0
 11
-821.00000102601825
 21
-126.58078045965701
 31
0.0
  0
LINE
  5
1DE
  8
SIZE
  6
CONTINUOUS
 62
    30
 10
-595.99999957907482
 20
405.60000045777798
 30
0.0
 11
-595.99999957907482
 21
-126.58078045965701
 31
0.0
  0
LINE
  5
1DF
  8
SIZE
  6
CONTINUOUS
 62
    30
 10
-821.00000102601825
 20
-106.58078045965691
 30
0.0
 11
-595.99999957907482
 21
-106.58078045965691
 31
0.0
  0
CIRCLE
  5
1E0
  8
SIZE
  6
CONTINUOUS
 62
    30
 10
-821.00000102601825
 20
-106.58078045965691
 30
0.0
 40
7.5
  0
CIRCLE
  5
1E1
  8
SIZE
  6
CONTINUOUS
 62
    30
 10
-595.99999957907482
 20
-106.58078045965691
 30
0.0
 40
7.5
  0
TEXT
  5
1E2
  8
SIZE
  6
CONTINUOUS
 62
    30
 10
-766.3571431596896
 20
-91.580780459657035
 30
0.0
 40
50.0
  1
225
 41
0.9
 72
     1
 11
-708.5000003025466
 21
-91.580780459657035
 31
0.0
  0
POINT
  5
1E3
  8
DEFPOINTS
  6
CONTINUOUS
 62
     7
 10
-821.00000102601825
 20
0.9999999736937753
 30
0.0
  0
POINT
  5
1E4
  8
DEFPOINTS
  6
CONTINUOUS
 62
     7
 10
-595.99999957907482
 20
415.60000045777809
 30
0.0
  0
POINT
  5
1E5
  8
DEFPOINTS
  6
CONTINUOUS
 62
     7
 10
-595.99999957907482
 20
-106.58078045965691
 30
0.0
  0
LINE
  5
1E6
  8
SIZE
  6
CONTINUOUS
 62
    30
 10
595.99999957907357
 20
405.60000045777798
 30
0.0
 11
595.99999957907357
 21
-126.58078045965701
 31
0.0
  0
LINE
  5
1E7
  8
SIZE
  6
CONTINUOUS
 62
    30
 10
604.99999934229402
 20
-9.0000000263062248
 30
0.0
 11
604.99999934229402
 21
-126.58078045965701
 31
0.0
  0
LINE
  5
1E8
  8
SIZE
  6
CONTINUOUS
 62
    30
 10
604.99999934229402
 20
-106.58078045965691
 30
0.0
 11
634.99999934229402
 21
-106.58078045965691
 31
0.0
  0
LINE
  5
1E9
  8
SIZE
  6
CONTINUOUS
 62
    30
 10
595.99999957907357
 20
-106.58078045965691
 30
0.0
 11
478.14285672193063
 21
-106.58078045965691
 31
0.0
  0
LINE
  5
1EA
  8
SIZE
  6
CONTINUOUS
 62
    30
 10
604.99999934229402
 20
-106.58078045965691
 30
0.0
 11
595.99999957907357
 21
-106.58078045965691
 31
0.0
  0
CIRCLE
  5
1EB
  8
SIZE
  6
CONTINUOUS
 62
    30
 10
604.99999934229402
 20
-106.58078045965691
 30
0.0
 40
7.5
  0
CIRCLE
  5
1EC
  8
SIZE
  6
CONTINUOUS
 62
    30
 10
595.99999957907357
 20
-106.58078045965691
 30
0.0
 40
7.5
  0
TEXT
  5
1ED
  8
SIZE
  6
CONTINUOUS
 62
    30
 10
493.14285672193051
 20
-91.580780459657035
 30
0.0
 40
50.0
  1
9
 41
0.9
 72
     1
 11
507.0714281505019
 21
-91.580780459657035
 31
0.0
  0
POINT
  5
1EE
  8
DEFPOINTS
  6
CONTINUOUS
 62
     7
 10
595.99999957907357
 20
415.60000045777809
 30
0.0
  0
POINT
  5
1EF
  8
DEFPOINTS
  6
CONTINUOUS
 62
     7
 10
604.99999934229402
 20
0.9999999736937753
 30
0.0
  0
POINT
  5
1F0
  8
DEFPOINTS
  6
CONTINUOUS
 62
     7
 10
604.99999934229402
 20
-106.58078045965691
 30
0.0
  0
LINE
  5
1F1
  8
SIZE
  6
CONTINUOUS
 62
    30
 10
-580.0
 20
442.00000002631703
 30
0.0
 11
-580.0
 21
746.90870665038335
 31
0.0
  0
LINE
  5
1F2
  8
SIZE
  6
CONTINUOUS
 62
    30
 10
-619.00000102602462
 20
291.60498198425182
 30
0.0
 11
-619.00000102602462
 21
746.90870665038335
 31
0.0
  0
LINE
  5
1F3
  8
SIZE
  6
CONTINUOUS
 62
    30
 10
-619.00000102602462
 20
726.90870665038335
 30
0.0
 11
-580.0
 21
726.90870665038335
 31
0.0
  0
LINE
  5
1F4
  8
SIZE
  6
CONTINUOUS
 62
    30
 10
-580.0
 20
726.90870665038335
 30
0.0
 11
-383.28571428571399
 21
726.90870665038335
 31
0.0
  0
CIRCLE
  5
1F5
  8
SIZE
  6
CONTINUOUS
 62
    30
 10
-619.00000102602462
 20
726.90870665038335
 30
0.0
 40
7.5
  0
CIRCLE
  5
1F6
  8
SIZE
  6
CONTINUOUS
 62
    30
 10
-580.0
 20
726.90870665038335
 30
0.0
 40
7.5
  0
TEXT
  5
1F7
  8
SIZE
  6
CONTINUOUS
 62
    30
 10
-528.99999999999955
 20
755.00394474562154
 30
0.0
 40
50.0
  1
(39)
 41
0.9
 72
     1
 11
-463.64285714285683
 21
755.00394474562154
 31
0.0
  0
POINT
  5
1F8
  8
DEFPOINTS
  6
CONTINUOUS
 62
     7
 10
-580.0
 20
432.00000002631708
 30
0.0
  0
POINT
  5
1F9
  8
DEFPOINTS
  6
CONTINUOUS
 62
     7
 10
-619.00000102602462
 20
281.60498198425182
 30
0.0
  0
POINT
  5
1FA
  8
DEFPOINTS
  6
CONTINUOUS
 62
     7
 10
-619.00000102602462
 20
726.90870665038335
 30
0.0
  0
LINE
  5
1FB
  8
SIZE
  6
CONTINUOUS
 62
    30
 10
-580.0
 20
442.00000002631703
 30
0.0
 11
-580.0
 21
626.0674911208115
 31
0.0
  0
LINE
  5
1FC
  8
SIZE
  6
CONTINUOUS
 62
    30
 10
-616.00000110494307
 20
263.60498198425188
 30
0.0
 11
-616.00000110494307
 21
626.0674911208115
 31
0.0
  0
LINE
  5
1FD
  8
SIZE
  6
CONTINUOUS
 62
    30
 10
-616.00000110494307
 20
606.06749112081161
 30
0.0
 11
-580.0
 21
606.06749112081161
 31
0.0
  0
LINE
  5
1FE
  8
SIZE
  6
CONTINUOUS
 62
    30
 10
-580.0
 20
606.06749112081161
 30
0.0
 11
-389.28571428571399
 21
606.06749112081161
 31
0.0
  0
CIRCLE
  5
1FF
  8
SIZE
  6
CONTINUOUS
 62
    30
 10
-616.00000110494307
 20
606.06749112081161
 30
0.0
 40
7.5
  0
CIRCLE
  5
200
  8
SIZE
  6
CONTINUOUS
 62
    30
 10
-580.0
 20
606.06749112081161
 30
0.0
 40
7.5
  0
TEXT
  5
201
  8
SIZE
  6
CONTINUOUS
 62
    30
 10
-534.99999999999955
 20
634.16272921604957
 30
0.0
 40
50.0
  1
(36)
 41
0.9
 72
     1
 11
-469.64285714285683
 21
634.16272921604957
 31
0.0
  0
POINT
  5
202
  8
DEFPOINTS
  6
CONTINUOUS
 62
     7
 10
-580.0
 20
432.00000002631708
 30
0.0
  0
POINT
  5
203
  8
DEFPOINTS
  6
CONTINUOUS
 62
     7
 10
-616.00000110494307
 20
253.60498198425171
 30
0.0
  0
POINT
  5
204
  8
DEFPOINTS
  6
CONTINUOUS
 62
     7
 10
-616.00000110494307
 20
606.06749112081161
 30
0.0
  0
LINE
  5
205
  8
NOTE
  6
CONTINUOUS
 62
     4
 10
-579.99999999999261
 20
145.3950180683841
 30
0.0
 11
-579.99999999999261
 21
188.60498198425191
 31
0.0
  0
LINE
  5
206
  8
NOTE
  6
CONTINUOUS
 62
     4
 10
-558.39501804206702
 20
167.00000002631711
 30
0.0
 11
-601.60498195793468
 21
167.00000002631711
 31
0.0
  0
LINE
  5
207
  8
SIZE
  6
CONTINUOUS
 62
    30
 10
-645.60498106345563
 20
324.00000002631521
 30
0.0
 11
-780.17077858534844
 21
324.00000002631521
 31
0.0
  0
LINE
  5
208
  8
SIZE
  6
CONTINUOUS
 62
    30
 10
-590.0
 20
432.00000002631708
 30
0.0
 11
-780.17077858534844
 21
432.00000002631708
 31
0.0
  0
LINE
  5
209
  8
SIZE
  6
CONTINUOUS
 62
    30
 10
-760.17077858534844
 20
324.00000002631521
 30
0.0
 11
-760.17077858534844
 21
432.00000002631708
 31
0.0
  0
LINE
  5
20A
  8
SIZE
  6
CONTINUOUS
 62
    30
 10
-760.17077858534844
 20
432.00000002631708
 30
0.0
 11
-760.17077858534844
 21
599.14285716917698
 31
0.0
  0
CIRCLE
  5
20B
  8
SIZE
  6
CONTINUOUS
 62
    30
 10
-760.17077858534844
 20
324.00000002631521
 30
0.0
 40
7.5
  0
CIRCLE
  5
20C
  8
SIZE
  6
CONTINUOUS
 62
    30
 10
-760.17077858534844
 20
432.00000002631708
 30
0.0
 40
7.5
  0
TEXT
  5
20D
  8
SIZE
  6
CONTINUOUS
 62
    30
 10
-775.17077858534844
 20
477.0000000263197
 30
0.0
 40
50.0
  1
108
 50
90.0
 41
0.9
 72
     1
 11
-775.17077858534844
 21
530.57142859774831
 31
0.0
  0
POINT
  5
20E
  8
DEFPOINTS
  6
CONTINUOUS
 62
     7
 10
-635.60498106345585
 20
324.00000002631521
 30
0.0
  0
POINT
  5
20F
  8
DEFPOINTS
  6
CONTINUOUS
 62
     7
 10
-580.0
 20
432.00000002631708
 30
0.0
  0
POINT
  5
210
  8
DEFPOINTS
  6
CONTINUOUS
 62
     7
 10
-760.17077858534844
 20
432.00000002631708
 30
0.0
  0
LINE
  5
211
  8
SIZE
  6
CONTINUOUS
 62
    30
 10
-590.0
 20
432.00000002631708
 30
0.0
 11
-861.28262683367745
 21
432.00000002631708
 31
0.0
  0
LINE
  5
212
  8
SIZE
  6
CONTINUOUS
 62
    30
 10
-650.60498298396681
 20
260.00000002631703
 30
0.0
 11
-861.28262683367745
 21
260.00000002631703
 31
0.0
  0
LINE
  5
213
  8
SIZE
  6
CONTINUOUS
 62
    30
 10
-841.28262683367745
 20
432.00000002631708
 30
0.0
 11
-841.28262683367745
 21
260.00000002631703
 31
0.0
  0
CIRCLE
  5
214
  8
SIZE
  6
CONTINUOUS
 62
    30
 10
-841.28262683367745
 20
432.00000002631708
 30
0.0
 40
7.5
  0
CIRCLE
  5
215
  8
SIZE
  6
CONTINUOUS
 62
    30
 10
-841.28262683367745
 20
260.00000002631703
 30
0.0
 40
7.5
  0
TEXT
  5
216
  8
SIZE
  6
CONTINUOUS
 62
    30
 10
-856.28262683367757
 20
292.4285714548883
 30
0.0
 40
50.0
  1
172
 50
90.0
 41
0.9
 72
     1
 11
-856.28262683367757
 21
346.00000002631691
 31
0.0
  0
POINT
  5
217
  8
DEFPOINTS
  6
CONTINUOUS
 62
     7
 10
-580.0
 20
432.00000002631708
 30
0.0
  0
POINT
  5
218
  8
DEFPOINTS
  6
CONTINUOUS
 62
     7
 10
-640.60498298396647
 20
260.00000002631703
 30
0.0
  0
POINT
  5
219
  8
DEFPOINTS
  6
CONTINUOUS
 62
     7
 10
-841.28262683367745
 20
260.00000002631703
 30
0.0
  0
LINE
  5
21A
  8
SIZE
  6
CONTINUOUS
 62
    30
 10
-650.60498298396658
 20
260.00000002631703
 30
0.0
 11
-861.28262683367745
 21
260.00000002631703
 31
0.0
  0
LINE
  5
21B
  8
SIZE
  6
CONTINUOUS
 62
    30
 10
-647.60498195794196
 20
232.00000002631711
 30
0.0
 11
-861.28262683367745
 21
232.00000002631711
 31
0.0
  0
LINE
  5
21C
  8
SIZE
  6
CONTINUOUS
 62
    30
 10
-841.28262683367745
 20
260.00000002631703
 30
0.0
 11
-841.28262683367745
 21
290.00000002631708
 31
0.0
  0
LINE
  5
21D
  8
SIZE
  6
CONTINUOUS
 62
    30
 10
-841.28262683367745
 20
232.00000002631711
 30
0.0
 11
-841.28262683367745
 21
202.00000002631711
 31
0.0
  0
LINE
  5
21E
  8
SIZE
  6
CONTINUOUS
 62
    30
 10
-841.28262683367745
 20
246.00000002631711
 30
0.0
 11
-923.11973361875232
 21
235.79737362389099
 31
0.0
  0
LINE
  5
21F
  8
SIZE
  6
CONTINUOUS
 62
    30
 10
-923.11973361875232
 20
235.79737362389099
 30
0.0
 11
-923.11973361875232
 21
338.65451648103391
 31
0.0
  0
TEXT
  5
220
  8
SIZE
  6
CONTINUOUS
 62
    30
 10
-938.11973361875243
 20
250.79737362389079
 30
0.0
 40
50.0
  1
28
 50
90.0
 41
0.9
 72
     1
 11
-938.11973361875243
 21
287.22594505246229
 31
0.0
  0
LINE
  5
221
  8
SIZE
  6
CONTINUOUS
 62
    30
 10
-841.28262683367745
 20
260.00000002631703
 30
0.0
 11
-841.28262683367745
 21
232.00000002631711
 31
0.0
  0
LINE
  5
222
  8
SIZE
  6
CONTINUOUS
 62
    30
 10
-841.28262683367745
 20
260.00000002631703
 30
0.0
 11
-841.28262683367745
 21
232.00000002631711
 31
0.0
  0
CIRCLE
  5
223
  8
SIZE
  6
CONTINUOUS
 62
    30
 10
-841.28262683367745
 20
260.00000002631703
 30
0.0
 40
7.5
  0
CIRCLE
  5
224
  8
SIZE
  6
CONTINUOUS
 62
    30
 10
-841.28262683367745
 20
232.00000002631711
 30
0.0
 40
7.5
  0
POINT
  5
225
  8
DEFPOINTS
  6
CONTINUOUS
 62
     7
 10
-640.60498298396647
 20
260.00000002631703
 30
0.0
  0
POINT
  5
226
  8
DEFPOINTS
  6
CONTINUOUS
 62
     7
 10
-637.60498195794207
 20
232.00000002631711
 30
0.0
  0
POINT
  5
227
  8
DEFPOINTS
  6
CONTINUOUS
 62
     7
 10
-841.28262683367745
 20
232.00000002631711
 30
0.0
  0
LINE
  5
228
  8
SIZE
  6
CONTINUOUS
 62
    30
 10
-590.0
 20
432.00000002631708
 30
0.0
 11
-1112.864949036139
 21
432.00000002631708
 31
0.0
  0
LINE
  5
229
  8
SIZE
  6
CONTINUOUS
 62
    30
 10
-611.60498195793446
 20
167.00000002631711
 30
0.0
 11
-1112.864949036139
 21
167.0000000263172
 31
0.0
  0
LINE
  5
22A
  8
SIZE
  6
CONTINUOUS
 62
    30
 10
-1092.864949036139
 20
432.00000002631708
 30
0.0
 11
-1092.864949036139
 21
167.0000000263172
 31
0.0
  0
CIRCLE
  5
22B
  8
SIZE
  6
CONTINUOUS
 62
    30
 10
-1092.864949036139
 20
432.00000002631708
 30
0.0
 40
7.5
  0
CIRCLE
  5
22C
  8
SIZE
  6
CONTINUOUS
 62
    30
 10
-1092.864949036139
 20
167.0000000263172
 30
0.0
 40
7.5
  0
TEXT
  5
22D
  8
SIZE
  6
CONTINUOUS
 62
    30
 10
-1107.864949036139
 20
241.64285716917399
 30
0.0
 40
50.0
  1
265
 50
90.0
 41
0.9
 72
     1
 11
-1107.864949036139
 21
299.50000002631691
 31
0.0
  0
POINT
  5
22E
  8
DEFPOINTS
  6
CONTINUOUS
 62
     7
 10
-580.0
 20
432.00000002631708
 30
0.0
  0
POINT
  5
22F
  8
DEFPOINTS
  6
CONTINUOUS
 62
     7
 10
-601.60498195793468
 20
167.00000002631711
 30
0.0
  0
POINT
  5
230
  8
DEFPOINTS
  6
CONTINUOUS
 62
     7
 10
-1092.864949036139
 20
167.0000000263172
 30
0.0
  0
LINE
  5
231
  8
SIZE
  6
CONTINUOUS
 62
    30
 10
-700.0
 20
419.00000002631521
 30
0.0
 11
-1027.727152776348
 21
419.00000002631521
 31
0.0
  0
LINE
  5
232
  8
SIZE
  6
CONTINUOUS
 62
    30
 10
-590.0
 20
432.00000002631708
 30
0.0
 11
-1027.727152776348
 21
432.00000002631708
 31
0.0
  0
LINE
  5
233
  8
SIZE
  6
CONTINUOUS
 62
    30
 10
-1007.727152776349
 20
419.00000002631521
 30
0.0
 11
-1007.727152776349
 21
389.00000002631521
 31
0.0
  0
LINE
  5
234
  8
SIZE
  6
CONTINUOUS
 62
    30
 10
-1007.727152776349
 20
432.00000002631708
 30
0.0
 11
-1007.727152776349
 21
586.28571431203125
 31
0.0
  0
LINE
  5
235
  8
SIZE
  6
CONTINUOUS
 62
    30
 10
-1007.727152776349
 20
419.00000002631521
 30
0.0
 11
-1007.727152776349
 21
432.00000002631708
 31
0.0
  0
CIRCLE
  5
236
  8
SIZE
  6
CONTINUOUS
 62
    30
 10
-1007.727152776349
 20
419.00000002631521
 30
0.0
 40
7.5
  0
CIRCLE
  5
237
  8
SIZE
  6
CONTINUOUS
 62
    30
 10
-1007.727152776349
 20
432.00000002631708
 30
0.0
 40
7.5
  0
TEXT
  5
238
  8
SIZE
  6
CONTINUOUS
 62
    30
 10
-1022.727152776348
 20
507.00000002631708
 30
0.0
 40
50.0
  1
13
 50
90.0
 41
0.9
 72
     1
 11
-1022.727152776348
 21
539.14285716917436
 31
0.0
  0
POINT
  5
239
  8
DEFPOINTS
  6
CONTINUOUS
 62
     7
 10
-690.0
 20
419.00000002631521
 30
0.0
  0
POINT
  5
23A
  8
DEFPOINTS
  6
CONTINUOUS
 62
     7
 10
-580.0
 20
432.00000002631708
 30
0.0
  0
POINT
  5
23B
  8
DEFPOINTS
  6
CONTINUOUS
 62
     7
 10
-1007.727152776349
 20
432.00000002631708
 30
0.0
  0
LINE
  5
23C
  8
SIZE
  6
CONTINUOUS
 62
    30
 10
-700.0
 20
419.00000002631521
 30
0.0
 11
-1027.727152776348
 21
419.00000002631521
 31
0.0
  0
LINE
  5
23D
  8
SIZE
  6
CONTINUOUS
 62
    30
 10
-700.0
 20
169.00000002631711
 30
0.0
 11
-1027.727152776348
 21
169.0000000263172
 31
0.0
  0
LINE
  5
23E
  8
SIZE
  6
CONTINUOUS
 62
    30
 10
-1007.727152776349
 20
419.00000002631521
 30
0.0
 11
-1007.727152776349
 21
169.0000000263172
 31
0.0
  0
CIRCLE
  5
23F
  8
SIZE
  6
CONTINUOUS
 62
    30
 10
-1007.727152776349
 20
419.00000002631521
 30
0.0
 40
7.5
  0
CIRCLE
  5
240
  8
SIZE
  6
CONTINUOUS
 62
    30
 10
-1007.727152776349
 20
169.0000000263172
 30
0.0
 40
7.5
  0
TEXT
  5
241
  8
SIZE
  6
CONTINUOUS
 62
    30
 10
-1022.727152776348
 20
236.1428571691732
 30
0.0
 40
50.0
  1
250
 50
90.0
 41
0.9
 72
     1
 11
-1022.727152776348
 21
294.00000002631612
 31
0.0
  0
POINT
  5
242
  8
DEFPOINTS
  6
CONTINUOUS
 62
     7
 10
-690.0
 20
419.00000002631521
 30
0.0
  0
POINT
  5
243
  8
DEFPOINTS
  6
CONTINUOUS
 62
     7
 10
-690.0
 20
169.00000002631711
 30
0.0
  0
POINT
  5
244
  8
DEFPOINTS
  6
CONTINUOUS
 62
     7
 10
-1007.727152776349
 20
169.0000000263172
 30
0.0
  0
LINE
  5
245
  8
NOTE
  6
CONTINUOUS
 62
     4
 10
1172.9546648911
 20
536.52262738031095
 30
0.0
 11
643.73337872869593
 21
536.52262738031095
 31
0.0
  0
TEXT
  5
246
  8
NOTE
  6
CONTINUOUS
 62
     4
 10
648.89935460395873
 20
547.73454136549105
 30
0.0
 40
45.0
  1
AH 4-14×30長穴(M10)
 50
0.0000029999846689
 41
0.7
  7
STANDARD1
  0
LINE
  5
247
  8
NOTE
  6
CONTINUOUS
 62
     4
 10
643.73337872869593
 20
536.52262738031095
 30
0.0
 11
572.99999957908244
 21
427.6000001420777
 31
0.0
  0
LINE
  5
248
  8
NOTE
  6
CONTINUOUS
 62
     4
 10
1128.328985752544
 20
452.77940593695348
 30
0.0
 11
678.18311457376012
 21
452.77940593695348
 31
0.0
  0
TEXT
  5
249
  8
NOTE
  6
CONTINUOUS
 62
     4
 10
683.34909044902338
 20
463.9913199221337
 30
0.0
 40
45.0
  1
%%C200 吹出円形フランジ
 50
0.0000029999846689
 41
0.7
  7
STANDARD1
  0
LINE
  5
24A
  8
NOTE
  6
CONTINUOUS
 62
     4
 10
350.00000000000051
 20
296.00000360424048
 30
0.0
 11
678.18311457376012
 21
452.77940593695348
 31
0.0
  0
LINE
  5
24B
  8
NOTE
  6
CONTINUOUS
 62
     4
 10
-613.99999910551367
 20
324.0000000263189
 30
0.0
 11
-748.95833625132036
 21
719.44917458189411
 31
0.0
  0
LINE
  5
24C
  8
NOTE
  6
CONTINUOUS
 62
     4
 10
-748.95833625132036
 20
719.44917458189411
 30
0.0
 11
-991.70560945780562
 21
719.44917458189411
 31
0.0
  0
TEXT
  5
24D
  8
NOTE
  6
CONTINUOUS
 62
     4
 10
-988.38024327377195
 20
730.66108856707433
 30
0.0
 40
45.0
  1
D1 VP-25
 50
0.0000029999846689
 41
0.7
  7
STANDARD1
  0
LINE
  5
24E
  8
NOTE
  6
CONTINUOUS
 62
     4
 10
-619.0000010260336
 20
260.00000002631703
 30
0.0
 11
-766.32393494597443
 21
625.19008544237113
 31
0.0
  0
LINE
  5
24F
  8
NOTE
  6
CONTINUOUS
 62
     4
 10
-766.32393494597443
 20
625.19008544237113
 30
0.0
 11
-1009.071208152459
 21
625.19008544237113
 31
0.0
  0
TEXT
  5
250
  8
NOTE
  6
CONTINUOUS
 62
     4
 10
-1005.745841968426
 20
636.40199942755123
 30
0.0
 40
45.0
  1
RL %%C9.52
 50
0.0000029999846689
 41
0.7
  7
STANDARD1
  0
LINE
  5
251
  8
NOTE
  6
CONTINUOUS
 62
     4
 10
-616.00000000000716
 20
232.00000002631711
 30
0.0
 11
-818.73142829911012
 21
90.035610314449514
 31
0.0
  0
LINE
  5
252
  8
SIZE
  6
CONTINUOUS
 62
    30
 10
-580.0
 20
442.00000002631703
 30
0.0
 11
-580.0
 21
868.18755230204044
 31
0.0
  0
LINE
  5
253
  8
SIZE
  6
CONTINUOUS
 62
    30
 10
-690.0
 20
429.00000002631521
 30
0.0
 11
-690.0
 21
868.18755230204044
 31
0.0
  0
LINE
  5
254
  8
SIZE
  6
CONTINUOUS
 62
    30
 10
-580.0
 20
848.18755230204056
 30
0.0
 11
-690.0
 21
848.18755230204056
 31
0.0
  0
LINE
  5
255
  8
SIZE
  6
CONTINUOUS
 62
    30
 10
-690.0
 20
848.18755230204056
 30
0.0
 11
-848.57142857142856
 21
848.18755230204056
 31
0.0
  0
CIRCLE
  5
256
  8
SIZE
  6
CONTINUOUS
 62
    30
 10
-580.0
 20
848.18755230204056
 30
0.0
 40
7.5
  0
CIRCLE
  5
257
  8
SIZE
  6
CONTINUOUS
 62
    30
 10
-690.0
 20
848.18755230204056
 30
0.0
 40
7.5
  0
TEXT
  5
258
  8
SIZE
  6
CONTINUOUS
 62
    30
 10
-833.57142857142856
 20
863.18755230204056
 30
0.0
 40
50.0
  1
110
 41
0.9
 72
     1
 11
-784.28571428571422
 21
863.18755230204056
 31
0.0
  0
POINT
  5
259
  8
DEFPOINTS
  6
CONTINUOUS
 62
     7
 10
-580.0
 20
432.00000002631708
 30
0.0
  0
POINT
  5
25A
  8
DEFPOINTS
  6
CONTINUOUS
 62
     7
 10
-690.0
 20
419.00000002631521
 30
0.0
  0
POINT
  5
25B
  8
DEFPOINTS
  6
CONTINUOUS
 62
     7
 10
-690.0
 20
848.18755230204056
 30
0.0
  0
LINE
  5
25C
  8
NOTE
  6
CONTINUOUS
 62
     4
 10
-818.73142829911012
 20
90.035610314449514
 30
0.0
 11
-1084.316239175316
 21
90.035610314449514
 31
0.0
  0
TEXT
  5
25D
  8
NOTE
  6
CONTINUOUS
 62
     4
 10
-1080.990872991284
 20
101.2475242996297
 30
0.0
 40
45.0
  1
RG %%C15.88
 50
0.0000029999846689
 41
0.7
  7
STANDARD1
  0
LINE
  5
25E
  8
NOTE
  6
CONTINUOUS
 62
     4
 10
-579.99999999999261
 20
167.00000002631711
 30
0.0
 11
-538.2333091618184
 21
69.943717704050869
 31
0.0
  0
LINE
  5
25F
  8
NOTE
  6
CONTINUOUS
 62
     4
 10
-228.0385465672498
 20
69.943717704050869
 30
0.0
 11
-538.2333091618184
 21
69.943717704050869
 31
0.0
  0
TEXT
  5
260
  8
NOTE
  6
CONTINUOUS
 62
     4
 10
-534.90794297778484
 20
81.155631689231058
 30
0.0
 40
45.0
  1
D2（自然排水口）
 50
0.0000029999846689
 41
0.7
  7
STANDARD1
  0
LINE
  5
261
  8
NOTE
  6
CONTINUOUS
 62
     4
 10
350.00000000000051
 20
296.00000360424031
 30
0.0
 11
376.11163871339141
 21
318.37257655488929
 31
0.0
  0
LINE
  5
262
  8
NOTE
  6
CONTINUOUS
 62
     4
 10
350.00000000000051
 20
296.00000360424031
 30
0.0
 11
383.79962879079261
 21
302.31939950148882
 31
0.0
  0
LINE
  5
263
  8
NOTE
  6
CONTINUOUS
 62
     4
 10
572.99999957908096
 20
427.60000014205963
 30
0.0
 11
583.72517880123871
 21
460.26986741120157
 31
0.0
  0
LINE
  5
264
  8
NOTE
  6
CONTINUOUS
 62
     4
 10
572.99999957908096
 20
427.60000014205963
 30
0.0
 11
598.62321141462098
 21
450.5303443639113
 31
0.0
  0
LINE
  5
265
  8
NOTE
  6
CONTINUOUS
 62
     4
 10
-580.00000000001637
 20
167.00000002629881
 30
0.0
 11
-558.51347423798313
 21
140.15453658443761
 31
0.0
  0
LINE
  5
266
  8
NOTE
  6
CONTINUOUS
 62
     4
 10
-580.00000000001637
 20
167.00000002629881
 30
0.0
 11
-574.81485583574397
 21
133.00788401541831
 31
0.0
  0
LINE
  5
267
  8
NOTE
  6
CONTINUOUS
 62
     4
 10
-613.99999910551924
 20
324.000000026306
 30
0.0
 11
-633.50542653124103
 21
352.31762700440231
 31
0.0
  0
LINE
  5
268
  8
NOTE
  6
CONTINUOUS
 62
     4
 10
-613.99999910551924
 20
324.000000026306
 30
0.0
 11
-616.73338003171546
 21
358.2764977997648
 31
0.0
  0
LINE
  5
269
  8
NOTE
  6
CONTINUOUS
 62
     4
 10
-619.00000102602462
 20
260.0000000262952
 30
0.0
 11
-640.19479833235528
 21
287.07637836377381
 31
0.0
  0
LINE
  5
26A
  8
NOTE
  6
CONTINUOUS
 62
     4
 10
-619.00000102602462
 20
260.0000000262952
 30
0.0
 11
-623.81704349094412
 21
294.0462299613809
 31
0.0
  0
LINE
  5
26B
  8
NOTE
  6
CONTINUOUS
 62
     4
 10
-615.99999999999272
 20
232.00000002631879
 30
0.0
 11
-637.79807139042521
 21
205.4068847445705
 31
0.0
  0
LINE
  5
26C
  8
NOTE
  6
CONTINUOUS
 62
     4
 10
-615.99999999999272
 20
232.00000002631879
 30
0.0
 11
-648.17424129787105
 21
219.86872359687371
 31
0.0
  0
LINE
  5
26D
  8
BASIS
  6
DASHDOT
 62
     6
 10
0.0
 20
460.58861657854311
 30
0.0
 11
0.0
 21
-30.05553244572182
 31
0.0
  0
LINE
  5
26E
  8
ARRANGE
  6
CONTINUOUS
 62
     1
 10
50.037350000000522
 20
-49.522353000000301
 30
0.0
 11
-50.037350000000522
 21
49.522353000000301
 31
0.0
  0
LINE
  5
26F
  8
ARRANGE
  6
CONTINUOUS
 62
     1
 10
49.963762999999737
 20
49.596595000002701
 30
0.0
 11
-49.963762999999737
 21
-49.596595000002701
 31
0.0
  0
CIRCLE
  5
270
  8
ARRANGE
  6
CONTINUOUS
 62
     1
 10
0.0
 20
0.0
 30
0.0
 40
50.0
  0
LINE
  5
271
  8
OUTLINE
  6
CONTINUOUS
 62
     3
 10
-580.0
 20
432.00000002631708
 30
0.0
 11
580.00000000000034
 21
432.00000002631708
 31
0.0
  0
LINE
  5
272
  8
OUTLINE
  6
CONTINUOUS
 62
     3
 10
580.00000000000057
 20
432.00000002631708
 30
0.0
 11
579.99999999999875
 21
139.00000002631711
 31
0.0
  0
LINE
  5
273
  8
OUTLINE
  6
CONTINUOUS
 62
     3
 10
579.99999999999875
 20
139.00000002631711
 30
0.0
 11
-580.0
 21
139.00000002631711
 31
0.0
  0
LINE
  5
274
  8
OUTLINE
  6
CONTINUOUS
 62
     3
 10
-580.0
 20
139.00000002631711
 30
0.0
 11
-580.0
 21
432.00000002631708
 31
0.0
  0
LINE
  5
275
  8
OUTLINE
  6
CONTINUOUS
 62
     3
 10
-580.0
 20
419.00000002631521
 30
0.0
 11
-690.0
 21
419.00000002631521
 31
0.0
  0
LINE
  5
276
  8
OUTLINE
  6
CONTINUOUS
 62
     3
 10
-690.0
 20
419.00000002631521
 30
0.0
 11
-690.0
 21
169.00000002631711
 31
0.0
  0
LINE
  5
277
  8
OUTLINE
  6
CONTINUOUS
 62
     3
 10
-690.0
 20
169.00000002631711
 30
0.0
 11
-580.0
 21
169.00000002631711
 31
0.0
  0
LINE
  5
278
  8
OUTLINE
  6
CONTINUOUS
 62
     3
 10
-809.00000134171705
 20
0.0
 30
0.0
 11
-809.0000013417183
 21
58.999998447819941
 31
0.0
  0
LINE
  5
279
  8
OUTLINE
  6
CONTINUOUS
 62
     3
 10
-809.00000134171705
 20
58.999998447819941
 30
0.0
 11
592.99999965799395
 21
58.999998447819941
 31
0.0
  0
LINE
  5
27A
  8
OUTLINE
  6
CONTINUOUS
 62
     3
 10
592.99999965799407
 20
58.999998447819941
 30
0.0
 11
592.99999965799407
 21
0.0
 31
0.0
  0
LINE
  5
27B
  8
OUTLINE
  6
CONTINUOUS
 62
     3
 10
-828.00000084185092
 20
0.0
 30
0.0
 11
-828.00000084185092
 21
-0.9999999736828611
 31
0.0
  0
LINE
  5
27C
  8
OUTLINE
  6
CONTINUOUS
 62
     3
 10
-828.00000084185092
 20
-0.9999999736828611
 30
0.0
 11
611.99999915814851
 21
-0.9999999736828611
 31
0.0
  0
LINE
  5
27D
  8
OUTLINE
  6
CONTINUOUS
 62
     3
 10
611.99999915814863
 20
-0.9999999736828611
 30
0.0
 11
611.99999915814863
 21
0.0
 31
0.0
  0
LINE
  5
27E
  8
OUTLINE
  6
CONTINUOUS
 62
     3
 10
611.99999915814863
 20
0.0
 30
0.0
 11
-828.00000084185092
 21
0.0
 31
0.0
  0
TEXT
  5
27F
  8
ETC
  6
CONTINUOUS
 62
    61
 10
-292.80959412171887
 20
1228.9487250273389
 30
0.0
 40
70.0
  1
PDFY-P71_90M-E2（後吸込）_2
 50
0.0000029998804485
 41
0.8
  0
LINE
  5
280
  8
NOTE
  6
CONTINUOUS
 62
     4
 10
-170.00000315698651
 20
296.00000360424218
 30
0.0
 11
-409.99999684301042
 21
296.00000360424218
 31
0.0
  0
CIRCLE
  5
281
  8
DETAIL
  6
CONTINUOUS
 62
     5
 10
-289.99999999998852
 20
296.00000360424218
 30
0.0
 40
99.999997369175446
  0
CIRCLE
  5
282
  8
DETAIL
  6
CONTINUOUS
 62
     5
 10
-289.99999999998852
 20
296.00000360424218
 30
0.0
 40
85.499997750645022
  0
LINE
  5
283
  8
NOTE
  6
CONTINUOUS
 62
     4
 10
-289.99999999998852
 20
416.00000044725527
 30
0.0
 11
-289.99999999998852
 21
176.0000067612294
 31
0.0
  0
LINE
  5
284
  8
NOTE
  6
CONTINUOUS
 62
     4
 10
149.99999684302239
 20
296.00000360424048
 30
0.0
 11
-89.999996843001441
 21
296.00000360424048
 31
0.0
  0
CIRCLE
  5
285
  8
DETAIL
  6
CONTINUOUS
 62
     5
 10
30.000000000000551
 20
296.00000360424048
 30
0.0
 40
99.999997369175489
  0
CIRCLE
  5
286
  8
DETAIL
  6
CONTINUOUS
 62
     5
 10
30.000000000000551
 20
296.00000360424048
 30
0.0
 40
85.499997750645022
  0
LINE
  5
287
  8
NOTE
  6
CONTINUOUS
 62
     4
 10
30.000000000000551
 20
416.00000044725351
 30
0.0
 11
30.000000000000551
 21
176.00000676122761
 31
0.0
  0
CIRCLE
  5
288
  8
DETAIL
  6
CONTINUOUS
 62
     5
 10
350.00000000000051
 20
296.00000360424048
 30
0.0
 40
99.999997369175489
  0
CIRCLE
  5
289
  8
DETAIL
  6
CONTINUOUS
 62
     5
 10
350.00000000000051
 20
296.00000360424048
 30
0.0
 40
85.499997750644937
  0
LINE
  5
28A
  8
NOTE
  6
CONTINUOUS
 62
     4
 10
469.99999684300411
 20
296.00000360424048
 30
0.0
 11
230.00000315697841
 21
296.00000360424048
 31
0.0
  0
LINE
  5
28B
  8
NOTE
  6
CONTINUOUS
 62
     4
 10
350.00000000000051
 20
416.00000044725351
 30
0.0
 11
350.00000000000051
 21
176.00000676122761
 31
0.0
  0
LINE
  5
28C
  8
SIZE
  6
CONTINUOUS
 62
    30
 10
30.000000000000551
 20
426.00000044725351
 30
0.0
 11
30.000000000000568
 21
537.61609246734042
 31
0.0
  0
LINE
  5
28D
  8
SIZE
  6
CONTINUOUS
 62
    30
 10
-289.99999999999932
 20
426.00000044725351
 30
0.0
 11
-289.99999999999932
 21
537.61609246734042
 31
0.0
  0
LINE
  5
28E
  8
SIZE
  6
CONTINUOUS
 62
    30
 10
30.000000000000568
 20
517.61609246734031
 30
0.0
 11
-289.99999999999932
 21
517.61609246734031
 31
0.0
  0
CIRCLE
  5
28F
  8
SIZE
  6
CONTINUOUS
 62
    30
 10
30.000000000000568
 20
517.61609246734031
 30
0.0
 40
7.5
  0
CIRCLE
  5
290
  8
SIZE
  6
CONTINUOUS
 62
    30
 10
-289.99999999999932
 20
517.61609246734031
 30
0.0
 40
7.5
  0
TEXT
  5
291
  8
SIZE
  6
CONTINUOUS
 62
    30
 10
-187.85714285714221
 20
532.61609246734042
 30
0.0
 40
50.0
  1
320
 41
0.9
 72
     1
 11
-129.9999999999994
 21
532.61609246734042
 31
0.0
  0
POINT
  5
292
  8
DEFPOINTS
  6
CONTINUOUS
 62
     7
 10
30.000000000000551
 20
416.00000044725351
 30
0.0
  0
POINT
  5
293
  8
DEFPOINTS
  6
CONTINUOUS
 62
     7
 10
-289.99999999999932
 20
416.00000044725351
 30
0.0
  0
POINT
  5
294
  8
DEFPOINTS
  6
CONTINUOUS
 62
     7
 10
-289.99999999999932
 20
517.61609246734031
 30
0.0
  0
ENDSEC
  0
EOF
