  0
SECTION
  2
HEADER
  9
$ACADVER
  1
AC1009
  9
$INSBASE
 10
0.0
 20
0.0
 30
0.0
  9
$EXTMIN
 10
-1169.5725913384499
 20
-910.31715742762754
 30
0.0
  9
$EXTMAX
 10
1157.846018784536
 20
873.43826363839162
 30
0.0
  9
$LIMMIN
 10
-4267.1522210604817
 20
-2696.083210198412
  9
$LIMMAX
 10
7190.7174225864646
 20
5141.155363923066
  9
$ORTHOMODE
 70
     0
  9
$REGENMODE
 70
     1
  9
$FILLMODE
 70
     1
  9
$QTEXTMODE
 70
     0
  9
$MIRRTEXT
 70
     0
  9
$DRAGMODE
 70
     2
  9
$LTSCALE
 40
20.0
  9
$OSMODE
 70
   175
  9
$ATTMODE
 70
     1
  9
$TEXTSIZE
 40
64.0
  9
$TRACEWID
 40
0.05
  9
$TEXTSTYLE
  7
NOTE
  9
$CLAYER
  8
SYMBOLLINE
  9
$CELTYPE
  6
CONTINUOUS
  9
$CECOLOR
 62
     7
  9
$DIMSCALE
 40
1.0
  9
$DIMASZ
 40
30.0
  9
$DIMEXO
 40
10.0
  9
$DIMDLI
 40
70.0
  9
$DIMRND
 40
0.0
  9
$DIMDLE
 40
0.0
  9
$DIMEXE
 40
20.0
  9
$DIMTP
 40
0.0
  9
$DIMTM
 40
0.0
  9
$DIMTXT
 40
50.0
  9
$DIMCEN
 40
0.09
  9
$DIMTSZ
 40
0.0
  9
$DIMTOL
 70
     0
  9
$DIMLIM
 70
     0
  9
$DIMTIH
 70
     0
  9
$DIMTOH
 70
     0
  9
$DIMSE1
 70
     0
  9
$DIMSE2
 70
     0
  9
$DIMTAD
 70
     1
  9
$DIMZIN
 70
     8
  9
$DIMBLK
  1
SMALL
  9
$DIMASO
 70
     1
  9
$DIMSHO
 70
     0
  9
$DIMPOST
  1

  9
$DIMAPOST
  1

  9
$DIMALT
 70
     0
  9
$DIMALTD
 70
     2
  9
$DIMALTF
 40
25.399999999999999
  9
$DIMLFAC
 40
1.0
  9
$DIMTOFL
 70
     1
  9
$DIMTVP
 40
0.0
  9
$DIMTIX
 70
     0
  9
$DIMSOXD
 70
     0
  9
$DIMSAH
 70
     0
  9
$DIMBLK1
  1

  9
$DIMBLK2
  1

  9
$DIMSTYLE
  2
STANDARD
  9
$DIMCLRD
 70
     0
  9
$DIMCLRE
 70
     0
  9
$DIMCLRT
 70
     0
  9
$DIMTFAC
 40
1.0
  9
$DIMGAP
 40
0.09
  9
$LUNITS
 70
     2
  9
$LUPREC
 70
     4
  9
$SKETCHINC
 40
0.1
  9
$FILLETRAD
 40
30.0
  9
$AUNITS
 70
     1
  9
$AUPREC
 70
     3
  9
$MENU
  1
ACAD
  9
$ELEVATION
 40
0.0
  9
$PELEVATION
 40
0.0
  9
$THICKNESS
 40
0.0
  9
$LIMCHECK
 70
     0
  9
$BLIPMODE
 70
     0
  9
$CHAMFERA
 40
0.0
  9
$CHAMFERB
 40
0.0
  9
$SKPOLY
 70
     0
  9
$TDCREATE
 40
2450330.4399309959
  9
$TDUPDATE
 40
2455336.4467303818
  9
$TDINDWG
 40
4.7827332639
  9
$TDUSRTIMER
 40
4.7827325347
  9
$USRTIMER
 70
     1
  9
$ANGBASE
 50
0.0
  9
$ANGDIR
 70
     0
  9
$PDMODE
 70
     3
  9
$PDSIZE
 40
-2.0
  9
$PLINEWID
 40
0.0
  9
$COORDS
 70
     0
  9
$SPLFRAME
 70
     0
  9
$SPLINETYPE
 70
     6
  9
$SPLINESEGS
 70
     8
  9
$ATTDIA
 70
     0
  9
$ATTREQ
 70
     1
  9
$HANDLING
 70
     1
  9
$HANDSEED
  5
2FE
  9
$SURFTAB1
 70
     6
  9
$SURFTAB2
 70
     6
  9
$SURFTYPE
 70
     6
  9
$SURFU
 70
     6
  9
$SURFV
 70
     6
  9
$UCSNAME
  2

  9
$UCSORG
 10
0.0
 20
0.0
 30
0.0
  9
$UCSXDIR
 10
1.0
 20
0.0
 30
0.0
  9
$UCSYDIR
 10
0.0
 20
1.0
 30
0.0
  9
$PUCSNAME
  2

  9
$PUCSORG
 10
0.0
 20
0.0
 30
0.0
  9
$PUCSXDIR
 10
1.0
 20
0.0
 30
0.0
  9
$PUCSYDIR
 10
0.0
 20
1.0
 30
0.0
  9
$USERI1
 70
     0
  9
$USERI2
 70
     0
  9
$USERI3
 70
     0
  9
$USERI4
 70
     0
  9
$USERI5
 70
     0
  9
$USERR1
 40
20.0
  9
$USERR2
 40
0.0
  9
$USERR3
 40
0.0
  9
$USERR4
 40
0.0
  9
$USERR5
 40
0.0
  9
$WORLDVIEW
 70
     1
  9
$SHADEDGE
 70
     3
  9
$SHADEDIF
 70
    70
  9
$TILEMODE
 70
     1
  9
$MAXACTVP
 70
    64
  9
$PLIMCHECK
 70
     0
  9
$PEXTMIN
 10
1.0000000000000000E+020
 20
1.0000000000000000E+020
 30
1.0000000000000000E+020
  9
$PEXTMAX
 10
-1.0000000000000000E+020
 20
-1.0000000000000000E+020
 30
-1.0000000000000000E+020
  9
$PLIMMIN
 10
0.0
 20
0.0
  9
$PLIMMAX
 10
12.0
 20
9.0
  9
$UNITMODE
 70
     0
  9
$VISRETAIN
 70
     1
  9
$PLINEGEN
 70
     0
  9
$PSLTSCALE
 70
     1
  0
ENDSEC
  0
SECTION
  2
TABLES
  0
TABLE
  2
VPORT
 70
     1
  0
VPORT
  2
*ACTIVE
 70
     0
 10
0.0
 20
0.0
 11
1.0
 21
1.0
 12
1461.7826007629919
 22
1222.536076862327
 13
0.0
 23
0.0
 14
50.0
 24
50.0
 15
100.0
 25
100.0
 16
0.0
 26
0.0
 36
1.0
 17
0.0
 27
0.0
 37
0.0
 40
7896.6866543297328
 41
1.548101265822784
 42
50.0
 43
0.0
 44
0.0
 50
0.0
 51
0.0
 71
     0
 72
  1000
 73
     1
 74
     0
 75
     0
 76
     0
 77
     0
 78
     0
  0
ENDTAB
  0
TABLE
  2
LTYPE
 70
     2
  0
LTYPE
  2
CONTINUOUS
 70
     0
  3
実線
 72
    65
 73
     0
 40
0.0
  0
LTYPE
  2
DASHDOT
 70
     0
  3
____ _ ____ _ ____ _ ____ _ ____ _ ____ _ ____
 72
    65
 73
     4
 40
5.5
 49
4.0
 49
-0.6
 49
0.3
 49
-0.6
  0
ENDTAB
  0
TABLE
  2
LAYER
 70
    12
  0
LAYER
  2
0
 70
     0
 62
     7
  6
CONTINUOUS
  0
LAYER
  2
SIZE
 70
     0
 62
    30
  6
CONTINUOUS
  0
LAYER
  2
OUTLINE
 70
     0
 62
     3
  6
CONTINUOUS
  0
LAYER
  2
DETAIL
 70
     0
 62
     5
  6
CONTINUOUS
  0
LAYER
  2
BASIS
 70
     0
 62
     6
  6
DASHDOT
  0
LAYER
  2
NOTE
 70
     0
 62
     4
  6
CONTINUOUS
  0
LAYER
  2
ARRANGE
 70
     0
 62
     1
  6
CONTINUOUS
  0
LAYER
  2
FIX
 70
     0
 62
    11
  6
CONTINUOUS
  0
LAYER
  2
SERVICESPACE
 70
     0
 62
     2
  6
DASHDOT
  0
LAYER
  2
ETC
 70
     0
 62
    61
  6
CONTINUOUS
  0
LAYER
  2
SYMBOLLINE
 70
     0
 62
    15
  6
CONTINUOUS
  0
LAYER
  2
DEFPOINTS
 70
     0
 62
     7
  6
CONTINUOUS
  0
ENDTAB
  0
TABLE
  2
STYLE
 70
     4
  0
STYLE
  2
STANDARD
 70
     0
 40
0.0
 41
0.9
 50
0.0
 71
     0
 42
64.0
  3
SIMPLEX
  4
BIGFONT
  0
STYLE
  2
ANNOTATIVE
 70
     0
 40
0.0
 41
1.0
 50
0.0
 71
     0
 42
0.2
  3
txt
  4

  0
STYLE
  2
NOTE
 70
     0
 40
0.0
 41
0.7
 50
0.0
 71
     0
 42
64.0
  3
SIMPLEX.shx
  4
BIGFONT.shx
  0
STYLE
  2
STANDARD1
 70
     0
 40
0.0
 41
1.0
 50
0.0
 71
     0
 42
64.0
  3
MONOTXT
  4
BIGFONT
  0
ENDTAB
  0
TABLE
  2
VIEW
 70
     8
  0
VIEW
  2
ALL
 70
     0
 40
9000.0
 10
241.50664699999999
 20
0.0
 41
12483.01
 11
0.0
 21
0.0
 31
1.0
 12
0.0
 22
0.0
 32
0.0
 42
50.0
 43
0.0
 44
0.0
 50
0.0
 71
     0
  0
ENDTAB
  0
TABLE
  2
UCS
 70
     0
  0
ENDTAB
  0
TABLE
  2
APPID
 70
     3
  0
APPID
  2
ACAD
 70
     0
  0
APPID
  2
ACADANNOTATIVE
 70
     0
  0
APPID
  2
ACAD_MLEADERVER
 70
     0
  0
ENDTAB
  0
TABLE
  2
DIMSTYLE
 70
     2
  0
DIMSTYLE
  2
STANDARD
 70
     0
  3

  4

  5

  6

  7

 40
1.0
 41
0.18
 42
0.0625
 43
0.38
 44
0.18
 45
0.0
 46
0.0
 47
0.0
 48
0.0
140
0.18
141
0.09
142
0.0
143
25.399999999999999
144
1.0
145
0.0
146
1.0
147
0.09
 71
     0
 72
     0
 73
     1
 74
     1
 75
     0
 76
     0
 77
     0
 78
     0
170
     0
171
     2
172
     0
173
     0
174
     0
175
     0
176
     0
177
     0
178
     0
  0
DIMSTYLE
  2
ANNOTATIVE
 70
     0
  3

  4

  5

  6

  7

 40
1.0
 41
0.18
 42
0.0625
 43
0.38
 44
0.18
 45
0.0
 46
0.0
 47
0.0
 48
0.0
140
0.18
141
0.09
142
0.0
143
25.399999999999999
144
1.0
145
0.0
146
1.0
147
0.09
 71
     0
 72
     0
 73
     1
 74
     1
 75
     0
 76
     0
 77
     0
 78
     0
170
     0
171
     2
172
     0
173
     0
174
     0
175
     0
176
     0
177
     0
178
     0
  0
ENDTAB
  0
ENDSEC
  0
SECTION
  2
BLOCKS
  0
BLOCK
  8
0
  2
$MODEL_SPACE
 70
     0
 10
0.0
 20
0.0
 30
0.0
  3
$MODEL_SPACE
  1

  0
ENDBLK
  5
76
  8
0
  0
BLOCK
 67
     1
  8
0
  2
$PAPER_SPACE
 70
     0
 10
0.0
 20
0.0
 30
0.0
  3
$PAPER_SPACE
  1

  0
ENDBLK
  5
72
 67
     1
  8
0
  0
BLOCK
  8
0
  2
_SMALL
 70
     0
 10
0.0
 20
0.0
 30
0.0
  3
_SMALL
  1

  0
CIRCLE
  5
8D
  8
0
  6
CONTINUOUS
 62
     7
 10
0.0
 20
0.0
 30
0.0
 40
0.25
  0
ENDBLK
  5
8E
  8
0
  0
ENDSEC
  0
SECTION
  2
ENTITIES
  0
LINE
  5
8F
  8
SERVICESPACE
  6
DASHDOT
 62
     2
 10
-821.00000102601655
 20
-133.4999999999998
 30
0.0
 11
604.99999789535184
 21
-133.4999999999998
 31
0.0
  0
LINE
  5
90
  8
SERVICESPACE
  6
DASHDOT
 62
     2
 10
-821.00000102601655
 20
496.4999834258121
 30
0.0
 11
604.99999789535184
 21
496.4999834258121
 31
0.0
  0
LINE
  5
91
  8
DETAIL
  6
CONTINUOUS
 62
     5
 10
-579.99999999999807
 20
-367.5
 30
0.0
 11
580.00000000000193
 21
-367.5
 31
0.0
  0
LINE
  5
92
  8
SERVICESPACE
  6
DASHDOT
 62
     2
 10
-821.00000102601655
 20
496.4999834258121
 30
0.0
 11
-821.00000102601655
 21
-133.4999999999998
 31
0.0
  0
LINE
  5
93
  8
DETAIL
  6
CONTINUOUS
 62
     5
 10
-595.99999957907301
 20
-363.0
 30
0.0
 11
-595.99999957907301
 21
-339.50000061824539
 31
0.0
  0
ARC
  5
94
  8
DETAIL
  6
CONTINUOUS
 62
     5
 10
-573.00003093848466
 20
-341.50000056562197
 30
0.0
 40
6.9999998158423153
 50
180.0
 51
0.0
  0
ARC
  5
95
  8
DETAIL
  6
CONTINUOUS
 62
     5
 10
-573.00003093848466
 20
-341.50000056562197
 30
0.0
 40
6.9999998158423153
 50
180.0
 51
0.0
  0
LINE
  5
96
  8
DETAIL
  6
CONTINUOUS
 62
     5
 10
-595.99999957907301
 20
-363.0
 30
0.0
 11
-595.99999957907301
 21
-339.50000061824539
 31
0.0
  0
LINE
  5
97
  8
DETAIL
  6
CONTINUOUS
 62
     5
 10
-557.20003135415016
 20
-363.0
 30
0.0
 11
-557.20003135415016
 21
-304.00000155218362
 31
0.0
  0
LINE
  5
98
  8
DETAIL
  6
CONTINUOUS
 62
     5
 10
-579.99999999999807
 20
-363.0
 30
0.0
 11
-579.99999999999807
 21
-367.5
 31
0.0
  0
LINE
  5
99
  8
DETAIL
  6
CONTINUOUS
 62
     5
 10
-557.20003135415016
 20
-363.0
 30
0.0
 11
-595.99999957907301
 21
-363.0
 31
0.0
  0
LINE
  5
9A
  8
DETAIL
  6
CONTINUOUS
 62
     5
 10
-579.99999999999807
 20
-304.00000155218362
 30
0.0
 11
-579.99999999999807
 21
-143.4999997369159
 31
0.0
  0
LINE
  5
9B
  8
DETAIL
  6
CONTINUOUS
 62
     5
 10
-566.00003112263005
 20
-341.50000056562197
 30
0.0
 11
-566.00003112263005
 21
-325.50000098655801
 31
0.0
  0
LINE
  5
9C
  8
DETAIL
  6
CONTINUOUS
 62
     5
 10
-595.99999957907301
 20
-327.5000009339455
 30
0.0
 11
-595.99999957907301
 21
-304.00000155218362
 31
0.0
  0
LINE
  5
9D
  8
DETAIL
  6
CONTINUOUS
 62
     5
 10
-580.00003075431755
 20
-339.50000061824539
 30
0.0
 11
-595.99999957907301
 21
-339.50000061824539
 31
0.0
  0
LINE
  5
9E
  8
DETAIL
  6
CONTINUOUS
 62
     5
 10
-580.00003075431755
 20
-327.5000009339455
 30
0.0
 11
-580.00003075431755
 21
-325.50000098655801
 31
0.0
  0
ARC
  5
9F
  8
DETAIL
  6
CONTINUOUS
 62
     5
 10
-573.00003093848466
 20
-325.50000098655801
 30
0.0
 40
6.9999998158422709
 50
0.0
 51
180.0
  0
LINE
  5
A0
  8
DETAIL
  6
CONTINUOUS
 62
     5
 10
-580.00003075431755
 20
-341.50000056562197
 30
0.0
 11
-580.00003075431755
 21
-339.50000061824539
 31
0.0
  0
LINE
  5
A1
  8
DETAIL
  6
CONTINUOUS
 62
     5
 10
-595.99999957907301
 20
-327.5000009339455
 30
0.0
 11
-595.99999957907301
 21
-304.00000155218362
 31
0.0
  0
LINE
  5
A2
  8
DETAIL
  6
CONTINUOUS
 62
     5
 10
-580.00003075431755
 20
-341.50000056562197
 30
0.0
 11
-580.00003075431755
 21
-339.50000061824539
 31
0.0
  0
ARC
  5
A3
  8
DETAIL
  6
CONTINUOUS
 62
     5
 10
-573.00003093848466
 20
-325.50000098655801
 30
0.0
 40
6.9999998158422709
 50
0.0
 51
180.0
  0
LINE
  5
A4
  8
DETAIL
  6
CONTINUOUS
 62
     5
 10
-580.00003075431755
 20
-327.5000009339455
 30
0.0
 11
-580.00003075431755
 21
-325.50000098655801
 31
0.0
  0
LINE
  5
A5
  8
DETAIL
  6
CONTINUOUS
 62
     5
 10
-580.00003075431755
 20
-327.5000009339455
 30
0.0
 11
-595.99999957907301
 21
-327.5000009339455
 31
0.0
  0
LINE
  5
A6
  8
DETAIL
  6
CONTINUOUS
 62
     5
 10
-566.00003112263005
 20
-341.50000056562197
 30
0.0
 11
-566.00003112263005
 21
-325.50000098655801
 31
0.0
  0
LINE
  5
A7
  8
DETAIL
  6
CONTINUOUS
 62
     5
 10
-557.20003135415016
 20
-304.00000155218362
 30
0.0
 11
-595.99999957907301
 21
-304.00000155218362
 31
0.0
  0
LINE
  5
A8
  8
SERVICESPACE
  6
DASHDOT
 62
     2
 10
604.99999934229538
 20
496.49998342581262
 30
0.0
 11
604.99999934229538
 21
-133.49999999999969
 31
0.0
  0
LINE
  5
A9
  8
DETAIL
  6
CONTINUOUS
 62
     5
 10
595.99999897399186
 20
-362.99999999999972
 30
0.0
 11
595.99999897399186
 21
-339.50000061824511
 31
0.0
  0
ARC
  5
AA
  8
DETAIL
  6
CONTINUOUS
 62
     5
 10
572.99999957908585
 20
-341.5000005656218
 30
0.0
 40
6.9999998158422283
 50
180.0
 51
0.0
  0
ARC
  5
AB
  8
DETAIL
  6
CONTINUOUS
 62
     5
 10
572.99999957908585
 20
-341.5000005656218
 30
0.0
 40
6.9999998158422283
 50
180.0
 51
0.0
  0
LINE
  5
AC
  8
DETAIL
  6
CONTINUOUS
 62
     5
 10
595.99999897399186
 20
-362.99999999999972
 30
0.0
 11
595.99999897399186
 21
-339.50000061824511
 31
0.0
  0
LINE
  5
AD
  8
DETAIL
  6
CONTINUOUS
 62
     5
 10
557.19999999474942
 20
-362.99999999999972
 30
0.0
 11
557.19999999474942
 21
-304.00000155218339
 31
0.0
  0
LINE
  5
AE
  8
DETAIL
  6
CONTINUOUS
 62
     5
 10
580.00000000000193
 20
-362.99999999999972
 30
0.0
 11
580.00000000000193
 21
-367.49999999999972
 31
0.0
  0
LINE
  5
AF
  8
DETAIL
  6
CONTINUOUS
 62
     5
 10
557.19999999474942
 20
-362.99999999999972
 30
0.0
 11
595.99999897399186
 21
-362.99999999999972
 31
0.0
  0
LINE
  5
B0
  8
DETAIL
  6
CONTINUOUS
 62
     5
 10
580.00000000000193
 20
-304.00000155218339
 30
0.0
 11
580.00000000000193
 21
-143.49999973691561
 31
0.0
  0
LINE
  5
B1
  8
DETAIL
  6
CONTINUOUS
 62
     5
 10
565.99999976323124
 20
-341.5000005656218
 30
0.0
 11
565.99999976323124
 21
-325.50000098655772
 31
0.0
  0
LINE
  5
B2
  8
DETAIL
  6
CONTINUOUS
 62
     5
 10
595.99999897399186
 20
-327.50000093394522
 30
0.0
 11
595.99999897399186
 21
-304.00000155218339
 31
0.0
  0
LINE
  5
B3
  8
DETAIL
  6
CONTINUOUS
 62
     5
 10
579.99999939491875
 20
-339.50000061824511
 30
0.0
 11
595.99999897399186
 21
-339.50000061824511
 31
0.0
  0
LINE
  5
B4
  8
DETAIL
  6
CONTINUOUS
 62
     5
 10
579.99999939491875
 20
-327.50000093394522
 30
0.0
 11
595.99999897399186
 21
-327.50000093394522
 31
0.0
  0
LINE
  5
B5
  8
DETAIL
  6
CONTINUOUS
 62
     5
 10
579.99999939491875
 20
-327.50000093394522
 30
0.0
 11
579.99999939491875
 21
-325.50000098655772
 31
0.0
  0
ARC
  5
B6
  8
DETAIL
  6
CONTINUOUS
 62
     5
 10
572.99999957908585
 20
-325.50000098655772
 30
0.0
 40
6.9999998158423926
 50
0.0
 51
180.0
  0
LINE
  5
B7
  8
DETAIL
  6
CONTINUOUS
 62
     5
 10
579.99999939491875
 20
-341.5000005656218
 30
0.0
 11
579.99999939491875
 21
-339.50000061824511
 31
0.0
  0
LINE
  5
B8
  8
DETAIL
  6
CONTINUOUS
 62
     5
 10
579.99999939491875
 20
-341.5000005656218
 30
0.0
 11
579.99999939491875
 21
-339.50000061824511
 31
0.0
  0
ARC
  5
B9
  8
DETAIL
  6
CONTINUOUS
 62
     5
 10
572.99999957908585
 20
-325.50000098655772
 30
0.0
 40
6.9999998158423926
 50
0.0
 51
180.0
  0
LINE
  5
BA
  8
DETAIL
  6
CONTINUOUS
 62
     5
 10
579.99999939491875
 20
-327.50000093394522
 30
0.0
 11
579.99999939491875
 21
-325.50000098655772
 31
0.0
  0
LINE
  5
BB
  8
DETAIL
  6
CONTINUOUS
 62
     5
 10
579.99999939491875
 20
-327.50000093394522
 30
0.0
 11
595.99999897399186
 21
-327.50000093394522
 31
0.0
  0
LINE
  5
BC
  8
DETAIL
  6
CONTINUOUS
 62
     5
 10
579.99999939491875
 20
-339.50000061824511
 30
0.0
 11
595.99999897399186
 21
-339.50000061824511
 31
0.0
  0
LINE
  5
BD
  8
DETAIL
  6
CONTINUOUS
 62
     5
 10
595.99999897399186
 20
-327.50000093394522
 30
0.0
 11
595.99999897399186
 21
-304.00000155218339
 31
0.0
  0
LINE
  5
BE
  8
DETAIL
  6
CONTINUOUS
 62
     5
 10
565.99999976323124
 20
-341.5000005656218
 30
0.0
 11
565.99999976323124
 21
-325.50000098655772
 31
0.0
  0
LINE
  5
BF
  8
DETAIL
  6
CONTINUOUS
 62
     5
 10
557.19999999474942
 20
-304.00000155218339
 30
0.0
 11
595.99999897399186
 21
-304.00000155218339
 31
0.0
  0
LINE
  5
C0
  8
NOTE
  6
CONTINUOUS
 62
     4
 10
572.99999957909495
 20
-355.10498273402447
 30
0.0
 11
572.99999957909495
 21
-311.89501881815858
 31
0.0
  0
LINE
  5
C1
  8
NOTE
  6
CONTINUOUS
 62
     4
 10
594.60498153702076
 20
-333.50000077609337
 30
0.0
 11
551.39501762115299
 21
-333.50000077609337
 31
0.0
  0
CIRCLE
  5
C2
  8
FIX
  6
CONTINUOUS
 62
    11
 10
572.99999957909495
 20
-333.50000077609337
 30
0.0
 40
15.469521245178219
  0
LINE
  5
C3
  8
NOTE
  6
CONTINUOUS
 62
     4
 10
-573.00003093847386
 20
-355.10498273402482
 30
0.0
 11
-573.00003093847386
 21
-311.8950188181588
 31
0.0
  0
LINE
  5
C4
  8
NOTE
  6
CONTINUOUS
 62
     4
 10
-551.39504898054815
 20
-333.50000077609371
 30
0.0
 11
-594.60501289641604
 21
-333.50000077609371
 31
0.0
  0
CIRCLE
  5
C5
  8
FIX
  6
CONTINUOUS
 62
    11
 10
-573.00003093847386
 20
-333.50000077609371
 30
0.0
 40
15.469521245178219
  0
LINE
  5
C6
  8
DETAIL
  6
CONTINUOUS
 62
     5
 10
-828.0000008418491
 20
-143.4999997369159
 30
0.0
 11
-828.0000008418491
 21
506.49998316272462
 31
0.0
  0
LINE
  5
C7
  8
DETAIL
  6
CONTINUOUS
 62
     5
 10
-828.0000008418491
 20
506.49998316272462
 30
0.0
 11
611.99999771120645
 21
506.49998316272462
 31
0.0
  0
LINE
  5
C8
  8
DETAIL
  6
CONTINUOUS
 62
     5
 10
611.99999915814999
 20
506.49998316272479
 30
0.0
 11
611.99999915814999
 21
-143.49999973691561
 31
0.0
  0
LINE
  5
C9
  8
DETAIL
  6
CONTINUOUS
 62
     5
 10
-828.0000008418491
 20
-143.4999997369159
 30
0.0
 11
611.99999771120645
 21
-143.4999997369159
 31
0.0
  0
LINE
  5
CA
  8
DETAIL
  6
CONTINUOUS
 62
     5
 10
-616.00000110491953
 20
-165.0000002762026
 30
0.0
 11
-603.00000144692569
 21
-165.0000002762026
 31
0.0
  0
LINE
  5
CB
  8
DETAIL
  6
CONTINUOUS
 62
     5
 10
-616.00000110491953
 20
-185.9999997237318
 30
0.0
 11
-603.00000144692569
 21
-185.9999997237318
 31
0.0
  0
LINE
  5
CC
  8
DETAIL
  6
CONTINUOUS
 62
     5
 10
-619.00000102600075
 20
-170.00000014466781
 30
0.0
 11
-616.00000110491953
 21
-165.0000002762026
 31
0.0
  0
LINE
  5
CD
  8
DETAIL
  6
CONTINUOUS
 62
     5
 10
-616.00000110491953
 20
-185.9999997237318
 30
0.0
 11
-616.00000110491953
 21
-165.0000002762026
 31
0.0
  0
LINE
  5
CE
  8
DETAIL
  6
CONTINUOUS
 62
     5
 10
-619.00000102600075
 20
-180.9999998552739
 30
0.0
 11
-616.00000110491953
 21
-185.9999997237318
 31
0.0
  0
LINE
  5
CF
  8
DETAIL
  6
CONTINUOUS
 62
     5
 10
-619.00000102600075
 20
-180.9999998552739
 30
0.0
 11
-619.00000102600075
 21
-170.00000014466781
 31
0.0
  0
LINE
  5
D0
  8
DETAIL
  6
CONTINUOUS
 62
     5
 10
-602.00000147323385
 20
-170.74000000000001
 30
0.0
 11
-600.00000152584641
 21
-170.74000000000001
 31
0.0
  0
LINE
  5
D1
  8
DETAIL
  6
CONTINUOUS
 62
     5
 10
-600.00000152584641
 20
-167.00000022359009
 30
0.0
 11
-599.00000155215264
 21
-166.00000024989271
 31
0.0
  0
LINE
  5
D2
  8
DETAIL
  6
CONTINUOUS
 62
     5
 10
-603.00000144692569
 20
-165.0000002762026
 30
0.0
 11
-602.00000147323385
 21
-166.00000024989271
 31
0.0
  0
LINE
  5
D3
  8
DETAIL
  6
CONTINUOUS
 62
     5
 10
-602.00000147323385
 20
-184.99999975003811
 30
0.0
 11
-602.00000147323385
 21
-166.00000024989271
 31
0.0
  0
LINE
  5
D4
  8
DETAIL
  6
CONTINUOUS
 62
     5
 10
-600.00000152584641
 20
-183.99999977634431
 30
0.0
 11
-600.00000152584641
 21
-167.00000022359009
 31
0.0
  0
LINE
  5
D5
  8
DETAIL
  6
CONTINUOUS
 62
     5
 10
-602.00000147323385
 20
-180.25999999999999
 30
0.0
 11
-600.00000152584641
 21
-180.25999999999999
 31
0.0
  0
LINE
  5
D6
  8
DETAIL
  6
CONTINUOUS
 62
     5
 10
-600.00000152584641
 20
-183.99999977634431
 30
0.0
 11
-599.00000155215264
 21
-184.99999975003811
 31
0.0
  0
LINE
  5
D7
  8
DETAIL
  6
CONTINUOUS
 62
     5
 10
-602.00000147323385
 20
-184.99999975003811
 30
0.0
 11
-603.00000144692569
 21
-185.9999997237318
 31
0.0
  0
LINE
  5
D8
  8
DETAIL
  6
CONTINUOUS
 62
     5
 10
-599.00000155215264
 20
-184.99999975003811
 30
0.0
 11
-579.99999999999807
 21
-184.99999975003811
 31
0.0
  0
LINE
  5
D9
  8
DETAIL
  6
CONTINUOUS
 62
     5
 10
-599.00000155215264
 20
-166.00000024989271
 30
0.0
 11
-579.99999999999807
 21
-166.00000024989271
 31
0.0
  0
LINE
  5
DA
  8
NOTE
  6
CONTINUOUS
 62
     4
 10
-597.39501906807504
 20
-175.49999999997809
 30
0.0
 11
-640.60498298394282
 21
-175.49999999997809
 31
0.0
  0
LINE
  5
DB
  8
NOTE
  6
CONTINUOUS
 62
     4
 10
-619.00000102597085
 20
-175.49999999994199
 30
0.0
 11
-651.86216765995505
 21
-165.37934286462041
 31
0.0
  0
LINE
  5
DC
  8
NOTE
  6
CONTINUOUS
 62
     4
 10
-619.00000102597085
 20
-175.49999999994199
 30
0.0
 11
-642.39914243638236
 21
-150.3041699450138
 31
0.0
  0
LINE
  5
DD
  8
DETAIL
  6
CONTINUOUS
 62
     5
 10
-596.00000068403256
 20
-226.5000003420281
 30
0.0
 11
-610.00000031571994
 21
-226.5000003420281
 31
0.0
  0
LINE
  5
DE
  8
DETAIL
  6
CONTINUOUS
 62
     5
 10
-596.00000068403256
 20
-252.49999965801541
 30
0.0
 11
-610.00000031571994
 21
-252.49999965801541
 31
0.0
  0
LINE
  5
DF
  8
DETAIL
  6
CONTINUOUS
 62
     5
 10
-610.00000031571994
 20
-226.5000003420281
 30
0.0
 11
-610.00000031571994
 21
-252.49999965801541
 31
0.0
  0
LINE
  5
E0
  8
DETAIL
  6
CONTINUOUS
 62
     5
 10
-610.00000031571994
 20
-226.5000003420281
 30
0.0
 11
-616.00000015785895
 21
-230.00000024994361
 31
0.0
  0
LINE
  5
E1
  8
DETAIL
  6
CONTINUOUS
 62
     5
 10
-616.00000015785895
 20
-230.00000024994361
 30
0.0
 11
-616.00000015785895
 21
-248.99999975008529
 31
0.0
  0
LINE
  5
E2
  8
DETAIL
  6
CONTINUOUS
 62
     5
 10
-616.00000015785895
 20
-248.99999975008529
 30
0.0
 11
-610.00000031571994
 21
-252.49999965801541
 31
0.0
  0
LINE
  5
E3
  8
DETAIL
  6
CONTINUOUS
 62
     5
 10
-590.00000084187184
 20
-230.00000024994361
 30
0.0
 11
-588.00000089450612
 21
-228.000000302567
 31
0.0
  0
LINE
  5
E4
  8
DETAIL
  6
CONTINUOUS
 62
     5
 10
-594.00000073664501
 20
-228.5000002894121
 30
0.0
 11
-594.00000073664501
 21
-250.49999971062789
 31
0.0
  0
LINE
  5
E5
  8
DETAIL
  6
CONTINUOUS
 62
     5
 10
-579.99999999999807
 20
-250.9999996974729
 30
0.0
 11
-588.00000089450612
 21
-250.9999996974729
 31
0.0
  0
LINE
  5
E6
  8
DETAIL
  6
CONTINUOUS
 62
     5
 10
-590.00000084187184
 20
-230.00000024994361
 30
0.0
 11
-590.00000084187184
 21
-248.99999975008529
 31
0.0
  0
LINE
  5
E7
  8
DETAIL
  6
CONTINUOUS
 62
     5
 10
-590.00000084187184
 20
-248.99999975008529
 30
0.0
 11
-588.00000089450612
 21
-250.9999996974729
 31
0.0
  0
LINE
  5
E8
  8
DETAIL
  6
CONTINUOUS
 62
     5
 10
-594.00000073664501
 20
-231.56
 30
0.0
 11
-590.00000084187184
 21
-231.56
 31
0.0
  0
LINE
  5
E9
  8
DETAIL
  6
CONTINUOUS
 62
     5
 10
-594.00000073664501
 20
-247.44
 30
0.0
 11
-590.00000084187184
 21
-247.44
 31
0.0
  0
LINE
  5
EA
  8
DETAIL
  6
CONTINUOUS
 62
     5
 10
-594.00000073664501
 20
-250.49999971062789
 30
0.0
 11
-596.00000068403256
 21
-252.49999965801541
 31
0.0
  0
LINE
  5
EB
  8
DETAIL
  6
CONTINUOUS
 62
     5
 10
-579.99999999999807
 20
-228.000000302567
 30
0.0
 11
-588.00000089450612
 21
-228.000000302567
 31
0.0
  0
LINE
  5
EC
  8
DETAIL
  6
CONTINUOUS
 62
     5
 10
-594.00000073664501
 20
-228.5000002894121
 30
0.0
 11
-596.00000068403256
 21
-226.5000003420281
 31
0.0
  0
LINE
  5
ED
  8
NOTE
  6
CONTINUOUS
 62
     4
 10
-616.00000015785895
 20
-261.10498195795287
 30
0.0
 11
-616.00000015785895
 21
-217.895018042087
 31
0.0
  0
LINE
  5
EE
  8
NOTE
  6
CONTINUOUS
 62
     4
 10
-594.39501819993325
 20
-239.5000000000218
 30
0.0
 11
-637.60498211580114
 21
-239.5000000000218
 31
0.0
  0
LINE
  5
EF
  8
NOTE
  6
CONTINUOUS
 62
     4
 10
-615.99999973232855
 20
-239.50000035176711
 30
0.0
 11
-623.81948260668651
 21
-272.98440544292288
 31
0.0
  0
LINE
  5
F0
  8
NOTE
  6
CONTINUOUS
 62
     4
 10
-615.99999973232855
 20
-239.50000035176711
 30
0.0
 11
-639.51407372567803
 21
-264.58860324505463
 31
0.0
  0
LINE
  5
F1
  8
NOTE
  6
CONTINUOUS
 62
     4
 10
-619.00000102600075
 20
-197.1049819579128
 30
0.0
 11
-619.00000102600075
 21
-153.89501804204329
 31
0.0
  0
LINE
  5
F2
  8
SIZE
  6
CONTINUOUS
 62
    30
 10
-579.99999999999807
 20
-377.49999999999989
 30
0.0
 11
-579.99999999999807
 21
-734.73722470532073
 31
0.0
  0
LINE
  5
F3
  8
SIZE
  6
CONTINUOUS
 62
    30
 10
580.00000000000375
 20
-377.49999999999972
 30
0.0
 11
580.00000000000375
 21
-734.73722470532073
 31
0.0
  0
LINE
  5
F4
  8
SIZE
  6
CONTINUOUS
 62
    30
 10
-579.99999999999807
 20
-714.73722470532073
 30
0.0
 11
580.00000000000375
 21
-714.73722470532073
 31
0.0
  0
CIRCLE
  5
F5
  8
SIZE
  6
CONTINUOUS
 62
    30
 10
-579.99999999999807
 20
-714.73722470532073
 30
0.0
 40
7.5
  0
CIRCLE
  5
F6
  8
SIZE
  6
CONTINUOUS
 62
    30
 10
580.00000000000375
 20
-714.73722470532073
 30
0.0
 40
7.5
  0
TEXT
  5
F7
  8
SIZE
  6
CONTINUOUS
 62
    30
 10
-70.714285714282852
 20
-699.73722470532073
 30
0.0
 40
50.0
  1
1160
 41
0.9
 72
     1
 11
0.0000000000028422
 21
-699.73722470532073
 31
0.0
  0
POINT
  5
F8
  8
DEFPOINTS
  6
CONTINUOUS
 62
     7
 10
-579.99999999999807
 20
-367.5
 30
0.0
  0
POINT
  5
F9
  8
DEFPOINTS
  6
CONTINUOUS
 62
     7
 10
580.00000000000375
 20
-367.49999999999972
 30
0.0
  0
POINT
  5
FA
  8
DEFPOINTS
  6
CONTINUOUS
 62
     7
 10
580.00000000000375
 20
-714.73722470532073
 30
0.0
  0
LINE
  5
FB
  8
SIZE
  6
CONTINUOUS
 62
    30
 10
580.00000000000193
 20
-377.49999999999972
 30
0.0
 11
580.00000000000193
 21
-734.73722470532073
 31
0.0
  0
LINE
  5
FC
  8
SIZE
  6
CONTINUOUS
 62
    30
 10
595.99999897399186
 20
-372.99999999999972
 30
0.0
 11
595.99999897399186
 21
-734.73722470532073
 31
0.0
  0
LINE
  5
FD
  8
SIZE
  6
CONTINUOUS
 62
    30
 10
580.00000000000193
 20
-714.73722470532073
 30
0.0
 11
550.00000000000193
 21
-714.73722470532073
 31
0.0
  0
LINE
  5
FE
  8
SIZE
  6
CONTINUOUS
 62
    30
 10
595.99999897399186
 20
-714.73722470532073
 30
0.0
 11
748.14285611684875
 21
-714.73722470532073
 31
0.0
  0
LINE
  5
FF
  8
SIZE
  6
CONTINUOUS
 62
    30
 10
580.00000000000193
 20
-714.73722470532073
 30
0.0
 11
595.99999897399186
 21
-714.73722470532073
 31
0.0
  0
CIRCLE
  5
100
  8
SIZE
  6
CONTINUOUS
 62
    30
 10
580.00000000000193
 20
-714.73722470532073
 30
0.0
 40
7.5
  0
CIRCLE
  5
101
  8
SIZE
  6
CONTINUOUS
 62
    30
 10
595.99999897399186
 20
-714.73722470532073
 30
0.0
 40
7.5
  0
TEXT
  5
102
  8
SIZE
  6
CONTINUOUS
 62
    30
 10
670.99999897399186
 20
-699.73722470532073
 30
0.0
 40
50.0
  1
16
 41
0.9
 72
     1
 11
702.07142754542042
 21
-699.73722470532073
 31
0.0
  0
POINT
  5
103
  8
DEFPOINTS
  6
CONTINUOUS
 62
     7
 10
580.00000000000193
 20
-367.49999999999972
 30
0.0
  0
POINT
  5
104
  8
DEFPOINTS
  6
CONTINUOUS
 62
     7
 10
595.99999897399186
 20
-362.99999999999972
 30
0.0
  0
POINT
  5
105
  8
DEFPOINTS
  6
CONTINUOUS
 62
     7
 10
595.99999897399186
 20
-714.73722470532073
 30
0.0
  0
LINE
  5
106
  8
SIZE
  6
CONTINUOUS
 62
    30
 10
-579.99999999999807
 20
-377.49999999999989
 30
0.0
 11
-579.99999999999807
 21
-734.73722470532073
 31
0.0
  0
LINE
  5
107
  8
SIZE
  6
CONTINUOUS
 62
    30
 10
-595.99999957907301
 20
-373.0
 30
0.0
 11
-595.99999957907301
 21
-734.73722470532073
 31
0.0
  0
LINE
  5
108
  8
SIZE
  6
CONTINUOUS
 62
    30
 10
-579.99999999999807
 20
-714.73722470532073
 30
0.0
 11
-549.99999999999795
 21
-714.73722470532073
 31
0.0
  0
LINE
  5
109
  8
SIZE
  6
CONTINUOUS
 62
    30
 10
-595.99999957907301
 20
-714.73722470532073
 30
0.0
 11
-748.14285672193012
 21
-714.73722470532073
 31
0.0
  0
LINE
  5
10A
  8
SIZE
  6
CONTINUOUS
 62
    30
 10
-579.99999999999807
 20
-714.73722470532073
 30
0.0
 11
-595.99999957907301
 21
-714.73722470532073
 31
0.0
  0
CIRCLE
  5
10B
  8
SIZE
  6
CONTINUOUS
 62
    30
 10
-579.99999999999807
 20
-714.73722470532073
 30
0.0
 40
7.5
  0
CIRCLE
  5
10C
  8
SIZE
  6
CONTINUOUS
 62
    30
 10
-595.99999957907301
 20
-714.73722470532073
 30
0.0
 40
7.5
  0
TEXT
  5
10D
  8
SIZE
  6
CONTINUOUS
 62
    30
 10
-733.14285672193012
 20
-699.73722470532073
 30
0.0
 40
50.0
  1
16
 41
0.9
 72
     1
 11
-702.07142815050145
 21
-699.73722470532073
 31
0.0
  0
POINT
  5
10E
  8
DEFPOINTS
  6
CONTINUOUS
 62
     7
 10
-579.99999999999807
 20
-367.5
 30
0.0
  0
POINT
  5
10F
  8
DEFPOINTS
  6
CONTINUOUS
 62
     7
 10
-595.99999957907301
 20
-363.0
 30
0.0
  0
POINT
  5
110
  8
DEFPOINTS
  6
CONTINUOUS
 62
     7
 10
-595.99999957907301
 20
-714.73722470532073
 30
0.0
  0
LINE
  5
111
  8
SIZE
  6
CONTINUOUS
 62
    30
 10
572.99999957909495
 20
-365.10498273402482
 30
0.0
 11
572.99999957909495
 21
-823.35818534927967
 31
0.0
  0
LINE
  5
112
  8
SIZE
  6
CONTINUOUS
 62
    30
 10
-573.00003093847386
 20
-365.10498273402482
 30
0.0
 11
-573.00003093847386
 21
-823.35818534927967
 31
0.0
  0
LINE
  5
113
  8
SIZE
  6
CONTINUOUS
 62
    30
 10
572.99999957909495
 20
-803.35818534927944
 30
0.0
 11
-573.00003093847386
 21
-803.35818534927944
 31
0.0
  0
CIRCLE
  5
114
  8
SIZE
  6
CONTINUOUS
 62
    30
 10
572.99999957909495
 20
-803.35818534927944
 30
0.0
 40
7.5
  0
CIRCLE
  5
115
  8
SIZE
  6
CONTINUOUS
 62
    30
 10
-573.00003093847386
 20
-803.35818534927944
 30
0.0
 40
7.5
  0
TEXT
  5
116
  8
SIZE
  6
CONTINUOUS
 62
    30
 10
-306.38484441843877
 20
-788.35818534927944
 30
0.0
 40
50.0
  1
1146（吊りボルトピッチ）
 41
0.9
 72
     1
 11
22.758012724418329
 21
-788.35818534927944
 31
0.0
  0
POINT
  5
117
  8
DEFPOINTS
  6
CONTINUOUS
 62
     7
 10
572.99999957909495
 20
-355.10498273402482
 30
0.0
  0
POINT
  5
118
  8
DEFPOINTS
  6
CONTINUOUS
 62
     7
 10
-573.00003093847386
 20
-355.10498273402482
 30
0.0
  0
POINT
  5
119
  8
DEFPOINTS
  6
CONTINUOUS
 62
     7
 10
-573.00003093847386
 20
-803.35818534927944
 30
0.0
  0
LINE
  5
11A
  8
SIZE
  6
CONTINUOUS
 62
    30
 10
-573.00003093847386
 20
-365.10498273402482
 30
0.0
 11
-573.00003093847386
 21
-823.35818534927967
 31
0.0
  0
LINE
  5
11B
  8
SIZE
  6
CONTINUOUS
 62
    30
 10
-595.99999957907301
 20
-373.0
 30
0.0
 11
-595.99999957907301
 21
-823.35818534927967
 31
0.0
  0
LINE
  5
11C
  8
SIZE
  6
CONTINUOUS
 62
    30
 10
-573.00003093847386
 20
-803.35818534927944
 30
0.0
 11
-543.00003093847386
 21
-803.35818534927944
 31
0.0
  0
LINE
  5
11D
  8
SIZE
  6
CONTINUOUS
 62
    30
 10
-595.99999957907301
 20
-803.35818534927944
 30
0.0
 11
-758.85714243621555
 21
-803.35818534927944
 31
0.0
  0
LINE
  5
11E
  8
SIZE
  6
CONTINUOUS
 62
    30
 10
-573.00003093847386
 20
-803.35818534927944
 30
0.0
 11
-595.99999957907301
 21
-803.35818534927944
 31
0.0
  0
CIRCLE
  5
11F
  8
SIZE
  6
CONTINUOUS
 62
    30
 10
-573.00003093847386
 20
-803.35818534927944
 30
0.0
 40
7.5
  0
CIRCLE
  5
120
  8
SIZE
  6
CONTINUOUS
 62
    30
 10
-595.99999957907301
 20
-803.35818534927944
 30
0.0
 40
7.5
  0
TEXT
  5
121
  8
SIZE
  6
CONTINUOUS
 62
    30
 10
-743.8571424362159
 20
-788.35818534927944
 30
0.0
 40
50.0
  1
23
 41
0.9
 72
     1
 11
-707.42857100764445
 21
-788.35818534927944
 31
0.0
  0
POINT
  5
122
  8
DEFPOINTS
  6
CONTINUOUS
 62
     7
 10
-573.00003093847386
 20
-355.10498273402482
 30
0.0
  0
POINT
  5
123
  8
DEFPOINTS
  6
CONTINUOUS
 62
     7
 10
-595.99999957907301
 20
-363.0
 30
0.0
  0
POINT
  5
124
  8
DEFPOINTS
  6
CONTINUOUS
 62
     7
 10
-595.99999957907301
 20
-803.35818534927944
 30
0.0
  0
LINE
  5
125
  8
SIZE
  6
CONTINUOUS
 62
    30
 10
572.99999957909495
 20
-365.10498273402459
 30
0.0
 11
572.99999957909495
 21
-823.35818534927967
 31
0.0
  0
LINE
  5
126
  8
SIZE
  6
CONTINUOUS
 62
    30
 10
595.99999897399186
 20
-372.99999999999972
 30
0.0
 11
595.99999897399186
 21
-823.35818534927967
 31
0.0
  0
LINE
  5
127
  8
SIZE
  6
CONTINUOUS
 62
    30
 10
572.99999957909495
 20
-803.35818534927944
 30
0.0
 11
542.99999957909495
 21
-803.35818534927944
 31
0.0
  0
LINE
  5
128
  8
SIZE
  6
CONTINUOUS
 62
    30
 10
595.99999897399186
 20
-803.35818534927944
 30
0.0
 11
758.85714183113475
 21
-803.35818534927944
 31
0.0
  0
LINE
  5
129
  8
SIZE
  6
CONTINUOUS
 62
    30
 10
572.99999957909495
 20
-803.35818534927944
 30
0.0
 11
595.99999897399186
 21
-803.35818534927944
 31
0.0
  0
CIRCLE
  5
12A
  8
SIZE
  6
CONTINUOUS
 62
    30
 10
572.99999957909495
 20
-803.35818534927944
 30
0.0
 40
7.5
  0
CIRCLE
  5
12B
  8
SIZE
  6
CONTINUOUS
 62
    30
 10
595.99999897399186
 20
-803.35818534927944
 30
0.0
 40
7.5
  0
TEXT
  5
12C
  8
SIZE
  6
CONTINUOUS
 62
    30
 10
670.99999897399186
 20
-788.35818534927944
 30
0.0
 40
50.0
  1
23
 41
0.9
 72
     1
 11
707.42857040256331
 21
-788.35818534927944
 31
0.0
  0
POINT
  5
12D
  8
DEFPOINTS
  6
CONTINUOUS
 62
     7
 10
572.99999957909495
 20
-355.10498273402447
 30
0.0
  0
POINT
  5
12E
  8
DEFPOINTS
  6
CONTINUOUS
 62
     7
 10
595.99999897399186
 20
-362.99999999999972
 30
0.0
  0
POINT
  5
12F
  8
DEFPOINTS
  6
CONTINUOUS
 62
     7
 10
595.99999897399186
 20
-803.35818534927944
 30
0.0
  0
LINE
  5
130
  8
SIZE
  6
CONTINUOUS
 62
    30
 10
595.99999897399186
 20
-372.99999999999972
 30
0.0
 11
595.99999897399186
 21
-910.31715742762754
 31
0.0
  0
LINE
  5
131
  8
SIZE
  6
CONTINUOUS
 62
    30
 10
-595.99999957907301
 20
-373.0
 30
0.0
 11
-595.99999957907301
 21
-910.31715742762754
 31
0.0
  0
LINE
  5
132
  8
SIZE
  6
CONTINUOUS
 62
    30
 10
595.99999897399186
 20
-890.31715742762742
 30
0.0
 11
-595.99999957907301
 21
-890.31715742762742
 31
0.0
  0
CIRCLE
  5
133
  8
SIZE
  6
CONTINUOUS
 62
    30
 10
595.99999897399186
 20
-890.31715742762742
 30
0.0
 40
7.5
  0
CIRCLE
  5
134
  8
SIZE
  6
CONTINUOUS
 62
    30
 10
-595.99999957907301
 20
-890.31715742762742
 30
0.0
 40
7.5
  0
TEXT
  5
135
  8
SIZE
  6
CONTINUOUS
 62
    30
 10
-70.714286016826264
 20
-875.31715742762765
 30
0.0
 40
50.0
  1
1192
 41
0.9
 72
     1
 11
-0.0000003025405704
 21
-875.31715742762765
 31
0.0
  0
POINT
  5
136
  8
DEFPOINTS
  6
CONTINUOUS
 62
     7
 10
595.99999897399186
 20
-362.99999999999972
 30
0.0
  0
POINT
  5
137
  8
DEFPOINTS
  6
CONTINUOUS
 62
     7
 10
-595.99999957907301
 20
-363.0
 30
0.0
  0
POINT
  5
138
  8
DEFPOINTS
  6
CONTINUOUS
 62
     7
 10
-595.99999957907301
 20
-890.31715742762742
 30
0.0
  0
LINE
  5
139
  8
SIZE
  6
CONTINUOUS
 62
    30
 10
-821.00000102601655
 20
506.49998342581239
 30
0.0
 11
-821.00000102601655
 21
639.17787365364336
 31
0.0
  0
LINE
  5
13A
  8
SIZE
  6
CONTINUOUS
 62
    30
 10
604.99999789535195
 20
506.49998342581239
 30
0.0
 11
604.99999789535195
 21
639.17787365364336
 31
0.0
  0
LINE
  5
13B
  8
SIZE
  6
CONTINUOUS
 62
    30
 10
-821.00000102601655
 20
619.17787365364325
 30
0.0
 11
604.99999789535195
 21
619.17787365364325
 31
0.0
  0
CIRCLE
  5
13C
  8
SIZE
  6
CONTINUOUS
 62
    30
 10
-821.00000102601655
 20
619.17787365364325
 30
0.0
 40
7.5
  0
CIRCLE
  5
13D
  8
SIZE
  6
CONTINUOUS
 62
    30
 10
604.99999789535195
 20
619.17787365364325
 30
0.0
 40
7.5
  0
TEXT
  5
13E
  8
SIZE
  6
CONTINUOUS
 62
    30
 10
-387.42857299390357
 20
634.17787365364347
 30
0.0
 40
50.0
  1
1426（天井開口寸法）
 41
0.9
 72
     1
 11
-108.0000015653322
 21
634.17787365364347
 31
0.0
  0
POINT
  5
13F
  8
DEFPOINTS
  6
CONTINUOUS
 62
     7
 10
-821.00000102601655
 20
496.4999834258121
 30
0.0
  0
POINT
  5
140
  8
DEFPOINTS
  6
CONTINUOUS
 62
     7
 10
604.99999789535195
 20
496.4999834258121
 30
0.0
  0
POINT
  5
141
  8
DEFPOINTS
  6
CONTINUOUS
 62
     7
 10
604.99999789535195
 20
619.17787365364325
 30
0.0
  0
LINE
  5
142
  8
SIZE
  6
CONTINUOUS
 62
    30
 10
604.99999934229538
 20
506.4999834258125
 30
0.0
 11
604.99999934229538
 21
639.1778736536437
 31
0.0
  0
LINE
  5
143
  8
SIZE
  6
CONTINUOUS
 62
    30
 10
611.99999915814999
 20
516.49998316272467
 30
0.0
 11
611.99999915814999
 21
639.1778736536437
 31
0.0
  0
LINE
  5
144
  8
SIZE
  6
CONTINUOUS
 62
    30
 10
604.99999934229538
 20
619.1778736536437
 30
0.0
 11
574.99999934229515
 21
619.1778736536437
 31
0.0
  0
LINE
  5
145
  8
SIZE
  6
CONTINUOUS
 62
    30
 10
611.99999915814999
 20
619.1778736536437
 30
0.0
 11
731.99999915814965
 21
619.1778736536437
 31
0.0
  0
LINE
  5
146
  8
SIZE
  6
CONTINUOUS
 62
    30
 10
604.99999934229538
 20
619.1778736536437
 30
0.0
 11
611.99999915814999
 21
619.1778736536437
 31
0.0
  0
CIRCLE
  5
147
  8
SIZE
  6
CONTINUOUS
 62
    30
 10
604.99999934229538
 20
619.1778736536437
 30
0.0
 40
7.5
  0
CIRCLE
  5
148
  8
SIZE
  6
CONTINUOUS
 62
    30
 10
611.99999915814999
 20
619.1778736536437
 30
0.0
 40
7.5
  0
TEXT
  5
149
  8
SIZE
  6
CONTINUOUS
 62
    30
 10
686.99999915814976
 20
634.17787365364359
 30
0.0
 40
50.0
  1
7
 41
0.9
 72
     1
 11
701.99999915814988
 21
634.17787365364359
 31
0.0
  0
POINT
  5
14A
  8
DEFPOINTS
  6
CONTINUOUS
 62
     7
 10
604.99999934229538
 20
496.49998342581262
 30
0.0
  0
POINT
  5
14B
  8
DEFPOINTS
  6
CONTINUOUS
 62
     7
 10
611.99999915814999
 20
506.49998316272479
 30
0.0
  0
POINT
  5
14C
  8
DEFPOINTS
  6
CONTINUOUS
 62
     7
 10
611.99999915814999
 20
619.1778736536437
 30
0.0
  0
LINE
  5
14D
  8
SIZE
  6
CONTINUOUS
 62
    30
 10
-821.00000102601655
 20
506.49998342581239
 30
0.0
 11
-821.00000102601655
 21
639.17787365364336
 31
0.0
  0
LINE
  5
14E
  8
SIZE
  6
CONTINUOUS
 62
    30
 10
-828.0000008418491
 20
516.49998316272456
 30
0.0
 11
-828.0000008418491
 21
639.17787365364336
 31
0.0
  0
LINE
  5
14F
  8
SIZE
  6
CONTINUOUS
 62
    30
 10
-821.00000102601655
 20
619.17787365364325
 30
0.0
 11
-791.00000102601666
 21
619.17787365364325
 31
0.0
  0
LINE
  5
150
  8
SIZE
  6
CONTINUOUS
 62
    30
 10
-828.0000008418491
 20
619.17787365364325
 30
0.0
 11
-948.00000084184921
 21
619.17787365364325
 31
0.0
  0
LINE
  5
151
  8
SIZE
  6
CONTINUOUS
 62
    30
 10
-821.00000102601655
 20
619.17787365364325
 30
0.0
 11
-828.0000008418491
 21
619.17787365364325
 31
0.0
  0
CIRCLE
  5
152
  8
SIZE
  6
CONTINUOUS
 62
    30
 10
-821.00000102601655
 20
619.17787365364325
 30
0.0
 40
7.5
  0
CIRCLE
  5
153
  8
SIZE
  6
CONTINUOUS
 62
    30
 10
-828.0000008418491
 20
619.17787365364325
 30
0.0
 40
7.5
  0
TEXT
  5
154
  8
SIZE
  6
CONTINUOUS
 62
    30
 10
-933.00000084184956
 20
634.17787365364347
 30
0.0
 40
50.0
  1
7
 41
0.9
 72
     1
 11
-918.00000084184956
 21
634.17787365364347
 31
0.0
  0
POINT
  5
155
  8
DEFPOINTS
  6
CONTINUOUS
 62
     7
 10
-821.00000102601655
 20
496.4999834258121
 30
0.0
  0
POINT
  5
156
  8
DEFPOINTS
  6
CONTINUOUS
 62
     7
 10
-828.0000008418491
 20
506.49998316272462
 30
0.0
  0
POINT
  5
157
  8
DEFPOINTS
  6
CONTINUOUS
 62
     7
 10
-828.0000008418491
 20
619.17787365364325
 30
0.0
  0
LINE
  5
158
  8
SIZE
  6
CONTINUOUS
 62
    30
 10
-828.0000008418491
 20
516.49998316272456
 30
0.0
 11
-828.0000008418491
 21
721.79601412499323
 31
0.0
  0
LINE
  5
159
  8
SIZE
  6
CONTINUOUS
 62
    30
 10
611.99999771120645
 20
516.49998316272456
 30
0.0
 11
611.99999771120645
 21
721.79601412499323
 31
0.0
  0
LINE
  5
15A
  8
SIZE
  6
CONTINUOUS
 62
    30
 10
-828.0000008418491
 20
701.79601412499323
 30
0.0
 11
611.99999771120645
 21
701.79601412499323
 31
0.0
  0
CIRCLE
  5
15B
  8
SIZE
  6
CONTINUOUS
 62
    30
 10
-828.0000008418491
 20
701.79601412499323
 30
0.0
 40
7.5
  0
CIRCLE
  5
15C
  8
SIZE
  6
CONTINUOUS
 62
    30
 10
611.99999771120645
 20
701.79601412499323
 30
0.0
 40
7.5
  0
TEXT
  5
15D
  8
SIZE
  6
CONTINUOUS
 62
    30
 10
-183.00000156532141
 20
716.79601412499323
 30
0.0
 40
50.0
  1
1440
 41
0.9
 72
     1
 11
-108.0000015653214
 21
716.79601412499323
 31
0.0
  0
POINT
  5
15E
  8
DEFPOINTS
  6
CONTINUOUS
 62
     7
 10
-828.0000008418491
 20
506.49998316272462
 30
0.0
  0
POINT
  5
15F
  8
DEFPOINTS
  6
CONTINUOUS
 62
     7
 10
611.99999771120645
 20
506.49998316272462
 30
0.0
  0
POINT
  5
160
  8
DEFPOINTS
  6
CONTINUOUS
 62
     7
 10
611.99999771120645
 20
701.79601412499323
 30
0.0
  0
LINE
  5
161
  8
SIZE
  6
CONTINUOUS
 62
    30
 10
-619.00000102600075
 20
-143.89501804204329
 30
0.0
 11
-619.00000102600075
 21
35.618092198616061
 31
0.0
  0
LINE
  5
162
  8
SIZE
  6
CONTINUOUS
 62
    30
 10
-579.99999999999807
 20
-357.5
 30
0.0
 11
-579.99999999999807
 21
35.618092198616061
 31
0.0
  0
LINE
  5
163
  8
SIZE
  6
CONTINUOUS
 62
    30
 10
-619.00000102600075
 20
15.618092198616059
 30
0.0
 11
-579.99999999999807
 21
15.618092198616059
 31
0.0
  0
LINE
  5
164
  8
SIZE
  6
CONTINUOUS
 62
    30
 10
-579.99999999999807
 20
15.618092198616059
 30
0.0
 11
-389.2857142857124
 21
15.618092198616059
 31
0.0
  0
CIRCLE
  5
165
  8
SIZE
  6
CONTINUOUS
 62
    30
 10
-619.00000102600075
 20
15.618092198616059
 30
0.0
 40
7.5
  0
CIRCLE
  5
166
  8
SIZE
  6
CONTINUOUS
 62
    30
 10
-579.99999999999807
 20
15.618092198616059
 30
0.0
 40
7.5
  0
TEXT
  5
167
  8
SIZE
  6
CONTINUOUS
 62
    30
 10
-534.99999999999795
 20
43.713330293854163
 30
0.0
 40
50.0
  1
(39)
 41
0.9
 72
     1
 11
-469.64285714285512
 21
43.713330293854163
 31
0.0
  0
POINT
  5
168
  8
DEFPOINTS
  6
CONTINUOUS
 62
     7
 10
-619.00000102600075
 20
-153.89501804204329
 30
0.0
  0
POINT
  5
169
  8
DEFPOINTS
  6
CONTINUOUS
 62
     7
 10
-579.99999999999807
 20
-367.5
 30
0.0
  0
POINT
  5
16A
  8
DEFPOINTS
  6
CONTINUOUS
 62
     7
 10
-579.99999999999807
 20
15.618092198616059
 30
0.0
  0
LINE
  5
16B
  8
SIZE
  6
CONTINUOUS
 62
    30
 10
-647.60498211580114
 20
-239.5000000000218
 30
0.0
 11
-969.52160403370533
 21
-239.50000000002171
 31
0.0
  0
LINE
  5
16C
  8
SIZE
  6
CONTINUOUS
 62
    30
 10
-589.99999999999795
 20
-367.5
 30
0.0
 11
-969.52160403370544
 21
-367.49999999999977
 31
0.0
  0
LINE
  5
16D
  8
SIZE
  6
CONTINUOUS
 62
    30
 10
-949.52160403370533
 20
-239.50000000002171
 30
0.0
 11
-949.52160403370533
 21
-367.49999999999977
 31
0.0
  0
CIRCLE
  5
16E
  8
SIZE
  6
CONTINUOUS
 62
    30
 10
-949.52160403370533
 20
-239.50000000002171
 30
0.0
 40
7.5
  0
CIRCLE
  5
16F
  8
SIZE
  6
CONTINUOUS
 62
    30
 10
-949.52160403370533
 20
-367.49999999999977
 30
0.0
 40
7.5
  0
TEXT
  5
170
  8
SIZE
  6
CONTINUOUS
 62
    30
 10
-964.52160403370544
 20
-357.07142857143958
 30
0.0
 40
50.0
  1
128
 50
90.0
 41
0.9
 72
     1
 11
-964.52160403370544
 21
-303.50000000001108
 31
0.0
  0
POINT
  5
171
  8
DEFPOINTS
  6
CONTINUOUS
 62
     7
 10
-637.60498211580114
 20
-239.5000000000218
 30
0.0
  0
POINT
  5
172
  8
DEFPOINTS
  6
CONTINUOUS
 62
     7
 10
-579.99999999999807
 20
-367.5
 30
0.0
  0
POINT
  5
173
  8
DEFPOINTS
  6
CONTINUOUS
 62
     7
 10
-949.52160403370533
 20
-367.49999999999977
 30
0.0
  0
LINE
  5
174
  8
SIZE
  6
CONTINUOUS
 62
    30
 10
-589.99999999999795
 20
-367.5
 30
0.0
 11
-1074.7936281754789
 21
-367.49999999999977
 31
0.0
  0
LINE
  5
175
  8
SIZE
  6
CONTINUOUS
 62
    30
 10
-411.6864803702386
 20
-437.49999815843688
 30
0.0
 11
-1074.7936281754789
 21
-437.49999815843671
 31
0.0
  0
LINE
  5
176
  8
SIZE
  6
CONTINUOUS
 62
    30
 10
-1054.793628175478
 20
-367.49999999999977
 30
0.0
 11
-1054.793628175478
 21
-437.49999815843671
 31
0.0
  0
LINE
  5
177
  8
SIZE
  6
CONTINUOUS
 62
    30
 10
-1054.793628175478
 20
-437.49999815843671
 30
0.0
 11
-1054.793628175478
 21
-570.35714101557937
 31
0.0
  0
CIRCLE
  5
178
  8
SIZE
  6
CONTINUOUS
 62
    30
 10
-1054.793628175478
 20
-367.49999999999977
 30
0.0
 40
7.5
  0
CIRCLE
  5
179
  8
SIZE
  6
CONTINUOUS
 62
    30
 10
-1054.793628175478
 20
-437.49999815843671
 30
0.0
 40
7.5
  0
TEXT
  5
17A
  8
SIZE
  6
CONTINUOUS
 62
    30
 10
-1069.793628175478
 20
-555.3571410155796
 30
0.0
 40
50.0
  1
70
 50
90.0
 41
0.9
 72
     1
 11
-1069.793628175478
 21
-518.92856958700816
 31
0.0
  0
POINT
  5
17B
  8
DEFPOINTS
  6
CONTINUOUS
 62
     7
 10
-579.99999999999807
 20
-367.5
 30
0.0
  0
POINT
  5
17C
  8
DEFPOINTS
  6
CONTINUOUS
 62
     7
 10
-401.6864803702386
 20
-437.49999815843688
 30
0.0
  0
POINT
  5
17D
  8
DEFPOINTS
  6
CONTINUOUS
 62
     7
 10
-1054.793628175478
 20
-437.49999815843671
 30
0.0
  0
LINE
  5
17E
  8
SIZE
  6
CONTINUOUS
 62
    30
 10
-616.00000015785895
 20
-271.10498195795287
 30
0.0
 11
-616.00000015785895
 21
-306.15656204516557
 31
0.0
  0
LINE
  5
17F
  8
SIZE
  6
CONTINUOUS
 62
    30
 10
-579.99999999999807
 20
-357.5
 30
0.0
 11
-579.99999999999807
 21
-266.15656204516557
 31
0.0
  0
LINE
  5
180
  8
SIZE
  6
CONTINUOUS
 62
    30
 10
-616.00000015785895
 20
-286.15656204516557
 30
0.0
 11
-579.99999999999807
 21
-286.15656204516557
 31
0.0
  0
LINE
  5
181
  8
SIZE
  6
CONTINUOUS
 62
    30
 10
-579.99999999999807
 20
-286.15656204516557
 30
0.0
 11
-389.2857142857124
 21
-286.15656204516557
 31
0.0
  0
CIRCLE
  5
182
  8
SIZE
  6
CONTINUOUS
 62
    30
 10
-616.00000015785895
 20
-286.15656204516557
 30
0.0
 40
7.5
  0
CIRCLE
  5
183
  8
SIZE
  6
CONTINUOUS
 62
    30
 10
-579.99999999999807
 20
-286.15656204516557
 30
0.0
 40
7.5
  0
TEXT
  5
184
  8
SIZE
  6
CONTINUOUS
 62
    30
 10
-534.99999999999795
 20
-258.0613239499275
 30
0.0
 40
50.0
  1
(36)
 41
0.9
 72
     1
 11
-469.64285714285512
 21
-258.0613239499275
 31
0.0
  0
POINT
  5
185
  8
DEFPOINTS
  6
CONTINUOUS
 62
     7
 10
-616.00000015785895
 20
-261.10498195795287
 30
0.0
  0
POINT
  5
186
  8
DEFPOINTS
  6
CONTINUOUS
 62
     7
 10
-579.99999999999807
 20
-367.5
 30
0.0
  0
POINT
  5
187
  8
DEFPOINTS
  6
CONTINUOUS
 62
     7
 10
-579.99999999999807
 20
-286.15656204516557
 30
0.0
  0
LINE
  5
188
  8
NOTE
  6
CONTINUOUS
 62
     4
 10
350.00000000000239
 20
-437.49999815843699
 30
0.0
 11
628.88198657810074
 21
-589.43451939224497
 31
0.0
  0
LINE
  5
189
  8
NOTE
  6
CONTINUOUS
 62
     4
 10
1079.0278577568861
 20
-589.43451939224497
 30
0.0
 11
628.88198657810074
 21
-589.43451939224497
 31
0.0
  0
TEXT
  5
18A
  8
NOTE
  6
CONTINUOUS
 62
     4
 10
634.04796245336365
 20
-578.22260540706316
 30
0.0
 40
45.0
  1
%%C200 吹出円形フランジ
 50
0.0000029998804485
 41
0.7
  7
STANDARD1
  0
LINE
  5
18B
  8
NOTE
  6
CONTINUOUS
 62
     4
 10
-615.99999999999795
 20
-239.49999849165189
 30
0.0
 11
-834.81145116955645
 21
-644.28924645881125
 31
0.0
  0
LINE
  5
18C
  8
NOTE
  6
CONTINUOUS
 62
     4
 10
-879.44390286473936
 20
-17.763672866698471
 30
0.0
 11
-1122.1911760712239
 21
-17.763672866698471
 31
0.0
  0
TEXT
  5
18D
  8
NOTE
  6
CONTINUOUS
 62
     4
 10
-1118.8658098871911
 20
-6.5517588815164327
 30
0.0
 40
45.0
  1
RL %%C9.52
 50
0.0000029998804485
 41
0.7
  7
STANDARD1
  0
LINE
  5
18E
  8
NOTE
  6
CONTINUOUS
 62
     4
 10
-619.00000102600075
 20
-175.5
 30
0.0
 11
-879.44390286473936
 21
-17.763672866698471
 31
0.0
  0
LINE
  5
18F
  8
ARRANGE
  6
CONTINUOUS
 62
     1
 10
50.037350000000622
 20
-49.522353000000301
 30
0.0
 11
-50.037350000000401
 21
49.522353000000301
 31
0.0
  0
LINE
  5
190
  8
ARRANGE
  6
CONTINUOUS
 62
     1
 10
49.963762999999858
 20
49.596595000002701
 30
0.0
 11
-49.963762999999631
 21
-49.596595000002701
 31
0.0
  0
CIRCLE
  5
191
  8
ARRANGE
  6
CONTINUOUS
 62
     1
 10
0.0000000000001137
 20
0.0
 30
0.0
 40
50.0
  0
LINE
  5
192
  8
OUTLINE
  6
CONTINUOUS
 62
     3
 10
-579.99999999999807
 20
-367.5
 30
0.0
 11
-579.99999999999807
 21
-143.4999997369159
 31
0.0
  0
LINE
  5
193
  8
OUTLINE
  6
CONTINUOUS
 62
     3
 10
580.00000000000375
 20
-143.49999973691561
 30
0.0
 11
580.00000000000375
 21
-367.49999999999972
 31
0.0
  0
LINE
  5
194
  8
OUTLINE
  6
CONTINUOUS
 62
     3
 10
580.00000000000375
 20
-367.5
 30
0.0
 11
-579.99999999999807
 21
-367.5
 31
0.0
  0
LINE
  5
195
  8
OUTLINE
  6
CONTINUOUS
 62
     3
 10
611.99999771120645
 20
-143.4999997369159
 30
0.0
 11
-828.0000008418491
 21
-143.4999997369159
 31
0.0
  0
LINE
  5
196
  8
OUTLINE
  6
CONTINUOUS
 62
     3
 10
-828.0000008418491
 20
-143.4999997369159
 30
0.0
 11
-828.0000008418491
 21
506.49998316272462
 31
0.0
  0
LINE
  5
197
  8
OUTLINE
  6
CONTINUOUS
 62
     3
 10
-828.0000008418491
 20
506.49998316272462
 30
0.0
 11
611.99999771120645
 21
506.49998316272462
 31
0.0
  0
LINE
  5
198
  8
OUTLINE
  6
CONTINUOUS
 62
     3
 10
611.99999915814999
 20
506.49998316272479
 30
0.0
 11
611.99999915814999
 21
-143.49999973691561
 31
0.0
  0
LINE
  5
199
  8
DETAIL
  6
CONTINUOUS
 62
     5
 10
566.99999889506478
 20
-106.5000007103226
 30
0.0
 11
-783.00000202572755
 21
-106.5000007103226
 31
0.0
  0
LINE
  5
19A
  8
DETAIL
  6
CONTINUOUS
 62
     5
 10
531.99999981585711
 20
-71.500001631115055
 30
0.0
 11
-748.00000294652011
 21
-71.500001631115055
 31
0.0
  0
LINE
  5
19B
  8
DETAIL
  6
CONTINUOUS
 62
     5
 10
-748.00000294652011
 20
434.49998505691281
 30
0.0
 11
531.99999981585711
 21
434.49998505691281
 31
0.0
  0
LINE
  5
19C
  8
DETAIL
  6
CONTINUOUS
 62
     5
 10
-783.00000202572755
 20
469.49998413612951
 30
0.0
 11
566.99999889506478
 21
469.49998413612951
 31
0.0
  0
LINE
  5
19D
  8
DETAIL
  6
CONTINUOUS
 62
     5
 10
-748.00000294652011
 20
434.49998505691281
 30
0.0
 11
-748.00000294652011
 21
-71.500001631115055
 31
0.0
  0
LINE
  5
19E
  8
DETAIL
  6
CONTINUOUS
 62
     5
 10
-783.00000202572755
 20
469.49998413612951
 30
0.0
 11
-783.00000202572755
 21
-106.5000007103226
 31
0.0
  0
LINE
  5
19F
  8
DETAIL
  6
CONTINUOUS
 62
     5
 10
-828.0000008418491
 20
-143.4999997369159
 30
0.0
 11
-748.00000294652011
 21
-71.500001631115055
 31
0.0
  0
LINE
  5
1A0
  8
DETAIL
  6
CONTINUOUS
 62
     5
 10
-828.0000008418491
 20
506.49998316272462
 30
0.0
 11
-748.00000294652011
 21
434.49998505691281
 31
0.0
  0
LINE
  5
1A1
  8
DETAIL
  6
CONTINUOUS
 62
     5
 10
532.00000126280065
 20
434.49998505691309
 30
0.0
 11
532.00000126280065
 21
-71.500001631114856
 31
0.0
  0
LINE
  5
1A2
  8
DETAIL
  6
CONTINUOUS
 62
     5
 10
567.00000034200832
 20
469.4999841361298
 30
0.0
 11
567.00000034200832
 21
-106.5000007103224
 31
0.0
  0
LINE
  5
1A3
  8
DETAIL
  6
CONTINUOUS
 62
     5
 10
532.00000126280065
 20
-71.500001631114856
 30
0.0
 11
611.99999915814999
 21
-143.49999973691561
 31
0.0
  0
LINE
  5
1A4
  8
DETAIL
  6
CONTINUOUS
 62
     5
 10
532.00000126280065
 20
434.49998505691309
 30
0.0
 11
611.99999915814999
 21
506.49998316272479
 31
0.0
  0
LINE
  5
1A5
  8
SIZE
  6
CONTINUOUS
 62
    30
 10
-821.00000102601655
 20
-143.5
 30
0.0
 11
-821.00000102601655
 21
-910.31715742762754
 31
0.0
  0
LINE
  5
1A6
  8
SIZE
  6
CONTINUOUS
 62
    30
 10
-595.99999957907301
 20
-373.0
 30
0.0
 11
-595.99999957907301
 21
-910.31715742762754
 31
0.0
  0
LINE
  5
1A7
  8
SIZE
  6
CONTINUOUS
 62
    30
 10
-821.00000102601655
 20
-890.31715742762742
 30
0.0
 11
-595.99999957907301
 21
-890.31715742762742
 31
0.0
  0
CIRCLE
  5
1A8
  8
SIZE
  6
CONTINUOUS
 62
    30
 10
-821.00000102601655
 20
-890.31715742762742
 30
0.0
 40
7.5
  0
CIRCLE
  5
1A9
  8
SIZE
  6
CONTINUOUS
 62
    30
 10
-595.99999957907301
 20
-890.31715742762742
 30
0.0
 40
7.5
  0
TEXT
  5
1AA
  8
SIZE
  6
CONTINUOUS
 62
    30
 10
-766.35714315968755
 20
-875.31715742762765
 30
0.0
 40
50.0
  1
225
 41
0.9
 72
     1
 11
-708.50000030254455
 21
-875.31715742762765
 31
0.0
  0
POINT
  5
1AB
  8
DEFPOINTS
  6
CONTINUOUS
 62
     7
 10
-821.00000102601655
 20
-133.4999999999998
 30
0.0
  0
POINT
  5
1AC
  8
DEFPOINTS
  6
CONTINUOUS
 62
     7
 10
-595.99999957907301
 20
-363.0
 30
0.0
  0
POINT
  5
1AD
  8
DEFPOINTS
  6
CONTINUOUS
 62
     7
 10
-595.99999957907301
 20
-890.31715742762742
 30
0.0
  0
LINE
  5
1AE
  8
SIZE
  6
CONTINUOUS
 62
    30
 10
-647.60498211580114
 20
-239.5000000000218
 30
0.0
 11
-969.52160403370169
 21
-239.50000000002171
 31
0.0
  0
LINE
  5
1AF
  8
SIZE
  6
CONTINUOUS
 62
    30
 10
-650.60498298394282
 20
-175.49999999997809
 30
0.0
 11
-969.52160403370169
 21
-175.499999999978
 31
0.0
  0
LINE
  5
1B0
  8
SIZE
  6
CONTINUOUS
 62
    30
 10
-949.52160403370181
 20
-239.50000000002171
 30
0.0
 11
-949.52160403370181
 21
-175.499999999978
 31
0.0
  0
LINE
  5
1B1
  8
SIZE
  6
CONTINUOUS
 62
    30
 10
-949.52160403370181
 20
-175.499999999978
 30
0.0
 11
-949.52160403370181
 21
-40.499999999978073
 31
0.0
  0
CIRCLE
  5
1B2
  8
SIZE
  6
CONTINUOUS
 62
    30
 10
-949.52160403370181
 20
-239.50000000002171
 30
0.0
 40
7.5
  0
CIRCLE
  5
1B3
  8
SIZE
  6
CONTINUOUS
 62
    30
 10
-949.52160403370181
 20
-175.499999999978
 30
0.0
 40
7.5
  0
TEXT
  5
1B4
  8
SIZE
  6
CONTINUOUS
 62
    30
 10
-964.52160403370181
 20
-130.4999999999782
 30
0.0
 40
50.0
  1
64
 50
90.0
 41
0.9
 72
     1
 11
-964.52160403370181
 21
-92.999999999978215
 31
0.0
  0
POINT
  5
1B5
  8
DEFPOINTS
  6
CONTINUOUS
 62
     7
 10
-637.60498211580114
 20
-239.5000000000218
 30
0.0
  0
POINT
  5
1B6
  8
DEFPOINTS
  6
CONTINUOUS
 62
     7
 10
-640.60498298394282
 20
-175.49999999997809
 30
0.0
  0
POINT
  5
1B7
  8
DEFPOINTS
  6
CONTINUOUS
 62
     7
 10
-949.52160403370181
 20
-175.499999999978
 30
0.0
  0
LINE
  5
1B8
  8
SIZE
  6
CONTINUOUS
 62
    30
 10
595.99999897399186
 20
-372.99999999999972
 30
0.0
 11
595.99999897399186
 21
-910.31715742762754
 31
0.0
  0
LINE
  5
1B9
  8
SIZE
  6
CONTINUOUS
 62
    30
 10
604.99999934229538
 20
-143.49999999999969
 30
0.0
 11
604.99999934229538
 21
-910.31715742762754
 31
0.0
  0
LINE
  5
1BA
  8
SIZE
  6
CONTINUOUS
 62
    30
 10
595.99999897399186
 20
-890.31715742762742
 30
0.0
 11
565.99999897399175
 21
-890.31715742762742
 31
0.0
  0
LINE
  5
1BB
  8
SIZE
  6
CONTINUOUS
 62
    30
 10
604.99999934229538
 20
-890.31715742762742
 30
0.0
 11
722.85714219943827
 21
-890.31715742762742
 31
0.0
  0
LINE
  5
1BC
  8
SIZE
  6
CONTINUOUS
 62
    30
 10
595.99999897399186
 20
-890.31715742762742
 30
0.0
 11
604.99999934229538
 21
-890.31715742762742
 31
0.0
  0
CIRCLE
  5
1BD
  8
SIZE
  6
CONTINUOUS
 62
    30
 10
595.99999897399186
 20
-890.31715742762742
 30
0.0
 40
7.5
  0
CIRCLE
  5
1BE
  8
SIZE
  6
CONTINUOUS
 62
    30
 10
604.99999934229538
 20
-890.31715742762742
 30
0.0
 40
7.5
  0
TEXT
  5
1BF
  8
SIZE
  6
CONTINUOUS
 62
    30
 10
679.99999934229515
 20
-875.31715742762765
 30
0.0
 40
50.0
  1
9
 41
0.9
 72
     1
 11
693.92857077086671
 21
-875.31715742762765
 31
0.0
  0
POINT
  5
1C0
  8
DEFPOINTS
  6
CONTINUOUS
 62
     7
 10
595.99999897399186
 20
-362.99999999999972
 30
0.0
  0
POINT
  5
1C1
  8
DEFPOINTS
  6
CONTINUOUS
 62
     7
 10
604.99999934229538
 20
-133.49999999999969
 30
0.0
  0
POINT
  5
1C2
  8
DEFPOINTS
  6
CONTINUOUS
 62
     7
 10
604.99999934229538
 20
-890.31715742762742
 30
0.0
  0
TEXT
  5
1C3
  8
NOTE
  6
CONTINUOUS
 62
     4
 10
-34.267526239045651
 20
523.31896089054862
 30
0.0
 40
40.0
  1
吸込
 50
0.0000025044165917
 41
0.8107143291551278
  7
STANDARD1
  0
LINE
  5
1C4
  8
BASIS
  6
DASHDOT
 62
     6
 10
-0.0000000000017053
 20
-458.95642667172791
 30
0.0
 11
0.0000000000019327
 21
519.77877661991056
 31
0.0
  0
LINE
  5
1C5
  8
NOTE
  6
CONTINUOUS
 62
     4
 10
1157.846018784536
 20
-476.28249133547041
 30
0.0
 11
628.62473262213291
 21
-476.28249133547041
 31
0.0
  0
TEXT
  5
1C6
  8
NOTE
  6
CONTINUOUS
 62
     4
 10
633.79070849739605
 20
-465.0705773502919
 30
0.0
 40
45.0
  1
AH 4-14×30長穴(M10)
 50
0.0000029998804485
 41
0.7
  7
STANDARD1
  0
LINE
  5
1C7
  8
NOTE
  6
CONTINUOUS
 62
     4
 10
628.62473262213291
 20
-476.28249133547041
 30
0.0
 11
572.99999957909495
 21
-333.50000077609161
 31
0.0
  0
LINE
  5
1C8
  8
NOTE
  6
CONTINUOUS
 62
     4
 10
572.99999957910779
 20
-333.50000077609701
 30
0.0
 11
593.82663751964708
 21
-360.86057183783828
 31
0.0
  0
LINE
  5
1C9
  8
NOTE
  6
CONTINUOUS
 62
     4
 10
572.99999957910779
 20
-333.50000077609701
 30
0.0
 11
577.35611032130885
 21
-367.60826913001779
 31
0.0
  0
LINE
  5
1CA
  8
SIZE
  6
CONTINUOUS
 62
    30
 10
590.00000000000193
 20
-367.49999999999972
 30
0.0
 11
975.87105058030261
 21
-367.49999999999977
 31
0.0
  0
LINE
  5
1CB
  8
SIZE
  6
CONTINUOUS
 62
    30
 10
614.99999934229527
 20
-133.49999999999969
 30
0.0
 11
975.87105058030261
 21
-133.4999999999998
 31
0.0
  0
LINE
  5
1CC
  8
SIZE
  6
CONTINUOUS
 62
    30
 10
955.87105058030272
 20
-367.49999999999977
 30
0.0
 11
955.87105058030272
 21
-133.4999999999998
 31
0.0
  0
CIRCLE
  5
1CD
  8
SIZE
  6
CONTINUOUS
 62
    30
 10
955.87105058030272
 20
-367.49999999999977
 30
0.0
 40
7.5
  0
CIRCLE
  5
1CE
  8
SIZE
  6
CONTINUOUS
 62
    30
 10
955.87105058030272
 20
-133.4999999999998
 30
0.0
 40
7.5
  0
TEXT
  5
1CF
  8
SIZE
  6
CONTINUOUS
 62
    30
 10
940.87105058030272
 20
-309.4285714285711
 30
0.0
 40
50.0
  1
234
 50
90.0
 41
0.9
 72
     1
 11
940.87105058030272
 21
-250.49999999999969
 31
0.0
  0
POINT
  5
1D0
  8
DEFPOINTS
  6
CONTINUOUS
 62
     7
 10
580.00000000000193
 20
-367.49999999999972
 30
0.0
  0
POINT
  5
1D1
  8
DEFPOINTS
  6
CONTINUOUS
 62
     7
 10
604.99999934229538
 20
-133.49999999999969
 30
0.0
  0
POINT
  5
1D2
  8
DEFPOINTS
  6
CONTINUOUS
 62
     7
 10
955.87105058030272
 20
-133.4999999999998
 30
0.0
  0
LINE
  5
1D3
  8
SIZE
  6
CONTINUOUS
 62
    30
 10
614.99999934229527
 20
-133.49999999999969
 30
0.0
 11
975.87105058030261
 21
-133.4999999999998
 31
0.0
  0
LINE
  5
1D4
  8
SIZE
  6
CONTINUOUS
 62
    30
 10
614.99999934229527
 20
496.49998342581262
 30
0.0
 11
975.87105058030261
 21
496.4999834258125
 31
0.0
  0
LINE
  5
1D5
  8
SIZE
  6
CONTINUOUS
 62
    30
 10
955.87105058030272
 20
-133.4999999999998
 30
0.0
 11
955.87105058030306
 21
496.4999834258125
 31
0.0
  0
CIRCLE
  5
1D6
  8
SIZE
  6
CONTINUOUS
 62
    30
 10
955.87105058030272
 20
-133.4999999999998
 30
0.0
 40
7.5
  0
CIRCLE
  5
1D7
  8
SIZE
  6
CONTINUOUS
 62
    30
 10
955.87105058030306
 20
496.4999834258125
 30
0.0
 40
7.5
  0
TEXT
  5
1D8
  8
SIZE
  6
CONTINUOUS
 62
    30
 10
940.87105058030272
 20
-80.785722572807856
 30
0.0
 40
50.0
  1
630（天井開口寸法）
 50
90.0
 41
0.9
 72
     1
 11
940.87105058030272
 21
181.49999171290639
 31
0.0
  0
POINT
  5
1D9
  8
DEFPOINTS
  6
CONTINUOUS
 62
     7
 10
604.99999934229538
 20
-133.49999999999969
 30
0.0
  0
POINT
  5
1DA
  8
DEFPOINTS
  6
CONTINUOUS
 62
     7
 10
604.99999934229538
 20
496.49998342581262
 30
0.0
  0
POINT
  5
1DB
  8
DEFPOINTS
  6
CONTINUOUS
 62
     7
 10
955.87105058030306
 20
496.4999834258125
 30
0.0
  0
LINE
  5
1DC
  8
SIZE
  6
CONTINUOUS
 62
    30
 10
614.99999934229527
 20
-133.49999999999969
 30
0.0
 11
743.79283786683322
 21
-133.49999999999969
 31
0.0
  0
LINE
  5
1DD
  8
SIZE
  6
CONTINUOUS
 62
    30
 10
621.99999915814999
 20
-143.49999973691561
 30
0.0
 11
743.79283786683322
 21
-143.4999997369157
 31
0.0
  0
LINE
  5
1DE
  8
SIZE
  6
CONTINUOUS
 62
    30
 10
723.79283786683322
 20
-133.49999999999969
 30
0.0
 11
723.79283786683322
 21
-103.4999999999997
 31
0.0
  0
LINE
  5
1DF
  8
SIZE
  6
CONTINUOUS
 62
    30
 10
723.79283786683322
 20
-143.4999997369157
 30
0.0
 11
723.79283786683288
 21
-297.78571402262992
 31
0.0
  0
LINE
  5
1E0
  8
SIZE
  6
CONTINUOUS
 62
    30
 10
723.79283786683322
 20
-133.49999999999969
 30
0.0
 11
723.79283786683322
 21
-143.4999997369157
 31
0.0
  0
CIRCLE
  5
1E1
  8
SIZE
  6
CONTINUOUS
 62
    30
 10
723.79283786683322
 20
-133.49999999999969
 30
0.0
 40
7.5
  0
CIRCLE
  5
1E2
  8
SIZE
  6
CONTINUOUS
 62
    30
 10
723.79283786683322
 20
-143.4999997369157
 30
0.0
 40
7.5
  0
TEXT
  5
1E3
  8
SIZE
  6
CONTINUOUS
 62
    30
 10
708.79283786683322
 20
-282.7857140226298
 30
0.0
 40
50.0
  1
10
 50
90.0
 41
0.9
 72
     1
 11
708.79283786683322
 21
-250.64285687977269
 31
0.0
  0
POINT
  5
1E4
  8
DEFPOINTS
  6
CONTINUOUS
 62
     7
 10
604.99999934229538
 20
-133.49999999999969
 30
0.0
  0
POINT
  5
1E5
  8
DEFPOINTS
  6
CONTINUOUS
 62
     7
 10
611.99999915814999
 20
-143.49999973691561
 30
0.0
  0
POINT
  5
1E6
  8
DEFPOINTS
  6
CONTINUOUS
 62
     7
 10
723.79283786683322
 20
-143.4999997369157
 30
0.0
  0
LINE
  5
1E7
  8
SIZE
  6
CONTINUOUS
 62
    30
 10
614.99999934229527
 20
496.49998342581262
 30
0.0
 11
975.87105058030636
 21
496.4999834258125
 31
0.0
  0
LINE
  5
1E8
  8
SIZE
  6
CONTINUOUS
 62
    30
 10
621.99999915814999
 20
506.49998316272479
 30
0.0
 11
975.87105058030636
 21
506.49998316272479
 31
0.0
  0
LINE
  5
1E9
  8
SIZE
  6
CONTINUOUS
 62
    30
 10
955.87105058030659
 20
496.4999834258125
 30
0.0
 11
955.87105058030659
 21
466.49998342581227
 31
0.0
  0
LINE
  5
1EA
  8
SIZE
  6
CONTINUOUS
 62
    30
 10
955.87105058030659
 20
506.49998316272479
 30
0.0
 11
955.87105058030659
 21
660.78569744843912
 31
0.0
  0
LINE
  5
1EB
  8
SIZE
  6
CONTINUOUS
 62
    30
 10
955.87105058030659
 20
496.4999834258125
 30
0.0
 11
955.87105058030659
 21
506.49998316272479
 31
0.0
  0
CIRCLE
  5
1EC
  8
SIZE
  6
CONTINUOUS
 62
    30
 10
955.87105058030659
 20
496.4999834258125
 30
0.0
 40
7.5
  0
CIRCLE
  5
1ED
  8
SIZE
  6
CONTINUOUS
 62
    30
 10
955.87105058030659
 20
506.49998316272479
 30
0.0
 40
7.5
  0
TEXT
  5
1EE
  8
SIZE
  6
CONTINUOUS
 62
    30
 10
940.87105058030636
 20
581.4999831627249
 30
0.0
 40
50.0
  1
10
 50
90.0
 41
0.9
 72
     1
 11
940.87105058030636
 21
613.64284030558213
 31
0.0
  0
POINT
  5
1EF
  8
DEFPOINTS
  6
CONTINUOUS
 62
     7
 10
604.99999934229538
 20
496.49998342581262
 30
0.0
  0
POINT
  5
1F0
  8
DEFPOINTS
  6
CONTINUOUS
 62
     7
 10
611.99999915814999
 20
506.49998316272479
 30
0.0
  0
POINT
  5
1F1
  8
DEFPOINTS
  6
CONTINUOUS
 62
     7
 10
955.87105058030659
 20
506.49998316272479
 30
0.0
  0
LINE
  5
1F2
  8
SIZE
  6
CONTINUOUS
 62
    30
 10
621.99999915814999
 20
506.49998316272479
 30
0.0
 11
837.09710903147266
 21
506.49998316272479
 31
0.0
  0
LINE
  5
1F3
  8
SIZE
  6
CONTINUOUS
 62
    30
 10
621.99999915814999
 20
-143.49999973691561
 30
0.0
 11
837.09710903147231
 21
-143.4999997369157
 31
0.0
  0
LINE
  5
1F4
  8
SIZE
  6
CONTINUOUS
 62
    30
 10
817.09710903147266
 20
506.49998316272479
 30
0.0
 11
817.09710903147266
 21
-143.4999997369157
 31
0.0
  0
CIRCLE
  5
1F5
  8
SIZE
  6
CONTINUOUS
 62
    30
 10
817.09710903147266
 20
506.49998316272479
 30
0.0
 40
7.5
  0
CIRCLE
  5
1F6
  8
SIZE
  6
CONTINUOUS
 62
    30
 10
817.09710903147266
 20
-143.4999997369157
 30
0.0
 40
7.5
  0
TEXT
  5
1F7
  8
SIZE
  6
CONTINUOUS
 62
    30
 10
802.09710903147231
 20
123.6428488557617
 30
0.0
 40
50.0
  1
650
 50
90.0
 41
0.9
 72
     1
 11
802.09710903147231
 21
181.4999917129046
 31
0.0
  0
POINT
  5
1F8
  8
DEFPOINTS
  6
CONTINUOUS
 62
     7
 10
611.99999915814999
 20
506.49998316272479
 30
0.0
  0
POINT
  5
1F9
  8
DEFPOINTS
  6
CONTINUOUS
 62
     7
 10
611.99999915814999
 20
-143.49999973691561
 30
0.0
  0
POINT
  5
1FA
  8
DEFPOINTS
  6
CONTINUOUS
 62
     7
 10
817.09710903147266
 20
-143.4999997369157
 30
0.0
  0
TEXT
  5
1FB
  8
ETC
  6
CONTINUOUS
 62
    61
 10
-335.27669124199292
 20
803.43819745814369
 30
0.0
 40
70.0
  1
PDFY-P71_90M-E2（後吸込）_6
 50
0.0000029998804485
 41
0.8
  0
LINE
  5
1FC
  8
NOTE
  6
CONTINUOUS
 62
     4
 10
-579.99999999998965
 20
-197.1049819579093
 30
0.0
 11
-579.99999999998965
 21
-153.89501804204329
 31
0.0
  0
LINE
  5
1FD
  8
NOTE
  6
CONTINUOUS
 62
     4
 10
-558.39501804206395
 20
-175.49999999997809
 30
0.0
 11
-601.60498195793195
 21
-175.49999999997809
 31
0.0
  0
LINE
  5
1FE
  8
NOTE
  6
CONTINUOUS
 62
     4
 10
-859.37782874388165
 20
78.576717499265442
 30
0.0
 11
-1169.5725913384499
 21
78.576717499265442
 31
0.0
  0
TEXT
  5
1FF
  8
NOTE
  6
CONTINUOUS
 62
     4
 10
-1166.2472251544159
 20
89.788631484445631
 30
0.0
 40
45.0
  1
D2（自然排水口）
 50
0.0000029999846689
 41
0.7
  7
STANDARD1
  0
LINE
  5
200
  8
NOTE
  6
CONTINUOUS
 62
     4
 10
-579.99999999998965
 20
-175.49999999997809
 30
0.0
 11
-859.37782874388165
 21
78.576717499265442
 31
0.0
  0
LINE
  5
201
  8
NOTE
  6
CONTINUOUS
 62
     4
 10
-580.00000000000114
 20
-175.4999999999695
 30
0.0
 11
-610.20660593321043
 21
-159.07104218984611
 31
0.0
  0
LINE
  5
202
  8
NOTE
  6
CONTINUOUS
 62
     4
 10
-580.00000000000114
 20
-175.4999999999695
 30
0.0
 11
-597.94520795756614
 21
-146.1688018951948
 31
0.0
  0
LINE
  5
203
  8
SIZE
  6
CONTINUOUS
 62
    30
 10
-589.99999999999795
 20
-367.5
 30
0.0
 11
-1074.7936281754789
 21
-367.49999999999977
 31
0.0
  0
LINE
  5
204
  8
SIZE
  6
CONTINUOUS
 62
    30
 10
-650.60498298394282
 20
-175.49999999997809
 30
0.0
 11
-1074.7936281754789
 21
-175.499999999978
 31
0.0
  0
LINE
  5
205
  8
SIZE
  6
CONTINUOUS
 62
    30
 10
-1054.793628175478
 20
-367.49999999999977
 30
0.0
 11
-1054.793628175478
 21
-175.499999999978
 31
0.0
  0
CIRCLE
  5
206
  8
SIZE
  6
CONTINUOUS
 62
    30
 10
-1054.793628175478
 20
-367.49999999999977
 30
0.0
 40
7.5
  0
CIRCLE
  5
207
  8
SIZE
  6
CONTINUOUS
 62
    30
 10
-1054.793628175478
 20
-175.499999999978
 30
0.0
 40
7.5
  0
TEXT
  5
208
  8
SIZE
  6
CONTINUOUS
 62
    30
 10
-1069.793628175478
 20
-325.0714285714177
 30
0.0
 40
50.0
  1
192
 50
90.0
 41
0.9
 72
     1
 11
-1069.793628175478
 21
-271.49999999998909
 31
0.0
  0
POINT
  5
209
  8
DEFPOINTS
  6
CONTINUOUS
 62
     7
 10
-579.99999999999807
 20
-367.5
 30
0.0
  0
POINT
  5
20A
  8
DEFPOINTS
  6
CONTINUOUS
 62
     7
 10
-640.60498298394282
 20
-175.49999999997809
 30
0.0
  0
POINT
  5
20B
  8
DEFPOINTS
  6
CONTINUOUS
 62
     7
 10
-1054.793628175478
 20
-175.499999999978
 30
0.0
  0
LINE
  5
20C
  8
SIZE
  6
CONTINUOUS
 62
    30
 10
590.00000000000193
 20
-367.49999999999972
 30
0.0
 11
846.24294272953011
 21
-367.49999999999977
 31
0.0
  0
LINE
  5
20D
  8
SIZE
  6
CONTINUOUS
 62
    30
 10
604.60498153702065
 20
-333.50000077609337
 30
0.0
 11
846.24294272953011
 21
-333.50000077609337
 31
0.0
  0
LINE
  5
20E
  8
SIZE
  6
CONTINUOUS
 62
    30
 10
826.24294272953023
 20
-367.49999999999977
 30
0.0
 11
826.24294272953023
 21
-333.50000077609337
 31
0.0
  0
LINE
  5
20F
  8
SIZE
  6
CONTINUOUS
 62
    30
 10
826.24294272953023
 20
-333.50000077609337
 30
0.0
 11
826.24294272953045
 21
-198.5000007760934
 31
0.0
  0
CIRCLE
  5
210
  8
SIZE
  6
CONTINUOUS
 62
    30
 10
826.24294272953023
 20
-367.49999999999977
 30
0.0
 40
7.5
  0
CIRCLE
  5
211
  8
SIZE
  6
CONTINUOUS
 62
    30
 10
826.24294272953023
 20
-333.50000077609337
 30
0.0
 40
7.5
  0
TEXT
  5
212
  8
SIZE
  6
CONTINUOUS
 62
    30
 10
811.24294272953011
 20
-288.50000077609332
 30
0.0
 40
50.0
  1
34
 50
90.0
 41
0.9
 72
     1
 11
811.24294272953011
 21
-251.00000077609329
 31
0.0
  0
POINT
  5
213
  8
DEFPOINTS
  6
CONTINUOUS
 62
     7
 10
580.00000000000193
 20
-367.49999999999972
 30
0.0
  0
POINT
  5
214
  8
DEFPOINTS
  6
CONTINUOUS
 62
     7
 10
594.60498153702076
 20
-333.50000077609337
 30
0.0
  0
POINT
  5
215
  8
DEFPOINTS
  6
CONTINUOUS
 62
     7
 10
826.24294272953023
 20
-333.50000077609337
 30
0.0
  0
LINE
  5
216
  8
NOTE
  6
CONTINUOUS
 62
     4
 10
-834.81145116955645
 20
-644.28924645881125
 30
0.0
 11
-1101.632130861178
 21
-644.28924645881125
 31
0.0
  0
TEXT
  5
217
  8
NOTE
  6
CONTINUOUS
 62
     4
 10
-1097.835311691478
 20
-633.07733247362899
 30
0.0
 40
45.0
  1
RG %%C15.88
 50
0.0000029998804485
 41
0.7
  7
STANDARD1
  0
LINE
  5
218
  8
DETAIL
  6
CONTINUOUS
 62
     5
 10
-387.49999743492782
 20
-437.49999815843688
 30
0.0
 11
-192.50000256504359
 21
-437.49999815843688
 31
0.0
  0
LINE
  5
219
  8
DETAIL
  6
CONTINUOUS
 62
     5
 10
-189.99066626558789
 20
-397.49999921076591
 30
0.0
 11
-389.99999736916038
 21
-397.49999921076591
 31
0.0
  0
LINE
  5
21A
  8
DETAIL
  6
CONTINUOUS
 62
     5
 10
-544.46833105489202
 20
-377.47248849139731
 30
0.0
 11
-398.82917183659117
 21
-387.56877758768809
 31
0.0
  0
LINE
  5
21B
  8
DETAIL
  6
CONTINUOUS
 62
     5
 10
-548.00000084187195
 20
-367.5
 30
0.0
 11
-548.00000084187195
 21
-373.49999984216618
 31
0.0
  0
ARC
  5
21C
  8
DETAIL
  6
CONTINUOUS
 62
     5
 10
-544.00000094709867
 20
-373.49999984216618
 30
0.0
 40
3.9999998947670061
 50
180.0
 51
263.27624318419009
  0
ARC
  5
21D
  8
DETAIL
  6
CONTINUOUS
 62
     5
 10
-399.99999710607449
 20
-397.49999921076591
 30
0.0
 40
9.9999997369175482
 50
0.0
 51
83.276243184190221
  0
LINE
  5
21E
  8
DETAIL
  6
CONTINUOUS
 62
     5
 10
-387.49999743492782
 20
-437.49999815843688
 30
0.0
 11
-389.99999736916038
 21
-397.49999921076591
 31
0.0
  0
LINE
  5
21F
  8
DETAIL
  6
CONTINUOUS
 62
     5
 10
-192.50000256504359
 20
-437.49999815843688
 30
0.0
 11
-190.01199511104949
 21
-397.69187889434397
 31
0.0
  0
LINE
  5
220
  8
DETAIL
  6
CONTINUOUS
 62
     5
 10
447.49999743495431
 20
-437.49999815843688
 30
0.0
 11
252.50000256505021
 21
-437.49999815843688
 31
0.0
  0
LINE
  5
221
  8
DETAIL
  6
CONTINUOUS
 62
     5
 10
449.99999736918687
 20
-397.49999921076591
 30
0.0
 11
249.99066626558721
 21
-397.49999921076591
 31
0.0
  0
LINE
  5
222
  8
DETAIL
  6
CONTINUOUS
 62
     5
 10
252.50000256505021
 20
-437.49999815843688
 30
0.0
 11
250.01199511106151
 21
-397.69187889434028
 31
0.0
  0
ARC
  5
223
  8
DETAIL
  6
CONTINUOUS
 62
     5
 10
248.01589000660221
 20
-397.81663546337222
 30
0.0
 40
1.9999999473839749
 50
3.576334374978571
 51
58.556399922623548
  0
ARC
  5
224
  8
DETAIL
  6
CONTINUOUS
 62
     5
 10
459.99999710610109
 20
-397.49999921076591
 30
0.0
 40
9.9999997369178022
 50
93.959233676204676
 51
180.0
  0
LINE
  5
225
  8
DETAIL
  6
CONTINUOUS
 62
     5
 10
447.49999743495431
 20
-437.49999815843688
 30
0.0
 11
449.99999736918687
 21
-397.49999921076591
 31
0.0
  0
ARC
  5
226
  8
DETAIL
  6
CONTINUOUS
 62
     5
 10
-188.0158900065974
 20
-397.81663546337222
 30
0.0
 40
1.9999999473839749
 50
121.4436000773764
 51
176.42366562502141
  0
LINE
  5
227
  8
NOTE
  6
CONTINUOUS
 62
     4
 10
-289.9999999999867
 20
-325.81351778818492
 30
0.0
 11
-289.9999999999867
 21
-549.18647852868889
 31
0.0
  0
LINE
  5
228
  8
NOTE
  6
CONTINUOUS
 62
     4
 10
-401.6864803702386
 20
-437.49999815843688
 30
0.0
 11
-178.31351962973471
 21
-437.49999815843688
 31
0.0
  0
LINE
  5
229
  8
NOTE
  6
CONTINUOUS
 62
     4
 10
350.00000000000222
 20
-325.81351778818492
 30
0.0
 11
350.00000000000222
 21
-549.18647852868889
 31
0.0
  0
LINE
  5
22A
  8
NOTE
  6
CONTINUOUS
 62
     4
 10
238.3135196297504
 20
-437.49999815843688
 30
0.0
 11
461.68648037025429
 21
-437.49999815843688
 31
0.0
  0
LINE
  5
22B
  8
NOTE
  6
CONTINUOUS
 62
     4
 10
-256.7865840943735
 20
-507.83040996894471
 30
0.0
 11
-236.78658462053801
 21
-487.83041049509831
 31
0.0
  0
LINE
  5
22C
  8
NOTE
  6
CONTINUOUS
 62
     4
 10
-256.7865840943735
 20
-507.83040996894471
 30
0.0
 11
-276.78658356820159
 21
-487.83041049509831
 31
0.0
  0
LINE
  5
22D
  8
NOTE
  6
CONTINUOUS
 62
     4
 10
-266.78658383128948
 20
-467.8304110212739
 30
0.0
 11
-266.78658383128948
 21
-487.83041049509831
 31
0.0
  0
LINE
  5
22E
  8
NOTE
  6
CONTINUOUS
 62
     4
 10
-246.78658435745029
 20
-467.8304110212739
 30
0.0
 11
-246.78658435745029
 21
-487.83041049509831
 31
0.0
  0
LINE
  5
22F
  8
NOTE
  6
CONTINUOUS
 62
     4
 10
-246.78658435745029
 20
-467.8304110212739
 30
0.0
 11
-266.78658383128948
 21
-467.8304110212739
 31
0.0
  0
LINE
  5
230
  8
NOTE
  6
CONTINUOUS
 62
     4
 10
-266.78658383128948
 20
-487.83041049509831
 30
0.0
 11
-276.78658356820159
 21
-487.83041049509831
 31
0.0
  0
LINE
  5
231
  8
NOTE
  6
CONTINUOUS
 62
     4
 10
-236.78658462053801
 20
-487.83041049509831
 30
0.0
 11
-246.78658435745029
 21
-487.83041049509831
 31
0.0
  0
LINE
  5
232
  8
NOTE
  6
CONTINUOUS
 62
     4
 10
317.69530812661162
 20
-507.83040996894471
 30
0.0
 11
297.69530865277608
 21
-487.83041049509831
 31
0.0
  0
LINE
  5
233
  8
NOTE
  6
CONTINUOUS
 62
     4
 10
317.69530812661162
 20
-507.83040996894471
 30
0.0
 11
337.69530760043978
 21
-487.83041049509831
 31
0.0
  0
LINE
  5
234
  8
NOTE
  6
CONTINUOUS
 62
     4
 10
327.69530786352749
 20
-467.8304110212739
 30
0.0
 11
327.69530786352749
 21
-487.83041049509831
 31
0.0
  0
LINE
  5
235
  8
NOTE
  6
CONTINUOUS
 62
     4
 10
307.69530838968842
 20
-467.8304110212739
 30
0.0
 11
307.69530838968842
 21
-487.83041049509831
 31
0.0
  0
LINE
  5
236
  8
NOTE
  6
CONTINUOUS
 62
     4
 10
307.69530838968842
 20
-467.8304110212739
 30
0.0
 11
327.69530786352749
 21
-467.8304110212739
 31
0.0
  0
LINE
  5
237
  8
NOTE
  6
CONTINUOUS
 62
     4
 10
327.69530786352749
 20
-487.83041049509831
 30
0.0
 11
337.69530760043978
 21
-487.83041049509831
 31
0.0
  0
LINE
  5
238
  8
NOTE
  6
CONTINUOUS
 62
     4
 10
297.69530865277608
 20
-487.83041049509831
 30
0.0
 11
307.69530838968842
 21
-487.83041049509831
 31
0.0
  0
LINE
  5
239
  8
NOTE
  6
CONTINUOUS
 62
     4
 10
-124.6449633247484
 20
541.74601319537385
 30
0.0
 11
-134.64496306166069
 21
541.74601319537385
 31
0.0
  0
LINE
  5
23A
  8
NOTE
  6
CONTINUOUS
 62
     4
 10
-144.6449627985838
 20
521.74601372154575
 30
0.0
 11
-164.6449622724121
 21
541.74601319537385
 31
0.0
  0
LINE
  5
23B
  8
NOTE
  6
CONTINUOUS
 62
     4
 10
-144.6449627985838
 20
521.74601372154575
 30
0.0
 11
-124.6449633247484
 21
541.74601319537385
 31
0.0
  0
LINE
  5
23C
  8
NOTE
  6
CONTINUOUS
 62
     4
 10
-154.64496253549979
 20
541.74601319537385
 30
0.0
 11
-164.6449622724121
 21
541.74601319537385
 31
0.0
  0
LINE
  5
23D
  8
NOTE
  6
CONTINUOUS
 62
     4
 10
-134.64496306166069
 20
561.74601266922025
 30
0.0
 11
-134.64496306166069
 21
541.74601319537385
 31
0.0
  0
LINE
  5
23E
  8
NOTE
  6
CONTINUOUS
 62
     4
 10
-154.64496253549979
 20
561.74601266922025
 30
0.0
 11
-154.64496253549979
 21
541.74601319537385
 31
0.0
  0
LINE
  5
23F
  8
NOTE
  6
CONTINUOUS
 62
     4
 10
-134.64496306166069
 20
561.74601266922025
 30
0.0
 11
-154.64496253549979
 21
561.74601266922025
 31
0.0
  0
LINE
  5
240
  8
SIZE
  6
CONTINUOUS
 62
    30
 10
580.00000000000171
 20
-377.49999999999989
 30
0.0
 11
580.00000000000171
 21
-644.29066565111839
 31
0.0
  0
LINE
  5
241
  8
SIZE
  6
CONTINUOUS
 62
    30
 10
350.00000000000222
 20
-559.18647852868889
 30
0.0
 11
350.00000000000222
 21
-644.29066565111839
 31
0.0
  0
LINE
  5
242
  8
SIZE
  6
CONTINUOUS
 62
    30
 10
580.00000000000171
 20
-624.2906656511185
 30
0.0
 11
350.00000000000222
 21
-624.2906656511185
 31
0.0
  0
CIRCLE
  5
243
  8
SIZE
  6
CONTINUOUS
 62
    30
 10
580.00000000000171
 20
-624.2906656511185
 30
0.0
 40
7.5
  0
CIRCLE
  5
244
  8
SIZE
  6
CONTINUOUS
 62
    30
 10
350.00000000000222
 20
-624.2906656511185
 30
0.0
 40
7.5
  0
TEXT
  5
245
  8
SIZE
  6
CONTINUOUS
 62
    30
 10
407.1428571428591
 20
-609.2906656511185
 30
0.0
 40
50.0
  1
230
 41
0.9
 72
     1
 11
465.00000000000188
 21
-609.2906656511185
 31
0.0
  0
POINT
  5
246
  8
DEFPOINTS
  6
CONTINUOUS
 62
     7
 10
580.00000000000171
 20
-367.5
 30
0.0
  0
POINT
  5
247
  8
DEFPOINTS
  6
CONTINUOUS
 62
     7
 10
350.00000000000222
 20
-549.18647852868889
 30
0.0
  0
POINT
  5
248
  8
DEFPOINTS
  6
CONTINUOUS
 62
     7
 10
350.00000000000222
 20
-624.2906656511185
 30
0.0
  0
LINE
  5
249
  8
SIZE
  6
CONTINUOUS
 62
    30
 10
350.00000000000222
 20
-559.18647852868855
 30
0.0
 11
350.00000000000222
 21
-644.29066565111839
 31
0.0
  0
LINE
  5
24A
  8
SIZE
  6
CONTINUOUS
 62
    30
 10
30.000000000012388
 20
-559.18647852868889
 30
0.0
 11
30.000000000012381
 21
-644.29066565111839
 31
0.0
  0
LINE
  5
24B
  8
SIZE
  6
CONTINUOUS
 62
    30
 10
350.00000000000222
 20
-624.2906656511185
 30
0.0
 11
30.000000000012388
 21
-624.2906656511185
 31
0.0
  0
CIRCLE
  5
24C
  8
SIZE
  6
CONTINUOUS
 62
    30
 10
350.00000000000222
 20
-624.2906656511185
 30
0.0
 40
7.5
  0
CIRCLE
  5
24D
  8
SIZE
  6
CONTINUOUS
 62
    30
 10
30.000000000012388
 20
-624.2906656511185
 30
0.0
 40
7.5
  0
TEXT
  5
24E
  8
SIZE
  6
CONTINUOUS
 62
    30
 10
132.14285714286439
 20
-609.2906656511185
 30
0.0
 40
50.0
  1
320
 41
0.9
 72
     1
 11
190.0000000000073
 21
-609.2906656511185
 31
0.0
  0
POINT
  5
24F
  8
DEFPOINTS
  6
CONTINUOUS
 62
     7
 10
350.00000000000222
 20
-549.18647852868855
 30
0.0
  0
POINT
  5
250
  8
DEFPOINTS
  6
CONTINUOUS
 62
     7
 10
30.000000000012388
 20
-549.18647852868889
 30
0.0
  0
POINT
  5
251
  8
DEFPOINTS
  6
CONTINUOUS
 62
     7
 10
30.000000000012388
 20
-624.2906656511185
 30
0.0
  0
LINE
  5
252
  8
SIZE
  6
CONTINUOUS
 62
    30
 10
-399.9999973691568
 20
-397.49999921076591
 30
0.0
 11
-481.68648037022223
 21
-397.49999921076591
 31
0.0
  0
LINE
  5
253
  8
SIZE
  6
CONTINUOUS
 62
    30
 10
-411.6864803702386
 20
-437.49999815843688
 30
0.0
 11
-481.68648037022223
 21
-437.49999815843688
 31
0.0
  0
LINE
  5
254
  8
SIZE
  6
CONTINUOUS
 62
    30
 10
-461.68648037022223
 20
-397.49999921076591
 30
0.0
 11
-461.68648037022223
 21
-437.49999815843688
 31
0.0
  0
LINE
  5
255
  8
SIZE
  6
CONTINUOUS
 62
    30
 10
-461.68648037022223
 20
-437.49999815843688
 30
0.0
 11
-461.68648037022223
 21
-570.35714101557949
 31
0.0
  0
CIRCLE
  5
256
  8
SIZE
  6
CONTINUOUS
 62
    30
 10
-461.68648037022223
 20
-397.49999921076591
 30
0.0
 40
7.5
  0
CIRCLE
  5
257
  8
SIZE
  6
CONTINUOUS
 62
    30
 10
-461.68648037022223
 20
-437.49999815843688
 30
0.0
 40
7.5
  0
TEXT
  5
258
  8
SIZE
  6
CONTINUOUS
 62
    30
 10
-476.68648037022223
 20
-555.35714101557994
 30
0.0
 40
50.0
  1
40
 50
90.0
 41
0.9
 72
     1
 11
-476.68648037022223
 21
-518.9285695870085
 31
0.0
  0
POINT
  5
259
  8
DEFPOINTS
  6
CONTINUOUS
 62
     7
 10
-389.9999973691568
 20
-397.49999921076591
 30
0.0
  0
POINT
  5
25A
  8
DEFPOINTS
  6
CONTINUOUS
 62
     7
 10
-401.6864803702386
 20
-437.49999815843688
 30
0.0
  0
POINT
  5
25B
  8
DEFPOINTS
  6
CONTINUOUS
 62
     7
 10
-461.68648037022223
 20
-437.49999815843688
 30
0.0
  0
LINE
  5
25C
  8
NOTE
  6
CONTINUOUS
 62
     4
 10
350.00000000000222
 20
-437.49999815843688
 30
0.0
 11
383.35802370338172
 21
-445.84217721044951
 31
0.0
  0
LINE
  5
25D
  8
NOTE
  6
CONTINUOUS
 62
     4
 10
350.00000000000222
 20
-437.49999815843688
 30
0.0
 11
374.7178053022962
 21
-461.40354960878523
 31
0.0
  0
LINE
  5
25E
  8
BASIS
  6
DASHDOT
 62
     6
 10
-857.50838774151794
 20
0.0
 30
0.0
 11
639.08402413861234
 21
0.0
 31
0.0
  0
LINE
  5
25F
  8
OUTLINE
  6
CONTINUOUS
 62
     3
 10
-387.49999743492782
 20
-437.49999815843688
 30
0.0
 11
-192.50000256504359
 21
-437.49999815843688
 31
0.0
  0
LINE
  5
260
  8
OUTLINE
  6
CONTINUOUS
 62
     3
 10
-544.46833105489202
 20
-377.47248849139731
 30
0.0
 11
-398.82917183659117
 21
-387.56877758768809
 31
0.0
  0
LINE
  5
261
  8
OUTLINE
  6
CONTINUOUS
 62
     3
 10
-548.00000084187195
 20
-367.5
 30
0.0
 11
-548.00000084187195
 21
-373.49999984216618
 31
0.0
  0
ARC
  5
262
  8
OUTLINE
  6
CONTINUOUS
 62
     3
 10
-544.00000094709867
 20
-373.49999984216618
 30
0.0
 40
3.9999998947670061
 50
180.0
 51
263.27624318419612
  0
ARC
  5
263
  8
OUTLINE
  6
CONTINUOUS
 62
     3
 10
-399.99999710607449
 20
-397.49999921076591
 30
0.0
 40
9.9999997369175482
 50
0.0
 51
83.276243184196161
  0
LINE
  5
264
  8
OUTLINE
  6
CONTINUOUS
 62
     3
 10
-387.49999743492782
 20
-437.49999815843688
 30
0.0
 11
-389.99999736916038
 21
-397.49999921076591
 31
0.0
  0
LINE
  5
265
  8
OUTLINE
  6
CONTINUOUS
 62
     3
 10
-192.50000256504359
 20
-437.49999815843688
 30
0.0
 11
-190.01199511104949
 21
-397.69187889434397
 31
0.0
  0
LINE
  5
266
  8
OUTLINE
  6
CONTINUOUS
 62
     3
 10
447.49999743495431
 20
-437.49999815843688
 30
0.0
 11
252.50000256505021
 21
-437.49999815843688
 31
0.0
  0
LINE
  5
267
  8
OUTLINE
  6
CONTINUOUS
 62
     3
 10
252.50000256505021
 20
-437.49999815843688
 30
0.0
 11
250.01199511106151
 21
-397.69187889434028
 31
0.0
  0
ARC
  5
268
  8
OUTLINE
  6
CONTINUOUS
 62
     3
 10
248.01589000660221
 20
-397.81663546337222
 30
0.0
 40
1.9999999473839749
 50
3.576334374978571
 51
58.556399922644772
  0
ARC
  5
269
  8
OUTLINE
  6
CONTINUOUS
 62
     3
 10
459.99999710610109
 20
-397.49999921076591
 30
0.0
 40
9.9999997369178022
 50
93.959233676211795
 51
180.0
  0
LINE
  5
26A
  8
OUTLINE
  6
CONTINUOUS
 62
     3
 10
447.49999743495431
 20
-437.49999815843688
 30
0.0
 11
449.99999736918687
 21
-397.49999921076591
 31
0.0
  0
ARC
  5
26B
  8
OUTLINE
  6
CONTINUOUS
 62
     3
 10
-188.0158900065974
 20
-397.81663546337222
 30
0.0
 40
1.9999999473839749
 50
121.4436000773551
 51
176.42366562502141
  0
LINE
  5
26C
  8
DETAIL
  6
CONTINUOUS
 62
     5
 10
127.4999974349644
 20
-437.49999815843688
 30
0.0
 11
-67.499997434939701
 21
-437.49999815843688
 31
0.0
  0
LINE
  5
26D
  8
DETAIL
  6
CONTINUOUS
 62
     5
 10
130.00933373442231
 20
-397.49999921076591
 30
0.0
 11
-70.009333734402716
 21
-397.49999921076591
 31
0.0
  0
LINE
  5
26E
  8
DETAIL
  6
CONTINUOUS
 62
     5
 10
-67.499997434939701
 20
-437.49999815843688
 30
0.0
 11
-69.988004888928458
 21
-397.69187889434028
 31
0.0
  0
ARC
  5
26F
  8
DETAIL
  6
CONTINUOUS
 62
     5
 10
-71.984109993387733
 20
-397.81663546337222
 30
0.0
 40
1.9999999473839749
 50
3.576334374978571
 51
58.556399922622113
  0
LINE
  5
270
  8
DETAIL
  6
CONTINUOUS
 62
     5
 10
127.4999974349644
 20
-437.49999815843688
 30
0.0
 11
129.98800488897339
 21
-397.6918788943446
 31
0.0
  0
LINE
  5
271
  8
NOTE
  6
CONTINUOUS
 62
     4
 10
30.000000000012388
 20
-325.81351778818492
 30
0.0
 11
30.000000000012388
 21
-549.18647852868889
 31
0.0
  0
LINE
  5
272
  8
NOTE
  6
CONTINUOUS
 62
     4
 10
-81.686480370239536
 20
-437.49999815843688
 30
0.0
 11
141.68648037026429
 21
-437.49999815843688
 31
0.0
  0
LINE
  5
273
  8
NOTE
  6
CONTINUOUS
 62
     4
 10
54.595460945699969
 20
-507.83040996894471
 30
0.0
 11
34.595461471864489
 21
-487.83041049509831
 31
0.0
  0
LINE
  5
274
  8
NOTE
  6
CONTINUOUS
 62
     4
 10
54.595460945699969
 20
-507.83040996894471
 30
0.0
 11
74.595460419528195
 21
-487.83041049509831
 31
0.0
  0
LINE
  5
275
  8
NOTE
  6
CONTINUOUS
 62
     4
 10
64.595460682615908
 20
-467.8304110212739
 30
0.0
 11
64.595460682615908
 21
-487.83041049509831
 31
0.0
  0
LINE
  5
276
  8
NOTE
  6
CONTINUOUS
 62
     4
 10
44.595461208776783
 20
-467.8304110212739
 30
0.0
 11
44.595461208776783
 21
-487.83041049509831
 31
0.0
  0
LINE
  5
277
  8
NOTE
  6
CONTINUOUS
 62
     4
 10
44.595461208776783
 20
-467.8304110212739
 30
0.0
 11
64.595460682615908
 21
-467.8304110212739
 31
0.0
  0
LINE
  5
278
  8
NOTE
  6
CONTINUOUS
 62
     4
 10
64.595460682615908
 20
-487.83041049509831
 30
0.0
 11
74.595460419528195
 21
-487.83041049509831
 31
0.0
  0
LINE
  5
279
  8
NOTE
  6
CONTINUOUS
 62
     4
 10
34.595461471864489
 20
-487.83041049509831
 30
0.0
 11
44.595461208776783
 21
-487.83041049509831
 31
0.0
  0
LINE
  5
27A
  8
OUTLINE
  6
CONTINUOUS
 62
     3
 10
127.4999974349644
 20
-437.49999815843688
 30
0.0
 11
-67.499997434939701
 21
-437.49999815843688
 31
0.0
  0
LINE
  5
27B
  8
OUTLINE
  6
CONTINUOUS
 62
     3
 10
-67.499997434939701
 20
-437.49999815843688
 30
0.0
 11
-69.988004888928458
 21
-397.69187889434028
 31
0.0
  0
ARC
  5
27C
  8
OUTLINE
  6
CONTINUOUS
 62
     3
 10
-71.984109993387733
 20
-397.81663546337222
 30
0.0
 40
1.9999999473839749
 50
3.576334374978571
 51
58.556399922642633
  0
LINE
  5
27D
  8
OUTLINE
  6
CONTINUOUS
 62
     3
 10
127.4999974349644
 20
-437.49999815843688
 30
0.0
 11
129.98800488897339
 21
-397.6918788943446
 31
0.0
  0
ARC
  5
27E
  8
DETAIL
  6
CONTINUOUS
 62
     5
 10
-137.28222851655781
 20
-481.36551951399559
 30
0.0
 40
99.746194885723085
 50
85.813248732932436
 51
121.271046913333
  0
ARC
  5
27F
  8
DETAIL
  6
CONTINUOUS
 62
     5
 10
-122.7177714831937
 20
-481.36551951310793
 30
0.0
 40
99.746194884843135
 50
58.728953086516562
 51
94.186751267145667
  0
ARC
  5
280
  8
OUTLINE
  6
CONTINUOUS
 62
     3
 10
-137.28222851640911
 20
-481.36551951399559
 30
0.0
 40
99.746194885723085
 50
85.813248732932152
 51
121.27104691334191
  0
ARC
  5
281
  8
OUTLINE
  6
CONTINUOUS
 62
     3
 10
-122.717771483045
 20
-481.36551951310793
 30
0.0
 40
99.746194884843135
 50
58.728953086507531
 51
94.186751267144956
  0
ARC
  5
282
  8
OUTLINE
  6
CONTINUOUS
 62
     3
 10
131.98410999341249
 20
-397.81663546337222
 30
0.0
 40
1.9999999473839749
 50
121.4436000773573
 51
176.42366562502141
  0
ARC
  5
283
  8
DETAIL
  6
CONTINUOUS
 62
     5
 10
197.28222851658251
 20
-481.36551951399559
 30
0.0
 40
99.746194885723085
 50
58.728953086666827
 51
94.186751267067507
  0
ARC
  5
284
  8
DETAIL
  6
CONTINUOUS
 62
     5
 10
182.7177714832184
 20
-481.36551951310793
 30
0.0
 40
99.746194884843135
 50
85.813248732854376
 51
121.2710469134834
  0
ARC
  5
285
  8
OUTLINE
  6
CONTINUOUS
 62
     3
 10
197.2822285164338
 20
-481.36551951399559
 30
0.0
 40
99.746194885723085
 50
58.728953086658102
 51
94.18675126706782
  0
ARC
  5
286
  8
OUTLINE
  6
CONTINUOUS
 62
     3
 10
182.7177714830697
 20
-481.36551951310793
 30
0.0
 40
99.746194884843135
 50
85.813248732855044
 51
121.2710469134924
  0
LINE
  5
287
  8
SIZE
  6
CONTINUOUS
 62
    30
 10
30.000000000012388
 20
-559.18647852868855
 30
0.0
 11
30.000000000012381
 21
-644.29066565111827
 31
0.0
  0
LINE
  5
288
  8
SIZE
  6
CONTINUOUS
 62
    30
 10
-289.9999999999776
 20
-559.18647852868855
 30
0.0
 11
-289.9999999999776
 21
-644.29066565111827
 31
0.0
  0
LINE
  5
289
  8
SIZE
  6
CONTINUOUS
 62
    30
 10
30.000000000012388
 20
-624.29066565111827
 30
0.0
 11
-289.9999999999776
 21
-624.29066565111827
 31
0.0
  0
CIRCLE
  5
28A
  8
SIZE
  6
CONTINUOUS
 62
    30
 10
30.000000000012388
 20
-624.29066565111827
 30
0.0
 40
7.5
  0
CIRCLE
  5
28B
  8
SIZE
  6
CONTINUOUS
 62
    30
 10
-289.9999999999776
 20
-624.29066565111827
 30
0.0
 40
7.5
  0
TEXT
  5
28C
  8
SIZE
  6
CONTINUOUS
 62
    30
 10
-187.85714285712541
 20
-609.29066565111839
 30
0.0
 40
50.0
  1
320
 41
0.9
 72
     1
 11
-129.99999999998249
 21
-609.29066565111839
 31
0.0
  0
POINT
  5
28D
  8
DEFPOINTS
  6
CONTINUOUS
 62
     7
 10
30.000000000012388
 20
-549.18647852868855
 30
0.0
  0
POINT
  5
28E
  8
DEFPOINTS
  6
CONTINUOUS
 62
     7
 10
-289.9999999999776
 20
-549.18647852868855
 30
0.0
  0
POINT
  5
28F
  8
DEFPOINTS
  6
CONTINUOUS
 62
     7
 10
-289.9999999999776
 20
-624.29066565111827
 30
0.0
  0
LINE
  5
290
  8
NOTE
  6
CONTINUOUS
 62
     4
 10
124.6449633247522
 20
541.74601319537305
 30
0.0
 11
134.6449630616645
 21
541.74601319537305
 31
0.0
  0
LINE
  5
291
  8
NOTE
  6
CONTINUOUS
 62
     4
 10
144.6449627985875
 20
521.74601372154484
 30
0.0
 11
164.64496227241591
 21
541.7460131953726
 31
0.0
  0
LINE
  5
292
  8
NOTE
  6
CONTINUOUS
 62
     4
 10
144.6449627985875
 20
521.74601372154484
 30
0.0
 11
124.6449633247522
 21
541.74601319537305
 31
0.0
  0
LINE
  5
293
  8
NOTE
  6
CONTINUOUS
 62
     4
 10
154.64496253550359
 20
541.7460131953726
 30
0.0
 11
164.64496227241591
 21
541.7460131953726
 31
0.0
  0
LINE
  5
294
  8
NOTE
  6
CONTINUOUS
 62
     4
 10
134.64496306166461
 20
561.74601266921945
 30
0.0
 11
134.6449630616645
 21
541.74601319537305
 31
0.0
  0
LINE
  5
295
  8
NOTE
  6
CONTINUOUS
 62
     4
 10
154.64496253550371
 20
561.746012669219
 30
0.0
 11
154.64496253550359
 21
541.7460131953726
 31
0.0
  0
LINE
  5
296
  8
NOTE
  6
CONTINUOUS
 62
     4
 10
134.64496306166461
 20
561.74601266921945
 30
0.0
 11
154.64496253550371
 21
561.746012669219
 31
0.0
  0
LINE
  5
297
  8
DETAIL
  6
CONTINUOUS
 62
     5
 10
459.3095302965919
 20
-387.52386517380933
 30
0.0
 11
544.00000094715108
 21
-377.49999973692678
 31
0.0
  0
LINE
  5
298
  8
DETAIL
  6
CONTINUOUS
 62
     5
 10
-544.07148082311414
 20
-377.49999973692678
 30
0.0
 11
544.00000094715108
 21
-377.49999973692678
 31
0.0
  0
ARC
  5
299
  8
DETAIL
  6
CONTINUOUS
 62
     5
 10
544.00000094710026
 20
-373.49999984216618
 30
0.0
 40
3.9999998947670061
 50
270.0
 51
0.0
  0
LINE
  5
29A
  8
DETAIL
  6
CONTINUOUS
 62
     5
 10
548.00000084187548
 20
-367.5
 30
0.0
 11
548.00000084187548
 21
-373.49999984216618
 31
0.0
  0
LINE
  5
29B
  8
OUTLINE
  6
CONTINUOUS
 62
     3
 10
459.3095302965919
 20
-387.52386517380933
 30
0.0
 11
544.00000094715108
 21
-377.49999973692678
 31
0.0
  0
ARC
  5
29C
  8
OUTLINE
  6
CONTINUOUS
 62
     3
 10
544.00000094710026
 20
-373.49999984216618
 30
0.0
 40
3.9999998947670061
 50
270.0
 51
0.0
  0
LINE
  5
29D
  8
OUTLINE
  6
CONTINUOUS
 62
     3
 10
548.00000084187548
 20
-367.5
 30
0.0
 11
548.00000084187548
 21
-373.49999984216618
 31
0.0
  0
TEXT
  5
29E
  8
NOTE
  6
CONTINUOUS
 62
     4
 10
-73.794887533146593
 20
-503.77148677841279
 30
0.0
 40
40.0
  1
吹出
 50
0.0000025044165917
 41
0.8107143291551278
  7
STANDARD1
  0
ENDSEC
  0
EOF
