  0
SECTION
  2
HEADER
  9
$ACADVER
  1
AC1009
  9
$INSBASE
 10
0.0
 20
0.0
 30
0.0
  9
$EXTMIN
 10
-1170.3314358047569
 20
-1133.921210552413
 30
-0.0000000349181948
  9
$EXTMAX
 10
1163.691987147402
 20
908.02288446373848
 30
0.0000000814935747
  9
$LIMMIN
 10
-4267.1522210604817
 20
-2696.083210198412
  9
$LIMMAX
 10
7190.7174225864646
 20
5141.155363923066
  9
$ORTHOMODE
 70
     0
  9
$REGENMODE
 70
     1
  9
$FILLMODE
 70
     1
  9
$QTEXTMODE
 70
     0
  9
$MIRRTEXT
 70
     0
  9
$DRAGMODE
 70
     2
  9
$LTSCALE
 40
20.0
  9
$OSMODE
 70
   175
  9
$ATTMODE
 70
     1
  9
$TEXTSIZE
 40
64.0
  9
$TRACEWID
 40
0.05
  9
$TEXTSTYLE
  7
NOTE
  9
$CLAYER
  8
SYMBOLLINE
  9
$CELTYPE
  6
CONTINUOUS
  9
$CECOLOR
 62
     7
  9
$DIMSCALE
 40
1.0
  9
$DIMASZ
 40
30.0
  9
$DIMEXO
 40
10.0
  9
$DIMDLI
 40
70.0
  9
$DIMRND
 40
0.0
  9
$DIMDLE
 40
0.0
  9
$DIMEXE
 40
20.0
  9
$DIMTP
 40
0.0
  9
$DIMTM
 40
0.0
  9
$DIMTXT
 40
50.0
  9
$DIMCEN
 40
0.09
  9
$DIMTSZ
 40
0.0
  9
$DIMTOL
 70
     0
  9
$DIMLIM
 70
     0
  9
$DIMTIH
 70
     0
  9
$DIMTOH
 70
     0
  9
$DIMSE1
 70
     0
  9
$DIMSE2
 70
     0
  9
$DIMTAD
 70
     1
  9
$DIMZIN
 70
     8
  9
$DIMBLK
  1
SMALL
  9
$DIMASO
 70
     1
  9
$DIMSHO
 70
     0
  9
$DIMPOST
  1

  9
$DIMAPOST
  1

  9
$DIMALT
 70
     0
  9
$DIMALTD
 70
     2
  9
$DIMALTF
 40
25.399999999999999
  9
$DIMLFAC
 40
1.0
  9
$DIMTOFL
 70
     1
  9
$DIMTVP
 40
0.0
  9
$DIMTIX
 70
     0
  9
$DIMSOXD
 70
     0
  9
$DIMSAH
 70
     0
  9
$DIMBLK1
  1

  9
$DIMBLK2
  1

  9
$DIMSTYLE
  2
STANDARD
  9
$DIMCLRD
 70
     0
  9
$DIMCLRE
 70
     0
  9
$DIMCLRT
 70
     0
  9
$DIMTFAC
 40
1.0
  9
$DIMGAP
 40
0.09
  9
$LUNITS
 70
     2
  9
$LUPREC
 70
     4
  9
$SKETCHINC
 40
0.1
  9
$FILLETRAD
 40
30.0
  9
$AUNITS
 70
     1
  9
$AUPREC
 70
     3
  9
$MENU
  1
ACAD
  9
$ELEVATION
 40
0.0
  9
$PELEVATION
 40
0.0
  9
$THICKNESS
 40
0.0
  9
$LIMCHECK
 70
     0
  9
$BLIPMODE
 70
     0
  9
$CHAMFERA
 40
0.0
  9
$CHAMFERB
 40
0.0
  9
$SKPOLY
 70
     0
  9
$TDCREATE
 40
2450330.4399309959
  9
$TDUPDATE
 40
2455338.387880729
  9
$TDINDWG
 40
4.7897237269000001
  9
$TDUSRTIMER
 40
4.7897222685000003
  9
$USRTIMER
 70
     1
  9
$ANGBASE
 50
0.0
  9
$ANGDIR
 70
     0
  9
$PDMODE
 70
     3
  9
$PDSIZE
 40
-2.0
  9
$PLINEWID
 40
0.0
  9
$COORDS
 70
     0
  9
$SPLFRAME
 70
     0
  9
$SPLINETYPE
 70
     6
  9
$SPLINESEGS
 70
     8
  9
$ATTDIA
 70
     0
  9
$ATTREQ
 70
     1
  9
$HANDLING
 70
     1
  9
$HANDSEED
  5
5B8
  9
$SURFTAB1
 70
     6
  9
$SURFTAB2
 70
     6
  9
$SURFTYPE
 70
     6
  9
$SURFU
 70
     6
  9
$SURFV
 70
     6
  9
$UCSNAME
  2

  9
$UCSORG
 10
0.0
 20
0.0
 30
0.0
  9
$UCSXDIR
 10
1.0
 20
0.0
 30
0.0
  9
$UCSYDIR
 10
0.0
 20
1.0
 30
0.0
  9
$PUCSNAME
  2

  9
$PUCSORG
 10
0.0
 20
0.0
 30
0.0
  9
$PUCSXDIR
 10
1.0
 20
0.0
 30
0.0
  9
$PUCSYDIR
 10
0.0
 20
1.0
 30
0.0
  9
$USERI1
 70
     0
  9
$USERI2
 70
     0
  9
$USERI3
 70
     0
  9
$USERI4
 70
     0
  9
$USERI5
 70
     0
  9
$USERR1
 40
20.0
  9
$USERR2
 40
0.0
  9
$USERR3
 40
0.0
  9
$USERR4
 40
0.0
  9
$USERR5
 40
0.0
  9
$WORLDVIEW
 70
     1
  9
$SHADEDGE
 70
     3
  9
$SHADEDIF
 70
    70
  9
$TILEMODE
 70
     1
  9
$MAXACTVP
 70
    64
  9
$PLIMCHECK
 70
     0
  9
$PEXTMIN
 10
1.0000000000000000E+020
 20
1.0000000000000000E+020
 30
1.0000000000000000E+020
  9
$PEXTMAX
 10
-1.0000000000000000E+020
 20
-1.0000000000000000E+020
 30
-1.0000000000000000E+020
  9
$PLIMMIN
 10
0.0
 20
0.0
  9
$PLIMMAX
 10
12.0
 20
9.0
  9
$UNITMODE
 70
     0
  9
$VISRETAIN
 70
     1
  9
$PLINEGEN
 70
     0
  9
$PSLTSCALE
 70
     1
  0
ENDSEC
  0
SECTION
  2
TABLES
  0
TABLE
  2
VPORT
 70
     1
  0
VPORT
  2
*ACTIVE
 70
     0
 10
0.0
 20
0.0
 11
1.0
 21
1.0
 12
1461.7826007629919
 22
1222.536076862327
 13
0.0
 23
0.0
 14
50.0
 24
50.0
 15
100.0
 25
100.0
 16
0.0
 26
0.0
 36
1.0
 17
0.0
 27
0.0
 37
0.0
 40
7896.7619050641733
 41
1.550063371356146
 42
50.0
 43
0.0
 44
0.0
 50
0.0
 51
0.0
 71
     0
 72
  1000
 73
     1
 74
     0
 75
     0
 76
     0
 77
     0
 78
     0
  0
ENDTAB
  0
TABLE
  2
LTYPE
 70
     2
  0
LTYPE
  2
CONTINUOUS
 70
     0
  3
実線
 72
    65
 73
     0
 40
0.0
  0
LTYPE
  2
DASHDOT
 70
     0
  3
____ _ ____ _ ____ _ ____ _ ____ _ ____ _ ____
 72
    65
 73
     4
 40
5.5
 49
4.0
 49
-0.6
 49
0.3
 49
-0.6
  0
ENDTAB
  0
TABLE
  2
LAYER
 70
    12
  0
LAYER
  2
0
 70
     0
 62
     7
  6
CONTINUOUS
  0
LAYER
  2
SYMBOLLINE
 70
     0
 62
    15
  6
CONTINUOUS
  0
LAYER
  2
SIZE
 70
     0
 62
    30
  6
CONTINUOUS
  0
LAYER
  2
OUTLINE
 70
     0
 62
     3
  6
CONTINUOUS
  0
LAYER
  2
DETAIL
 70
     0
 62
     5
  6
CONTINUOUS
  0
LAYER
  2
BASIS
 70
     0
 62
     6
  6
DASHDOT
  0
LAYER
  2
NOTE
 70
     0
 62
     4
  6
CONTINUOUS
  0
LAYER
  2
ARRANGE
 70
     0
 62
     1
  6
CONTINUOUS
  0
LAYER
  2
FIX
 70
     0
 62
    11
  6
CONTINUOUS
  0
LAYER
  2
SERVICESPACE
 70
     0
 62
     2
  6
DASHDOT
  0
LAYER
  2
ETC
 70
     0
 62
    61
  6
CONTINUOUS
  0
LAYER
  2
DEFPOINTS
 70
     0
 62
     7
  6
CONTINUOUS
  0
ENDTAB
  0
TABLE
  2
STYLE
 70
     4
  0
STYLE
  2
STANDARD
 70
     0
 40
0.0
 41
0.9
 50
0.0
 71
     0
 42
64.0
  3
SIMPLEX
  4
BIGFONT
  0
STYLE
  2
ANNOTATIVE
 70
     0
 40
0.0
 41
1.0
 50
0.0
 71
     0
 42
0.2
  3
txt
  4

  0
STYLE
  2
NOTE
 70
     0
 40
0.0
 41
0.7
 50
0.0
 71
     0
 42
64.0
  3
SIMPLEX.shx
  4
BIGFONT.shx
  0
STYLE
  2
STANDARD1
 70
     0
 40
0.0
 41
1.0
 50
0.0
 71
     0
 42
64.0
  3
MONOTXT
  4
BIGFONT
  0
ENDTAB
  0
TABLE
  2
VIEW
 70
     4
  0
VIEW
  2
ALL
 70
     0
 40
9000.0
 10
241.50664699999999
 20
0.0
 41
12483.01
 11
0.0
 21
0.0
 31
1.0
 12
0.0
 22
0.0
 32
0.0
 42
50.0
 43
0.0
 44
0.0
 50
0.0
 71
     0
  0
ENDTAB
  0
TABLE
  2
UCS
 70
     0
  0
ENDTAB
  0
TABLE
  2
APPID
 70
     4
  0
APPID
  2
ACAD
 70
     0
  0
APPID
  2
ACADANNOTATIVE
 70
     0
  0
APPID
  2
ACAD_MLEADERVER
 70
     0
  0
APPID
  2
ACAD_EXEMPT_FROM_CAD_STANDARDS
 70
     0
  0
ENDTAB
  0
TABLE
  2
DIMSTYLE
 70
     2
  0
DIMSTYLE
  2
STANDARD
 70
     0
  3

  4

  5

  6

  7

 40
1.0
 41
0.18
 42
0.0625
 43
0.38
 44
0.18
 45
0.0
 46
0.0
 47
0.0
 48
0.0
140
0.18
141
0.09
142
0.0
143
25.399999999999999
144
1.0
145
0.0
146
1.0
147
0.09
 71
     0
 72
     0
 73
     1
 74
     1
 75
     0
 76
     0
 77
     0
 78
     0
170
     0
171
     2
172
     0
173
     0
174
     0
175
     0
176
     0
177
     0
178
     0
  0
DIMSTYLE
  2
ANNOTATIVE
 70
     0
  3

  4

  5

  6

  7

 40
1.0
 41
0.18
 42
0.0625
 43
0.38
 44
0.18
 45
0.0
 46
0.0
 47
0.0
 48
0.0
140
0.18
141
0.09
142
0.0
143
25.399999999999999
144
1.0
145
0.0
146
1.0
147
0.09
 71
     0
 72
     0
 73
     1
 74
     1
 75
     0
 76
     0
 77
     0
 78
     0
170
     0
171
     2
172
     0
173
     0
174
     0
175
     0
176
     0
177
     0
178
     0
  0
ENDTAB
  0
ENDSEC
  0
SECTION
  2
BLOCKS
  0
BLOCK
  8
0
  2
$MODEL_SPACE
 70
     0
 10
0.0
 20
0.0
 30
0.0
  3
$MODEL_SPACE
  1

  0
ENDBLK
  5
55F
  8
0
  0
BLOCK
 67
     1
  8
0
  2
$PAPER_SPACE
 70
     0
 10
0.0
 20
0.0
 30
0.0
  3
$PAPER_SPACE
  1

  0
ENDBLK
  5
55B
 67
     1
  8
0
  0
BLOCK
  8
0
  2
_SMALL
 70
     0
 10
0.0
 20
0.0
 30
0.0
  3
_SMALL
  1

  0
CIRCLE
  5
8D
  8
0
  6
CONTINUOUS
 62
     7
 10
0.0
 20
0.0
 30
0.0
 40
0.25
  0
ENDBLK
  5
8E
  8
0
  0
ENDSEC
  0
SECTION
  2
ENTITIES
  0
LINE
  5
8F
  8
SERVICESPACE
  6
DASHDOT
 62
     2
 10
-821.00000102601655
 20
-133.4999999999998
 30
0.0
 11
604.99999789535184
 21
-133.4999999999998
 31
0.0
  0
LINE
  5
90
  8
SERVICESPACE
  6
DASHDOT
 62
     2
 10
-821.00000102601655
 20
496.4999834258121
 30
0.0
 11
604.99999789535184
 21
496.4999834258121
 31
0.0
  0
LINE
  5
91
  8
DETAIL
  6
CONTINUOUS
 62
     5
 10
-579.99999999999807
 20
-367.5
 30
0.0
 11
580.00000000000193
 21
-367.5
 31
0.0
  0
LINE
  5
92
  8
SERVICESPACE
  6
DASHDOT
 62
     2
 10
-821.00000102601655
 20
496.4999834258121
 30
0.0
 11
-821.00000102601655
 21
-133.4999999999998
 31
0.0
  0
LINE
  5
93
  8
DETAIL
  6
CONTINUOUS
 62
     5
 10
-595.99999957907301
 20
-363.0
 30
0.0
 11
-595.99999957907301
 21
-339.50000061824539
 31
0.0
  0
ARC
  5
94
  8
DETAIL
  6
CONTINUOUS
 62
     5
 10
-573.00003093848466
 20
-341.50000056562197
 30
0.0
 40
6.9999998158423153
 50
180.0
 51
0.0
  0
ARC
  5
95
  8
DETAIL
  6
CONTINUOUS
 62
     5
 10
-573.00003093848466
 20
-341.50000056562197
 30
0.0
 40
6.9999998158423153
 50
180.0
 51
0.0
  0
LINE
  5
96
  8
DETAIL
  6
CONTINUOUS
 62
     5
 10
-595.99999957907301
 20
-363.0
 30
0.0
 11
-595.99999957907301
 21
-339.50000061824539
 31
0.0
  0
LINE
  5
97
  8
DETAIL
  6
CONTINUOUS
 62
     5
 10
-557.20003135415016
 20
-363.0
 30
0.0
 11
-557.20003135415016
 21
-304.00000155218362
 31
0.0
  0
LINE
  5
98
  8
DETAIL
  6
CONTINUOUS
 62
     5
 10
-579.99999999999807
 20
-363.0
 30
0.0
 11
-579.99999999999807
 21
-367.5
 31
0.0
  0
LINE
  5
99
  8
DETAIL
  6
CONTINUOUS
 62
     5
 10
-557.20003135415016
 20
-363.0
 30
0.0
 11
-595.99999957907301
 21
-363.0
 31
0.0
  0
LINE
  5
9A
  8
DETAIL
  6
CONTINUOUS
 62
     5
 10
-579.99999999999807
 20
-304.00000155218362
 30
0.0
 11
-579.99999999999807
 21
-143.4999997369159
 31
0.0
  0
LINE
  5
9B
  8
DETAIL
  6
CONTINUOUS
 62
     5
 10
-566.00003112263005
 20
-341.50000056562197
 30
0.0
 11
-566.00003112263005
 21
-325.50000098655801
 31
0.0
  0
LINE
  5
9C
  8
DETAIL
  6
CONTINUOUS
 62
     5
 10
-595.99999957907301
 20
-327.5000009339455
 30
0.0
 11
-595.99999957907301
 21
-304.00000155218362
 31
0.0
  0
LINE
  5
9D
  8
DETAIL
  6
CONTINUOUS
 62
     5
 10
-580.00003075431755
 20
-339.50000061824539
 30
0.0
 11
-595.99999957907301
 21
-339.50000061824539
 31
0.0
  0
LINE
  5
9E
  8
DETAIL
  6
CONTINUOUS
 62
     5
 10
-580.00003075431755
 20
-327.5000009339455
 30
0.0
 11
-580.00003075431755
 21
-325.50000098655801
 31
0.0
  0
ARC
  5
9F
  8
DETAIL
  6
CONTINUOUS
 62
     5
 10
-573.00003093848466
 20
-325.50000098655801
 30
0.0
 40
6.99999981584227
 50
0.0
 51
180.0
  0
LINE
  5
A0
  8
DETAIL
  6
CONTINUOUS
 62
     5
 10
-580.00003075431755
 20
-341.50000056562197
 30
0.0
 11
-580.00003075431755
 21
-339.50000061824539
 31
0.0
  0
LINE
  5
A1
  8
DETAIL
  6
CONTINUOUS
 62
     5
 10
-595.99999957907301
 20
-327.5000009339455
 30
0.0
 11
-595.99999957907301
 21
-304.00000155218362
 31
0.0
  0
LINE
  5
A2
  8
DETAIL
  6
CONTINUOUS
 62
     5
 10
-580.00003075431755
 20
-341.50000056562197
 30
0.0
 11
-580.00003075431755
 21
-339.50000061824539
 31
0.0
  0
ARC
  5
A3
  8
DETAIL
  6
CONTINUOUS
 62
     5
 10
-573.00003093848466
 20
-325.50000098655801
 30
0.0
 40
6.99999981584227
 50
0.0
 51
180.0
  0
LINE
  5
A4
  8
DETAIL
  6
CONTINUOUS
 62
     5
 10
-580.00003075431755
 20
-327.5000009339455
 30
0.0
 11
-580.00003075431755
 21
-325.50000098655801
 31
0.0
  0
LINE
  5
A5
  8
DETAIL
  6
CONTINUOUS
 62
     5
 10
-580.00003075431755
 20
-327.5000009339455
 30
0.0
 11
-595.99999957907301
 21
-327.5000009339455
 31
0.0
  0
LINE
  5
A6
  8
DETAIL
  6
CONTINUOUS
 62
     5
 10
-566.00003112263005
 20
-341.50000056562197
 30
0.0
 11
-566.00003112263005
 21
-325.50000098655801
 31
0.0
  0
LINE
  5
A7
  8
DETAIL
  6
CONTINUOUS
 62
     5
 10
-557.20003135415016
 20
-304.00000155218362
 30
0.0
 11
-595.99999957907301
 21
-304.00000155218362
 31
0.0
  0
LINE
  5
A8
  8
SERVICESPACE
  6
DASHDOT
 62
     2
 10
604.99999934229538
 20
496.49998342581262
 30
0.0
 11
604.99999934229538
 21
-133.49999999999969
 31
0.0
  0
LINE
  5
A9
  8
DETAIL
  6
CONTINUOUS
 62
     5
 10
595.99999897399186
 20
-362.99999999999972
 30
0.0
 11
595.99999897399186
 21
-339.50000061824511
 31
0.0
  0
ARC
  5
AA
  8
DETAIL
  6
CONTINUOUS
 62
     5
 10
572.99999957908585
 20
-341.5000005656218
 30
0.0
 40
6.9999998158422283
 50
180.0
 51
0.0
  0
ARC
  5
AB
  8
DETAIL
  6
CONTINUOUS
 62
     5
 10
572.99999957908585
 20
-341.5000005656218
 30
0.0
 40
6.9999998158422283
 50
180.0
 51
0.0
  0
LINE
  5
AC
  8
DETAIL
  6
CONTINUOUS
 62
     5
 10
595.99999897399186
 20
-362.99999999999972
 30
0.0
 11
595.99999897399186
 21
-339.50000061824511
 31
0.0
  0
LINE
  5
AD
  8
DETAIL
  6
CONTINUOUS
 62
     5
 10
557.19999999474942
 20
-362.99999999999972
 30
0.0
 11
557.19999999474942
 21
-304.00000155218339
 31
0.0
  0
LINE
  5
AE
  8
DETAIL
  6
CONTINUOUS
 62
     5
 10
580.00000000000193
 20
-362.99999999999972
 30
0.0
 11
580.00000000000193
 21
-367.49999999999972
 31
0.0
  0
LINE
  5
AF
  8
DETAIL
  6
CONTINUOUS
 62
     5
 10
557.19999999474942
 20
-362.99999999999972
 30
0.0
 11
595.99999897399186
 21
-362.99999999999972
 31
0.0
  0
LINE
  5
B0
  8
DETAIL
  6
CONTINUOUS
 62
     5
 10
580.00000000000193
 20
-304.00000155218339
 30
0.0
 11
580.00000000000193
 21
-143.49999973691561
 31
0.0
  0
LINE
  5
B1
  8
DETAIL
  6
CONTINUOUS
 62
     5
 10
565.99999976323124
 20
-341.5000005656218
 30
0.0
 11
565.99999976323124
 21
-325.50000098655772
 31
0.0
  0
LINE
  5
B2
  8
DETAIL
  6
CONTINUOUS
 62
     5
 10
595.99999897399186
 20
-327.50000093394522
 30
0.0
 11
595.99999897399186
 21
-304.00000155218339
 31
0.0
  0
LINE
  5
B3
  8
DETAIL
  6
CONTINUOUS
 62
     5
 10
579.99999939491875
 20
-339.50000061824511
 30
0.0
 11
595.99999897399186
 21
-339.50000061824511
 31
0.0
  0
LINE
  5
B4
  8
DETAIL
  6
CONTINUOUS
 62
     5
 10
579.99999939491875
 20
-327.50000093394522
 30
0.0
 11
595.99999897399186
 21
-327.50000093394522
 31
0.0
  0
LINE
  5
B5
  8
DETAIL
  6
CONTINUOUS
 62
     5
 10
579.99999939491875
 20
-327.50000093394522
 30
0.0
 11
579.99999939491875
 21
-325.50000098655772
 31
0.0
  0
ARC
  5
B6
  8
DETAIL
  6
CONTINUOUS
 62
     5
 10
572.99999957908585
 20
-325.50000098655772
 30
0.0
 40
6.9999998158423908
 50
0.0
 51
180.0
  0
LINE
  5
B7
  8
DETAIL
  6
CONTINUOUS
 62
     5
 10
579.99999939491875
 20
-341.5000005656218
 30
0.0
 11
579.99999939491875
 21
-339.50000061824511
 31
0.0
  0
LINE
  5
B8
  8
DETAIL
  6
CONTINUOUS
 62
     5
 10
579.99999939491875
 20
-341.5000005656218
 30
0.0
 11
579.99999939491875
 21
-339.50000061824511
 31
0.0
  0
ARC
  5
B9
  8
DETAIL
  6
CONTINUOUS
 62
     5
 10
572.99999957908585
 20
-325.50000098655772
 30
0.0
 40
6.9999998158423908
 50
0.0
 51
180.0
  0
LINE
  5
BA
  8
DETAIL
  6
CONTINUOUS
 62
     5
 10
579.99999939491875
 20
-327.50000093394522
 30
0.0
 11
579.99999939491875
 21
-325.50000098655772
 31
0.0
  0
LINE
  5
BB
  8
DETAIL
  6
CONTINUOUS
 62
     5
 10
579.99999939491875
 20
-327.50000093394522
 30
0.0
 11
595.99999897399186
 21
-327.50000093394522
 31
0.0
  0
LINE
  5
BC
  8
DETAIL
  6
CONTINUOUS
 62
     5
 10
579.99999939491875
 20
-339.50000061824511
 30
0.0
 11
595.99999897399186
 21
-339.50000061824511
 31
0.0
  0
LINE
  5
BD
  8
DETAIL
  6
CONTINUOUS
 62
     5
 10
595.99999897399186
 20
-327.50000093394522
 30
0.0
 11
595.99999897399186
 21
-304.00000155218339
 31
0.0
  0
LINE
  5
BE
  8
DETAIL
  6
CONTINUOUS
 62
     5
 10
565.99999976323124
 20
-341.5000005656218
 30
0.0
 11
565.99999976323124
 21
-325.50000098655772
 31
0.0
  0
LINE
  5
BF
  8
DETAIL
  6
CONTINUOUS
 62
     5
 10
557.19999999474942
 20
-304.00000155218339
 30
0.0
 11
595.99999897399186
 21
-304.00000155218339
 31
0.0
  0
LINE
  5
C0
  8
NOTE
  6
CONTINUOUS
 62
     4
 10
572.99999957909495
 20
-355.10498273402447
 30
0.0
 11
572.99999957909495
 21
-311.89501881815858
 31
0.0
  0
LINE
  5
C1
  8
NOTE
  6
CONTINUOUS
 62
     4
 10
594.60498153702076
 20
-333.50000077609337
 30
0.0
 11
551.39501762115299
 21
-333.50000077609337
 31
0.0
  0
CIRCLE
  5
C2
  8
FIX
  6
CONTINUOUS
 62
    11
 10
572.99999957909495
 20
-333.50000077609337
 30
0.0
 40
15.469521245178219
  0
LINE
  5
C3
  8
NOTE
  6
CONTINUOUS
 62
     4
 10
-573.00003093847386
 20
-355.10498273402482
 30
0.0
 11
-573.00003093847386
 21
-311.8950188181588
 31
0.0
  0
LINE
  5
C4
  8
NOTE
  6
CONTINUOUS
 62
     4
 10
-551.39504898054815
 20
-333.50000077609371
 30
0.0
 11
-594.60501289641604
 21
-333.50000077609371
 31
0.0
  0
CIRCLE
  5
C5
  8
FIX
  6
CONTINUOUS
 62
    11
 10
-573.00003093847386
 20
-333.50000077609371
 30
0.0
 40
15.469521245178219
  0
LINE
  5
C6
  8
DETAIL
  6
CONTINUOUS
 62
     5
 10
-828.0000008418491
 20
-143.4999997369159
 30
0.0
 11
-828.0000008418491
 21
506.49998316272462
 31
0.0
  0
LINE
  5
C7
  8
DETAIL
  6
CONTINUOUS
 62
     5
 10
-828.0000008418491
 20
506.49998316272462
 30
0.0
 11
611.99999771120645
 21
506.49998316272462
 31
0.0
  0
LINE
  5
C8
  8
DETAIL
  6
CONTINUOUS
 62
     5
 10
611.99999915814999
 20
506.49998316272479
 30
0.0
 11
611.99999915814999
 21
-143.49999973691561
 31
0.0
  0
LINE
  5
C9
  8
DETAIL
  6
CONTINUOUS
 62
     5
 10
-828.0000008418491
 20
-143.4999997369159
 30
0.0
 11
611.99999771120645
 21
-143.4999997369159
 31
0.0
  0
LINE
  5
CA
  8
DETAIL
  6
CONTINUOUS
 62
     5
 10
-616.00000110491953
 20
-165.0000002762026
 30
0.0
 11
-603.00000144692569
 21
-165.0000002762026
 31
0.0
  0
LINE
  5
CB
  8
DETAIL
  6
CONTINUOUS
 62
     5
 10
-616.00000110491953
 20
-185.9999997237318
 30
0.0
 11
-603.00000144692569
 21
-185.9999997237318
 31
0.0
  0
LINE
  5
CC
  8
DETAIL
  6
CONTINUOUS
 62
     5
 10
-619.00000102600075
 20
-170.00000014466781
 30
0.0
 11
-616.00000110491953
 21
-165.0000002762026
 31
0.0
  0
LINE
  5
CD
  8
DETAIL
  6
CONTINUOUS
 62
     5
 10
-616.00000110491953
 20
-185.9999997237318
 30
0.0
 11
-616.00000110491953
 21
-165.0000002762026
 31
0.0
  0
LINE
  5
CE
  8
DETAIL
  6
CONTINUOUS
 62
     5
 10
-619.00000102600075
 20
-180.9999998552739
 30
0.0
 11
-616.00000110491953
 21
-185.9999997237318
 31
0.0
  0
LINE
  5
CF
  8
DETAIL
  6
CONTINUOUS
 62
     5
 10
-619.00000102600075
 20
-180.9999998552739
 30
0.0
 11
-619.00000102600075
 21
-170.00000014466781
 31
0.0
  0
LINE
  5
D0
  8
DETAIL
  6
CONTINUOUS
 62
     5
 10
-602.00000147323385
 20
-170.74000000000001
 30
0.0
 11
-600.00000152584641
 21
-170.74000000000001
 31
0.0
  0
LINE
  5
D1
  8
DETAIL
  6
CONTINUOUS
 62
     5
 10
-600.00000152584641
 20
-167.00000022359009
 30
0.0
 11
-599.00000155215264
 21
-166.00000024989271
 31
0.0
  0
LINE
  5
D2
  8
DETAIL
  6
CONTINUOUS
 62
     5
 10
-603.00000144692569
 20
-165.0000002762026
 30
0.0
 11
-602.00000147323385
 21
-166.00000024989271
 31
0.0
  0
LINE
  5
D3
  8
DETAIL
  6
CONTINUOUS
 62
     5
 10
-602.00000147323385
 20
-184.99999975003811
 30
0.0
 11
-602.00000147323385
 21
-166.00000024989271
 31
0.0
  0
LINE
  5
D4
  8
DETAIL
  6
CONTINUOUS
 62
     5
 10
-600.00000152584641
 20
-183.99999977634431
 30
0.0
 11
-600.00000152584641
 21
-167.00000022359009
 31
0.0
  0
LINE
  5
D5
  8
DETAIL
  6
CONTINUOUS
 62
     5
 10
-602.00000147323385
 20
-180.25999999999999
 30
0.0
 11
-600.00000152584641
 21
-180.25999999999999
 31
0.0
  0
LINE
  5
D6
  8
DETAIL
  6
CONTINUOUS
 62
     5
 10
-600.00000152584641
 20
-183.99999977634431
 30
0.0
 11
-599.00000155215264
 21
-184.99999975003811
 31
0.0
  0
LINE
  5
D7
  8
DETAIL
  6
CONTINUOUS
 62
     5
 10
-602.00000147323385
 20
-184.99999975003811
 30
0.0
 11
-603.00000144692569
 21
-185.9999997237318
 31
0.0
  0
LINE
  5
D8
  8
DETAIL
  6
CONTINUOUS
 62
     5
 10
-599.00000155215264
 20
-184.99999975003811
 30
0.0
 11
-579.99999999999807
 21
-184.99999975003811
 31
0.0
  0
LINE
  5
D9
  8
DETAIL
  6
CONTINUOUS
 62
     5
 10
-599.00000155215264
 20
-166.00000024989271
 30
0.0
 11
-579.99999999999807
 21
-166.00000024989271
 31
0.0
  0
LINE
  5
DA
  8
NOTE
  6
CONTINUOUS
 62
     4
 10
-597.39501906807504
 20
-175.49999999997809
 30
0.0
 11
-640.60498298394248
 21
-175.49999999997809
 31
0.0
  0
LINE
  5
DB
  8
NOTE
  6
CONTINUOUS
 62
     4
 10
-619.00000102597085
 20
-175.49999999994199
 30
0.0
 11
-651.86216765995505
 21
-165.37934286462041
 31
0.0
  0
LINE
  5
DC
  8
NOTE
  6
CONTINUOUS
 62
     4
 10
-619.00000102597085
 20
-175.49999999994199
 30
0.0
 11
-642.39914243638236
 21
-150.3041699450138
 31
0.0
  0
LINE
  5
DD
  8
DETAIL
  6
CONTINUOUS
 62
     5
 10
-596.00000068403256
 20
-226.5000003420281
 30
0.0
 11
-610.00000031571994
 21
-226.5000003420281
 31
0.0
  0
LINE
  5
DE
  8
DETAIL
  6
CONTINUOUS
 62
     5
 10
-596.00000068403256
 20
-252.49999965801541
 30
0.0
 11
-610.00000031571994
 21
-252.49999965801541
 31
0.0
  0
LINE
  5
DF
  8
DETAIL
  6
CONTINUOUS
 62
     5
 10
-610.00000031571994
 20
-226.5000003420281
 30
0.0
 11
-610.00000031571994
 21
-252.49999965801541
 31
0.0
  0
LINE
  5
E0
  8
DETAIL
  6
CONTINUOUS
 62
     5
 10
-610.00000031571994
 20
-226.5000003420281
 30
0.0
 11
-616.00000015785895
 21
-230.00000024994361
 31
0.0
  0
LINE
  5
E1
  8
DETAIL
  6
CONTINUOUS
 62
     5
 10
-616.00000015785895
 20
-230.00000024994361
 30
0.0
 11
-616.00000015785895
 21
-248.99999975008529
 31
0.0
  0
LINE
  5
E2
  8
DETAIL
  6
CONTINUOUS
 62
     5
 10
-616.00000015785895
 20
-248.99999975008529
 30
0.0
 11
-610.00000031571994
 21
-252.49999965801541
 31
0.0
  0
LINE
  5
E3
  8
DETAIL
  6
CONTINUOUS
 62
     5
 10
-590.00000084187184
 20
-230.00000024994361
 30
0.0
 11
-588.00000089450612
 21
-228.000000302567
 31
0.0
  0
LINE
  5
E4
  8
DETAIL
  6
CONTINUOUS
 62
     5
 10
-594.00000073664501
 20
-228.5000002894121
 30
0.0
 11
-594.00000073664501
 21
-250.49999971062789
 31
0.0
  0
LINE
  5
E5
  8
DETAIL
  6
CONTINUOUS
 62
     5
 10
-579.99999999999807
 20
-250.9999996974729
 30
0.0
 11
-588.00000089450612
 21
-250.9999996974729
 31
0.0
  0
LINE
  5
E6
  8
DETAIL
  6
CONTINUOUS
 62
     5
 10
-590.00000084187184
 20
-230.00000024994361
 30
0.0
 11
-590.00000084187184
 21
-248.99999975008529
 31
0.0
  0
LINE
  5
E7
  8
DETAIL
  6
CONTINUOUS
 62
     5
 10
-590.00000084187184
 20
-248.99999975008529
 30
0.0
 11
-588.00000089450612
 21
-250.9999996974729
 31
0.0
  0
LINE
  5
E8
  8
DETAIL
  6
CONTINUOUS
 62
     5
 10
-594.00000073664501
 20
-231.56
 30
0.0
 11
-590.00000084187184
 21
-231.56
 31
0.0
  0
LINE
  5
E9
  8
DETAIL
  6
CONTINUOUS
 62
     5
 10
-594.00000073664501
 20
-247.44
 30
0.0
 11
-590.00000084187184
 21
-247.44
 31
0.0
  0
LINE
  5
EA
  8
DETAIL
  6
CONTINUOUS
 62
     5
 10
-594.00000073664501
 20
-250.49999971062789
 30
0.0
 11
-596.00000068403256
 21
-252.49999965801541
 31
0.0
  0
LINE
  5
EB
  8
DETAIL
  6
CONTINUOUS
 62
     5
 10
-579.99999999999807
 20
-228.000000302567
 30
0.0
 11
-588.00000089450612
 21
-228.000000302567
 31
0.0
  0
LINE
  5
EC
  8
DETAIL
  6
CONTINUOUS
 62
     5
 10
-594.00000073664501
 20
-228.5000002894121
 30
0.0
 11
-596.00000068403256
 21
-226.5000003420281
 31
0.0
  0
LINE
  5
ED
  8
NOTE
  6
CONTINUOUS
 62
     4
 10
-616.00000015785895
 20
-261.10498195795287
 30
0.0
 11
-616.00000015785895
 21
-217.895018042087
 31
0.0
  0
LINE
  5
EE
  8
NOTE
  6
CONTINUOUS
 62
     4
 10
-594.39501819993325
 20
-239.5000000000218
 30
0.0
 11
-637.60498211580114
 21
-239.5000000000218
 31
0.0
  0
LINE
  5
EF
  8
NOTE
  6
CONTINUOUS
 62
     4
 10
-615.99999973232855
 20
-239.50000035176711
 30
0.0
 11
-623.81948260668651
 21
-272.98440544292288
 31
0.0
  0
LINE
  5
F0
  8
NOTE
  6
CONTINUOUS
 62
     4
 10
-615.99999973232855
 20
-239.50000035176711
 30
0.0
 11
-639.51407372567803
 21
-264.58860324505463
 31
0.0
  0
LINE
  5
F1
  8
NOTE
  6
CONTINUOUS
 62
     4
 10
-619.00000102600075
 20
-197.1049819579128
 30
0.0
 11
-619.00000102600075
 21
-153.89501804204329
 31
0.0
  0
LINE
  5
F2
  8
SIZE
  6
CONTINUOUS
 62
    30
 10
-579.99999999999807
 20
-377.49999999999989
 30
0.0
 11
-579.99999999999807
 21
-954.46872574145868
 31
0.0
  0
LINE
  5
F3
  8
SIZE
  6
CONTINUOUS
 62
    30
 10
580.00000000000375
 20
-377.49999999999972
 30
0.0
 11
580.00000000000375
 21
-954.34822451103162
 31
0.0
  0
LINE
  5
F4
  8
SIZE
  6
CONTINUOUS
 62
    30
 10
-579.99999999999807
 20
-919.40516319094195
 30
0.0
 11
580.00000000000375
 21
-919.40516319094195
 31
0.0
  0
CIRCLE
  5
F5
  8
SIZE
  6
CONTINUOUS
 62
    30
 10
-579.99999999999807
 20
-919.40516319094195
 30
0.0
 40
7.5
  0
CIRCLE
  5
F6
  8
SIZE
  6
CONTINUOUS
 62
    30
 10
580.00000000000375
 20
-919.40516319094195
 30
0.0
 40
7.5
  0
POINT
  5
F8
  8
DEFPOINTS
  6
CONTINUOUS
 62
     7
 10
-579.99999999999807
 20
-367.5
 30
0.0
  0
POINT
  5
F9
  8
DEFPOINTS
  6
CONTINUOUS
 62
     7
 10
580.00000000000375
 20
-367.49999999999972
 30
0.0
  0
POINT
  5
FA
  8
DEFPOINTS
  6
CONTINUOUS
 62
     7
 10
580.00000000000375
 20
-919.40516319094195
 30
0.0
  0
LINE
  5
FB
  8
SIZE
  6
CONTINUOUS
 62
    30
 10
580.00000000000193
 20
-377.49999999999972
 30
0.0
 11
580.00000000000193
 21
-954.34822451103162
 31
0.0
  0
LINE
  5
FC
  8
SIZE
  6
CONTINUOUS
 62
    30
 10
595.99999897399186
 20
-372.99999999999972
 30
0.0
 11
595.99999897399186
 21
-734.73722470532061
 31
0.0
  0
LINE
  5
FD
  8
SIZE
  6
CONTINUOUS
 62
    30
 10
580.00000000000193
 20
-919.40516319094195
 30
0.0
 11
550.00000000000193
 21
-919.40516319094195
 31
0.0
  0
LINE
  5
FE
  8
SIZE
  6
CONTINUOUS
 62
    30
 10
595.99999897399186
 20
-919.40516319094195
 30
0.0
 11
748.14285611684863
 21
-919.40516319094195
 31
0.0
  0
LINE
  5
FF
  8
SIZE
  6
CONTINUOUS
 62
    30
 10
580.00000000000193
 20
-919.40516319094195
 30
0.0
 11
595.99999897399186
 21
-919.40516319094195
 31
0.0
  0
CIRCLE
  5
100
  8
SIZE
  6
CONTINUOUS
 62
    30
 10
580.00000000000193
 20
-919.40516319094195
 30
0.0
 40
7.5
  0
CIRCLE
  5
101
  8
SIZE
  6
CONTINUOUS
 62
    30
 10
595.99999897399186
 20
-919.40516319094195
 30
0.0
 40
7.5
  0
TEXT
  5
102
  8
SIZE
  6
CONTINUOUS
 62
    30
 10
670.99999897399186
 20
-904.40516319094229
 30
0.0
 40
50.0
  1
16
 41
0.9
 72
     1
 11
702.07142754542042
 21
-904.40516319094229
 31
0.0
  0
POINT
  5
103
  8
DEFPOINTS
  6
CONTINUOUS
 62
     7
 10
580.00000000000193
 20
-367.49999999999972
 30
0.0
  0
POINT
  5
104
  8
DEFPOINTS
  6
CONTINUOUS
 62
     7
 10
595.99999897399186
 20
-362.99999999999972
 30
0.0
  0
POINT
  5
105
  8
DEFPOINTS
  6
CONTINUOUS
 62
     7
 10
595.99999897399186
 20
-919.40516319094195
 30
0.0
  0
LINE
  5
106
  8
SIZE
  6
CONTINUOUS
 62
    30
 10
-579.99999999999807
 20
-377.49999999999989
 30
0.0
 11
-579.99999999999807
 21
-954.46872574145868
 31
0.0
  0
LINE
  5
107
  8
SIZE
  6
CONTINUOUS
 62
    30
 10
-595.99999957907301
 20
-373.0
 30
0.0
 11
-595.99999957907301
 21
-734.73722470532061
 31
0.0
  0
LINE
  5
108
  8
SIZE
  6
CONTINUOUS
 62
    30
 10
-579.99999999999807
 20
-919.40516319094195
 30
0.0
 11
-549.99999999999795
 21
-919.40516319094195
 31
0.0
  0
LINE
  5
109
  8
SIZE
  6
CONTINUOUS
 62
    30
 10
-595.99999957907301
 20
-919.40516319094195
 30
0.0
 11
-748.14285672193012
 21
-919.40516319094195
 31
0.0
  0
LINE
  5
10A
  8
SIZE
  6
CONTINUOUS
 62
    30
 10
-579.99999999999807
 20
-919.40516319094195
 30
0.0
 11
-595.99999957907301
 21
-919.40516319094195
 31
0.0
  0
CIRCLE
  5
10B
  8
SIZE
  6
CONTINUOUS
 62
    30
 10
-579.99999999999807
 20
-919.40516319094195
 30
0.0
 40
7.5
  0
CIRCLE
  5
10C
  8
SIZE
  6
CONTINUOUS
 62
    30
 10
-595.99999957907301
 20
-919.40516319094195
 30
0.0
 40
7.5
  0
TEXT
  5
10D
  8
SIZE
  6
CONTINUOUS
 62
    30
 10
-733.14285672193012
 20
-904.40516319094229
 30
0.0
 40
50.0
  1
16
 41
0.9
 72
     1
 11
-702.07142815050145
 21
-904.40516319094229
 31
0.0
  0
POINT
  5
10E
  8
DEFPOINTS
  6
CONTINUOUS
 62
     7
 10
-579.99999999999807
 20
-367.5
 30
0.0
  0
POINT
  5
10F
  8
DEFPOINTS
  6
CONTINUOUS
 62
     7
 10
-595.99999957907301
 20
-363.0
 30
0.0
  0
POINT
  5
110
  8
DEFPOINTS
  6
CONTINUOUS
 62
     7
 10
-595.99999957907301
 20
-919.40516319094195
 30
0.0
  0
LINE
  5
111
  8
SIZE
  6
CONTINUOUS
 62
    30
 10
572.99999957909495
 20
-365.10498273402482
 30
0.0
 11
572.99999957909495
 21
-1043.4002701414031
 31
0.0
  0
LINE
  5
112
  8
SIZE
  6
CONTINUOUS
 62
    30
 10
-573.00003093847386
 20
-365.10498273402482
 30
0.0
 11
-573.00003093847386
 21
-1043.5207897577341
 31
0.0
  0
LINE
  5
113
  8
SIZE
  6
CONTINUOUS
 62
    30
 10
572.99999957909495
 20
-1008.026123834901
 30
0.0
 11
-573.00003093847386
 21
-1008.026123834901
 31
0.0
  0
CIRCLE
  5
114
  8
SIZE
  6
CONTINUOUS
 62
    30
 10
572.99999957909495
 20
-1008.026123834901
 30
0.0
 40
7.5
  0
CIRCLE
  5
115
  8
SIZE
  6
CONTINUOUS
 62
    30
 10
-573.00003093847386
 20
-1008.026123834901
 30
0.0
 40
7.5
  0
TEXT
  5
116
  8
SIZE
  6
CONTINUOUS
 62
    30
 10
-306.38484441843877
 20
-993.02612383490089
 30
0.0
 40
50.0
  1
1146（吊りボルトピッチ）
 41
0.9
 72
     1
 11
22.758012724418329
 21
-993.02612383490089
 31
0.0
  0
POINT
  5
117
  8
DEFPOINTS
  6
CONTINUOUS
 62
     7
 10
572.99999957909495
 20
-355.10498273402482
 30
0.0
  0
POINT
  5
118
  8
DEFPOINTS
  6
CONTINUOUS
 62
     7
 10
-573.00003093847386
 20
-355.10498273402482
 30
0.0
  0
POINT
  5
119
  8
DEFPOINTS
  6
CONTINUOUS
 62
     7
 10
-573.00003093847386
 20
-1008.026123834901
 30
0.0
  0
LINE
  5
11A
  8
SIZE
  6
CONTINUOUS
 62
    30
 10
-573.00003093847386
 20
-365.10498273402482
 30
0.0
 11
-573.00003093847386
 21
-1043.5207897577341
 31
0.0
  0
LINE
  5
11B
  8
SIZE
  6
CONTINUOUS
 62
    30
 10
-595.99999957907301
 20
-373.0
 30
0.0
 11
-595.99999957907301
 21
-823.35818534927967
 31
0.0
  0
LINE
  5
11C
  8
SIZE
  6
CONTINUOUS
 62
    30
 10
-573.00003093847386
 20
-1008.026123834901
 30
0.0
 11
-543.00003093847386
 21
-1008.026123834901
 31
0.0
  0
LINE
  5
11D
  8
SIZE
  6
CONTINUOUS
 62
    30
 10
-595.99999957907301
 20
-1008.026123834901
 30
0.0
 11
-758.85714243621555
 21
-1008.026123834901
 31
0.0
  0
LINE
  5
11E
  8
SIZE
  6
CONTINUOUS
 62
    30
 10
-573.00003093847386
 20
-1008.026123834901
 30
0.0
 11
-595.99999957907301
 21
-1008.026123834901
 31
0.0
  0
CIRCLE
  5
11F
  8
SIZE
  6
CONTINUOUS
 62
    30
 10
-573.00003093847386
 20
-1008.026123834901
 30
0.0
 40
7.5
  0
CIRCLE
  5
120
  8
SIZE
  6
CONTINUOUS
 62
    30
 10
-595.99999957907301
 20
-1008.026123834901
 30
0.0
 40
7.5
  0
TEXT
  5
121
  8
SIZE
  6
CONTINUOUS
 62
    30
 10
-743.8571424362159
 20
-993.02612383490089
 30
0.0
 40
50.0
  1
23
 41
0.9
 72
     1
 11
-707.42857100764445
 21
-993.02612383490089
 31
0.0
  0
POINT
  5
122
  8
DEFPOINTS
  6
CONTINUOUS
 62
     7
 10
-573.00003093847386
 20
-355.10498273402482
 30
0.0
  0
POINT
  5
123
  8
DEFPOINTS
  6
CONTINUOUS
 62
     7
 10
-595.99999957907301
 20
-363.0
 30
0.0
  0
POINT
  5
124
  8
DEFPOINTS
  6
CONTINUOUS
 62
     7
 10
-595.99999957907301
 20
-1008.026123834901
 30
0.0
  0
LINE
  5
125
  8
SIZE
  6
CONTINUOUS
 62
    30
 10
572.99999957909495
 20
-365.10498273402459
 30
0.0
 11
572.99999957909495
 21
-1043.4002701414031
 31
0.0
  0
LINE
  5
126
  8
SIZE
  6
CONTINUOUS
 62
    30
 10
595.99999897399186
 20
-372.99999999999972
 30
0.0
 11
595.99999897399186
 21
-823.35818534927967
 31
0.0
  0
LINE
  5
127
  8
SIZE
  6
CONTINUOUS
 62
    30
 10
572.99999957909495
 20
-1008.026123834901
 30
0.0
 11
542.99999957909495
 21
-1008.026123834901
 31
0.0
  0
LINE
  5
128
  8
SIZE
  6
CONTINUOUS
 62
    30
 10
595.99999897399186
 20
-1008.026123834901
 30
0.0
 11
758.85714183113475
 21
-1008.026123834901
 31
0.0
  0
LINE
  5
129
  8
SIZE
  6
CONTINUOUS
 62
    30
 10
572.99999957909495
 20
-1008.026123834901
 30
0.0
 11
595.99999897399186
 21
-1008.026123834901
 31
0.0
  0
CIRCLE
  5
12A
  8
SIZE
  6
CONTINUOUS
 62
    30
 10
572.99999957909495
 20
-1008.026123834901
 30
0.0
 40
7.5
  0
CIRCLE
  5
12B
  8
SIZE
  6
CONTINUOUS
 62
    30
 10
595.99999897399186
 20
-1008.026123834901
 30
0.0
 40
7.5
  0
TEXT
  5
12C
  8
SIZE
  6
CONTINUOUS
 62
    30
 10
670.99999897399186
 20
-993.02612383490089
 30
0.0
 40
50.0
  1
23
 41
0.9
 72
     1
 11
707.42857040256331
 21
-993.02612383490089
 31
0.0
  0
POINT
  5
12D
  8
DEFPOINTS
  6
CONTINUOUS
 62
     7
 10
572.99999957909495
 20
-355.10498273402447
 30
0.0
  0
POINT
  5
12E
  8
DEFPOINTS
  6
CONTINUOUS
 62
     7
 10
595.99999897399186
 20
-362.99999999999972
 30
0.0
  0
POINT
  5
12F
  8
DEFPOINTS
  6
CONTINUOUS
 62
     7
 10
595.99999897399186
 20
-1008.026123834901
 30
0.0
  0
LINE
  5
130
  8
SIZE
  6
CONTINUOUS
 62
    30
 10
595.99999897399186
 20
-372.99999999999972
 30
0.0
 11
595.99999897399186
 21
-1133.551719429772
 31
0.0
  0
LINE
  5
131
  8
SIZE
  6
CONTINUOUS
 62
    30
 10
-595.99999957907301
 20
-373.0
 30
0.0
 11
-595.99999957907301
 21
-1129.2746060281891
 31
0.0
  0
LINE
  5
132
  8
SIZE
  6
CONTINUOUS
 62
    30
 10
595.99999897399186
 20
-1094.9850959132491
 30
0.0
 11
-595.99999957907301
 21
-1094.9850959132491
 31
0.0
  0
CIRCLE
  5
133
  8
SIZE
  6
CONTINUOUS
 62
    30
 10
595.99999897399186
 20
-1094.9850959132491
 30
0.0
 40
7.5
  0
CIRCLE
  5
134
  8
SIZE
  6
CONTINUOUS
 62
    30
 10
-595.99999957907301
 20
-1094.9850959132491
 30
0.0
 40
7.5
  0
TEXT
  5
135
  8
SIZE
  6
CONTINUOUS
 62
    30
 10
-70.714286016826264
 20
-1079.9850959132491
 30
0.0
 40
50.0
  1
1192
 41
0.9
 72
     1
 11
-0.0000003025405704
 21
-1079.9850959132491
 31
0.0
  0
POINT
  5
136
  8
DEFPOINTS
  6
CONTINUOUS
 62
     7
 10
595.99999897399186
 20
-362.99999999999972
 30
0.0
  0
POINT
  5
137
  8
DEFPOINTS
  6
CONTINUOUS
 62
     7
 10
-595.99999957907301
 20
-363.0
 30
0.0
  0
POINT
  5
138
  8
DEFPOINTS
  6
CONTINUOUS
 62
     7
 10
-595.99999957907301
 20
-1094.9850959132491
 30
0.0
  0
LINE
  5
139
  8
SIZE
  6
CONTINUOUS
 62
    30
 10
-821.00000102601655
 20
506.49998342581239
 30
0.0
 11
-821.00000102601655
 21
639.17787365364336
 31
0.0
  0
LINE
  5
13A
  8
SIZE
  6
CONTINUOUS
 62
    30
 10
604.99999789535195
 20
506.49998342581239
 30
0.0
 11
604.99999789535195
 21
639.17787365364336
 31
0.0
  0
LINE
  5
13B
  8
SIZE
  6
CONTINUOUS
 62
    30
 10
-821.00000102601655
 20
619.17787365364325
 30
0.0
 11
604.99999789535195
 21
619.17787365364325
 31
0.0
  0
CIRCLE
  5
13C
  8
SIZE
  6
CONTINUOUS
 62
    30
 10
-821.00000102601655
 20
619.17787365364325
 30
0.0
 40
7.5
  0
CIRCLE
  5
13D
  8
SIZE
  6
CONTINUOUS
 62
    30
 10
604.99999789535195
 20
619.17787365364325
 30
0.0
 40
7.5
  0
TEXT
  5
13E
  8
SIZE
  6
CONTINUOUS
 62
    30
 10
-387.42857299390357
 20
634.17787365364347
 30
0.0
 40
50.0
  1
1426（天井開口寸法）
 41
0.9
 72
     1
 11
-108.0000015653322
 21
634.17787365364347
 31
0.0
  0
POINT
  5
13F
  8
DEFPOINTS
  6
CONTINUOUS
 62
     7
 10
-821.00000102601655
 20
496.4999834258121
 30
0.0
  0
POINT
  5
140
  8
DEFPOINTS
  6
CONTINUOUS
 62
     7
 10
604.99999789535195
 20
496.4999834258121
 30
0.0
  0
POINT
  5
141
  8
DEFPOINTS
  6
CONTINUOUS
 62
     7
 10
604.99999789535195
 20
619.17787365364325
 30
0.0
  0
LINE
  5
142
  8
SIZE
  6
CONTINUOUS
 62
    30
 10
604.99999934229538
 20
506.4999834258125
 30
0.0
 11
604.99999934229538
 21
639.1778736536437
 31
0.0
  0
LINE
  5
143
  8
SIZE
  6
CONTINUOUS
 62
    30
 10
611.99999915814999
 20
516.49998316272467
 30
0.0
 11
611.99999915814999
 21
639.1778736536437
 31
0.0
  0
LINE
  5
144
  8
SIZE
  6
CONTINUOUS
 62
    30
 10
604.99999934229538
 20
619.1778736536437
 30
0.0
 11
574.99999934229515
 21
619.1778736536437
 31
0.0
  0
LINE
  5
145
  8
SIZE
  6
CONTINUOUS
 62
    30
 10
611.99999915814999
 20
619.1778736536437
 30
0.0
 11
731.99999915814954
 21
619.1778736536437
 31
0.0
  0
LINE
  5
146
  8
SIZE
  6
CONTINUOUS
 62
    30
 10
604.99999934229538
 20
619.1778736536437
 30
0.0
 11
611.99999915814999
 21
619.1778736536437
 31
0.0
  0
CIRCLE
  5
147
  8
SIZE
  6
CONTINUOUS
 62
    30
 10
604.99999934229538
 20
619.1778736536437
 30
0.0
 40
7.5
  0
CIRCLE
  5
148
  8
SIZE
  6
CONTINUOUS
 62
    30
 10
611.99999915814999
 20
619.1778736536437
 30
0.0
 40
7.5
  0
TEXT
  5
149
  8
SIZE
  6
CONTINUOUS
 62
    30
 10
686.99999915814976
 20
634.17787365364359
 30
0.0
 40
50.0
  1
7
 41
0.9
 72
     1
 11
701.99999915814988
 21
634.17787365364359
 31
0.0
  0
POINT
  5
14A
  8
DEFPOINTS
  6
CONTINUOUS
 62
     7
 10
604.99999934229538
 20
496.49998342581262
 30
0.0
  0
POINT
  5
14B
  8
DEFPOINTS
  6
CONTINUOUS
 62
     7
 10
611.99999915814999
 20
506.49998316272479
 30
0.0
  0
POINT
  5
14C
  8
DEFPOINTS
  6
CONTINUOUS
 62
     7
 10
611.99999915814999
 20
619.1778736536437
 30
0.0
  0
LINE
  5
14D
  8
SIZE
  6
CONTINUOUS
 62
    30
 10
-821.00000102601655
 20
506.49998342581239
 30
0.0
 11
-821.00000102601655
 21
639.17787365364336
 31
0.0
  0
LINE
  5
14E
  8
SIZE
  6
CONTINUOUS
 62
    30
 10
-828.0000008418491
 20
516.49998316272456
 30
0.0
 11
-828.0000008418491
 21
639.17787365364336
 31
0.0
  0
LINE
  5
14F
  8
SIZE
  6
CONTINUOUS
 62
    30
 10
-821.00000102601655
 20
619.17787365364325
 30
0.0
 11
-791.00000102601666
 21
619.17787365364325
 31
0.0
  0
LINE
  5
150
  8
SIZE
  6
CONTINUOUS
 62
    30
 10
-828.0000008418491
 20
619.17787365364325
 30
0.0
 11
-948.00000084184921
 21
619.17787365364325
 31
0.0
  0
LINE
  5
151
  8
SIZE
  6
CONTINUOUS
 62
    30
 10
-821.00000102601655
 20
619.17787365364325
 30
0.0
 11
-828.0000008418491
 21
619.17787365364325
 31
0.0
  0
CIRCLE
  5
152
  8
SIZE
  6
CONTINUOUS
 62
    30
 10
-821.00000102601655
 20
619.17787365364325
 30
0.0
 40
7.5
  0
CIRCLE
  5
153
  8
SIZE
  6
CONTINUOUS
 62
    30
 10
-828.0000008418491
 20
619.17787365364325
 30
0.0
 40
7.5
  0
TEXT
  5
154
  8
SIZE
  6
CONTINUOUS
 62
    30
 10
-933.00000084184956
 20
634.17787365364347
 30
0.0
 40
50.0
  1
7
 41
0.9
 72
     1
 11
-918.00000084184967
 21
634.17787365364347
 31
0.0
  0
POINT
  5
155
  8
DEFPOINTS
  6
CONTINUOUS
 62
     7
 10
-821.00000102601655
 20
496.4999834258121
 30
0.0
  0
POINT
  5
156
  8
DEFPOINTS
  6
CONTINUOUS
 62
     7
 10
-828.0000008418491
 20
506.49998316272462
 30
0.0
  0
POINT
  5
157
  8
DEFPOINTS
  6
CONTINUOUS
 62
     7
 10
-828.0000008418491
 20
619.17787365364325
 30
0.0
  0
LINE
  5
158
  8
SIZE
  6
CONTINUOUS
 62
    30
 10
-828.0000008418491
 20
516.49998316272456
 30
0.0
 11
-828.0000008418491
 21
721.79601412499323
 31
0.0
  0
LINE
  5
159
  8
SIZE
  6
CONTINUOUS
 62
    30
 10
611.99999771120645
 20
516.49998316272456
 30
0.0
 11
611.99999771120645
 21
721.79601412499323
 31
0.0
  0
LINE
  5
15A
  8
SIZE
  6
CONTINUOUS
 62
    30
 10
-828.0000008418491
 20
701.79601412499323
 30
0.0
 11
611.99999771120645
 21
701.79601412499323
 31
0.0
  0
CIRCLE
  5
15B
  8
SIZE
  6
CONTINUOUS
 62
    30
 10
-828.0000008418491
 20
701.79601412499323
 30
0.0
 40
7.5
  0
CIRCLE
  5
15C
  8
SIZE
  6
CONTINUOUS
 62
    30
 10
611.99999771120645
 20
701.79601412499323
 30
0.0
 40
7.5
  0
TEXT
  5
15D
  8
SIZE
  6
CONTINUOUS
 62
    30
 10
-183.00000156532141
 20
716.79601412499323
 30
0.0
 40
50.0
  1
1440
 41
0.9
 72
     1
 11
-108.0000015653214
 21
716.79601412499323
 31
0.0
  0
POINT
  5
15E
  8
DEFPOINTS
  6
CONTINUOUS
 62
     7
 10
-828.0000008418491
 20
506.49998316272462
 30
0.0
  0
POINT
  5
15F
  8
DEFPOINTS
  6
CONTINUOUS
 62
     7
 10
611.99999771120645
 20
506.49998316272462
 30
0.0
  0
POINT
  5
160
  8
DEFPOINTS
  6
CONTINUOUS
 62
     7
 10
611.99999771120645
 20
701.79601412499323
 30
0.0
  0
LINE
  5
161
  8
SIZE
  6
CONTINUOUS
 62
    30
 10
-619.00000102600075
 20
-143.89501804204329
 30
0.0
 11
-619.00000102600075
 21
35.618092198616061
 31
0.0
  0
LINE
  5
162
  8
SIZE
  6
CONTINUOUS
 62
    30
 10
-579.99999999999807
 20
-357.5
 30
0.0
 11
-579.99999999999807
 21
35.618092198616061
 31
0.0
  0
LINE
  5
163
  8
SIZE
  6
CONTINUOUS
 62
    30
 10
-619.00000102600075
 20
15.618092198616059
 30
0.0
 11
-579.99999999999807
 21
15.618092198616059
 31
0.0
  0
LINE
  5
164
  8
SIZE
  6
CONTINUOUS
 62
    30
 10
-579.99999999999807
 20
15.618092198616059
 30
0.0
 11
-389.2857142857124
 21
15.618092198616059
 31
0.0
  0
CIRCLE
  5
165
  8
SIZE
  6
CONTINUOUS
 62
    30
 10
-619.00000102600075
 20
15.618092198616059
 30
0.0
 40
7.5
  0
CIRCLE
  5
166
  8
SIZE
  6
CONTINUOUS
 62
    30
 10
-579.99999999999807
 20
15.618092198616059
 30
0.0
 40
7.5
  0
TEXT
  5
167
  8
SIZE
  6
CONTINUOUS
 62
    30
 10
-534.99999999999795
 20
43.713330293854163
 30
0.0
 40
50.0
  1
(39)
 41
0.9
 72
     1
 11
-469.64285714285512
 21
43.713330293854163
 31
0.0
  0
POINT
  5
168
  8
DEFPOINTS
  6
CONTINUOUS
 62
     7
 10
-619.00000102600075
 20
-153.89501804204329
 30
0.0
  0
POINT
  5
169
  8
DEFPOINTS
  6
CONTINUOUS
 62
     7
 10
-579.99999999999807
 20
-367.5
 30
0.0
  0
POINT
  5
16A
  8
DEFPOINTS
  6
CONTINUOUS
 62
     7
 10
-579.99999999999807
 20
15.618092198616059
 30
0.0
  0
LINE
  5
16B
  8
SIZE
  6
CONTINUOUS
 62
    30
 10
-647.60498211580114
 20
-239.5000000000218
 30
0.0
 11
-969.52160403370533
 21
-239.50000000002171
 31
0.0
  0
LINE
  5
16C
  8
SIZE
  6
CONTINUOUS
 62
    30
 10
-589.99999999999795
 20
-367.5
 30
0.0
 11
-969.52160403370544
 21
-367.49999999999977
 31
0.0
  0
LINE
  5
16D
  8
SIZE
  6
CONTINUOUS
 62
    30
 10
-949.52160403370533
 20
-239.50000000002171
 30
0.0
 11
-949.52160403370533
 21
-367.49999999999977
 31
0.0
  0
CIRCLE
  5
16E
  8
SIZE
  6
CONTINUOUS
 62
    30
 10
-949.52160403370533
 20
-239.50000000002171
 30
0.0
 40
7.5
  0
CIRCLE
  5
16F
  8
SIZE
  6
CONTINUOUS
 62
    30
 10
-949.52160403370533
 20
-367.49999999999977
 30
0.0
 40
7.5
  0
TEXT
  5
170
  8
SIZE
  6
CONTINUOUS
 62
    30
 10
-964.52160403370544
 20
-357.07142857143958
 30
0.0
 40
50.0
  1
128
 50
90.0
 41
0.9
 72
     1
 11
-964.52160403370544
 21
-303.50000000001108
 31
0.0
  0
POINT
  5
171
  8
DEFPOINTS
  6
CONTINUOUS
 62
     7
 10
-637.60498211580114
 20
-239.5000000000218
 30
0.0
  0
POINT
  5
172
  8
DEFPOINTS
  6
CONTINUOUS
 62
     7
 10
-579.99999999999807
 20
-367.5
 30
0.0
  0
POINT
  5
173
  8
DEFPOINTS
  6
CONTINUOUS
 62
     7
 10
-949.52160403370533
 20
-367.49999999999977
 30
0.0
  0
LINE
  5
174
  8
SIZE
  6
CONTINUOUS
 62
    30
 10
-589.99999999999795
 20
-367.5
 30
0.0
 11
-1074.7936281754789
 21
-367.49999999999977
 31
0.0
  0
CIRCLE
  5
178
  8
SIZE
  6
CONTINUOUS
 62
    30
 10
-1054.793628175478
 20
-367.49999999999977
 30
0.0
 40
7.5
  0
POINT
  5
17B
  8
DEFPOINTS
  6
CONTINUOUS
 62
     7
 10
-579.99999999999807
 20
-367.5
 30
0.0
  0
LINE
  5
17E
  8
SIZE
  6
CONTINUOUS
 62
    30
 10
-616.00000015785895
 20
-271.10498195795287
 30
0.0
 11
-616.00000015785895
 21
-306.15656204516557
 31
0.0
  0
LINE
  5
17F
  8
SIZE
  6
CONTINUOUS
 62
    30
 10
-579.99999999999807
 20
-357.5
 30
0.0
 11
-579.99999999999807
 21
-266.15656204516557
 31
0.0
  0
LINE
  5
180
  8
SIZE
  6
CONTINUOUS
 62
    30
 10
-616.00000015785895
 20
-286.15656204516557
 30
0.0
 11
-579.99999999999807
 21
-286.15656204516557
 31
0.0
  0
LINE
  5
181
  8
SIZE
  6
CONTINUOUS
 62
    30
 10
-579.99999999999807
 20
-286.15656204516557
 30
0.0
 11
-389.2857142857124
 21
-286.15656204516557
 31
0.0
  0
CIRCLE
  5
182
  8
SIZE
  6
CONTINUOUS
 62
    30
 10
-616.00000015785895
 20
-286.15656204516557
 30
0.0
 40
7.5
  0
CIRCLE
  5
183
  8
SIZE
  6
CONTINUOUS
 62
    30
 10
-579.99999999999807
 20
-286.15656204516557
 30
0.0
 40
7.5
  0
TEXT
  5
184
  8
SIZE
  6
CONTINUOUS
 62
    30
 10
-534.99999999999795
 20
-258.0613239499275
 30
0.0
 40
50.0
  1
(36)
 41
0.9
 72
     1
 11
-469.64285714285512
 21
-258.0613239499275
 31
0.0
  0
POINT
  5
185
  8
DEFPOINTS
  6
CONTINUOUS
 62
     7
 10
-616.00000015785895
 20
-261.10498195795287
 30
0.0
  0
POINT
  5
186
  8
DEFPOINTS
  6
CONTINUOUS
 62
     7
 10
-579.99999999999807
 20
-367.5
 30
0.0
  0
POINT
  5
187
  8
DEFPOINTS
  6
CONTINUOUS
 62
     7
 10
-579.99999999999807
 20
-286.15656204516557
 30
0.0
  0
LINE
  5
18B
  8
NOTE
  6
CONTINUOUS
 62
     4
 10
-615.99999999999795
 20
-239.49999849165189
 30
0.0
 11
-834.81145116955645
 21
-644.28924645881125
 31
0.0
  0
LINE
  5
18C
  8
NOTE
  6
CONTINUOUS
 62
     4
 10
-879.44390286473936
 20
-17.763672866698471
 30
0.0
 11
-1122.1911760712239
 21
-17.763672866698471
 31
0.0
  0
TEXT
  5
18D
  8
NOTE
  6
CONTINUOUS
 62
     4
 10
-1118.8658098871911
 20
-6.5517588815164309
 30
0.0
 40
45.0
  1
RL %%C9.52
 50
0.0000029998804485
 41
0.7
  7
STANDARD1
  0
LINE
  5
18E
  8
NOTE
  6
CONTINUOUS
 62
     4
 10
-619.00000102600075
 20
-175.5
 30
0.0
 11
-879.44390286473936
 21
-17.763672866698471
 31
0.0
  0
LINE
  5
18F
  8
ARRANGE
  6
CONTINUOUS
 62
     1
 10
50.037350000000622
 20
-49.522353000000301
 30
0.0
 11
-50.037350000000401
 21
49.522353000000301
 31
0.0
  0
LINE
  5
190
  8
ARRANGE
  6
CONTINUOUS
 62
     1
 10
49.963762999999858
 20
49.596595000002701
 30
0.0
 11
-49.963762999999631
 21
-49.596595000002701
 31
0.0
  0
CIRCLE
  5
191
  8
ARRANGE
  6
CONTINUOUS
 62
     1
 10
0.0000000000001137
 20
0.0
 30
0.0
 40
50.0
  0
LINE
  5
192
  8
OUTLINE
  6
CONTINUOUS
 62
     3
 10
-579.99999999999807
 20
-367.5
 30
0.0
 11
-579.99999999999807
 21
-143.4999997369159
 31
0.0
  0
LINE
  5
193
  8
OUTLINE
  6
CONTINUOUS
 62
     3
 10
580.00000000000375
 20
-143.49999973691561
 30
0.0
 11
580.00000000000375
 21
-367.49999999999972
 31
0.0
  0
LINE
  5
194
  8
OUTLINE
  6
CONTINUOUS
 62
     3
 10
580.00000000000375
 20
-367.5
 30
0.0
 11
-579.99999999999807
 21
-367.5
 31
0.0
  0
LINE
  5
195
  8
OUTLINE
  6
CONTINUOUS
 62
     3
 10
611.99999771120645
 20
-143.4999997369159
 30
0.0
 11
-828.0000008418491
 21
-143.4999997369159
 31
0.0
  0
LINE
  5
196
  8
OUTLINE
  6
CONTINUOUS
 62
     3
 10
-828.0000008418491
 20
-143.4999997369159
 30
0.0
 11
-828.0000008418491
 21
506.49998316272462
 31
0.0
  0
LINE
  5
197
  8
OUTLINE
  6
CONTINUOUS
 62
     3
 10
-828.0000008418491
 20
506.49998316272462
 30
0.0
 11
611.99999771120645
 21
506.49998316272462
 31
0.0
  0
LINE
  5
198
  8
OUTLINE
  6
CONTINUOUS
 62
     3
 10
611.99999915814999
 20
506.49998316272479
 30
0.0
 11
611.99999915814999
 21
-143.49999973691561
 31
0.0
  0
LINE
  5
199
  8
DETAIL
  6
CONTINUOUS
 62
     5
 10
566.99999889506478
 20
-106.5000007103226
 30
0.0
 11
-783.00000202572755
 21
-106.5000007103226
 31
0.0
  0
LINE
  5
19A
  8
DETAIL
  6
CONTINUOUS
 62
     5
 10
531.99999981585711
 20
-71.500001631115055
 30
0.0
 11
-748.00000294652011
 21
-71.500001631115055
 31
0.0
  0
LINE
  5
19B
  8
DETAIL
  6
CONTINUOUS
 62
     5
 10
-748.00000294652011
 20
434.49998505691281
 30
0.0
 11
531.99999981585711
 21
434.49998505691281
 31
0.0
  0
LINE
  5
19C
  8
DETAIL
  6
CONTINUOUS
 62
     5
 10
-783.00000202572755
 20
469.49998413612951
 30
0.0
 11
566.99999889506478
 21
469.49998413612951
 31
0.0
  0
LINE
  5
19D
  8
DETAIL
  6
CONTINUOUS
 62
     5
 10
-748.00000294652011
 20
434.49998505691281
 30
0.0
 11
-748.00000294652011
 21
-71.500001631115055
 31
0.0
  0
LINE
  5
19E
  8
DETAIL
  6
CONTINUOUS
 62
     5
 10
-783.00000202572755
 20
469.49998413612951
 30
0.0
 11
-783.00000202572755
 21
-106.5000007103226
 31
0.0
  0
LINE
  5
19F
  8
DETAIL
  6
CONTINUOUS
 62
     5
 10
-828.0000008418491
 20
-143.4999997369159
 30
0.0
 11
-748.00000294652011
 21
-71.500001631115055
 31
0.0
  0
LINE
  5
1A0
  8
DETAIL
  6
CONTINUOUS
 62
     5
 10
-828.0000008418491
 20
506.49998316272462
 30
0.0
 11
-748.00000294652011
 21
434.49998505691281
 31
0.0
  0
LINE
  5
1A1
  8
DETAIL
  6
CONTINUOUS
 62
     5
 10
532.00000126280065
 20
434.49998505691309
 30
0.0
 11
532.00000126280065
 21
-71.500001631114856
 31
0.0
  0
LINE
  5
1A2
  8
DETAIL
  6
CONTINUOUS
 62
     5
 10
567.00000034200832
 20
469.4999841361298
 30
0.0
 11
567.00000034200832
 21
-106.5000007103224
 31
0.0
  0
LINE
  5
1A3
  8
DETAIL
  6
CONTINUOUS
 62
     5
 10
532.00000126280065
 20
-71.500001631114856
 30
0.0
 11
611.99999915814999
 21
-143.49999973691561
 31
0.0
  0
LINE
  5
1A4
  8
DETAIL
  6
CONTINUOUS
 62
     5
 10
532.00000126280065
 20
434.49998505691309
 30
0.0
 11
611.99999915814999
 21
506.49998316272479
 31
0.0
  0
LINE
  5
1A5
  8
SIZE
  6
CONTINUOUS
 62
    30
 10
-821.00000102601655
 20
-143.5
 30
0.0
 11
-821.00000102601655
 21
-1129.2746060281891
 31
0.0
  0
LINE
  5
1A6
  8
SIZE
  6
CONTINUOUS
 62
    30
 10
-595.99999957907301
 20
-373.0
 30
0.0
 11
-595.99999957907301
 21
-1129.2746060281891
 31
0.0
  0
LINE
  5
1A7
  8
SIZE
  6
CONTINUOUS
 62
    30
 10
-821.00000102601655
 20
-1094.9850959132491
 30
0.0
 11
-595.99999957907301
 21
-1094.9850959132491
 31
0.0
  0
CIRCLE
  5
1A8
  8
SIZE
  6
CONTINUOUS
 62
    30
 10
-821.00000102601655
 20
-1094.9850959132491
 30
0.0
 40
7.5
  0
CIRCLE
  5
1A9
  8
SIZE
  6
CONTINUOUS
 62
    30
 10
-595.99999957907301
 20
-1094.9850959132491
 30
0.0
 40
7.5
  0
TEXT
  5
1AA
  8
SIZE
  6
CONTINUOUS
 62
    30
 10
-766.35714315968744
 20
-1079.9850959132491
 30
0.0
 40
50.0
  1
225
 41
0.9
 72
     1
 11
-708.50000030254455
 21
-1079.9850959132491
 31
0.0
  0
POINT
  5
1AB
  8
DEFPOINTS
  6
CONTINUOUS
 62
     7
 10
-821.00000102601655
 20
-133.4999999999998
 30
0.0
  0
POINT
  5
1AC
  8
DEFPOINTS
  6
CONTINUOUS
 62
     7
 10
-595.99999957907301
 20
-363.0
 30
0.0
  0
POINT
  5
1AD
  8
DEFPOINTS
  6
CONTINUOUS
 62
     7
 10
-595.99999957907301
 20
-1094.9850959132491
 30
0.0
  0
LINE
  5
1AE
  8
SIZE
  6
CONTINUOUS
 62
    30
 10
-647.60498211580114
 20
-239.5000000000218
 30
0.0
 11
-969.52160403370169
 21
-239.50000000002171
 31
0.0
  0
LINE
  5
1AF
  8
SIZE
  6
CONTINUOUS
 62
    30
 10
-650.6049829839427
 20
-175.49999999997809
 30
0.0
 11
-969.52160403370169
 21
-175.499999999978
 31
0.0
  0
LINE
  5
1B0
  8
SIZE
  6
CONTINUOUS
 62
    30
 10
-949.52160403370181
 20
-239.50000000002171
 30
0.0
 11
-949.52160403370181
 21
-175.499999999978
 31
0.0
  0
LINE
  5
1B1
  8
SIZE
  6
CONTINUOUS
 62
    30
 10
-949.52160403370181
 20
-175.499999999978
 30
0.0
 11
-949.52160403370181
 21
-40.499999999978073
 31
0.0
  0
CIRCLE
  5
1B2
  8
SIZE
  6
CONTINUOUS
 62
    30
 10
-949.52160403370181
 20
-239.50000000002171
 30
0.0
 40
7.5
  0
CIRCLE
  5
1B3
  8
SIZE
  6
CONTINUOUS
 62
    30
 10
-949.52160403370181
 20
-175.499999999978
 30
0.0
 40
7.5
  0
TEXT
  5
1B4
  8
SIZE
  6
CONTINUOUS
 62
    30
 10
-964.52160403370181
 20
-130.4999999999782
 30
0.0
 40
50.0
  1
64
 50
90.0
 41
0.9
 72
     1
 11
-964.52160403370181
 21
-92.999999999978215
 31
0.0
  0
POINT
  5
1B5
  8
DEFPOINTS
  6
CONTINUOUS
 62
     7
 10
-637.60498211580114
 20
-239.5000000000218
 30
0.0
  0
POINT
  5
1B6
  8
DEFPOINTS
  6
CONTINUOUS
 62
     7
 10
-640.60498298394248
 20
-175.49999999997809
 30
0.0
  0
POINT
  5
1B7
  8
DEFPOINTS
  6
CONTINUOUS
 62
     7
 10
-949.52160403370181
 20
-175.499999999978
 30
0.0
  0
LINE
  5
1B8
  8
SIZE
  6
CONTINUOUS
 62
    30
 10
595.99999897399186
 20
-372.99999999999972
 30
0.0
 11
595.99999897399186
 21
-1133.551719429772
 31
0.0
  0
LINE
  5
1B9
  8
SIZE
  6
CONTINUOUS
 62
    30
 10
604.99999934229538
 20
-143.49999999999969
 30
0.0
 11
604.99999934229538
 21
-1133.7311658760591
 31
0.0
  0
LINE
  5
1BA
  8
SIZE
  6
CONTINUOUS
 62
    30
 10
595.99999897399186
 20
-1094.9850959132491
 30
0.0
 11
565.99999897399175
 21
-1094.9850959132491
 31
0.0
  0
LINE
  5
1BB
  8
SIZE
  6
CONTINUOUS
 62
    30
 10
604.99999934229538
 20
-1094.9850959132491
 30
0.0
 11
722.85714219943827
 21
-1094.9850959132491
 31
0.0
  0
LINE
  5
1BC
  8
SIZE
  6
CONTINUOUS
 62
    30
 10
595.99999897399186
 20
-1094.9850959132491
 30
0.0
 11
604.99999934229538
 21
-1094.9850959132491
 31
0.0
  0
CIRCLE
  5
1BD
  8
SIZE
  6
CONTINUOUS
 62
    30
 10
595.99999897399186
 20
-1094.9850959132491
 30
0.0
 40
7.5
  0
CIRCLE
  5
1BE
  8
SIZE
  6
CONTINUOUS
 62
    30
 10
604.99999934229538
 20
-1094.9850959132491
 30
0.0
 40
7.5
  0
TEXT
  5
1BF
  8
SIZE
  6
CONTINUOUS
 62
    30
 10
679.99999934229515
 20
-1079.9850959132491
 30
0.0
 40
50.0
  1
9
 41
0.9
 72
     1
 11
693.92857077086671
 21
-1079.9850959132491
 31
0.0
  0
POINT
  5
1C0
  8
DEFPOINTS
  6
CONTINUOUS
 62
     7
 10
595.99999897399186
 20
-362.99999999999972
 30
0.0
  0
POINT
  5
1C1
  8
DEFPOINTS
  6
CONTINUOUS
 62
     7
 10
604.99999934229538
 20
-133.49999999999969
 30
0.0
  0
POINT
  5
1C2
  8
DEFPOINTS
  6
CONTINUOUS
 62
     7
 10
604.99999934229538
 20
-1094.9850959132491
 30
0.0
  0
TEXT
  5
1C3
  8
NOTE
  6
CONTINUOUS
 62
     4
 10
-34.267526239045651
 20
523.31896089054862
 30
0.0
 40
40.0
  1
吸込
 50
0.0000025044165917
 41
0.8107143291551278
  7
STANDARD1
  0
LINE
  5
1C4
  8
BASIS
  6
DASHDOT
 62
     6
 10
-0.0000000000017053
 20
-427.02697099958812
 30
0.0
 11
0.0000000000019327
 21
519.77877661991045
 31
0.0
  0
LINE
  5
1C5
  8
NOTE
  6
CONTINUOUS
 62
     4
 10
1163.0956532447119
 20
-567.55595086114761
 30
0.0
 11
633.87436708230962
 21
-567.55595086114761
 31
0.0
  0
TEXT
  5
1C6
  8
NOTE
  6
CONTINUOUS
 62
     4
 10
639.04034295757265
 20
-556.34403687596921
 30
0.0
 40
45.0
  1
AH 4-14×30長穴(M10)
 50
0.0000029998804485
 41
0.7
  7
STANDARD1
  0
LINE
  5
1C7
  8
NOTE
  6
CONTINUOUS
 62
     4
 10
633.87436708230962
 20
-567.55595086114761
 30
0.0
 11
572.99999957909495
 21
-333.50000077609161
 31
0.0
  0
LINE
  5
1C8
  8
NOTE
  6
CONTINUOUS
 62
     4
 10
572.99999957910779
 20
-333.50000077609701
 30
0.0
 11
593.82663751964708
 21
-360.86057183783828
 31
0.0
  0
LINE
  5
1C9
  8
NOTE
  6
CONTINUOUS
 62
     4
 10
572.99999957910779
 20
-333.50000077609701
 30
0.0
 11
577.35611032130885
 21
-367.60826913001779
 31
0.0
  0
LINE
  5
1CA
  8
SIZE
  6
CONTINUOUS
 62
    30
 10
590.00000000000193
 20
-367.49999999999972
 30
0.0
 11
975.87105058030227
 21
-367.49999999999977
 31
0.0
  0
LINE
  5
1CB
  8
SIZE
  6
CONTINUOUS
 62
    30
 10
614.99999934229527
 20
-133.49999999999969
 30
0.0
 11
975.87105058030227
 21
-133.4999999999998
 31
0.0
  0
LINE
  5
1CC
  8
SIZE
  6
CONTINUOUS
 62
    30
 10
955.87105058030272
 20
-367.49999999999977
 30
0.0
 11
955.87105058030272
 21
-133.4999999999998
 31
0.0
  0
CIRCLE
  5
1CD
  8
SIZE
  6
CONTINUOUS
 62
    30
 10
955.87105058030272
 20
-367.49999999999977
 30
0.0
 40
7.5
  0
CIRCLE
  5
1CE
  8
SIZE
  6
CONTINUOUS
 62
    30
 10
955.87105058030272
 20
-133.4999999999998
 30
0.0
 40
7.5
  0
TEXT
  5
1CF
  8
SIZE
  6
CONTINUOUS
 62
    30
 10
940.87105058030272
 20
-309.4285714285711
 30
0.0
 40
50.0
  1
234
 50
90.0
 41
0.9
 72
     1
 11
940.87105058030272
 21
-250.49999999999969
 31
0.0
  0
POINT
  5
1D0
  8
DEFPOINTS
  6
CONTINUOUS
 62
     7
 10
580.00000000000193
 20
-367.49999999999972
 30
0.0
  0
POINT
  5
1D1
  8
DEFPOINTS
  6
CONTINUOUS
 62
     7
 10
604.99999934229538
 20
-133.49999999999969
 30
0.0
  0
POINT
  5
1D2
  8
DEFPOINTS
  6
CONTINUOUS
 62
     7
 10
955.87105058030272
 20
-133.4999999999998
 30
0.0
  0
LINE
  5
1D3
  8
SIZE
  6
CONTINUOUS
 62
    30
 10
614.99999934229527
 20
-133.49999999999969
 30
0.0
 11
975.87105058030227
 21
-133.4999999999998
 31
0.0
  0
LINE
  5
1D4
  8
SIZE
  6
CONTINUOUS
 62
    30
 10
614.99999934229527
 20
496.49998342581262
 30
0.0
 11
975.87105058030227
 21
496.4999834258125
 31
0.0
  0
LINE
  5
1D5
  8
SIZE
  6
CONTINUOUS
 62
    30
 10
955.87105058030272
 20
-133.4999999999998
 30
0.0
 11
955.87105058030306
 21
496.4999834258125
 31
0.0
  0
CIRCLE
  5
1D6
  8
SIZE
  6
CONTINUOUS
 62
    30
 10
955.87105058030272
 20
-133.4999999999998
 30
0.0
 40
7.5
  0
CIRCLE
  5
1D7
  8
SIZE
  6
CONTINUOUS
 62
    30
 10
955.87105058030306
 20
496.4999834258125
 30
0.0
 40
7.5
  0
TEXT
  5
1D8
  8
SIZE
  6
CONTINUOUS
 62
    30
 10
940.87105058030272
 20
-80.785722572807856
 30
0.0
 40
50.0
  1
630（天井開口寸法）
 50
90.0
 41
0.9
 72
     1
 11
940.87105058030272
 21
181.49999171290639
 31
0.0
  0
POINT
  5
1D9
  8
DEFPOINTS
  6
CONTINUOUS
 62
     7
 10
604.99999934229538
 20
-133.49999999999969
 30
0.0
  0
POINT
  5
1DA
  8
DEFPOINTS
  6
CONTINUOUS
 62
     7
 10
604.99999934229538
 20
496.49998342581262
 30
0.0
  0
POINT
  5
1DB
  8
DEFPOINTS
  6
CONTINUOUS
 62
     7
 10
955.87105058030306
 20
496.4999834258125
 30
0.0
  0
LINE
  5
1DC
  8
SIZE
  6
CONTINUOUS
 62
    30
 10
614.99999934229527
 20
-133.49999999999969
 30
0.0
 11
743.79283786683322
 21
-133.49999999999969
 31
0.0
  0
LINE
  5
1DD
  8
SIZE
  6
CONTINUOUS
 62
    30
 10
621.99999915814999
 20
-143.49999973691561
 30
0.0
 11
743.79283786683322
 21
-143.4999997369157
 31
0.0
  0
LINE
  5
1DE
  8
SIZE
  6
CONTINUOUS
 62
    30
 10
723.79283786683322
 20
-133.49999999999969
 30
0.0
 11
723.79283786683322
 21
-103.4999999999997
 31
0.0
  0
LINE
  5
1DF
  8
SIZE
  6
CONTINUOUS
 62
    30
 10
723.79283786683322
 20
-143.4999997369157
 30
0.0
 11
723.79283786683288
 21
-297.78571402262992
 31
0.0
  0
LINE
  5
1E0
  8
SIZE
  6
CONTINUOUS
 62
    30
 10
723.79283786683322
 20
-133.49999999999969
 30
0.0
 11
723.79283786683322
 21
-143.4999997369157
 31
0.0
  0
CIRCLE
  5
1E1
  8
SIZE
  6
CONTINUOUS
 62
    30
 10
723.79283786683322
 20
-133.49999999999969
 30
0.0
 40
7.5
  0
CIRCLE
  5
1E2
  8
SIZE
  6
CONTINUOUS
 62
    30
 10
723.79283786683322
 20
-143.4999997369157
 30
0.0
 40
7.5
  0
TEXT
  5
1E3
  8
SIZE
  6
CONTINUOUS
 62
    30
 10
708.79283786683322
 20
-282.7857140226298
 30
0.0
 40
50.0
  1
10
 50
90.0
 41
0.9
 72
     1
 11
708.79283786683322
 21
-250.64285687977269
 31
0.0
  0
POINT
  5
1E4
  8
DEFPOINTS
  6
CONTINUOUS
 62
     7
 10
604.99999934229538
 20
-133.49999999999969
 30
0.0
  0
POINT
  5
1E5
  8
DEFPOINTS
  6
CONTINUOUS
 62
     7
 10
611.99999915814999
 20
-143.49999973691561
 30
0.0
  0
POINT
  5
1E6
  8
DEFPOINTS
  6
CONTINUOUS
 62
     7
 10
723.79283786683322
 20
-143.4999997369157
 30
0.0
  0
LINE
  5
1E7
  8
SIZE
  6
CONTINUOUS
 62
    30
 10
614.99999934229527
 20
496.49998342581262
 30
0.0
 11
975.87105058030636
 21
496.4999834258125
 31
0.0
  0
LINE
  5
1E8
  8
SIZE
  6
CONTINUOUS
 62
    30
 10
621.99999915814999
 20
506.49998316272479
 30
0.0
 11
975.87105058030636
 21
506.49998316272479
 31
0.0
  0
LINE
  5
1E9
  8
SIZE
  6
CONTINUOUS
 62
    30
 10
955.87105058030659
 20
496.4999834258125
 30
0.0
 11
955.87105058030659
 21
466.49998342581222
 31
0.0
  0
LINE
  5
1EA
  8
SIZE
  6
CONTINUOUS
 62
    30
 10
955.87105058030659
 20
506.49998316272479
 30
0.0
 11
955.87105058030659
 21
660.78569744843912
 31
0.0
  0
LINE
  5
1EB
  8
SIZE
  6
CONTINUOUS
 62
    30
 10
955.87105058030659
 20
496.4999834258125
 30
0.0
 11
955.87105058030659
 21
506.49998316272479
 31
0.0
  0
CIRCLE
  5
1EC
  8
SIZE
  6
CONTINUOUS
 62
    30
 10
955.87105058030659
 20
496.4999834258125
 30
0.0
 40
7.5
  0
CIRCLE
  5
1ED
  8
SIZE
  6
CONTINUOUS
 62
    30
 10
955.87105058030659
 20
506.49998316272479
 30
0.0
 40
7.5
  0
TEXT
  5
1EE
  8
SIZE
  6
CONTINUOUS
 62
    30
 10
940.87105058030636
 20
581.4999831627249
 30
0.0
 40
50.0
  1
10
 50
90.0
 41
0.9
 72
     1
 11
940.87105058030636
 21
613.64284030558213
 31
0.0
  0
POINT
  5
1EF
  8
DEFPOINTS
  6
CONTINUOUS
 62
     7
 10
604.99999934229538
 20
496.49998342581262
 30
0.0
  0
POINT
  5
1F0
  8
DEFPOINTS
  6
CONTINUOUS
 62
     7
 10
611.99999915814999
 20
506.49998316272479
 30
0.0
  0
POINT
  5
1F1
  8
DEFPOINTS
  6
CONTINUOUS
 62
     7
 10
955.87105058030659
 20
506.49998316272479
 30
0.0
  0
LINE
  5
1F2
  8
SIZE
  6
CONTINUOUS
 62
    30
 10
621.99999915814999
 20
506.49998316272479
 30
0.0
 11
837.09710903147266
 21
506.49998316272479
 31
0.0
  0
LINE
  5
1F3
  8
SIZE
  6
CONTINUOUS
 62
    30
 10
621.99999915814999
 20
-143.49999973691561
 30
0.0
 11
837.09710903147231
 21
-143.4999997369157
 31
0.0
  0
LINE
  5
1F4
  8
SIZE
  6
CONTINUOUS
 62
    30
 10
817.09710903147266
 20
506.49998316272479
 30
0.0
 11
817.09710903147266
 21
-143.4999997369157
 31
0.0
  0
CIRCLE
  5
1F5
  8
SIZE
  6
CONTINUOUS
 62
    30
 10
817.09710903147266
 20
506.49998316272479
 30
0.0
 40
7.5
  0
CIRCLE
  5
1F6
  8
SIZE
  6
CONTINUOUS
 62
    30
 10
817.09710903147266
 20
-143.4999997369157
 30
0.0
 40
7.5
  0
TEXT
  5
1F7
  8
SIZE
  6
CONTINUOUS
 62
    30
 10
802.09710903147231
 20
123.6428488557617
 30
0.0
 40
50.0
  1
650
 50
90.0
 41
0.9
 72
     1
 11
802.09710903147231
 21
181.4999917129046
 31
0.0
  0
POINT
  5
1F8
  8
DEFPOINTS
  6
CONTINUOUS
 62
     7
 10
611.99999915814999
 20
506.49998316272479
 30
0.0
  0
POINT
  5
1F9
  8
DEFPOINTS
  6
CONTINUOUS
 62
     7
 10
611.99999915814999
 20
-143.49999973691561
 30
0.0
  0
POINT
  5
1FA
  8
DEFPOINTS
  6
CONTINUOUS
 62
     7
 10
817.09710903147266
 20
-143.4999997369157
 30
0.0
  0
LINE
  5
1FC
  8
NOTE
  6
CONTINUOUS
 62
     4
 10
-579.99999999998965
 20
-197.1049819579093
 30
0.0
 11
-579.99999999998965
 21
-153.89501804204329
 31
0.0
  0
LINE
  5
1FD
  8
NOTE
  6
CONTINUOUS
 62
     4
 10
-558.39501804206395
 20
-175.49999999997809
 30
0.0
 11
-601.60498195793195
 21
-175.49999999997809
 31
0.0
  0
LINE
  5
1FE
  8
NOTE
  6
CONTINUOUS
 62
     4
 10
-859.37782874388165
 20
78.576717499265442
 30
0.0
 11
-1169.5725913384499
 21
78.576717499265442
 31
0.0
  0
TEXT
  5
1FF
  8
NOTE
  6
CONTINUOUS
 62
     4
 10
-1166.2472251544159
 20
89.788631484445631
 30
0.0
 40
45.0
  1
D2（自然排水口）
 50
0.0000029999846689
 41
0.7
  7
STANDARD1
  0
LINE
  5
200
  8
NOTE
  6
CONTINUOUS
 62
     4
 10
-579.99999999998965
 20
-175.49999999997809
 30
0.0
 11
-859.37782874388165
 21
78.576717499265442
 31
0.0
  0
LINE
  5
201
  8
NOTE
  6
CONTINUOUS
 62
     4
 10
-580.00000000000114
 20
-175.4999999999695
 30
0.0
 11
-610.20660593321043
 21
-159.07104218984611
 31
0.0
  0
LINE
  5
202
  8
NOTE
  6
CONTINUOUS
 62
     4
 10
-580.00000000000114
 20
-175.4999999999695
 30
0.0
 11
-597.94520795756614
 21
-146.1688018951948
 31
0.0
  0
LINE
  5
203
  8
SIZE
  6
CONTINUOUS
 62
    30
 10
-589.99999999999795
 20
-367.5
 30
0.0
 11
-1074.7936281754789
 21
-367.49999999999977
 31
0.0
  0
LINE
  5
204
  8
SIZE
  6
CONTINUOUS
 62
    30
 10
-650.6049829839427
 20
-175.49999999997809
 30
0.0
 11
-1074.7936281754789
 21
-175.499999999978
 31
0.0
  0
LINE
  5
205
  8
SIZE
  6
CONTINUOUS
 62
    30
 10
-1054.793628175478
 20
-367.49999999999977
 30
0.0
 11
-1054.793628175478
 21
-175.499999999978
 31
0.0
  0
CIRCLE
  5
206
  8
SIZE
  6
CONTINUOUS
 62
    30
 10
-1054.793628175478
 20
-367.49999999999977
 30
0.0
 40
7.5
  0
CIRCLE
  5
207
  8
SIZE
  6
CONTINUOUS
 62
    30
 10
-1054.793628175478
 20
-175.499999999978
 30
0.0
 40
7.5
  0
TEXT
  5
208
  8
SIZE
  6
CONTINUOUS
 62
    30
 10
-1069.793628175478
 20
-325.0714285714177
 30
0.0
 40
50.0
  1
192
 50
90.0
 41
0.9
 72
     1
 11
-1069.793628175478
 21
-271.49999999998909
 31
0.0
  0
POINT
  5
209
  8
DEFPOINTS
  6
CONTINUOUS
 62
     7
 10
-579.99999999999807
 20
-367.5
 30
0.0
  0
POINT
  5
20A
  8
DEFPOINTS
  6
CONTINUOUS
 62
     7
 10
-640.60498298394248
 20
-175.49999999997809
 30
0.0
  0
POINT
  5
20B
  8
DEFPOINTS
  6
CONTINUOUS
 62
     7
 10
-1054.793628175478
 20
-175.499999999978
 30
0.0
  0
LINE
  5
20C
  8
SIZE
  6
CONTINUOUS
 62
    30
 10
590.00000000000193
 20
-367.49999999999972
 30
0.0
 11
846.24294272953011
 21
-367.49999999999977
 31
0.0
  0
LINE
  5
20D
  8
SIZE
  6
CONTINUOUS
 62
    30
 10
604.60498153702065
 20
-333.50000077609337
 30
0.0
 11
846.24294272953011
 21
-333.50000077609337
 31
0.0
  0
LINE
  5
20E
  8
SIZE
  6
CONTINUOUS
 62
    30
 10
826.24294272953023
 20
-367.49999999999977
 30
0.0
 11
826.24294272953023
 21
-333.50000077609337
 31
0.0
  0
LINE
  5
20F
  8
SIZE
  6
CONTINUOUS
 62
    30
 10
826.24294272953023
 20
-333.50000077609337
 30
0.0
 11
826.24294272953045
 21
-198.5000007760934
 31
0.0
  0
CIRCLE
  5
210
  8
SIZE
  6
CONTINUOUS
 62
    30
 10
826.24294272953023
 20
-367.49999999999977
 30
0.0
 40
7.5
  0
CIRCLE
  5
211
  8
SIZE
  6
CONTINUOUS
 62
    30
 10
826.24294272953023
 20
-333.50000077609337
 30
0.0
 40
7.5
  0
TEXT
  5
212
  8
SIZE
  6
CONTINUOUS
 62
    30
 10
811.24294272953011
 20
-288.50000077609332
 30
0.0
 40
50.0
  1
34
 50
90.0
 41
0.9
 72
     1
 11
811.24294272953011
 21
-251.00000077609329
 31
0.0
  0
POINT
  5
213
  8
DEFPOINTS
  6
CONTINUOUS
 62
     7
 10
580.00000000000193
 20
-367.49999999999972
 30
0.0
  0
POINT
  5
214
  8
DEFPOINTS
  6
CONTINUOUS
 62
     7
 10
594.60498153702076
 20
-333.50000077609337
 30
0.0
  0
POINT
  5
215
  8
DEFPOINTS
  6
CONTINUOUS
 62
     7
 10
826.24294272953023
 20
-333.50000077609337
 30
0.0
  0
LINE
  5
216
  8
NOTE
  6
CONTINUOUS
 62
     4
 10
-834.81145116955645
 20
-644.28924645881125
 30
0.0
 11
-1101.632130861178
 21
-644.28924645881125
 31
0.0
  0
TEXT
  5
217
  8
NOTE
  6
CONTINUOUS
 62
     4
 10
-1097.835311691478
 20
-633.07733247362899
 30
0.0
 40
45.0
  1
RG %%C15.88
 50
0.0000029998804485
 41
0.7
  7
STANDARD1
  0
LINE
  5
239
  8
NOTE
  6
CONTINUOUS
 62
     4
 10
-124.6449633247484
 20
541.74601319537385
 30
0.0
 11
-134.64496306166069
 21
541.74601319537385
 31
0.0
  0
LINE
  5
23A
  8
NOTE
  6
CONTINUOUS
 62
     4
 10
-144.6449627985838
 20
521.74601372154575
 30
0.0
 11
-164.6449622724121
 21
541.74601319537385
 31
0.0
  0
LINE
  5
23B
  8
NOTE
  6
CONTINUOUS
 62
     4
 10
-144.6449627985838
 20
521.74601372154575
 30
0.0
 11
-124.6449633247484
 21
541.74601319537385
 31
0.0
  0
LINE
  5
23C
  8
NOTE
  6
CONTINUOUS
 62
     4
 10
-154.64496253549979
 20
541.74601319537385
 30
0.0
 11
-164.6449622724121
 21
541.74601319537385
 31
0.0
  0
LINE
  5
23D
  8
NOTE
  6
CONTINUOUS
 62
     4
 10
-134.64496306166069
 20
561.74601266922025
 30
0.0
 11
-134.64496306166069
 21
541.74601319537385
 31
0.0
  0
LINE
  5
23E
  8
NOTE
  6
CONTINUOUS
 62
     4
 10
-154.64496253549979
 20
561.74601266922025
 30
0.0
 11
-154.64496253549979
 21
541.74601319537385
 31
0.0
  0
LINE
  5
23F
  8
NOTE
  6
CONTINUOUS
 62
     4
 10
-134.64496306166069
 20
561.74601266922025
 30
0.0
 11
-154.64496253549979
 21
561.74601266922025
 31
0.0
  0
LINE
  5
240
  8
SIZE
  6
CONTINUOUS
 62
    30
 10
580.00000000000136
 20
-377.49999999999989
 30
0.0
 11
580.00000000000136
 21
-644.29066565111827
 31
0.0
  0
POINT
  5
246
  8
DEFPOINTS
  6
CONTINUOUS
 62
     7
 10
580.00000000000136
 20
-367.5
 30
0.0
  0
LINE
  5
25E
  8
BASIS
  6
DASHDOT
 62
     6
 10
-857.50838774151794
 20
0.0
 30
0.0
 11
639.08402413861234
 21
0.0
 31
0.0
  0
LINE
  5
290
  8
NOTE
  6
CONTINUOUS
 62
     4
 10
124.6449633247522
 20
541.74601319537305
 30
0.0
 11
134.6449630616645
 21
541.74601319537305
 31
0.0
  0
LINE
  5
291
  8
NOTE
  6
CONTINUOUS
 62
     4
 10
144.6449627985875
 20
521.74601372154484
 30
0.0
 11
164.64496227241591
 21
541.7460131953726
 31
0.0
  0
LINE
  5
292
  8
NOTE
  6
CONTINUOUS
 62
     4
 10
144.6449627985875
 20
521.74601372154484
 30
0.0
 11
124.6449633247522
 21
541.74601319537305
 31
0.0
  0
LINE
  5
293
  8
NOTE
  6
CONTINUOUS
 62
     4
 10
154.64496253550359
 20
541.7460131953726
 30
0.0
 11
164.64496227241591
 21
541.7460131953726
 31
0.0
  0
LINE
  5
294
  8
NOTE
  6
CONTINUOUS
 62
     4
 10
134.64496306166461
 20
561.74601266921945
 30
0.0
 11
134.6449630616645
 21
541.74601319537305
 31
0.0
  0
LINE
  5
295
  8
NOTE
  6
CONTINUOUS
 62
     4
 10
154.64496253550371
 20
561.746012669219
 30
0.0
 11
154.64496253550359
 21
541.7460131953726
 31
0.0
  0
LINE
  5
296
  8
NOTE
  6
CONTINUOUS
 62
     4
 10
134.64496306166461
 20
561.74601266921945
 30
0.0
 11
154.64496253550371
 21
561.746012669219
 31
0.0
  0
LINE
  5
418
  8
DETAIL
  6
CONTINUOUS
 62
     5
 10
-545.00000000000171
 20
-397.4999999999992
 30
0.0
 11
544.99999999999829
 21
-397.4999999999992
 31
0.0
  0
LINE
  5
419
  8
DETAIL
  6
CONTINUOUS
 62
     5
 10
-545.00000000000171
 20
-367.5
 30
0.0
 11
-545.00000000000171
 21
-397.4999999999992
 31
0.0
  0
LINE
  5
41A
  8
NOTE
  6
CONTINUOUS
 62
     4
 10
-112.92524161024041
 20
-477.47123363330621
 30
0.0
 11
-92.925242136404918
 21
-457.47123415945953
 31
0.0
  0
LINE
  5
41B
  8
NOTE
  6
CONTINUOUS
 62
     4
 10
-112.92524161024041
 20
-477.47123363330621
 30
0.0
 11
-132.9252410840684
 21
-457.47123415945953
 31
0.0
  0
TEXT
  5
41C
  8
NOTE
  6
CONTINUOUS
 62
     4
 10
-35.496911394349468
 20
-473.41231044277362
 30
0.0
 40
40.0
  1
吹出
 50
0.0000025044165941
 41
0.8107143291551278
  7
STANDARD1
  0
LINE
  5
41D
  8
NOTE
  6
CONTINUOUS
 62
     4
 10
-122.9252413471563
 20
-437.47123468563581
 30
0.0
 11
-122.9252413471563
 21
-457.47123415945953
 31
0.0
  0
LINE
  5
41E
  8
NOTE
  6
CONTINUOUS
 62
     4
 10
-102.9252418733172
 20
-437.47123468563581
 30
0.0
 11
-102.9252418733172
 21
-457.47123415945953
 31
0.0
  0
LINE
  5
41F
  8
NOTE
  6
CONTINUOUS
 62
     4
 10
-102.9252418733172
 20
-437.47123468563581
 30
0.0
 11
-122.9252413471563
 21
-437.47123468563581
 31
0.0
  0
LINE
  5
420
  8
NOTE
  6
CONTINUOUS
 62
     4
 10
-122.9252413471563
 20
-457.47123415945953
 30
0.0
 11
-132.9252410840684
 21
-457.47123415945953
 31
0.0
  0
LINE
  5
421
  8
NOTE
  6
CONTINUOUS
 62
     4
 10
-92.925242136404918
 20
-457.47123415945953
 30
0.0
 11
-102.9252418733172
 21
-457.47123415945953
 31
0.0
  0
LINE
  5
422
  8
NOTE
  6
CONTINUOUS
 62
     4
 10
109.5746709586334
 20
-477.47123363330621
 30
0.0
 11
89.574671484797932
 21
-457.47123415945953
 31
0.0
  0
LINE
  5
423
  8
NOTE
  6
CONTINUOUS
 62
     4
 10
109.5746709586334
 20
-477.47123363330621
 30
0.0
 11
129.5746704324612
 21
-457.47123415945953
 31
0.0
  0
LINE
  5
424
  8
NOTE
  6
CONTINUOUS
 62
     4
 10
119.5746706955493
 20
-437.47123468563581
 30
0.0
 11
119.5746706955493
 21
-457.47123415945953
 31
0.0
  0
LINE
  5
425
  8
NOTE
  6
CONTINUOUS
 62
     4
 10
99.574671221710219
 20
-437.47123468563581
 30
0.0
 11
99.574671221710219
 21
-457.47123415945953
 31
0.0
  0
LINE
  5
426
  8
NOTE
  6
CONTINUOUS
 62
     4
 10
99.574671221710219
 20
-437.47123468563581
 30
0.0
 11
119.5746706955493
 21
-437.47123468563581
 31
0.0
  0
LINE
  5
427
  8
NOTE
  6
CONTINUOUS
 62
     4
 10
119.5746706955493
 20
-457.47123415945953
 30
0.0
 11
129.5746704324612
 21
-457.47123415945953
 31
0.0
  0
LINE
  5
428
  8
NOTE
  6
CONTINUOUS
 62
     4
 10
89.574671484797932
 20
-457.47123415945953
 30
0.0
 11
99.574671221710219
 21
-457.47123415945953
 31
0.0
  0
LINE
  5
429
  8
NOTE
  6
CONTINUOUS
 62
     4
 10
-487.50000000000722
 20
-387.49999999999358
 30
0.0
 11
-707.88858554428396
 21
-731.70699615469755
 31
0.0
  0
LINE
  5
42A
  8
NOTE
  6
CONTINUOUS
 62
     4
 10
-487.50000000000938
 20
-387.49999999998448
 30
0.0
 11
-499.52333154783332
 21
-419.71473568448329
 31
0.0
  0
LINE
  5
42B
  8
NOTE
  6
CONTINUOUS
 62
     4
 10
-487.50000000000938
 20
-387.49999999998448
 30
0.0
 11
-514.01987888839176
 21
-409.38711252418648
 31
0.0
  0
CIRCLE
  5
42C
  8
DETAIL
  6
CONTINUOUS
 62
     5
 10
357.50000000000063
 20
-387.4999999999992
 30
0.0
 40
1.5
  0
LINE
  5
42D
  8
NOTE
  6
CONTINUOUS
 62
     4
 10
366.49999976321948
 20
-387.49999999999358
 30
0.0
 11
348.50000023676068
 21
-387.49999999999358
 31
0.0
  0
LINE
  5
42E
  8
NOTE
  6
CONTINUOUS
 62
     4
 10
357.50000000000063
 20
-378.5000002367733
 30
0.0
 11
357.50000000000063
 21
-396.49999976322488
 31
0.0
  0
LINE
  5
42F
  8
NOTE
  6
CONTINUOUS
 62
     4
 10
-1070.0001913022541
 20
-731.70699615469402
 30
0.0
 11
-707.88858554428361
 21
-731.70699615469755
 31
0.0
  0
TEXT
  5
430
  8
NOTE
  6
CONTINUOUS
 62
     4
 10
-1058.796915776524
 20
-719.50445394821156
 30
0.0
 40
45.0
  1
2x16-%%C3 取付穴
 50
359.9999970000153
 41
0.7
  7
STANDARD1
  0
LINE
  5
431
  8
DETAIL
  6
CONTINUOUS
 62
     5
 10
544.99999999999829
 20
-367.5
 30
0.0
 11
544.99999999999829
 21
-397.4999999999992
 31
0.0
  0
CIRCLE
  5
432
  8
DETAIL
  6
CONTINUOUS
 62
     5
 10
97.499999999998494
 20
-387.4999999999992
 30
0.0
 40
1.5
  0
LINE
  5
433
  8
NOTE
  6
CONTINUOUS
 62
     4
 10
106.4999997632177
 20
-387.49999999999358
 30
0.0
 11
88.500000236758865
 21
-387.49999999999358
 31
0.0
  0
LINE
  5
434
  8
NOTE
  6
CONTINUOUS
 62
     4
 10
97.499999999998494
 20
-378.5000002367733
 30
0.0
 11
97.499999999998494
 21
-396.49999976322488
 31
0.0
  0
CIRCLE
  5
435
  8
DETAIL
  6
CONTINUOUS
 62
     5
 10
162.5000000000006
 20
-387.4999999999992
 30
0.0
 40
1.5
  0
LINE
  5
436
  8
NOTE
  6
CONTINUOUS
 62
     4
 10
171.49999976322999
 20
-387.4999999999992
 30
0.0
 11
153.50000023677109
 21
-387.4999999999992
 31
0.0
  0
LINE
  5
437
  8
NOTE
  6
CONTINUOUS
 62
     4
 10
162.500000000011
 20
-378.50000023677882
 30
0.0
 11
162.500000000011
 21
-396.49999976323039
 31
0.0
  0
CIRCLE
  5
438
  8
DETAIL
  6
CONTINUOUS
 62
     5
 10
227.5000000000006
 20
-387.4999999999992
 30
0.0
 40
1.5
  0
LINE
  5
439
  8
NOTE
  6
CONTINUOUS
 62
     4
 10
236.49999976321959
 20
-387.49999999999358
 30
0.0
 11
218.50000023676071
 21
-387.49999999999358
 31
0.0
  0
LINE
  5
43A
  8
NOTE
  6
CONTINUOUS
 62
     4
 10
227.5000000000006
 20
-378.5000002367733
 30
0.0
 11
227.5000000000006
 21
-396.49999976322488
 31
0.0
  0
LINE
  5
43B
  8
NOTE
  6
CONTINUOUS
 62
     4
 10
553.99999001730123
 20
-387.49999594450219
 30
0.0
 11
535.99999049084226
 21
-387.49999594450219
 31
0.0
  0
LINE
  5
43C
  8
NOTE
  6
CONTINUOUS
 62
     4
 10
544.99999025408215
 20
-378.49999618128197
 30
0.0
 11
544.99999025408215
 21
-396.49999570773338
 31
0.0
  0
CIRCLE
  5
43D
  8
DETAIL
  6
CONTINUOUS
 62
     5
 10
32.500000000000341
 20
-387.4999999999992
 30
0.0
 40
1.5
  0
LINE
  5
43E
  8
NOTE
  6
CONTINUOUS
 62
     4
 10
41.499999763219307
 20
-387.49999999999358
 30
0.0
 11
23.50000023676046
 21
-387.49999999999358
 31
0.0
  0
LINE
  5
43F
  8
NOTE
  6
CONTINUOUS
 62
     4
 10
32.500000000000341
 20
-378.5000002367733
 30
0.0
 11
32.500000000000341
 21
-396.49999976322488
 31
0.0
  0
LINE
  5
440
  8
NOTE
  6
CONTINUOUS
 62
     4
 10
-536.00000023678251
 20
-387.49999999999358
 30
0.0
 11
-553.99999976324136
 21
-387.49999999999358
 31
0.0
  0
LINE
  5
441
  8
NOTE
  6
CONTINUOUS
 62
     4
 10
-545.00000000000171
 20
-378.5000002367733
 30
0.0
 11
-545.00000000000171
 21
-396.49999976322488
 31
0.0
  0
CIRCLE
  5
442
  8
DETAIL
  6
CONTINUOUS
 62
     5
 10
-487.50000000000722
 20
-387.49999999999358
 30
0.0
 40
1.5
  0
LINE
  5
443
  8
NOTE
  6
CONTINUOUS
 62
     4
 10
-478.50000023678848
 20
-387.49999999998772
 30
0.0
 11
-496.4999997632475
 21
-387.49999999998772
 31
0.0
  0
LINE
  5
444
  8
NOTE
  6
CONTINUOUS
 62
     4
 10
-487.50000000000722
 20
-378.5000002367679
 30
0.0
 11
-487.50000000000722
 21
-396.49999976321942
 31
0.0
  0
CIRCLE
  5
445
  8
DETAIL
  6
CONTINUOUS
 62
     5
 10
-97.499999999999545
 20
-387.4999999999992
 30
0.0
 40
1.5
  0
LINE
  5
446
  8
NOTE
  6
CONTINUOUS
 62
     4
 10
-88.500000236780579
 20
-387.49999999999358
 30
0.0
 11
-106.4999997632394
 21
-387.49999999999358
 31
0.0
  0
LINE
  5
447
  8
NOTE
  6
CONTINUOUS
 62
     4
 10
-97.499999999999545
 20
-378.5000002367733
 30
0.0
 11
-97.499999999999545
 21
-396.49999976322488
 31
0.0
  0
CIRCLE
  5
448
  8
DETAIL
  6
CONTINUOUS
 62
     5
 10
292.50000000000063
 20
-387.4999999999992
 30
0.0
 40
1.5
  0
LINE
  5
449
  8
NOTE
  6
CONTINUOUS
 62
     4
 10
301.49999976321948
 20
-387.49999999999358
 30
0.0
 11
283.50000023676068
 21
-387.49999999999358
 31
0.0
  0
LINE
  5
44A
  8
NOTE
  6
CONTINUOUS
 62
     4
 10
292.50000000000063
 20
-378.5000002367733
 30
0.0
 11
292.50000000000063
 21
-396.49999976322488
 31
0.0
  0
CIRCLE
  5
44B
  8
DETAIL
  6
CONTINUOUS
 62
     5
 10
-32.499999999999432
 20
-387.4999999999992
 30
0.0
 40
1.5
  0
LINE
  5
44C
  8
NOTE
  6
CONTINUOUS
 62
     4
 10
-23.500000236780689
 20
-387.49999999999358
 30
0.0
 11
-41.499999763239323
 21
-387.49999999999358
 31
0.0
  0
LINE
  5
44D
  8
NOTE
  6
CONTINUOUS
 62
     4
 10
-32.499999999999432
 20
-378.5000002367733
 30
0.0
 11
-32.499999999999432
 21
-396.49999976322488
 31
0.0
  0
LINE
  5
44E
  8
SIZE
  6
CONTINUOUS
 62
    30
 10
-544.99999999999602
 20
-407.49999999999909
 30
0.0
 11
-544.99999999999602
 21
-780.73563960321076
 31
0.0
  0
LINE
  5
44F
  8
SIZE
  6
CONTINUOUS
 62
    30
 10
544.99999999999829
 20
-407.50000405549042
 30
0.0
 11
544.99999999999829
 21
-780.73563960321076
 31
0.0
  0
LINE
  5
450
  8
SIZE
  6
CONTINUOUS
 62
    30
 10
-544.99999999999602
 20
-760.73563960321076
 30
0.0
 11
544.99999999999829
 21
-760.73563960321076
 31
0.0
  0
LINE
  5
451
  8
SIZE
  6
CONTINUOUS
 62
    30
 10
-487.50000000000148
 20
-397.49999999998772
 30
0.0
 11
-487.50000000000148
 21
-670.66473897069295
 31
0.0
  0
LINE
  5
452
  8
SIZE
  6
CONTINUOUS
 62
    30
 10
487.50000000000182
 20
-397.49999999999369
 30
0.0
 11
487.50000000000182
 21
-670.01113838473145
 31
0.0
  0
LINE
  5
453
  8
SIZE
  6
CONTINUOUS
 62
    30
 10
-487.50000000000148
 20
-649.51688334639425
 30
0.0
 11
487.50000000000182
 21
-649.51688334640039
 31
0.0
  0
LINE
  5
454
  8
SIZE
  6
CONTINUOUS
 62
    30
 10
487.4999999999913
 20
-397.49999999999369
 30
0.0
 11
487.4999999999913
 21
-564.5293497791381
 31
0.0
  0
LINE
  5
455
  8
SIZE
  6
CONTINUOUS
 62
    30
 10
422.50000000000182
 20
-397.4999999999992
 30
0.0
 11
422.50000000000182
 21
-564.5293497791381
 31
0.0
  0
LINE
  5
456
  8
SIZE
  6
CONTINUOUS
 62
    30
 10
487.4999999999913
 20
-544.52934977913765
 30
0.0
 11
422.50000000000182
 21
-544.52934977913765
 31
0.0
  0
LINE
  5
457
  8
SIZE
  6
CONTINUOUS
 62
    30
 10
422.50000000000182
 20
-544.52934977913765
 30
0.0
 11
319.46285714285892
 21
-544.52934977913765
 31
0.0
  0
LINE
  5
458
  8
SIZE
  6
CONTINUOUS
 62
    30
 10
487.50000000000182
 20
-397.4999999999992
 30
0.0
 11
487.50000000000182
 21
-637.61910082111262
 31
0.0
  0
LINE
  5
459
  8
SIZE
  6
CONTINUOUS
 62
    30
 10
487.50000000000182
 20
-649.51688334640039
 30
0.0
 11
580.00000000000193
 21
-649.51688334640039
 31
0.0
  0
LINE
  5
45A
  8
SIZE
  6
CONTINUOUS
 62
    30
 10
552.50000000000193
 20
-367.5
 30
0.0
 11
705.52555668075195
 21
-367.5
 31
0.0
  0
LINE
  5
45B
  8
SIZE
  6
CONTINUOUS
 62
    30
 10
552.4999902540859
 20
-397.4999959445077
 30
0.0
 11
705.52555668075195
 21
-397.4999959445077
 31
0.0
  0
LINE
  5
45C
  8
SIZE
  6
CONTINUOUS
 62
    30
 10
685.52555668075195
 20
-367.5
 30
0.0
 11
685.52555668075195
 21
-397.4999959445077
 31
0.0
  0
LINE
  5
45D
  8
SIZE
  6
CONTINUOUS
 62
    30
 10
685.52555668075195
 20
-397.4999959445077
 30
0.0
 11
685.52555668075195
 21
-500.5371388016506
 31
0.0
  0
CIRCLE
  5
45E
  8
SIZE
  6
CONTINUOUS
 62
    30
 10
685.52555668075195
 20
-397.4999959445077
 30
0.0
 40
7.5
  0
CIRCLE
  5
45F
  8
SIZE
  6
CONTINUOUS
 62
    30
 10
487.50000000000182
 20
-649.51688334640039
 30
0.0
 40
7.5
  0
CIRCLE
  5
460
  8
SIZE
  6
CONTINUOUS
 62
    30
 10
487.4999999999913
 20
-544.52934977913765
 30
0.0
 40
7.5
  0
TEXT
  5
461
  8
SIZE
  6
CONTINUOUS
 62
    30
 10
621.33919351001418
 20
-640.7277582033048
 30
0.0
 40
50.0
  1
92.5
 41
0.9
 72
     1
 11
689.91062208144285
 21
-640.7277582033048
 31
0.0
  0
CIRCLE
  5
462
  8
SIZE
  6
CONTINUOUS
 62
    30
 10
580.00000000000193
 20
-649.51688334640039
 30
0.0
 40
7.5
  0
CIRCLE
  5
463
  8
SIZE
  6
CONTINUOUS
 62
    30
 10
487.50000000000182
 20
-649.51688334640039
 30
0.0
 40
7.5
  0
CIRCLE
  5
464
  8
SIZE
  6
CONTINUOUS
 62
    30
 10
422.50000000000182
 20
-544.52934977913765
 30
0.0
 40
7.5
  0
TEXT
  5
465
  8
SIZE
  6
CONTINUOUS
 62
    30
 10
673.97127241838655
 20
-489.75685324032543
 30
0.0
 40
50.0
  1
30
 50
90.0
 41
0.9
 72
     1
 11
673.97127241838655
 21
-453.32828181175393
 31
0.0
  0
TEXT
  5
466
  8
SIZE
  6
CONTINUOUS
 62
    30
 10
328.74072940433621
 20
-537.05996499612138
 30
0.0
 40
50.0
  1
65
 41
0.9
 72
     1
 11
365.1693008329076
 21
-537.05996499612138
 31
0.0
  0
TEXT
  5
467
  8
SIZE
  6
CONTINUOUS
 62
    30
 10
-193.3365773230741
 20
-643.38590061844161
 30
0.0
 40
50.0
  1
15×65（＝975）
 41
0.9
 72
     1
 11
42.377708391211513
 21
-643.38590061844161
 31
0.0
  0
CIRCLE
  5
468
  8
SIZE
  6
CONTINUOUS
 62
    30
 10
-487.50000000000148
 20
-649.51688334639425
 30
0.0
 40
7.5
  0
CIRCLE
  5
469
  8
SIZE
  6
CONTINUOUS
 62
    30
 10
-544.99999999999602
 20
-760.73563960321076
 30
0.0
 40
7.5
  0
TEXT
  5
46A
  8
SIZE
  6
CONTINUOUS
 62
    30
 10
-267.9873575406545
 20
-751.04091664128191
 30
0.0
 40
50.0
  1
1090（ダクト外寸）
 41
0.9
 72
     1
 11
-15.55878611208311
 21
-751.04091664128191
 31
0.0
  0
CIRCLE
  5
46B
  8
SIZE
  6
CONTINUOUS
 62
    30
 10
544.99999999999829
 20
-760.73563960321076
 30
0.0
 40
7.5
  0
CIRCLE
  5
46C
  8
SIZE
  6
CONTINUOUS
 62
    30
 10
685.52555668075195
 20
-367.5
 30
0.0
 40
7.5
  0
LINE
  5
46D
  8
SIZE
  6
CONTINUOUS
 62
    30
 10
580.00000000000193
 20
-649.51688334640039
 30
0.0
 11
766.67635179434001
 21
-649.51688334640039
 31
0.0
  0
LINE
  5
46E
  8
OUTLINE
  6
CONTINUOUS
 62
     3
 10
-545.00000000000171
 20
-397.4999999999992
 30
0.0
 11
544.99999999999829
 21
-397.4999999999992
 31
0.0
  0
LINE
  5
46F
  8
OUTLINE
  6
CONTINUOUS
 62
     3
 10
-545.00000000000171
 20
-367.5
 30
0.0
 11
-545.00000000000171
 21
-397.4999999999992
 31
0.0
  0
LINE
  5
470
  8
OUTLINE
  6
CONTINUOUS
 62
     3
 10
544.99999999999829
 20
-367.5
 30
0.0
 11
544.99999999999829
 21
-397.4999999999992
 31
0.0
  0
CIRCLE
  5
471
  8
DETAIL
  6
CONTINUOUS
 62
     5
 10
487.50000000000182
 20
-387.4999959445077
 30
0.0
 40
1.5
  0
LINE
  5
472
  8
NOTE
  6
CONTINUOUS
 62
     4
 10
496.4999997632209
 20
-387.49999594450219
 30
0.0
 11
478.50000023676199
 21
-387.49999594450219
 31
0.0
  0
LINE
  5
473
  8
NOTE
  6
CONTINUOUS
 62
     4
 10
487.50000000000182
 20
-378.49999618128197
 30
0.0
 11
487.50000000000182
 21
-396.49999570773338
 31
0.0
  0
CIRCLE
  5
474
  8
DETAIL
  6
CONTINUOUS
 62
     5
 10
422.50000000000182
 20
-387.4999959445077
 30
0.0
 40
1.5
  0
LINE
  5
475
  8
NOTE
  6
CONTINUOUS
 62
     4
 10
431.4999997632209
 20
-387.49999594450219
 30
0.0
 11
413.50000023676188
 21
-387.49999594450219
 31
0.0
  0
LINE
  5
476
  8
NOTE
  6
CONTINUOUS
 62
     4
 10
422.50000000000182
 20
-378.49999618128197
 30
0.0
 11
422.50000000000182
 21
-396.49999570773338
 31
0.0
  0
CIRCLE
  5
477
  8
DETAIL
  6
CONTINUOUS
 62
     5
 10
-227.4999999999979
 20
-387.5
 30
0.0
 40
1.5
  0
LINE
  5
478
  8
NOTE
  6
CONTINUOUS
 62
     4
 10
-218.50000023677899
 20
-387.49999999999449
 30
0.0
 11
-236.49999976323789
 21
-387.49999999999449
 31
0.0
  0
LINE
  5
479
  8
NOTE
  6
CONTINUOUS
 62
     4
 10
-227.4999999999979
 20
-378.50000023677421
 30
0.0
 11
-227.4999999999979
 21
-396.49999976322579
 31
0.0
  0
CIRCLE
  5
47A
  8
DETAIL
  6
CONTINUOUS
 62
     5
 10
-162.4999999999979
 20
-387.5
 30
0.0
 40
1.5
  0
LINE
  5
47B
  8
NOTE
  6
CONTINUOUS
 62
     4
 10
-153.50000023677899
 20
-387.49999999999449
 30
0.0
 11
-171.49999976323781
 21
-387.49999999999449
 31
0.0
  0
LINE
  5
47C
  8
NOTE
  6
CONTINUOUS
 62
     4
 10
-162.4999999999979
 20
-378.50000023677421
 30
0.0
 11
-162.4999999999979
 21
-396.49999976322579
 31
0.0
  0
CIRCLE
  5
47D
  8
DETAIL
  6
CONTINUOUS
 62
     5
 10
-292.50000000000171
 20
-387.4999999999992
 30
0.0
 40
1.5
  0
LINE
  5
47E
  8
NOTE
  6
CONTINUOUS
 62
     4
 10
-283.50000023678268
 20
-387.49999999999358
 30
0.0
 11
-301.49999976324159
 21
-387.49999999999358
 31
0.0
  0
LINE
  5
47F
  8
NOTE
  6
CONTINUOUS
 62
     4
 10
-292.50000000000171
 20
-378.5000002367733
 30
0.0
 11
-292.50000000000171
 21
-396.49999976322488
 31
0.0
  0
CIRCLE
  5
480
  8
DETAIL
  6
CONTINUOUS
 62
     5
 10
-422.5
 20
-387.5
 30
0.0
 40
1.5
  0
LINE
  5
481
  8
NOTE
  6
CONTINUOUS
 62
     4
 10
-413.50000023678098
 20
-387.49999999999449
 30
0.0
 11
-431.49999976324
 21
-387.49999999999449
 31
0.0
  0
LINE
  5
482
  8
NOTE
  6
CONTINUOUS
 62
     4
 10
-422.5
 20
-378.50000023677421
 30
0.0
 11
-422.5
 21
-396.49999976322579
 31
0.0
  0
CIRCLE
  5
483
  8
DETAIL
  6
CONTINUOUS
 62
     5
 10
-357.50000000000011
 20
-387.5
 30
0.0
 40
1.5
  0
LINE
  5
484
  8
NOTE
  6
CONTINUOUS
 62
     4
 10
-348.5000002367812
 20
-387.49999999999449
 30
0.0
 11
-366.49999976324
 21
-387.49999999999449
 31
0.0
  0
LINE
  5
485
  8
NOTE
  6
CONTINUOUS
 62
     4
 10
-357.50000000000011
 20
-378.50000023677421
 30
0.0
 11
-357.50000000000011
 21
-396.49999976322579
 31
0.0
  0
TEXT
  5
48B
  8
ETC
  6
CONTINUOUS
 62
    61
 10
-390.0951558798443
 20
857.85656039660898
 30
0.0
 40
50.0
  1
PDFY-P71_90M-E2（後吸込・角ダクト組込み）_6
 50
0.0000029998804485
 41
0.8
  0
TEXT
  5
587
  8
SIZE
  6
CONTINUOUS
 62
    30
 10
-99.149026286592274
 20
-907.53848935652456
 30
0.0
 40
50.0
  1
1160
 41
0.9
 72
     1
 11
-28.43474057230657
 21
-907.53848935652456
 31
0.0
  0
ENDSEC
  0
EOF
