  0
SECTION
  2
HEADER
  9
$ACADVER
  1
AC1014
  9
$ACADMAINTVER
 70
     0
  9
$DWGCODEPAGE
  3
ANSI_932
  9
$INSBASE
 10
0.0
 20
0.0
 30
0.0
  9
$EXTMIN
 10
-1317.191337
 20
-949.15965
 30
0.0
  9
$EXTMAX
 10
1418.074317
 20
900.847678
 30
0.0
  9
$LIMMIN
 10
-4267.152221
 20
-2696.08321
  9
$LIMMAX
 10
7190.717423
 20
5141.155364
  9
$ORTHOMODE
 70
     0
  9
$REGENMODE
 70
     1
  9
$FILLMODE
 70
     1
  9
$QTEXTMODE
 70
     0
  9
$MIRRTEXT
 70
     0
  9
$DRAGMODE
 70
     2
  9
$LTSCALE
 40
20.0
  9
$OSMODE
 70
    37
  9
$ATTMODE
 70
     1
  9
$TEXTSIZE
 40
64.0
  9
$TRACEWID
 40
0.05
  9
$TEXTSTYLE
  7
STANDARD
  9
$CLAYER
  8
SIZE
  9
$CELTYPE
  6
CONTINUOUS
  9
$CECOLOR
 62
     7
  9
$CELTSCALE
 40
1.0
  9
$DELOBJ
 70
     1
  9
$DISPSILH
 70
     0
  9
$DIMSCALE
 40
1.0
  9
$DIMASZ
 40
10.0
  9
$DIMEXO
 40
20.0
  9
$DIMDLI
 40
200.0
  9
$DIMRND
 40
0.0
  9
$DIMDLE
 40
0.0
  9
$DIMEXE
 40
30.0
  9
$DIMTP
 40
0.0
  9
$DIMTM
 40
0.0
  9
$DIMTXT
 40
55.0
  9
$DIMCEN
 40
0.0
  9
$DIMTSZ
 40
0.0
  9
$DIMTOL
 70
     0
  9
$DIMLIM
 70
     0
  9
$DIMTIH
 70
     0
  9
$DIMTOH
 70
     0
  9
$DIMSE1
 70
     0
  9
$DIMSE2
 70
     0
  9
$DIMTAD
 70
     1
  9
$DIMZIN
 70
     8
  9
$DIMBLK
  1

  9
$DIMASO
 70
     1
  9
$DIMSHO
 70
     0
  9
$DIMPOST
  1

  9
$DIMAPOST
  1

  9
$DIMALT
 70
     0
  9
$DIMALTD
 70
     2
  9
$DIMALTF
 40
25.4
  9
$DIMLFAC
 40
1.0
  9
$DIMTOFL
 70
     1
  9
$DIMTVP
 40
0.0
  9
$DIMTIX
 70
     1
  9
$DIMSOXD
 70
     0
  9
$DIMSAH
 70
     1
  9
$DIMBLK1
  1
_DOTBLANK
  9
$DIMBLK2
  1
_DOTBLANK
  9
$DIMSTYLE
  2
STANDARD
  9
$DIMCLRD
 70
     0
  9
$DIMCLRE
 70
     0
  9
$DIMCLRT
 70
     0
  9
$DIMTFAC
 40
1.0
  9
$DIMGAP
 40
0.09
  9
$DIMJUST
 70
     0
  9
$DIMSD1
 70
     0
  9
$DIMSD2
 70
     0
  9
$DIMTOLJ
 70
     1
  9
$DIMTZIN
 70
     0
  9
$DIMALTZ
 70
     0
  9
$DIMALTTZ
 70
     0
  9
$DIMFIT
 70
     3
  9
$DIMUPT
 70
     0
  9
$DIMUNIT
 70
     2
  9
$DIMDEC
 70
     4
  9
$DIMTDEC
 70
     4
  9
$DIMALTU
 70
     2
  9
$DIMALTTD
 70
     2
  9
$DIMTXSTY
  7
STANDARD
  9
$DIMAUNIT
 70
     0
  9
$LUNITS
 70
     2
  9
$LUPREC
 70
     4
  9
$SKETCHINC
 40
0.1
  9
$FILLETRAD
 40
30.0
  9
$AUNITS
 70
     1
  9
$AUPREC
 70
     3
  9
$MENU
  1
ACAD
  9
$ELEVATION
 40
0.0
  9
$PELEVATION
 40
0.0
  9
$THICKNESS
 40
0.0
  9
$LIMCHECK
 70
     0
  9
$BLIPMODE
 70
     0
  9
$CHAMFERA
 40
0.0
  9
$CHAMFERB
 40
0.0
  9
$CHAMFERC
 40
0.0
  9
$CHAMFERD
 40
0.0
  9
$SKPOLY
 70
     0
  9
$TDCREATE
 40
2450330.439930995
  9
$TDUPDATE
 40
2454503.671857998
  9
$TDINDWG
 40
3.4950509954
  9
$TDUSRTIMER
 40
3.4950500000
  9
$USRTIMER
 70
     1
  9
$ANGBASE
 50
0.0
  9
$ANGDIR
 70
     0
  9
$PDMODE
 70
     3
  9
$PDSIZE
 40
-2.0
  9
$PLINEWID
 40
0.0
  9
$COORDS
 70
     1
  9
$SPLFRAME
 70
     0
  9
$SPLINETYPE
 70
     6
  9
$SPLINESEGS
 70
     8
  9
$ATTDIA
 70
     0
  9
$ATTREQ
 70
     1
  9
$HANDLING
 70
     1
  9
$HANDSEED
  5
9F5
  9
$SURFTAB1
 70
     6
  9
$SURFTAB2
 70
     6
  9
$SURFTYPE
 70
     6
  9
$SURFU
 70
     6
  9
$SURFV
 70
     6
  9
$UCSNAME
  2

  9
$UCSORG
 10
0.0
 20
0.0
 30
0.0
  9
$UCSXDIR
 10
1.0
 20
0.0
 30
0.0
  9
$UCSYDIR
 10
0.0
 20
1.0
 30
0.0
  9
$PUCSNAME
  2

  9
$PUCSORG
 10
0.0
 20
0.0
 30
0.0
  9
$PUCSXDIR
 10
1.0
 20
0.0
 30
0.0
  9
$PUCSYDIR
 10
0.0
 20
1.0
 30
0.0
  9
$USERI1
 70
     0
  9
$USERI2
 70
     0
  9
$USERI3
 70
     0
  9
$USERI4
 70
     0
  9
$USERI5
 70
     0
  9
$USERR1
 40
20.0
  9
$USERR2
 40
0.0
  9
$USERR3
 40
0.0
  9
$USERR4
 40
0.0
  9
$USERR5
 40
0.0
  9
$WORLDVIEW
 70
     1
  9
$SHADEDGE
 70
     3
  9
$SHADEDIF
 70
    70
  9
$TILEMODE
 70
     1
  9
$MAXACTVP
 70
    48
  9
$PINSBASE
 10
0.0
 20
0.0
 30
0.0
  9
$PLIMCHECK
 70
     0
  9
$PEXTMIN
 10
1.000000E+20
 20
1.000000E+20
 30
1.000000E+20
  9
$PEXTMAX
 10
-1.000000E+20
 20
-1.000000E+20
 30
-1.000000E+20
  9
$PLIMMIN
 10
0.0
 20
0.0
  9
$PLIMMAX
 10
12.0
 20
9.0
  9
$UNITMODE
 70
     0
  9
$VISRETAIN
 70
     1
  9
$PLINEGEN
 70
     0
  9
$PSLTSCALE
 70
     1
  9
$TREEDEPTH
 70
  3020
  9
$PICKSTYLE
 70
     0
  9
$CMLSTYLE
  2
STANDARD
  9
$CMLJUST
 70
     0
  9
$CMLSCALE
 40
1.0
  9
$PROXYGRAPHICS
 70
     1
  9
$MEASUREMENT
 70
     0
  0
ENDSEC
  0
SECTION
  2
CLASSES
  0
ENDSEC
  0
SECTION
  2
TABLES
  0
TABLE
  2
VPORT
  5
9C3
100
AcDbSymbolTable
 70
     2
  0
VPORT
  5
9F4
100
AcDbSymbolTableRecord
100
AcDbViewportTableRecord
  2
*ACTIVE
 70
     0
 10
0.0
 20
0.0
 11
1.0
 21
1.0
 12
1645.853864
 22
1222.536077
 13
0.0
 23
0.0
 14
50.0
 24
50.0
 15
100.0
 25
100.0
 16
0.0
 26
0.0
 36
1.0
 17
0.0
 27
0.0
 37
0.0
 40
7837.238574
 41
1.508951
 42
50.0
 43
0.0
 44
0.0
 50
0.0
 51
0.0
 71
     0
 72
  1000
 73
     1
 74
     0
 75
     0
 76
     0
 77
     0
 78
     0
  0
ENDTAB
  0
TABLE
  2
LTYPE
  5
9C0
100
AcDbSymbolTable
 70
     2
  0
LTYPE
  5
9CD
100
AcDbSymbolTableRecord
100
AcDbLinetypeTableRecord
  2
BYBLOCK
 70
     0
  3

 72
    65
 73
     0
 40
0.0
  0
LTYPE
  5
9CE
100
AcDbSymbolTableRecord
100
AcDbLinetypeTableRecord
  2
BYLAYER
 70
     0
  3

 72
    65
 73
     0
 40
0.0
  0
LTYPE
  5
9CF
100
AcDbSymbolTableRecord
100
AcDbLinetypeTableRecord
  2
CONTINUOUS
 70
     0
  3
実線
 72
    65
 73
     0
 40
0.0
  0
LTYPE
  5
9DB
100
AcDbSymbolTableRecord
100
AcDbLinetypeTableRecord
  2
DASHDOT
 70
     0
  3
____ _ ____ _ ____ _ ____ _ ____ _ ____ _ ____
 72
    65
 73
     4
 40
5.5
 49
4.0
 74
     0
 49
-0.6
 74
     0
 49
0.3
 74
     0
 49
-0.6
 74
     0
  0
ENDTAB
  0
TABLE
  2
LAYER
  5
9BD
100
AcDbSymbolTable
 70
    12
  0
LAYER
  5
9C9
100
AcDbSymbolTableRecord
100
AcDbLayerTableRecord
  2
0
 70
     0
 62
     7
  6
CONTINUOUS
  0
LAYER
  5
9DA
100
AcDbSymbolTableRecord
100
AcDbLayerTableRecord
  2
SIZE
 70
     0
 62
    30
  6
CONTINUOUS
  0
LAYER
  5
9DC
100
AcDbSymbolTableRecord
100
AcDbLayerTableRecord
  2
OUTLINE
 70
     0
 62
     3
  6
CONTINUOUS
  0
LAYER
  5
9DD
100
AcDbSymbolTableRecord
100
AcDbLayerTableRecord
  2
DETAIL
 70
     0
 62
     5
  6
CONTINUOUS
  0
LAYER
  5
9DE
100
AcDbSymbolTableRecord
100
AcDbLayerTableRecord
  2
BASIS
 70
     0
 62
     6
  6
DASHDOT
  0
LAYER
  5
9DF
100
AcDbSymbolTableRecord
100
AcDbLayerTableRecord
  2
NOTE
 70
     0
 62
     4
  6
CONTINUOUS
  0
LAYER
  5
9E0
100
AcDbSymbolTableRecord
100
AcDbLayerTableRecord
  2
ARRANGE
 70
     0
 62
     1
  6
CONTINUOUS
  0
LAYER
  5
9E1
100
AcDbSymbolTableRecord
100
AcDbLayerTableRecord
  2
FIX
 70
     0
 62
    11
  6
CONTINUOUS
  0
LAYER
  5
9E2
100
AcDbSymbolTableRecord
100
AcDbLayerTableRecord
  2
SERVICESPACE
 70
     0
 62
     2
  6
DASHDOT
  0
LAYER
  5
9E3
100
AcDbSymbolTableRecord
100
AcDbLayerTableRecord
  2
ETC
 70
     0
 62
    61
  6
CONTINUOUS
  0
LAYER
  5
9E4
100
AcDbSymbolTableRecord
100
AcDbLayerTableRecord
  2
SYMBOLLINE
 70
     0
 62
    15
  6
CONTINUOUS
  0
LAYER
  5
9E5
100
AcDbSymbolTableRecord
100
AcDbLayerTableRecord
  2
DEFPOINTS
 70
     0
 62
     7
  6
CONTINUOUS
  0
ENDTAB
  0
TABLE
  2
STYLE
  5
9BE
100
AcDbSymbolTable
 70
     2
  0
STYLE
  5
9CA
100
AcDbSymbolTableRecord
100
AcDbTextStyleTableRecord
  2
STANDARD
 70
     0
 40
0.0
 41
0.9
 50
0.0
 71
     0
 42
64.0
  3
SIMPLEX
  4
BIGFONT
  0
STYLE
  5
9E6
100
AcDbSymbolTableRecord
100
AcDbTextStyleTableRecord
  2
STANDARD1
 70
     0
 40
0.0
 41
1.0
 50
0.0
 71
     0
 42
64.0
  3
MONOTXT
  4
BIGFONT
  0
ENDTAB
  0
TABLE
  2
VIEW
  5
9C1
100
AcDbSymbolTable
 70
     1
  0
VIEW
  5
9E7
100
AcDbSymbolTableRecord
100
AcDbViewTableRecord
  2
ALL
 70
     0
 40
9000.0
 10
241.506647
 20
0.0
 41
12483.01
 11
0.0
 21
0.0
 31
1.0
 12
0.0
 22
0.0
 32
0.0
 42
50.0
 43
0.0
 44
0.0
 50
0.0
 71
     0
  0
ENDTAB
  0
TABLE
  2
UCS
  5
9C2
100
AcDbSymbolTable
 70
     0
  0
ENDTAB
  0
TABLE
  2
APPID
  5
9C4
100
AcDbSymbolTable
 70
     1
  0
APPID
  5
9CB
100
AcDbSymbolTableRecord
100
AcDbRegAppTableRecord
  2
ACAD
 70
     0
  0
ENDTAB
  0
TABLE
  2
DIMSTYLE
  5
9C5
100
AcDbSymbolTable
 70
     1
  0
DIMSTYLE
105
9E8
100
AcDbSymbolTableRecord
100
AcDbDimStyleTableRecord
  2
STANDARD
 70
     0
  3

  4

  5

  6

  7

 40
1.0
 41
0.18
 42
0.0625
 43
0.38
 44
0.18
 45
0.0
 46
0.0
 47
0.0
 48
0.0
140
0.18
141
0.09
142
0.0
143
25.4
144
1.0
145
0.0
146
1.0
147
0.09
 71
     0
 72
     0
 73
     1
 74
     1
 75
     0
 76
     0
 77
     0
 78
     0
170
     0
171
     2
172
     0
173
     0
174
     0
175
     0
176
     0
177
     0
178
     0
270
     2
271
     4
272
     4
273
     2
274
     2
340
9CA
275
     0
280
     0
281
     0
282
     0
283
     1
284
     0
285
     0
286
     0
287
     3
288
     0
  0
ENDTAB
  0
TABLE
  2
BLOCK_RECORD
  5
9BC
100
AcDbSymbolTable
 70
     4
  0
BLOCK_RECORD
  5
9D3
100
AcDbSymbolTableRecord
100
AcDbBlockTableRecord
  2
*MODEL_SPACE
  0
BLOCK_RECORD
  5
9D0
100
AcDbSymbolTableRecord
100
AcDbBlockTableRecord
  2
*PAPER_SPACE
  0
BLOCK_RECORD
  5
9EC
100
AcDbSymbolTableRecord
100
AcDbBlockTableRecord
  2
$MODEL_SPACE
  0
BLOCK_RECORD
  5
9EE
100
AcDbSymbolTableRecord
100
AcDbBlockTableRecord
  2
$PAPER_SPACE
  0
BLOCK_RECORD
  5
9F0
100
AcDbSymbolTableRecord
100
AcDbBlockTableRecord
  2
_DOTBLANK
  0
BLOCK_RECORD
  5
9F2
100
AcDbSymbolTableRecord
100
AcDbBlockTableRecord
  2
A$C66CD4E45
  0
ENDTAB
  0
ENDSEC
  0
SECTION
  2
BLOCKS
  0
BLOCK
  5
9D4
100
AcDbEntity
  8
0
100
AcDbBlockBegin
  2
*MODEL_SPACE
 70
     0
 10
0.0
 20
0.0
 30
0.0
  3
*MODEL_SPACE
  1

  0
ENDBLK
  5
9D5
100
AcDbEntity
  8
0
100
AcDbBlockEnd
  0
BLOCK
  5
9D1
100
AcDbEntity
 67
     1
  8
0
100
AcDbBlockBegin
  2
*PAPER_SPACE
 70
     0
 10
0.0
 20
0.0
 30
0.0
  3
*PAPER_SPACE
  1

  0
ENDBLK
  5
9D2
100
AcDbEntity
 67
     1
  8
0
100
AcDbBlockEnd
  0
BLOCK
  5
9ED
100
AcDbEntity
  8
0
100
AcDbBlockBegin
  2
$MODEL_SPACE
 70
     0
 10
0.0
 20
0.0
 30
0.0
  3
$MODEL_SPACE
  1

  0
ENDBLK
  5
391
100
AcDbEntity
  8
0
100
AcDbBlockEnd
  0
BLOCK
  5
9EF
100
AcDbEntity
  8
0
100
AcDbBlockBegin
  2
$PAPER_SPACE
 70
     0
 10
0.0
 20
0.0
 30
0.0
  3
$PAPER_SPACE
  1

  0
ENDBLK
  5
38E
100
AcDbEntity
  8
0
100
AcDbBlockEnd
  0
BLOCK
  5
9F1
100
AcDbEntity
  8
0
100
AcDbBlockBegin
  2
_DOTBLANK
 70
     0
 10
0.0
 20
0.0
 30
0.0
  3
_DOTBLANK
  1

  0
CIRCLE
  5
32
100
AcDbEntity
  8
0
  6
CONTINUOUS
 62
     7
100
AcDbCircle
 10
0.0
 20
0.0
 30
0.0
 40
0.5
  0
LINE
  5
33
100
AcDbEntity
  8
0
  6
CONTINUOUS
 62
     7
100
AcDbLine
 10
-0.5
 20
0.0
 30
0.0
 11
-1.0
 21
0.0
 31
0.0
  0
ENDBLK
  5
34
100
AcDbEntity
  8
0
100
AcDbBlockEnd
  0
BLOCK
  5
9F3
100
AcDbEntity
  8
0
 62
     7
100
AcDbBlockBegin
  2
A$C66CD4E45
 70
     0
 10
0.0
 20
0.0
 30
0.0
  3
A$C66CD4E45
  1

  0
TEXT
  5
3B0
100
AcDbEntity
  8
ETC
  6
CONTINUOUS
 62
    61
100
AcDbText
 10
107.850876
 20
1776.63296
 30
0.0
 40
80.0
  1
MPD-RP71_80FA3_1
 50
0.000003
 41
0.8
100
AcDbText
  0
LINE
  5
3B1
100
AcDbEntity
  8
SIZE
  6
CONTINUOUS
 62
    30
100
AcDbLine
 10
706.966277
 20
1722.586498
 30
0.0
 11
1926.966277
 21
1722.586498
 31
0.0
  0
LINE
  5
3B2
100
AcDbEntity
  8
DETAIL
  6
CONTINUOUS
 62
     5
100
AcDbLine
 10
696.966277
 20
1391.283053
 30
0.0
 11
1936.966277
 21
1391.283053
 31
0.0
  0
LINE
  5
3B3
100
AcDbEntity
  8
OUTLINE
  6
CONTINUOUS
 62
     3
100
AcDbLine
 10
696.966277
 20
1391.283053
 30
0.0
 11
1936.966277
 21
1391.283053
 31
0.0
  0
TEXT
  5
3B4
100
AcDbEntity
  8
SIZE
  6
CONTINUOUS
 62
    30
100
AcDbText
 10
969.759134
 20
149.335065
 30
0.0
 40
55.0
  1
1146(吊りボルトピッチ)
 41
0.9
 72
     1
 11
1316.966277
 21
149.335065
 31
0.0
100
AcDbText
  0
LINE
  5
3B5
100
AcDbEntity
  8
SIZE
  6
CONTINUOUS
 62
    30
100
AcDbLine
 10
753.966277
 20
131.930303
 30
0.0
 11
1879.966277
 21
131.930303
 31
0.0
  0
LINE
  5
3B6
100
AcDbEntity
  8
SIZE
  6
CONTINUOUS
 62
    30
100
AcDbLine
 10
746.966277
 20
245.659303
 30
0.0
 11
1886.966277
 21
245.659303
 31
0.0
  0
LINE
  5
3B7
100
AcDbEntity
  8
SIZE
  6
CONTINUOUS
 62
    30
100
AcDbLine
 10
730.966277
 20
30.000008
 30
0.0
 11
1902.966277
 21
30.000008
 31
0.0
  0
LINE
  5
3B8
100
AcDbEntity
  8
SIZE
  6
CONTINUOUS
 62
    30
100
AcDbLine
 10
726.966277
 20
1584.305205
 30
0.0
 11
1906.966277
 21
1584.305205
 31
0.0
  0
LINE
  5
3B9
100
AcDbEntity
  8
NOTE
  6
CONTINUOUS
 62
     4
100
AcDbLine
 10
955.021762
 20
511.283053
 30
0.0
 11
1098.910792
 21
511.283053
 31
0.0
  0
LINE
  5
3BA
100
AcDbEntity
  8
OUTLINE
  6
CONTINUOUS
 62
     3
100
AcDbLine
 10
1896.966277
 20
1316.283053
 30
0.0
 11
736.966277
 21
1316.283053
 31
0.0
  0
LINE
  5
3BB
100
AcDbEntity
  8
OUTLINE
  6
CONTINUOUS
 62
     3
100
AcDbLine
 10
736.966277
 20
581.283053
 30
0.0
 11
1896.966277
 21
581.283053
 31
0.0
  0
LINE
  5
3BC
100
AcDbEntity
  8
SERVICESPACE
  6
CONTINUOUS
 62
     2
100
AcDbLine
 10
716.966277
 20
808.283053
 30
0.0
 11
1896.966277
 21
808.283053
 31
0.0
  0
LINE
  5
3BD
100
AcDbEntity
  8
SERVICESPACE
  6
CONTINUOUS
 62
     2
100
AcDbLine
 10
716.966277
 20
1374.283053
 30
0.0
 11
1916.966277
 21
1374.283053
 31
0.0
  0
LINE
  5
3BE
100
AcDbEntity
  8
BASIS
  6
DASHDOT
 62
     6
100
AcDbLine
 10
633.509756
 20
948.783053
 30
0.0
 11
1316.966277
 21
948.783053
 31
0.0
  0
LINE
  5
3BF
100
AcDbEntity
  8
DETAIL
  6
CONTINUOUS
 62
     5
100
AcDbLine
 10
720.966277
 20
1316.283053
 30
0.0
 11
1912.966277
 21
1316.283053
 31
0.0
  0
LINE
  5
3C0
100
AcDbEntity
  8
DETAIL
  6
CONTINUOUS
 62
     5
100
AcDbLine
 10
720.966277
 20
581.283053
 30
0.0
 11
1912.966277
 21
581.283053
 31
0.0
  0
LINE
  5
3C1
100
AcDbEntity
  8
DETAIL
  6
CONTINUOUS
 62
     5
100
AcDbLine
 10
736.966277
 20
581.283053
 30
0.0
 11
1896.966277
 21
581.283053
 31
0.0
  0
LINE
  5
3C2
100
AcDbEntity
  8
DETAIL
  6
CONTINUOUS
 62
     5
100
AcDbLine
 10
769.966277
 20
1299.283053
 30
0.0
 11
1863.966277
 21
1299.283053
 31
0.0
  0
LINE
  5
3C3
100
AcDbEntity
  8
DETAIL
  6
CONTINUOUS
 62
     5
100
AcDbLine
 10
769.966277
 20
1299.283053
 30
0.0
 11
1863.966277
 21
1299.283053
 31
0.0
  0
LINE
  5
3C4
100
AcDbEntity
  8
DETAIL
  6
CONTINUOUS
 62
     5
100
AcDbLine
 10
929.466277
 20
511.283053
 30
0.0
 11
1124.466277
 21
511.283053
 31
0.0
  0
LINE
  5
3C5
100
AcDbEntity
  8
DETAIL
  6
CONTINUOUS
 62
     5
100
AcDbLine
 10
1127.269428
 20
551.283053
 30
0.0
 11
926.966277
 21
551.283053
 31
0.0
  0
LINE
  5
3C6
100
AcDbEntity
  8
DETAIL
  6
CONTINUOUS
 62
     5
100
AcDbLine
 10
772.966277
 20
571.283053
 30
0.0
 11
1860.966277
 21
571.283053
 31
0.0
  0
LINE
  5
3C7
100
AcDbEntity
  8
SIZE
  6
CONTINUOUS
 62
    30
100
AcDbLine
 10
736.966277
 20
929.283053
 30
0.0
 11
736.966277
 21
1107.528138
 31
0.0
  0
LINE
  5
3C8
100
AcDbEntity
  8
SIZE
  6
CONTINUOUS
 62
    30
100
AcDbLine
 10
700.966277
 20
740.533053
 30
0.0
 11
700.966277
 21
1107.528138
 31
0.0
  0
LINE
  5
3C9
100
AcDbEntity
  8
DETAIL
  6
CONTINUOUS
 62
     5
100
AcDbLine
 10
696.966277
 20
791.283053
 30
0.0
 11
696.966277
 21
1391.283053
 31
0.0
  0
LINE
  5
3CA
100
AcDbEntity
  8
OUTLINE
  6
CONTINUOUS
 62
     3
100
AcDbLine
 10
696.966277
 20
791.283053
 30
0.0
 11
696.966277
 21
1391.283053
 31
0.0
  0
LINE
  5
3CB
100
AcDbEntity
  8
SIZE
  6
CONTINUOUS
 62
    30
100
AcDbLine
 10
702.966277
 20
874.283053
 30
0.0
 11
702.966277
 21
1014.430442
 31
0.0
  0
LINE
  5
3CC
100
AcDbEntity
  8
SIZE
  6
CONTINUOUS
 62
    30
100
AcDbLine
 10
736.966277
 20
890.640149
 30
0.0
 11
736.966277
 21
1014.430442
 31
0.0
  0
TEXT
  5
3CD
100
AcDbEntity
  8
SIZE
  6
CONTINUOUS
 62
    30
100
AcDbText
 10
346.051157
 20
885.140196
 30
0.0
 40
55.0
  1
735
 50
90.0
 41
0.9
 72
     1
 11
346.051157
 21
948.783053
 31
0.0
100
AcDbText
  0
LINE
  5
3CE
100
AcDbEntity
  8
SIZE
  6
CONTINUOUS
 62
    30
100
AcDbLine
 10
364.051157
 20
591.283053
 30
0.0
 11
364.051157
 21
1306.283053
 31
0.0
  0
LINE
  5
3CF
100
AcDbEntity
  8
NOTE
  6
CONTINUOUS
 62
     4
100
AcDbLine
 10
624.01557
 20
1376.292824
 30
0.0
 11
702.966277
 21
854.283053
 31
0.0
  0
LINE
  5
3D0
100
AcDbEntity
  8
OUTLINE
  6
CONTINUOUS
 62
     3
100
AcDbLine
 10
736.966277
 20
1316.283053
 30
0.0
 11
736.966277
 21
581.283053
 31
0.0
  0
LINE
  5
3D1
100
AcDbEntity
  8
SERVICESPACE
  6
CONTINUOUS
 62
     2
100
AcDbLine
 10
716.966277
 20
1374.283053
 30
0.0
 11
716.966277
 21
838.283053
 31
0.0
  0
LINE
  5
3D2
100
AcDbEntity
  8
NOTE
  6
CONTINUOUS
 62
     4
100
AcDbLine
 10
343.713568
 20
1144.235883
 30
0.0
 11
697.966277
 21
773.283053
 31
0.0
  0
LINE
  5
3D3
100
AcDbEntity
  8
DETAIL
  6
CONTINUOUS
 62
     5
100
AcDbLine
 10
736.966277
 20
641.883183
 30
0.0
 11
736.966277
 21
1255.682923
 31
0.0
  0
LINE
  5
3D4
100
AcDbEntity
  8
SIZE
  6
CONTINUOUS
 62
    30
100
AcDbLine
 10
743.966277
 20
580.287887
 30
0.0
 11
743.966277
 21
101.930303
 31
0.0
  0
LINE
  5
3D5
100
AcDbEntity
  8
SIZE
  6
CONTINUOUS
 62
    30
100
AcDbLine
 10
743.966277
 20
580.287887
 30
0.0
 11
743.966277
 21
101.930303
 31
0.0
  0
LINE
  5
3D6
100
AcDbEntity
  8
SIZE
  6
CONTINUOUS
 62
    30
100
AcDbLine
 10
720.966277
 20
561.283053
 30
0.0
 11
720.966277
 21
101.930303
 31
0.0
  0
LINE
  5
3D7
100
AcDbEntity
  8
SIZE
  6
CONTINUOUS
 62
    30
100
AcDbLine
 10
736.966277
 20
621.883183
 30
0.0
 11
736.966277
 21
215.659303
 31
0.0
  0
LINE
  5
3D8
100
AcDbEntity
  8
SIZE
  6
CONTINUOUS
 62
    30
100
AcDbLine
 10
736.966277
 20
621.883183
 30
0.0
 11
736.966277
 21
215.659303
 31
0.0
  0
LINE
  5
3D9
100
AcDbEntity
  8
SIZE
  6
CONTINUOUS
 62
    30
100
AcDbLine
 10
720.966277
 20
561.283053
 30
0.0
 11
720.966277
 21
215.659303
 31
0.0
  0
LINE
  5
3DA
100
AcDbEntity
  8
SIZE
  6
CONTINUOUS
 62
    30
100
AcDbLine
 10
720.966277
 20
561.283053
 30
0.0
 11
720.966277
 21
0.000008
 31
0.0
  0
CIRCLE
  5
3DB
100
AcDbEntity
  8
SIZE
  6
CONTINUOUS
 62
    30
100
AcDbCircle
 10
720.966277
 20
30.000008
 30
0.0
 40
5.0
  0
TEXT
  5
3DC
100
AcDbEntity
  8
SIZE
  6
CONTINUOUS
 62
    30
100
AcDbText
 10
602.823419
 20
149.930303
 30
0.0
 40
55.0
  1
23
 41
0.9
 72
     1
 11
642.894848
 21
149.930303
 31
0.0
100
AcDbText
  0
LINE
  5
3DD
100
AcDbEntity
  8
SIZE
  6
CONTINUOUS
 62
    30
100
AcDbLine
 10
710.966277
 20
131.930303
 30
0.0
 11
584.82342
 21
131.930303
 31
0.0
  0
LINE
  5
3DE
100
AcDbEntity
  8
SIZE
  6
CONTINUOUS
 62
    30
100
AcDbLine
 10
748.966277
 20
131.930303
 30
0.0
 11
753.966277
 21
131.930303
 31
0.0
  0
CIRCLE
  5
3DF
100
AcDbEntity
  8
SIZE
  6
CONTINUOUS
 62
    30
100
AcDbCircle
 10
743.966277
 20
131.930303
 30
0.0
 40
5.0
  0
POINT
  5
3E0
100
AcDbEntity
  8
DEFPOINTS
  6
CONTINUOUS
 62
     7
100
AcDbPoint
 10
743.966277
 20
131.930303
 30
0.0
  0
LINE
  5
3E1
100
AcDbEntity
  8
SIZE
  6
CONTINUOUS
 62
    30
100
AcDbLine
 10
715.966277
 20
131.930303
 30
0.0
 11
710.966277
 21
131.930303
 31
0.0
  0
CIRCLE
  5
3E2
100
AcDbEntity
  8
SIZE
  6
CONTINUOUS
 62
    30
100
AcDbCircle
 10
720.966277
 20
131.930303
 30
0.0
 40
5.0
  0
LINE
  5
3E3
100
AcDbEntity
  8
SIZE
  6
CONTINUOUS
 62
    30
100
AcDbLine
 10
748.966277
 20
131.930303
 30
0.0
 11
753.966277
 21
131.930303
 31
0.0
  0
CIRCLE
  5
3E4
100
AcDbEntity
  8
SIZE
  6
CONTINUOUS
 62
    30
100
AcDbCircle
 10
743.966277
 20
131.930303
 30
0.0
 40
5.0
  0
LINE
  5
3E5
100
AcDbEntity
  8
SIZE
  6
CONTINUOUS
 62
    30
100
AcDbLine
 10
743.966277
 20
131.930303
 30
0.0
 11
720.966277
 21
131.930303
 31
0.0
  0
LINE
  5
3E6
100
AcDbEntity
  8
SIZE
  6
CONTINUOUS
 62
    30
100
AcDbLine
 10
753.966277
 20
131.930303
 30
0.0
 11
763.966277
 21
131.930303
 31
0.0
  0
LINE
  5
3E7
100
AcDbEntity
  8
SIZE
  6
CONTINUOUS
 62
    30
100
AcDbLine
 10
725.966277
 20
30.000008
 30
0.0
 11
730.966277
 21
30.000008
 31
0.0
  0
TEXT
  5
3E8
100
AcDbEntity
  8
SIZE
  6
CONTINUOUS
 62
    30
100
AcDbText
 10
614.609135
 20
263.659303
 30
0.0
 40
55.0
  1
16
 41
0.9
 72
     1
 11
648.787706
 21
263.659303
 31
0.0
100
AcDbText
  0
LINE
  5
3E9
100
AcDbEntity
  8
SIZE
  6
CONTINUOUS
 62
    30
100
AcDbLine
 10
710.966277
 20
245.659303
 30
0.0
 11
596.609134
 21
245.659303
 31
0.0
  0
LINE
  5
3EA
100
AcDbEntity
  8
SIZE
  6
CONTINUOUS
 62
    30
100
AcDbLine
 10
741.966277
 20
245.659303
 30
0.0
 11
746.966277
 21
245.659303
 31
0.0
  0
CIRCLE
  5
3EB
100
AcDbEntity
  8
SIZE
  6
CONTINUOUS
 62
    30
100
AcDbCircle
 10
736.966277
 20
245.659303
 30
0.0
 40
5.0
  0
POINT
  5
3EC
100
AcDbEntity
  8
DEFPOINTS
  6
CONTINUOUS
 62
     7
100
AcDbPoint
 10
736.966277
 20
245.659303
 30
0.0
  0
LINE
  5
3ED
100
AcDbEntity
  8
SIZE
  6
CONTINUOUS
 62
    30
100
AcDbLine
 10
715.966277
 20
245.659303
 30
0.0
 11
710.966277
 21
245.659303
 31
0.0
  0
CIRCLE
  5
3EE
100
AcDbEntity
  8
SIZE
  6
CONTINUOUS
 62
    30
100
AcDbCircle
 10
720.966277
 20
245.659303
 30
0.0
 40
5.0
  0
LINE
  5
3EF
100
AcDbEntity
  8
SIZE
  6
CONTINUOUS
 62
    30
100
AcDbLine
 10
741.966277
 20
245.659303
 30
0.0
 11
746.966277
 21
245.659303
 31
0.0
  0
CIRCLE
  5
3F0
100
AcDbEntity
  8
SIZE
  6
CONTINUOUS
 62
    30
100
AcDbCircle
 10
736.966277
 20
245.659303
 30
0.0
 40
5.0
  0
LINE
  5
3F1
100
AcDbEntity
  8
SIZE
  6
CONTINUOUS
 62
    30
100
AcDbLine
 10
736.966277
 20
245.659303
 30
0.0
 11
720.966277
 21
245.659303
 31
0.0
  0
LINE
  5
3F2
100
AcDbEntity
  8
SIZE
  6
CONTINUOUS
 62
    30
100
AcDbLine
 10
746.966277
 20
245.659303
 30
0.0
 11
756.966277
 21
245.659303
 31
0.0
  0
LINE
  5
3F3
100
AcDbEntity
  8
SIZE
  6
CONTINUOUS
 62
    30
100
AcDbLine
 10
696.966277
 20
581.283053
 30
0.0
 11
334.051157
 21
581.283053
 31
0.0
  0
LINE
  5
3F4
100
AcDbEntity
  8
SIZE
  6
CONTINUOUS
 62
    30
100
AcDbLine
 10
696.966277
 20
581.283053
 30
0.0
 11
334.051157
 21
581.283053
 31
0.0
  0
LINE
  5
3F5
100
AcDbEntity
  8
SIZE
  6
CONTINUOUS
 62
    30
100
AcDbLine
 10
909.466277
 20
511.283053
 30
0.0
 11
334.051157
 21
511.283053
 31
0.0
  0
LINE
  5
3F6
100
AcDbEntity
  8
SIZE
  6
CONTINUOUS
 62
    30
100
AcDbLine
 10
700.966277
 20
581.283053
 30
0.0
 11
460.945807
 21
581.283053
 31
0.0
  0
LINE
  5
3F7
100
AcDbEntity
  8
SIZE
  6
CONTINUOUS
 62
    30
100
AcDbLine
 10
666.249625
 20
854.283053
 30
0.0
 11
460.945807
 21
854.283053
 31
0.0
  0
TEXT
  5
3F8
100
AcDbEntity
  8
SIZE
  6
CONTINUOUS
 62
    30
100
AcDbText
 10
591.656029
 20
723.366511
 30
0.0
 40
55.0
  1
64
 50
90.0
 41
0.9
 72
     1
 11
591.656029
 21
764.616511
 31
0.0
100
AcDbText
  0
TEXT
  5
3F9
100
AcDbEntity
  8
SIZE
  6
CONTINUOUS
 62
    30
100
AcDbText
 10
591.440194
 20
586.354482
 30
0.0
 40
55.0
  1
128
 50
90.0
 41
0.9
 72
     1
 11
591.440194
 21
645.283053
 31
0.0
100
AcDbText
  0
LINE
  5
3FA
100
AcDbEntity
  8
NOTE
  6
CONTINUOUS
 62
     4
100
AcDbLine
 10
539.45949
 20
382.621048
 30
0.0
 11
700.966277
 21
709.283053
 31
0.0
  0
LINE
  5
3FB
100
AcDbEntity
  8
SIZE
  6
CONTINUOUS
 62
    30
100
AcDbLine
 10
490.945807
 20
844.283053
 30
0.0
 11
490.945807
 21
591.283053
 31
0.0
  0
TEXT
  5
3FC
100
AcDbEntity
  8
SIZE
  6
CONTINUOUS
 62
    30
100
AcDbText
 10
346.051157
 20
506.211624
 30
0.0
 40
55.0
  1
70
 50
90.0
 41
0.9
 72
     1
 11
346.051157
 21
546.283053
 31
0.0
100
AcDbText
  0
LINE
  5
3FD
100
AcDbEntity
  8
NOTE
  6
CONTINUOUS
 62
     4
100
AcDbLine
 10
539.45949
 20
382.621048
 30
0.0
 11
145.856772
 21
382.621048
 31
0.0
  0
TEXT
  5
3FE
100
AcDbEntity
  8
NOTE
  6
CONTINUOUS
 62
     4
100
AcDbText
 10
167.532044
 20
398.447579
 30
0.0
 40
60.0
  1
RG %%C15.88
 50
0.000003
 41
0.7
  7
STANDARD1
100
AcDbText
  0
LINE
  5
3FF
100
AcDbEntity
  8
SIZE
  6
CONTINUOUS
 62
    30
100
AcDbLine
 10
364.051157
 20
586.283053
 30
0.0
 11
364.051157
 21
591.283053
 31
0.0
  0
CIRCLE
  5
400
100
AcDbEntity
  8
SIZE
  6
CONTINUOUS
 62
    30
100
AcDbCircle
 10
364.051157
 20
581.283053
 30
0.0
 40
5.0
  0
POINT
  5
401
100
AcDbEntity
  8
DEFPOINTS
  6
CONTINUOUS
 62
     7
100
AcDbPoint
 10
364.051157
 20
581.283053
 30
0.0
  0
LINE
  5
402
100
AcDbEntity
  8
SIZE
  6
CONTINUOUS
 62
    30
100
AcDbLine
 10
364.051157
 20
586.283053
 30
0.0
 11
364.051157
 21
591.283053
 31
0.0
  0
CIRCLE
  5
403
100
AcDbEntity
  8
SIZE
  6
CONTINUOUS
 62
    30
100
AcDbCircle
 10
364.051157
 20
581.283053
 30
0.0
 40
5.0
  0
LINE
  5
404
100
AcDbEntity
  8
SIZE
  6
CONTINUOUS
 62
    30
100
AcDbLine
 10
364.051157
 20
506.283053
 30
0.0
 11
364.051157
 21
501.283053
 31
0.0
  0
CIRCLE
  5
405
100
AcDbEntity
  8
SIZE
  6
CONTINUOUS
 62
    30
100
AcDbCircle
 10
364.051157
 20
511.283053
 30
0.0
 40
5.0
  0
LINE
  5
406
100
AcDbEntity
  8
SIZE
  6
CONTINUOUS
 62
    30
100
AcDbLine
 10
364.051157
 20
511.283053
 30
0.0
 11
364.051157
 21
581.283053
 31
0.0
  0
LINE
  5
407
100
AcDbEntity
  8
SIZE
  6
CONTINUOUS
 62
    30
100
AcDbLine
 10
364.051157
 20
591.283053
 30
0.0
 11
364.051157
 21
601.283053
 31
0.0
  0
LINE
  5
408
100
AcDbEntity
  8
SIZE
  6
CONTINUOUS
 62
    30
100
AcDbLine
 10
364.051157
 20
501.283053
 30
0.0
 11
364.051157
 21
491.283053
 31
0.0
  0
POINT
  5
409
100
AcDbEntity
  8
DEFPOINTS
  6
CONTINUOUS
 62
     7
100
AcDbPoint
 10
490.945807
 20
581.283053
 30
0.0
  0
LINE
  5
40A
100
AcDbEntity
  8
SIZE
  6
CONTINUOUS
 62
    30
100
AcDbLine
 10
490.945807
 20
586.283053
 30
0.0
 11
490.945807
 21
591.283053
 31
0.0
  0
CIRCLE
  5
40B
100
AcDbEntity
  8
SIZE
  6
CONTINUOUS
 62
    30
100
AcDbCircle
 10
490.945807
 20
581.283053
 30
0.0
 40
5.0
  0
TEXT
  5
40C
100
AcDbEntity
  8
SIZE
  6
CONTINUOUS
 62
    30
100
AcDbText
 10
472.945807
 20
654.140196
 30
0.0
 40
55.0
  1
273
 50
90.0
 41
0.9
 72
     1
 11
472.945807
 21
717.783053
 31
0.0
100
AcDbText
  0
LINE
  5
40D
100
AcDbEntity
  8
SIZE
  6
CONTINUOUS
 62
    30
100
AcDbLine
 10
490.945807
 20
849.283053
 30
0.0
 11
490.945807
 21
844.283053
 31
0.0
  0
CIRCLE
  5
40E
100
AcDbEntity
  8
SIZE
  6
CONTINUOUS
 62
    30
100
AcDbCircle
 10
490.945807
 20
854.283053
 30
0.0
 40
5.0
  0
LINE
  5
40F
100
AcDbEntity
  8
SIZE
  6
CONTINUOUS
 62
    30
100
AcDbLine
 10
700.966277
 20
689.283053
 30
0.0
 11
700.966277
 21
351.625134
 31
0.0
  0
LINE
  5
410
100
AcDbEntity
  8
SIZE
  6
CONTINUOUS
 62
    30
100
AcDbLine
 10
609.440194
 20
581.283053
 30
0.0
 11
609.440194
 21
709.283053
 31
0.0
  0
LINE
  5
411
100
AcDbEntity
  8
DETAIL
  6
CONTINUOUS
 62
     5
100
AcDbLine
 10
758.936942
 20
581.283053
 30
0.0
 11
758.936942
 21
641.883183
 31
0.0
  0
LINE
  5
412
100
AcDbEntity
  8
DETAIL
  6
CONTINUOUS
 62
     5
100
AcDbLine
 10
720.966277
 20
641.883183
 30
0.0
 11
720.966277
 21
621.283053
 31
0.0
  0
LINE
  5
413
100
AcDbEntity
  8
SIZE
  6
CONTINUOUS
 62
    30
100
AcDbLine
 10
736.966277
 20
621.883183
 30
0.0
 11
736.966277
 21
351.625134
 31
0.0
  0
TEXT
  5
414
100
AcDbEntity
  8
SIZE
  6
CONTINUOUS
 62
    30
100
AcDbText
 10
585.180563
 20
399.625134
 30
0.0
 40
55.0
  1
36
 41
0.9
 72
     1
 11
624.07342
 21
399.625134
 31
0.0
100
AcDbText
  0
LINE
  5
415
100
AcDbEntity
  8
SIZE
  6
CONTINUOUS
 62
    30
100
AcDbLine
 10
690.966277
 20
381.625134
 30
0.0
 11
567.180563
 21
381.625134
 31
0.0
  0
POINT
  5
416
100
AcDbEntity
  8
DEFPOINTS
  6
CONTINUOUS
 62
     7
100
AcDbPoint
 10
736.966277
 20
381.625134
 30
0.0
  0
LINE
  5
417
100
AcDbEntity
  8
SIZE
  6
CONTINUOUS
 62
    30
100
AcDbLine
 10
695.966277
 20
381.625134
 30
0.0
 11
690.966277
 21
381.625134
 31
0.0
  0
CIRCLE
  5
418
100
AcDbEntity
  8
SIZE
  6
CONTINUOUS
 62
    30
100
AcDbCircle
 10
700.966277
 20
381.625134
 30
0.0
 40
5.0
  0
LINE
  5
419
100
AcDbEntity
  8
SIZE
  6
CONTINUOUS
 62
    30
100
AcDbLine
 10
741.966277
 20
381.625134
 30
0.0
 11
746.966277
 21
381.625134
 31
0.0
  0
CIRCLE
  5
41A
100
AcDbEntity
  8
SIZE
  6
CONTINUOUS
 62
    30
100
AcDbCircle
 10
736.966277
 20
381.625134
 30
0.0
 40
5.0
  0
LINE
  5
41B
100
AcDbEntity
  8
SIZE
  6
CONTINUOUS
 62
    30
100
AcDbLine
 10
736.966277
 20
381.625134
 30
0.0
 11
700.966277
 21
381.625134
 31
0.0
  0
LINE
  5
41C
100
AcDbEntity
  8
SIZE
  6
CONTINUOUS
 62
    30
100
AcDbLine
 10
746.966277
 20
381.625134
 30
0.0
 11
756.966277
 21
381.625134
 31
0.0
  0
LINE
  5
41D
100
AcDbEntity
  8
SIZE
  6
CONTINUOUS
 62
    30
100
AcDbLine
 10
716.966277
 20
581.283053
 30
0.0
 11
579.440194
 21
581.283053
 31
0.0
  0
LINE
  5
41E
100
AcDbEntity
  8
SIZE
  6
CONTINUOUS
 62
    30
100
AcDbLine
 10
609.440194
 20
576.283053
 30
0.0
 11
609.440194
 21
571.283053
 31
0.0
  0
CIRCLE
  5
41F
100
AcDbEntity
  8
SIZE
  6
CONTINUOUS
 62
    30
100
AcDbCircle
 10
609.440194
 20
581.283053
 30
0.0
 40
5.0
  0
LINE
  5
420
100
AcDbEntity
  8
SIZE
  6
CONTINUOUS
 62
    30
100
AcDbLine
 10
609.440194
 20
571.283053
 30
0.0
 11
609.440194
 21
561.283053
 31
0.0
  0
POINT
  5
421
100
AcDbEntity
  8
DEFPOINTS
  6
CONTINUOUS
 62
     7
100
AcDbPoint
 10
743.966277
 20
600.287887
 30
0.0
  0
POINT
  5
422
100
AcDbEntity
  8
DEFPOINTS
  6
CONTINUOUS
 62
     7
100
AcDbPoint
 10
743.966277
 20
600.287887
 30
0.0
  0
POINT
  5
423
100
AcDbEntity
  8
DEFPOINTS
  6
CONTINUOUS
 62
     7
100
AcDbPoint
 10
720.966277
 20
581.283053
 30
0.0
  0
POINT
  5
424
100
AcDbEntity
  8
DEFPOINTS
  6
CONTINUOUS
 62
     7
100
AcDbPoint
 10
720.966277
 20
581.283053
 30
0.0
  0
POINT
  5
425
100
AcDbEntity
  8
DEFPOINTS
  6
CONTINUOUS
 62
     7
100
AcDbPoint
 10
716.966277
 20
581.283053
 30
0.0
  0
POINT
  5
426
100
AcDbEntity
  8
DEFPOINTS
  6
CONTINUOUS
 62
     7
100
AcDbPoint
 10
716.966277
 20
581.283053
 30
0.0
  0
POINT
  5
427
100
AcDbEntity
  8
DEFPOINTS
  6
CONTINUOUS
 62
     7
100
AcDbPoint
 10
720.966277
 20
581.283053
 30
0.0
  0
POINT
  5
428
100
AcDbEntity
  8
DEFPOINTS
  6
CONTINUOUS
 62
     7
100
AcDbPoint
 10
736.966277
 20
581.283053
 30
0.0
  0
POINT
  5
429
100
AcDbEntity
  8
DEFPOINTS
  6
CONTINUOUS
 62
     7
100
AcDbPoint
 10
720.966277
 20
581.283053
 30
0.0
  0
CIRCLE
  5
42A
100
AcDbEntity
  8
FIX
  6
CONTINUOUS
 62
    11
100
AcDbCircle
 10
743.966277
 20
615.283053
 30
0.0
 40
12.421498
  0
LINE
  5
42B
100
AcDbEntity
  8
NOTE
  6
CONTINUOUS
 62
     4
100
AcDbLine
 10
743.966277
 20
630.278219
 30
0.0
 11
743.966277
 21
600.287887
 31
0.0
  0
LINE
  5
42C
100
AcDbEntity
  8
NOTE
  6
CONTINUOUS
 62
     4
100
AcDbLine
 10
728.971111
 20
615.283053
 30
0.0
 11
758.961443
 21
615.283053
 31
0.0
  0
LINE
  5
42D
100
AcDbEntity
  8
DETAIL
  6
CONTINUOUS
 62
     5
100
AcDbLine
 10
720.966277
 20
609.283053
 30
0.0
 11
720.966277
 21
581.283053
 31
0.0
  0
LINE
  5
42E
100
AcDbEntity
  8
DETAIL
  6
CONTINUOUS
 62
     5
100
AcDbLine
 10
750.966277
 20
607.283053
 30
0.0
 11
750.966277
 21
623.283053
 31
0.0
  0
LINE
  5
42F
100
AcDbEntity
  8
DETAIL
  6
CONTINUOUS
 62
     5
100
AcDbLine
 10
736.966277
 20
609.283053
 30
0.0
 11
720.966277
 21
609.283053
 31
0.0
  0
LINE
  5
430
100
AcDbEntity
  8
DETAIL
  6
CONTINUOUS
 62
     5
100
AcDbLine
 10
736.966277
 20
621.283053
 30
0.0
 11
720.966277
 21
621.283053
 31
0.0
  0
LINE
  5
431
100
AcDbEntity
  8
DETAIL
  6
CONTINUOUS
 62
     5
100
AcDbLine
 10
736.966277
 20
621.283053
 30
0.0
 11
736.966277
 21
623.283053
 31
0.0
  0
ARC
  5
432
100
AcDbEntity
  8
DETAIL
  6
CONTINUOUS
 62
     5
100
AcDbCircle
 10
743.966277
 20
607.283053
 30
0.0
 40
7.0
100
AcDbArc
 50
180.0
 51
0.0
  0
ARC
  5
433
100
AcDbEntity
  8
DETAIL
  6
CONTINUOUS
 62
     5
100
AcDbCircle
 10
743.966277
 20
623.283053
 30
0.0
 40
7.0
100
AcDbArc
 50
0.0
 51
180.0
  0
LINE
  5
434
100
AcDbEntity
  8
DETAIL
  6
CONTINUOUS
 62
     5
100
AcDbLine
 10
736.966277
 20
607.283053
 30
0.0
 11
736.966277
 21
609.283053
 31
0.0
  0
LINE
  5
435
100
AcDbEntity
  8
DETAIL
  6
CONTINUOUS
 62
     5
100
AcDbLine
 10
736.966277
 20
607.283053
 30
0.0
 11
736.966277
 21
609.283053
 31
0.0
  0
ARC
  5
436
100
AcDbEntity
  8
DETAIL
  6
CONTINUOUS
 62
     5
100
AcDbCircle
 10
743.966277
 20
623.283053
 30
0.0
 40
7.0
100
AcDbArc
 50
0.0
 51
180.0
  0
ARC
  5
437
100
AcDbEntity
  8
DETAIL
  6
CONTINUOUS
 62
     5
100
AcDbCircle
 10
743.966277
 20
607.283053
 30
0.0
 40
7.0
100
AcDbArc
 50
180.0
 51
0.0
  0
LINE
  5
438
100
AcDbEntity
  8
DETAIL
  6
CONTINUOUS
 62
     5
100
AcDbLine
 10
736.966277
 20
621.283053
 30
0.0
 11
736.966277
 21
623.283053
 31
0.0
  0
LINE
  5
439
100
AcDbEntity
  8
DETAIL
  6
CONTINUOUS
 62
     5
100
AcDbLine
 10
736.966277
 20
621.283053
 30
0.0
 11
720.966277
 21
621.283053
 31
0.0
  0
LINE
  5
43A
100
AcDbEntity
  8
DETAIL
  6
CONTINUOUS
 62
     5
100
AcDbLine
 10
736.966277
 20
609.283053
 30
0.0
 11
720.966277
 21
609.283053
 31
0.0
  0
LINE
  5
43B
100
AcDbEntity
  8
DETAIL
  6
CONTINUOUS
 62
     5
100
AcDbLine
 10
750.966277
 20
607.283053
 30
0.0
 11
750.966277
 21
623.283053
 31
0.0
  0
LINE
  5
43C
100
AcDbEntity
  8
SIZE
  6
CONTINUOUS
 62
    30
100
AcDbLine
 10
863.485156
 20
501.283053
 30
0.0
 11
863.485156
 21
375.140196
 31
0.0
  0
TEXT
  5
43D
100
AcDbEntity
  8
SIZE
  6
CONTINUOUS
 62
    30
100
AcDbText
 10
845.485156
 20
393.140195
 30
0.0
 40
55.0
  1
40
 50
90.0
 41
0.9
 72
     1
 11
845.485156
 21
433.211624
 31
0.0
100
AcDbText
  0
LINE
  5
43E
100
AcDbEntity
  8
SIZE
  6
CONTINUOUS
 62
    30
100
AcDbLine
 10
909.466277
 20
511.283053
 30
0.0
 11
833.485156
 21
511.283053
 31
0.0
  0
LINE
  5
43F
100
AcDbEntity
  8
SIZE
  6
CONTINUOUS
 62
    30
100
AcDbLine
 10
906.966277
 20
551.283053
 30
0.0
 11
833.485156
 21
551.283053
 31
0.0
  0
LINE
  5
440
100
AcDbEntity
  8
DETAIL
  6
CONTINUOUS
 62
     5
100
AcDbLine
 10
772.497947
 20
571.310564
 30
0.0
 11
918.137102
 21
561.214275
 31
0.0
  0
POINT
  5
441
100
AcDbEntity
  8
DEFPOINTS
  6
CONTINUOUS
 62
     7
100
AcDbPoint
 10
863.485156
 20
511.283053
 30
0.0
  0
LINE
  5
442
100
AcDbEntity
  8
SIZE
  6
CONTINUOUS
 62
    30
100
AcDbLine
 10
863.485156
 20
506.283053
 30
0.0
 11
863.485156
 21
501.283053
 31
0.0
  0
CIRCLE
  5
443
100
AcDbEntity
  8
SIZE
  6
CONTINUOUS
 62
    30
100
AcDbCircle
 10
863.485156
 20
511.283053
 30
0.0
 40
5.0
  0
LINE
  5
444
100
AcDbEntity
  8
SIZE
  6
CONTINUOUS
 62
    30
100
AcDbLine
 10
863.485156
 20
556.283053
 30
0.0
 11
863.485156
 21
561.283053
 31
0.0
  0
CIRCLE
  5
445
100
AcDbEntity
  8
SIZE
  6
CONTINUOUS
 62
    30
100
AcDbCircle
 10
863.485156
 20
551.283053
 30
0.0
 40
5.0
  0
LINE
  5
446
100
AcDbEntity
  8
SIZE
  6
CONTINUOUS
 62
    30
100
AcDbLine
 10
863.485156
 20
551.283053
 30
0.0
 11
863.485156
 21
511.283053
 31
0.0
  0
LINE
  5
447
100
AcDbEntity
  8
SIZE
  6
CONTINUOUS
 62
    30
100
AcDbLine
 10
863.485156
 20
561.283053
 30
0.0
 11
863.485156
 21
571.283053
 31
0.0
  0
LINE
  5
448
100
AcDbEntity
  8
DETAIL
  6
CONTINUOUS
 62
     5
100
AcDbLine
 10
768.966277
 20
581.283053
 30
0.0
 11
768.966277
 21
575.283053
 31
0.0
  0
ARC
  5
449
100
AcDbEntity
  8
DETAIL
  6
CONTINUOUS
 62
     5
100
AcDbCircle
 10
772.966277
 20
575.283053
 30
0.0
 40
4.0
100
AcDbArc
 50
180.0
 51
263.276243
  0
POINT
  5
44A
100
AcDbEntity
  8
DEFPOINTS
  6
CONTINUOUS
 62
     7
100
AcDbPoint
 10
929.466277
 20
511.283053
 30
0.0
  0
POINT
  5
44B
100
AcDbEntity
  8
DEFPOINTS
  6
CONTINUOUS
 62
     7
100
AcDbPoint
 10
926.966277
 20
551.283053
 30
0.0
  0
POINT
  5
44C
100
AcDbEntity
  8
DEFPOINTS
  6
CONTINUOUS
 62
     7
100
AcDbPoint
 10
929.466277
 20
511.283053
 30
0.0
  0
ARC
  5
44D
100
AcDbEntity
  8
DETAIL
  6
CONTINUOUS
 62
     5
100
AcDbCircle
 10
916.966277
 20
551.283053
 30
0.0
 40
10.0
100
AcDbArc
 50
0.0
 51
83.276243
  0
LINE
  5
44E
100
AcDbEntity
  8
DETAIL
  6
CONTINUOUS
 62
     5
100
AcDbLine
 10
929.466277
 20
511.283053
 30
0.0
 11
926.966277
 21
551.283053
 31
0.0
  0
LINE
  5
44F
100
AcDbEntity
  8
SIZE
  6
CONTINUOUS
 62
    30
100
AcDbLine
 10
746.957128
 20
741.827206
 30
0.0
 11
870.742843
 21
741.827206
 31
0.0
  0
LINE
  5
450
100
AcDbEntity
  8
NOTE
  6
CONTINUOUS
 62
     4
100
AcDbLine
 10
697.966277
 20
773.283053
 30
0.0
 11
682.852192
 21
804.168553
 31
0.0
  0
LINE
  5
451
100
AcDbEntity
  8
SIZE
  6
CONTINUOUS
 62
    30
100
AcDbLine
 10
672.466277
 20
773.283053
 30
0.0
 11
579.440194
 21
773.283053
 31
0.0
  0
LINE
  5
452
100
AcDbEntity
  8
SIZE
  6
CONTINUOUS
 62
    30
100
AcDbLine
 10
669.69798
 20
709.283053
 30
0.0
 11
579.440194
 21
709.283053
 31
0.0
  0
LINE
  5
453
100
AcDbEntity
  8
SIZE
  6
CONTINUOUS
 62
    30
100
AcDbLine
 10
669.69798
 20
709.283053
 30
0.0
 11
579.440194
 21
709.283053
 31
0.0
  0
POINT
  5
454
100
AcDbEntity
  8
DEFPOINTS
  6
CONTINUOUS
 62
     7
100
AcDbPoint
 10
609.440194
 20
773.283053
 30
0.0
  0
LINE
  5
455
100
AcDbEntity
  8
SIZE
  6
CONTINUOUS
 62
    30
100
AcDbLine
 10
609.440194
 20
768.283053
 30
0.0
 11
609.440194
 21
763.283053
 31
0.0
  0
CIRCLE
  5
456
100
AcDbEntity
  8
SIZE
  6
CONTINUOUS
 62
    30
100
AcDbCircle
 10
609.440194
 20
773.283053
 30
0.0
 40
5.0
  0
LINE
  5
457
100
AcDbEntity
  8
SIZE
  6
CONTINUOUS
 62
    30
100
AcDbLine
 10
609.440194
 20
714.283053
 30
0.0
 11
609.440194
 21
719.283053
 31
0.0
  0
CIRCLE
  5
458
100
AcDbEntity
  8
SIZE
  6
CONTINUOUS
 62
    30
100
AcDbCircle
 10
609.440194
 20
709.283053
 30
0.0
 40
5.0
  0
LINE
  5
459
100
AcDbEntity
  8
SIZE
  6
CONTINUOUS
 62
    30
100
AcDbLine
 10
609.440194
 20
719.283053
 30
0.0
 11
609.440194
 21
763.283053
 31
0.0
  0
POINT
  5
45A
100
AcDbEntity
  8
DEFPOINTS
  6
CONTINUOUS
 62
     7
100
AcDbPoint
 10
609.440194
 20
709.283053
 30
0.0
  0
LINE
  5
45B
100
AcDbEntity
  8
SIZE
  6
CONTINUOUS
 62
    30
100
AcDbLine
 10
609.440194
 20
714.283053
 30
0.0
 11
609.440194
 21
719.283053
 31
0.0
  0
CIRCLE
  5
45C
100
AcDbEntity
  8
SIZE
  6
CONTINUOUS
 62
    30
100
AcDbCircle
 10
609.440194
 20
709.283053
 30
0.0
 40
5.0
  0
LINE
  5
45D
100
AcDbEntity
  8
SIZE
  6
CONTINUOUS
 62
    30
100
AcDbLine
 10
609.440194
 20
719.283053
 30
0.0
 11
609.440194
 21
729.283053
 31
0.0
  0
POINT
  5
45E
100
AcDbEntity
  8
DEFPOINTS
  6
CONTINUOUS
 62
     7
100
AcDbPoint
 10
700.966277
 20
720.533053
 30
0.0
  0
LINE
  5
45F
100
AcDbEntity
  8
NOTE
  6
CONTINUOUS
 62
     4
100
AcDbLine
 10
697.966277
 20
778.783045
 30
0.0
 11
697.966277
 21
767.783061
 31
0.0
  0
LINE
  5
460
100
AcDbEntity
  8
DETAIL
  6
CONTINUOUS
 62
     5
100
AcDbLine
 10
716.957128
 20
767.783053
 30
0.0
 11
736.957128
 21
767.783053
 31
0.0
  0
LINE
  5
461
100
AcDbEntity
  8
DETAIL
  6
CONTINUOUS
 62
     5
100
AcDbLine
 10
717.957128
 20
763.783053
 30
0.0
 11
736.957128
 21
763.783053
 31
0.0
  0
LINE
  5
462
100
AcDbEntity
  8
DETAIL
  6
CONTINUOUS
 62
     5
100
AcDbLine
 10
717.957128
 20
782.783053
 30
0.0
 11
736.957128
 21
782.783053
 31
0.0
  0
LINE
  5
463
100
AcDbEntity
  8
DETAIL
  6
CONTINUOUS
 62
     5
100
AcDbLine
 10
716.957128
 20
778.783053
 30
0.0
 11
736.957128
 21
778.783053
 31
0.0
  0
LINE
  5
464
100
AcDbEntity
  8
DETAIL
  6
CONTINUOUS
 62
     5
100
AcDbLine
 10
700.957128
 20
762.783053
 30
0.0
 11
713.957128
 21
762.783053
 31
0.0
  0
LINE
  5
465
100
AcDbEntity
  8
DETAIL
  6
CONTINUOUS
 62
     5
100
AcDbLine
 10
701.957128
 20
767.783053
 30
0.0
 11
714.957128
 21
767.783053
 31
0.0
  0
LINE
  5
466
100
AcDbEntity
  8
DETAIL
  6
CONTINUOUS
 62
     5
100
AcDbLine
 10
714.957128
 20
763.783053
 30
0.0
 11
713.957128
 21
762.783053
 31
0.0
  0
LINE
  5
467
100
AcDbEntity
  8
DETAIL
  6
CONTINUOUS
 62
     5
100
AcDbLine
 10
716.957128
 20
764.783053
 30
0.0
 11
717.957128
 21
763.783053
 31
0.0
  0
LINE
  5
468
100
AcDbEntity
  8
DETAIL
  6
CONTINUOUS
 62
     5
100
AcDbLine
 10
701.957128
 20
767.783053
 30
0.0
 11
700.957128
 21
768.783053
 31
0.0
  0
LINE
  5
469
100
AcDbEntity
  8
DETAIL
  6
CONTINUOUS
 62
     5
100
AcDbLine
 10
701.957128
 20
767.783053
 30
0.0
 11
700.957128
 21
766.783053
 31
0.0
  0
LINE
  5
46A
100
AcDbEntity
  8
DETAIL
  6
CONTINUOUS
 62
     5
100
AcDbLine
 10
714.957128
 20
768.533053
 30
0.0
 11
716.957128
 21
768.533053
 31
0.0
  0
LINE
  5
46B
100
AcDbEntity
  8
DETAIL
  6
CONTINUOUS
 62
     5
100
AcDbLine
 10
716.957128
 20
764.783053
 30
0.0
 11
716.957128
 21
781.783053
 31
0.0
  0
LINE
  5
46C
100
AcDbEntity
  8
DETAIL
  6
CONTINUOUS
 62
     5
100
AcDbLine
 10
714.957128
 20
763.783053
 30
0.0
 11
714.957128
 21
782.783053
 31
0.0
  0
LINE
  5
46D
100
AcDbEntity
  8
DETAIL
  6
CONTINUOUS
 62
     5
100
AcDbLine
 10
700.957128
 20
783.783053
 30
0.0
 11
713.957128
 21
783.783053
 31
0.0
  0
LINE
  5
46E
100
AcDbEntity
  8
DETAIL
  6
CONTINUOUS
 62
     5
100
AcDbLine
 10
700.957128
 20
762.783053
 30
0.0
 11
700.957128
 21
783.783053
 31
0.0
  0
LINE
  5
46F
100
AcDbEntity
  8
DETAIL
  6
CONTINUOUS
 62
     5
100
AcDbLine
 10
701.957128
 20
778.783053
 30
0.0
 11
714.957128
 21
778.783053
 31
0.0
  0
LINE
  5
470
100
AcDbEntity
  8
DETAIL
  6
CONTINUOUS
 62
     5
100
AcDbLine
 10
713.957128
 20
783.783053
 30
0.0
 11
714.957128
 21
782.783053
 31
0.0
  0
LINE
  5
471
100
AcDbEntity
  8
DETAIL
  6
CONTINUOUS
 62
     5
100
AcDbLine
 10
716.957128
 20
781.783053
 30
0.0
 11
717.957128
 21
782.783053
 31
0.0
  0
LINE
  5
472
100
AcDbEntity
  8
DETAIL
  6
CONTINUOUS
 62
     5
100
AcDbLine
 10
701.957128
 20
778.783053
 30
0.0
 11
700.957128
 21
779.783053
 31
0.0
  0
LINE
  5
473
100
AcDbEntity
  8
DETAIL
  6
CONTINUOUS
 62
     5
100
AcDbLine
 10
701.957128
 20
778.783053
 30
0.0
 11
700.957128
 21
777.783053
 31
0.0
  0
LINE
  5
474
100
AcDbEntity
  8
DETAIL
  6
CONTINUOUS
 62
     5
100
AcDbLine
 10
714.957128
 20
778.033053
 30
0.0
 11
716.957128
 21
778.033053
 31
0.0
  0
LINE
  5
475
100
AcDbEntity
  8
DETAIL
  6
CONTINUOUS
 62
     5
100
AcDbLine
 10
716.957128
 20
778.783053
 30
0.0
 11
733.966277
 21
778.783053
 31
0.0
  0
LINE
  5
476
100
AcDbEntity
  8
DETAIL
  6
CONTINUOUS
 62
     5
100
AcDbLine
 10
717.957128
 20
782.783053
 30
0.0
 11
733.966277
 21
782.783053
 31
0.0
  0
LINE
  5
477
100
AcDbEntity
  8
DETAIL
  6
CONTINUOUS
 62
     5
100
AcDbLine
 10
717.957128
 20
763.783053
 30
0.0
 11
733.966277
 21
763.783053
 31
0.0
  0
LINE
  5
478
100
AcDbEntity
  8
DETAIL
  6
CONTINUOUS
 62
     5
100
AcDbLine
 10
700.957128
 20
762.783053
 30
0.0
 11
713.957128
 21
762.783053
 31
0.0
  0
LINE
  5
479
100
AcDbEntity
  8
DETAIL
  6
CONTINUOUS
 62
     5
100
AcDbLine
 10
716.957128
 20
767.783053
 30
0.0
 11
733.966277
 21
767.783053
 31
0.0
  0
LINE
  5
47A
100
AcDbEntity
  8
DETAIL
  6
CONTINUOUS
 62
     5
100
AcDbLine
 10
701.957128
 20
767.783053
 30
0.0
 11
714.957128
 21
767.783053
 31
0.0
  0
LINE
  5
47B
100
AcDbEntity
  8
DETAIL
  6
CONTINUOUS
 62
     5
100
AcDbLine
 10
697.966277
 20
767.783053
 30
0.0
 11
697.966277
 21
778.783053
 31
0.0
  0
LINE
  5
47C
100
AcDbEntity
  8
DETAIL
  6
CONTINUOUS
 62
     5
100
AcDbLine
 10
697.966277
 20
767.783053
 30
0.0
 11
700.957128
 21
762.783053
 31
0.0
  0
LINE
  5
47D
100
AcDbEntity
  8
DETAIL
  6
CONTINUOUS
 62
     5
100
AcDbLine
 10
714.957128
 20
763.783053
 30
0.0
 11
713.957128
 21
762.783053
 31
0.0
  0
LINE
  5
47E
100
AcDbEntity
  8
DETAIL
  6
CONTINUOUS
 62
     5
100
AcDbLine
 10
716.957128
 20
764.783053
 30
0.0
 11
717.957128
 21
763.783053
 31
0.0
  0
LINE
  5
47F
100
AcDbEntity
  8
DETAIL
  6
CONTINUOUS
 62
     5
100
AcDbLine
 10
701.957128
 20
767.783053
 30
0.0
 11
700.957128
 21
768.783053
 31
0.0
  0
LINE
  5
480
100
AcDbEntity
  8
DETAIL
  6
CONTINUOUS
 62
     5
100
AcDbLine
 10
701.957128
 20
767.783053
 30
0.0
 11
700.957128
 21
766.783053
 31
0.0
  0
LINE
  5
481
100
AcDbEntity
  8
DETAIL
  6
CONTINUOUS
 62
     5
100
AcDbLine
 10
714.957128
 20
768.533053
 30
0.0
 11
716.957128
 21
768.533053
 31
0.0
  0
LINE
  5
482
100
AcDbEntity
  8
DETAIL
  6
CONTINUOUS
 62
     5
100
AcDbLine
 10
716.957128
 20
764.783053
 30
0.0
 11
716.957128
 21
781.783053
 31
0.0
  0
LINE
  5
483
100
AcDbEntity
  8
DETAIL
  6
CONTINUOUS
 62
     5
100
AcDbLine
 10
714.957128
 20
763.783053
 30
0.0
 11
714.957128
 21
782.783053
 31
0.0
  0
LINE
  5
484
100
AcDbEntity
  8
DETAIL
  6
CONTINUOUS
 62
     5
100
AcDbLine
 10
700.957128
 20
783.783053
 30
0.0
 11
713.957128
 21
783.783053
 31
0.0
  0
LINE
  5
485
100
AcDbEntity
  8
DETAIL
  6
CONTINUOUS
 62
     5
100
AcDbLine
 10
700.957128
 20
762.783053
 30
0.0
 11
700.957128
 21
783.783053
 31
0.0
  0
LINE
  5
486
100
AcDbEntity
  8
DETAIL
  6
CONTINUOUS
 62
     5
100
AcDbLine
 10
701.957128
 20
778.783053
 30
0.0
 11
714.957128
 21
778.783053
 31
0.0
  0
LINE
  5
487
100
AcDbEntity
  8
DETAIL
  6
CONTINUOUS
 62
     5
100
AcDbLine
 10
697.966277
 20
778.783053
 30
0.0
 11
700.957128
 21
783.783053
 31
0.0
  0
LINE
  5
488
100
AcDbEntity
  8
DETAIL
  6
CONTINUOUS
 62
     5
100
AcDbLine
 10
713.957128
 20
783.783053
 30
0.0
 11
714.957128
 21
782.783053
 31
0.0
  0
LINE
  5
489
100
AcDbEntity
  8
DETAIL
  6
CONTINUOUS
 62
     5
100
AcDbLine
 10
716.957128
 20
781.783053
 30
0.0
 11
717.957128
 21
782.783053
 31
0.0
  0
LINE
  5
48A
100
AcDbEntity
  8
DETAIL
  6
CONTINUOUS
 62
     5
100
AcDbLine
 10
701.957128
 20
778.783053
 30
0.0
 11
700.957128
 21
779.783053
 31
0.0
  0
LINE
  5
48B
100
AcDbEntity
  8
DETAIL
  6
CONTINUOUS
 62
     5
100
AcDbLine
 10
701.957128
 20
778.783053
 30
0.0
 11
700.957128
 21
777.783053
 31
0.0
  0
LINE
  5
48C
100
AcDbEntity
  8
DETAIL
  6
CONTINUOUS
 62
     5
100
AcDbLine
 10
714.957128
 20
778.033053
 30
0.0
 11
716.957128
 21
778.033053
 31
0.0
  0
LINE
  5
48D
100
AcDbEntity
  8
NOTE
  6
CONTINUOUS
 62
     4
100
AcDbLine
 10
700.966277
 20
720.533049
 30
0.0
 11
700.966277
 21
698.033057
 31
0.0
  0
LINE
  5
48E
100
AcDbEntity
  8
DETAIL
  6
CONTINUOUS
 62
     5
100
AcDbLine
 10
700.966277
 20
720.533053
 30
0.0
 11
700.966277
 21
698.033053
 31
0.0
  0
LINE
  5
48F
100
AcDbEntity
  8
DETAIL
  6
CONTINUOUS
 62
     5
100
AcDbLine
 10
736.966277
 20
697.783053
 30
0.0
 11
725.957128
 21
697.783053
 31
0.0
  0
LINE
  5
490
100
AcDbEntity
  8
DETAIL
  6
CONTINUOUS
 62
     5
100
AcDbLine
 10
736.957128
 20
720.783053
 30
0.0
 11
725.957128
 21
720.783053
 31
0.0
  0
LINE
  5
491
100
AcDbEntity
  8
DETAIL
  6
CONTINUOUS
 62
     5
100
AcDbLine
 10
705.957128
 20
702.283053
 30
0.0
 11
703.957128
 21
700.283053
 31
0.0
  0
LINE
  5
492
100
AcDbEntity
  8
DETAIL
  6
CONTINUOUS
 62
     5
100
AcDbLine
 10
705.957128
 20
702.283053
 30
0.0
 11
703.957128
 21
700.283053
 31
0.0
  0
LINE
  5
493
100
AcDbEntity
  8
DETAIL
  6
CONTINUOUS
 62
     5
100
AcDbLine
 10
705.957128
 20
702.283053
 30
0.0
 11
703.957128
 21
704.283053
 31
0.0
  0
LINE
  5
494
100
AcDbEntity
  8
DETAIL
  6
CONTINUOUS
 62
     5
100
AcDbLine
 10
705.957128
 20
702.283053
 30
0.0
 11
703.957128
 21
704.283053
 31
0.0
  0
LINE
  5
495
100
AcDbEntity
  8
DETAIL
  6
CONTINUOUS
 62
     5
100
AcDbLine
 10
705.957128
 20
716.283053
 30
0.0
 11
703.957128
 21
714.283053
 31
0.0
  0
LINE
  5
496
100
AcDbEntity
  8
DETAIL
  6
CONTINUOUS
 62
     5
100
AcDbLine
 10
705.957128
 20
716.283053
 30
0.0
 11
703.957128
 21
714.283053
 31
0.0
  0
LINE
  5
497
100
AcDbEntity
  8
DETAIL
  6
CONTINUOUS
 62
     5
100
AcDbLine
 10
705.957128
 20
716.283053
 30
0.0
 11
703.957128
 21
718.283053
 31
0.0
  0
LINE
  5
498
100
AcDbEntity
  8
DETAIL
  6
CONTINUOUS
 62
     5
100
AcDbLine
 10
705.957128
 20
716.283053
 30
0.0
 11
703.957128
 21
718.283053
 31
0.0
  0
LINE
  5
499
100
AcDbEntity
  8
DETAIL
  6
CONTINUOUS
 62
     5
100
AcDbLine
 10
717.957128
 20
716.283053
 30
0.0
 11
719.957128
 21
718.283053
 31
0.0
  0
LINE
  5
49A
100
AcDbEntity
  8
DETAIL
  6
CONTINUOUS
 62
     5
100
AcDbLine
 10
717.957128
 20
716.283053
 30
0.0
 11
719.957128
 21
718.283053
 31
0.0
  0
LINE
  5
49B
100
AcDbEntity
  8
DETAIL
  6
CONTINUOUS
 62
     5
100
AcDbLine
 10
717.957128
 20
716.283053
 30
0.0
 11
719.957128
 21
714.283053
 31
0.0
  0
LINE
  5
49C
100
AcDbEntity
  8
DETAIL
  6
CONTINUOUS
 62
     5
100
AcDbLine
 10
717.957128
 20
716.283053
 30
0.0
 11
719.957128
 21
714.283053
 31
0.0
  0
LINE
  5
49D
100
AcDbEntity
  8
DETAIL
  6
CONTINUOUS
 62
     5
100
AcDbLine
 10
717.957128
 20
702.283053
 30
0.0
 11
719.957128
 21
704.283053
 31
0.0
  0
LINE
  5
49E
100
AcDbEntity
  8
DETAIL
  6
CONTINUOUS
 62
     5
100
AcDbLine
 10
717.957128
 20
702.283053
 30
0.0
 11
719.957128
 21
704.283053
 31
0.0
  0
LINE
  5
49F
100
AcDbEntity
  8
DETAIL
  6
CONTINUOUS
 62
     5
100
AcDbLine
 10
717.957128
 20
702.283053
 30
0.0
 11
719.957128
 21
700.283053
 31
0.0
  0
LINE
  5
4A0
100
AcDbEntity
  8
DETAIL
  6
CONTINUOUS
 62
     5
100
AcDbLine
 10
717.957128
 20
702.283053
 30
0.0
 11
719.957128
 21
700.283053
 31
0.0
  0
LINE
  5
4A1
100
AcDbEntity
  8
DETAIL
  6
CONTINUOUS
 62
     5
100
AcDbLine
 10
717.957128
 20
702.283053
 30
0.0
 11
705.957128
 21
702.283053
 31
0.0
  0
LINE
  5
4A2
100
AcDbEntity
  8
DETAIL
  6
CONTINUOUS
 62
     5
100
AcDbLine
 10
717.957128
 20
702.283053
 30
0.0
 11
705.957128
 21
702.283053
 31
0.0
  0
LINE
  5
4A3
100
AcDbEntity
  8
DETAIL
  6
CONTINUOUS
 62
     5
100
AcDbLine
 10
717.957128
 20
716.283053
 30
0.0
 11
705.957128
 21
716.283053
 31
0.0
  0
LINE
  5
4A4
100
AcDbEntity
  8
DETAIL
  6
CONTINUOUS
 62
     5
100
AcDbLine
 10
717.957128
 20
716.283053
 30
0.0
 11
705.957128
 21
716.283053
 31
0.0
  0
LINE
  5
4A5
100
AcDbEntity
  8
DETAIL
  6
CONTINUOUS
 62
     5
100
AcDbLine
 10
719.957128
 20
698.283053
 30
0.0
 11
717.957128
 21
696.283053
 31
0.0
  0
LINE
  5
4A6
100
AcDbEntity
  8
DETAIL
  6
CONTINUOUS
 62
     5
100
AcDbLine
 10
719.957128
 20
698.283053
 30
0.0
 11
717.957128
 21
696.283053
 31
0.0
  0
LINE
  5
4A7
100
AcDbEntity
  8
DETAIL
  6
CONTINUOUS
 62
     5
100
AcDbLine
 10
719.957128
 20
720.283053
 30
0.0
 11
717.957128
 21
722.283053
 31
0.0
  0
LINE
  5
4A8
100
AcDbEntity
  8
DETAIL
  6
CONTINUOUS
 62
     5
100
AcDbLine
 10
719.957128
 20
720.283053
 30
0.0
 11
717.957128
 21
722.283053
 31
0.0
  0
LINE
  5
4A9
100
AcDbEntity
  8
DETAIL
  6
CONTINUOUS
 62
     5
100
AcDbLine
 10
700.966277
 20
698.033053
 30
0.0
 11
703.957128
 21
696.283053
 31
0.0
  0
LINE
  5
4AA
100
AcDbEntity
  8
DETAIL
  6
CONTINUOUS
 62
     5
100
AcDbLine
 10
703.957128
 20
722.283053
 30
0.0
 11
700.966277
 21
720.533049
 31
0.0
  0
LINE
  5
4AB
100
AcDbEntity
  8
DETAIL
  6
CONTINUOUS
 62
     5
100
AcDbLine
 10
703.957128
 20
722.283053
 30
0.0
 11
703.957128
 21
696.283053
 31
0.0
  0
LINE
  5
4AC
100
AcDbEntity
  8
DETAIL
  6
CONTINUOUS
 62
     5
100
AcDbLine
 10
703.957128
 20
722.283053
 30
0.0
 11
703.957128
 21
696.283053
 31
0.0
  0
LINE
  5
4AD
100
AcDbEntity
  8
DETAIL
  6
CONTINUOUS
 62
     5
100
AcDbLine
 10
719.957128
 20
720.283053
 30
0.0
 11
719.957128
 21
698.283053
 31
0.0
  0
LINE
  5
4AE
100
AcDbEntity
  8
DETAIL
  6
CONTINUOUS
 62
     5
100
AcDbLine
 10
719.957128
 20
720.283053
 30
0.0
 11
719.957128
 21
698.283053
 31
0.0
  0
LINE
  5
4AF
100
AcDbEntity
  8
DETAIL
  6
CONTINUOUS
 62
     5
100
AcDbLine
 10
717.957128
 20
696.283053
 30
0.0
 11
703.957128
 21
696.283053
 31
0.0
  0
LINE
  5
4B0
100
AcDbEntity
  8
DETAIL
  6
CONTINUOUS
 62
     5
100
AcDbLine
 10
717.957128
 20
696.283053
 30
0.0
 11
703.957128
 21
696.283053
 31
0.0
  0
LINE
  5
4B1
100
AcDbEntity
  8
DETAIL
  6
CONTINUOUS
 62
     5
100
AcDbLine
 10
717.957128
 20
722.283053
 30
0.0
 11
703.957128
 21
722.283053
 31
0.0
  0
LINE
  5
4B2
100
AcDbEntity
  8
DETAIL
  6
CONTINUOUS
 62
     5
100
AcDbLine
 10
717.957128
 20
722.283053
 30
0.0
 11
703.957128
 21
722.283053
 31
0.0
  0
LINE
  5
4B3
100
AcDbEntity
  8
DETAIL
  6
CONTINUOUS
 62
     5
100
AcDbLine
 10
719.957128
 20
717.283053
 30
0.0
 11
719.957128
 21
701.283053
 31
0.0
  0
LINE
  5
4B4
100
AcDbEntity
  8
DETAIL
  6
CONTINUOUS
 62
     5
100
AcDbLine
 10
719.957128
 20
701.283053
 30
0.0
 11
723.957128
 21
701.283053
 31
0.0
  0
LINE
  5
4B5
100
AcDbEntity
  8
DETAIL
  6
CONTINUOUS
 62
     5
100
AcDbLine
 10
719.957128
 20
717.283053
 30
0.0
 11
723.957128
 21
717.283053
 31
0.0
  0
LINE
  5
4B6
100
AcDbEntity
  8
DETAIL
  6
CONTINUOUS
 62
     5
100
AcDbLine
 10
723.957128
 20
718.783053
 30
0.0
 11
725.957128
 21
720.783053
 31
0.0
  0
LINE
  5
4B7
100
AcDbEntity
  8
DETAIL
  6
CONTINUOUS
 62
     5
100
AcDbLine
 10
723.957128
 20
699.783053
 30
0.0
 11
725.957128
 21
697.783053
 31
0.0
  0
LINE
  5
4B8
100
AcDbEntity
  8
DETAIL
  6
CONTINUOUS
 62
     5
100
AcDbLine
 10
723.957128
 20
718.783053
 30
0.0
 11
723.957128
 21
699.783053
 31
0.0
  0
LINE
  5
4B9
100
AcDbEntity
  8
DETAIL
  6
CONTINUOUS
 62
     5
100
AcDbLine
 10
705.957128
 20
702.283053
 30
0.0
 11
703.957128
 21
700.283053
 31
0.0
  0
LINE
  5
4BA
100
AcDbEntity
  8
DETAIL
  6
CONTINUOUS
 62
     5
100
AcDbLine
 10
705.957128
 20
702.283053
 30
0.0
 11
703.957128
 21
700.283053
 31
0.0
  0
LINE
  5
4BB
100
AcDbEntity
  8
DETAIL
  6
CONTINUOUS
 62
     5
100
AcDbLine
 10
705.957128
 20
702.283053
 30
0.0
 11
703.957128
 21
704.283053
 31
0.0
  0
LINE
  5
4BC
100
AcDbEntity
  8
DETAIL
  6
CONTINUOUS
 62
     5
100
AcDbLine
 10
705.957128
 20
702.283053
 30
0.0
 11
703.957128
 21
704.283053
 31
0.0
  0
LINE
  5
4BD
100
AcDbEntity
  8
DETAIL
  6
CONTINUOUS
 62
     5
100
AcDbLine
 10
705.957128
 20
716.283053
 30
0.0
 11
703.957128
 21
714.283053
 31
0.0
  0
LINE
  5
4BE
100
AcDbEntity
  8
DETAIL
  6
CONTINUOUS
 62
     5
100
AcDbLine
 10
705.957128
 20
716.283053
 30
0.0
 11
703.957128
 21
714.283053
 31
0.0
  0
LINE
  5
4BF
100
AcDbEntity
  8
DETAIL
  6
CONTINUOUS
 62
     5
100
AcDbLine
 10
705.957128
 20
716.283053
 30
0.0
 11
703.957128
 21
718.283053
 31
0.0
  0
LINE
  5
4C0
100
AcDbEntity
  8
DETAIL
  6
CONTINUOUS
 62
     5
100
AcDbLine
 10
705.957128
 20
716.283053
 30
0.0
 11
703.957128
 21
718.283053
 31
0.0
  0
LINE
  5
4C1
100
AcDbEntity
  8
DETAIL
  6
CONTINUOUS
 62
     5
100
AcDbLine
 10
717.957128
 20
716.283053
 30
0.0
 11
719.957128
 21
718.283053
 31
0.0
  0
LINE
  5
4C2
100
AcDbEntity
  8
DETAIL
  6
CONTINUOUS
 62
     5
100
AcDbLine
 10
717.957128
 20
716.283053
 30
0.0
 11
719.957128
 21
718.283053
 31
0.0
  0
LINE
  5
4C3
100
AcDbEntity
  8
DETAIL
  6
CONTINUOUS
 62
     5
100
AcDbLine
 10
717.957128
 20
716.283053
 30
0.0
 11
719.957128
 21
714.283053
 31
0.0
  0
LINE
  5
4C4
100
AcDbEntity
  8
DETAIL
  6
CONTINUOUS
 62
     5
100
AcDbLine
 10
717.957128
 20
716.283053
 30
0.0
 11
719.957128
 21
714.283053
 31
0.0
  0
LINE
  5
4C5
100
AcDbEntity
  8
DETAIL
  6
CONTINUOUS
 62
     5
100
AcDbLine
 10
717.957128
 20
702.283053
 30
0.0
 11
719.957128
 21
704.283053
 31
0.0
  0
LINE
  5
4C6
100
AcDbEntity
  8
DETAIL
  6
CONTINUOUS
 62
     5
100
AcDbLine
 10
717.957128
 20
702.283053
 30
0.0
 11
719.957128
 21
704.283053
 31
0.0
  0
LINE
  5
4C7
100
AcDbEntity
  8
DETAIL
  6
CONTINUOUS
 62
     5
100
AcDbLine
 10
717.957128
 20
702.283053
 30
0.0
 11
719.957128
 21
700.283053
 31
0.0
  0
LINE
  5
4C8
100
AcDbEntity
  8
DETAIL
  6
CONTINUOUS
 62
     5
100
AcDbLine
 10
717.957128
 20
702.283053
 30
0.0
 11
719.957128
 21
700.283053
 31
0.0
  0
LINE
  5
4C9
100
AcDbEntity
  8
DETAIL
  6
CONTINUOUS
 62
     5
100
AcDbLine
 10
717.957128
 20
702.283053
 30
0.0
 11
705.957128
 21
702.283053
 31
0.0
  0
LINE
  5
4CA
100
AcDbEntity
  8
DETAIL
  6
CONTINUOUS
 62
     5
100
AcDbLine
 10
717.957128
 20
702.283053
 30
0.0
 11
705.957128
 21
702.283053
 31
0.0
  0
LINE
  5
4CB
100
AcDbEntity
  8
DETAIL
  6
CONTINUOUS
 62
     5
100
AcDbLine
 10
717.957128
 20
716.283053
 30
0.0
 11
705.957128
 21
716.283053
 31
0.0
  0
LINE
  5
4CC
100
AcDbEntity
  8
DETAIL
  6
CONTINUOUS
 62
     5
100
AcDbLine
 10
717.957128
 20
716.283053
 30
0.0
 11
705.957128
 21
716.283053
 31
0.0
  0
LINE
  5
4CD
100
AcDbEntity
  8
DETAIL
  6
CONTINUOUS
 62
     5
100
AcDbLine
 10
719.957128
 20
698.283053
 30
0.0
 11
717.957128
 21
696.283053
 31
0.0
  0
LINE
  5
4CE
100
AcDbEntity
  8
DETAIL
  6
CONTINUOUS
 62
     5
100
AcDbLine
 10
719.957128
 20
698.283053
 30
0.0
 11
717.957128
 21
696.283053
 31
0.0
  0
LINE
  5
4CF
100
AcDbEntity
  8
DETAIL
  6
CONTINUOUS
 62
     5
100
AcDbLine
 10
719.957128
 20
720.283053
 30
0.0
 11
717.957128
 21
722.283053
 31
0.0
  0
LINE
  5
4D0
100
AcDbEntity
  8
DETAIL
  6
CONTINUOUS
 62
     5
100
AcDbLine
 10
719.957128
 20
720.283053
 30
0.0
 11
717.957128
 21
722.283053
 31
0.0
  0
LINE
  5
4D1
100
AcDbEntity
  8
DETAIL
  6
CONTINUOUS
 62
     5
100
AcDbLine
 10
703.957128
 20
722.283053
 30
0.0
 11
703.957128
 21
696.283053
 31
0.0
  0
LINE
  5
4D2
100
AcDbEntity
  8
DETAIL
  6
CONTINUOUS
 62
     5
100
AcDbLine
 10
703.957128
 20
722.283053
 30
0.0
 11
703.957128
 21
696.283053
 31
0.0
  0
LINE
  5
4D3
100
AcDbEntity
  8
DETAIL
  6
CONTINUOUS
 62
     5
100
AcDbLine
 10
719.957128
 20
720.283053
 30
0.0
 11
719.957128
 21
698.283053
 31
0.0
  0
LINE
  5
4D4
100
AcDbEntity
  8
DETAIL
  6
CONTINUOUS
 62
     5
100
AcDbLine
 10
719.957128
 20
720.283053
 30
0.0
 11
719.957128
 21
698.283053
 31
0.0
  0
LINE
  5
4D5
100
AcDbEntity
  8
DETAIL
  6
CONTINUOUS
 62
     5
100
AcDbLine
 10
717.957128
 20
696.283053
 30
0.0
 11
703.957128
 21
696.283053
 31
0.0
  0
LINE
  5
4D6
100
AcDbEntity
  8
DETAIL
  6
CONTINUOUS
 62
     5
100
AcDbLine
 10
717.957128
 20
696.283053
 30
0.0
 11
703.957128
 21
696.283053
 31
0.0
  0
LINE
  5
4D7
100
AcDbEntity
  8
DETAIL
  6
CONTINUOUS
 62
     5
100
AcDbLine
 10
717.957128
 20
722.283053
 30
0.0
 11
703.957128
 21
722.283053
 31
0.0
  0
LINE
  5
4D8
100
AcDbEntity
  8
DETAIL
  6
CONTINUOUS
 62
     5
100
AcDbLine
 10
717.957128
 20
722.283053
 30
0.0
 11
703.957128
 21
722.283053
 31
0.0
  0
LINE
  5
4D9
100
AcDbEntity
  8
DETAIL
  6
CONTINUOUS
 62
     5
100
AcDbLine
 10
719.957128
 20
717.283053
 30
0.0
 11
719.957128
 21
701.283053
 31
0.0
  0
LINE
  5
4DA
100
AcDbEntity
  8
DETAIL
  6
CONTINUOUS
 62
     5
100
AcDbLine
 10
719.957128
 20
701.283053
 30
0.0
 11
723.957128
 21
701.283053
 31
0.0
  0
LINE
  5
4DB
100
AcDbEntity
  8
DETAIL
  6
CONTINUOUS
 62
     5
100
AcDbLine
 10
719.957128
 20
717.283053
 30
0.0
 11
723.957128
 21
717.283053
 31
0.0
  0
LINE
  5
4DC
100
AcDbEntity
  8
DETAIL
  6
CONTINUOUS
 62
     5
100
AcDbLine
 10
723.957128
 20
718.783053
 30
0.0
 11
725.957128
 21
720.783053
 31
0.0
  0
LINE
  5
4DD
100
AcDbEntity
  8
DETAIL
  6
CONTINUOUS
 62
     5
100
AcDbLine
 10
723.957128
 20
699.783053
 30
0.0
 11
725.957128
 21
697.783053
 31
0.0
  0
LINE
  5
4DE
100
AcDbEntity
  8
DETAIL
  6
CONTINUOUS
 62
     5
100
AcDbLine
 10
723.957128
 20
718.783053
 30
0.0
 11
723.957128
 21
699.783053
 31
0.0
  0
LINE
  5
4DF
100
AcDbEntity
  8
DETAIL
  6
CONTINUOUS
 62
     5
100
AcDbLine
 10
736.957128
 20
720.783053
 30
0.0
 11
725.957128
 21
720.783053
 31
0.0
  0
LINE
  5
4E0
100
AcDbEntity
  8
DETAIL
  6
CONTINUOUS
 62
     5
100
AcDbLine
 10
736.957128
 20
697.783053
 30
0.0
 11
725.957128
 21
697.783053
 31
0.0
  0
LINE
  5
4E1
100
AcDbEntity
  8
DETAIL
  6
CONTINUOUS
 62
     5
100
AcDbLine
 10
736.966277
 20
791.283053
 30
0.0
 11
696.966277
 21
791.283053
 31
0.0
  0
LINE
  5
4E2
100
AcDbEntity
  8
OUTLINE
  6
CONTINUOUS
 62
     3
100
AcDbLine
 10
736.966277
 20
791.283053
 30
0.0
 11
696.966277
 21
791.283053
 31
0.0
  0
POINT
  5
4E3
100
AcDbEntity
  8
DEFPOINTS
  6
CONTINUOUS
 62
     7
100
AcDbPoint
 10
736.966277
 20
641.883183
 30
0.0
  0
POINT
  5
4E4
100
AcDbEntity
  8
DEFPOINTS
  6
CONTINUOUS
 62
     7
100
AcDbPoint
 10
736.966277
 20
641.883183
 30
0.0
  0
POINT
  5
4E5
100
AcDbEntity
  8
DEFPOINTS
  6
CONTINUOUS
 62
     7
100
AcDbPoint
 10
736.957128
 20
741.827206
 30
0.0
  0
POINT
  5
4E6
100
AcDbEntity
  8
DEFPOINTS
  6
CONTINUOUS
 62
     7
100
AcDbPoint
 10
736.957128
 20
763.783053
 30
0.0
  0
POINT
  5
4E7
100
AcDbEntity
  8
DEFPOINTS
  6
CONTINUOUS
 62
     7
100
AcDbPoint
 10
697.966277
 20
773.283053
 30
0.0
  0
LINE
  5
4E8
100
AcDbEntity
  8
SIZE
  6
CONTINUOUS
 62
    30
100
AcDbLine
 10
741.957128
 20
741.827206
 30
0.0
 11
746.957128
 21
741.827206
 31
0.0
  0
CIRCLE
  5
4E9
100
AcDbEntity
  8
SIZE
  6
CONTINUOUS
 62
    30
100
AcDbCircle
 10
736.957128
 20
741.827206
 30
0.0
 40
5.0
  0
LINE
  5
4EA
100
AcDbEntity
  8
SIZE
  6
CONTINUOUS
 62
    30
100
AcDbLine
 10
692.957128
 20
741.827206
 30
0.0
 11
687.957128
 21
741.827206
 31
0.0
  0
CIRCLE
  5
4EB
100
AcDbEntity
  8
SIZE
  6
CONTINUOUS
 62
    30
100
AcDbCircle
 10
697.957128
 20
741.827206
 30
0.0
 40
5.0
  0
LINE
  5
4EC
100
AcDbEntity
  8
SIZE
  6
CONTINUOUS
 62
    30
100
AcDbLine
 10
697.957128
 20
741.827206
 30
0.0
 11
736.957128
 21
741.827206
 31
0.0
  0
LINE
  5
4ED
100
AcDbEntity
  8
SIZE
  6
CONTINUOUS
 62
    30
100
AcDbLine
 10
687.957128
 20
741.827206
 30
0.0
 11
677.957128
 21
741.827206
 31
0.0
  0
LINE
  5
4EE
100
AcDbEntity
  8
SIZE
  6
CONTINUOUS
 62
    30
100
AcDbLine
 10
736.957128
 20
743.783053
 30
0.0
 11
736.957128
 21
711.827206
 31
0.0
  0
LINE
  5
4EF
100
AcDbEntity
  8
SIZE
  6
CONTINUOUS
 62
    30
100
AcDbLine
 10
697.957128
 20
753.283053
 30
0.0
 11
697.957128
 21
711.827206
 31
0.0
  0
POINT
  5
4F0
100
AcDbEntity
  8
DEFPOINTS
  6
CONTINUOUS
 62
     7
100
AcDbPoint
 10
736.966277
 20
641.883183
 30
0.0
  0
POINT
  5
4F1
100
AcDbEntity
  8
DEFPOINTS
  6
CONTINUOUS
 62
     7
100
AcDbPoint
 10
700.966277
 20
709.283053
 30
0.0
  0
POINT
  5
4F2
100
AcDbEntity
  8
DEFPOINTS
  6
CONTINUOUS
 62
     7
100
AcDbPoint
 10
692.466277
 20
773.283053
 30
0.0
  0
POINT
  5
4F3
100
AcDbEntity
  8
DEFPOINTS
  6
CONTINUOUS
 62
     7
100
AcDbPoint
 10
689.69798
 20
709.283053
 30
0.0
  0
POINT
  5
4F4
100
AcDbEntity
  8
DEFPOINTS
  6
CONTINUOUS
 62
     7
100
AcDbPoint
 10
689.69798
 20
709.283053
 30
0.0
  0
LINE
  5
4F5
100
AcDbEntity
  8
NOTE
  6
CONTINUOUS
 62
     4
100
AcDbLine
 10
712.20798
 20
709.283053
 30
0.0
 11
689.70798
 21
709.283053
 31
0.0
  0
LINE
  5
4F6
100
AcDbEntity
  8
NOTE
  6
CONTINUOUS
 62
     4
100
AcDbLine
 10
700.966277
 20
709.283053
 30
0.0
 11
692.698168
 21
675.906594
 31
0.0
  0
LINE
  5
4F7
100
AcDbEntity
  8
NOTE
  6
CONTINUOUS
 62
     4
100
AcDbLine
 10
700.966277
 20
709.283053
 30
0.0
 11
677.117655
 21
684.512246
 31
0.0
  0
LINE
  5
4F8
100
AcDbEntity
  8
NOTE
  6
CONTINUOUS
 62
     4
100
AcDbLine
 10
703.466277
 20
773.283053
 30
0.0
 11
692.466277
 21
773.283053
 31
0.0
  0
LINE
  5
4F9
100
AcDbEntity
  8
NOTE
  6
CONTINUOUS
 62
     4
100
AcDbLine
 10
697.966277
 20
773.283053
 30
0.0
 11
669.434346
 21
792.473638
 31
0.0
  0
LINE
  5
4FA
100
AcDbEntity
  8
DETAIL
  6
CONTINUOUS
 62
     5
100
AcDbLine
 10
758.936942
 20
641.883183
 30
0.0
 11
720.966277
 21
641.883183
 31
0.0
  0
LINE
  5
4FB
100
AcDbEntity
  8
DETAIL
  6
CONTINUOUS
 62
     5
100
AcDbLine
 10
736.966277
 20
641.883183
 30
0.0
 11
721.166277
 21
641.883183
 31
0.0
  0
POINT
  5
4FC
100
AcDbEntity
  8
DEFPOINTS
  6
CONTINUOUS
 62
     7
100
AcDbPoint
 10
736.966277
 20
909.283053
 30
0.0
  0
LINE
  5
4FD
100
AcDbEntity
  8
SERVICESPACE
  6
CONTINUOUS
 62
     2
100
AcDbLine
 10
716.966277
 20
838.283053
 30
0.0
 11
716.966277
 21
808.283053
 31
0.0
  0
POINT
  5
4FE
100
AcDbEntity
  8
DEFPOINTS
  6
CONTINUOUS
 62
     7
100
AcDbPoint
 10
702.966277
 20
854.283053
 30
0.0
  0
POINT
  5
4FF
100
AcDbEntity
  8
DEFPOINTS
  6
CONTINUOUS
 62
     7
100
AcDbPoint
 10
736.966277
 20
870.640149
 30
0.0
  0
POINT
  5
500
100
AcDbEntity
  8
DEFPOINTS
  6
CONTINUOUS
 62
     7
100
AcDbPoint
 10
686.249625
 20
854.283053
 30
0.0
  0
LINE
  5
501
100
AcDbEntity
  8
NOTE
  6
CONTINUOUS
 62
     4
100
AcDbLine
 10
719.682929
 20
854.283053
 30
0.0
 11
686.249625
 21
854.283053
 31
0.0
  0
LINE
  5
502
100
AcDbEntity
  8
NOTE
  6
CONTINUOUS
 62
     4
100
AcDbLine
 10
702.966277
 20
870.999705
 30
0.0
 11
702.966277
 21
837.566401
 31
0.0
  0
LINE
  5
503
100
AcDbEntity
  8
NOTE
  6
CONTINUOUS
 62
     4
100
AcDbLine
 10
702.966277
 20
854.283053
 30
0.0
 11
689.084087
 21
885.741509
 31
0.0
  0
LINE
  5
504
100
AcDbEntity
  8
NOTE
  6
CONTINUOUS
 62
     4
100
AcDbLine
 10
702.966277
 20
854.283053
 30
0.0
 11
706.673177
 21
888.46797
 31
0.0
  0
LINE
  5
505
100
AcDbEntity
  8
DETAIL
  6
CONTINUOUS
 62
     5
100
AcDbLine
 10
727.966277
 20
838.083053
 30
0.0
 11
736.966277
 21
837.925957
 31
0.0
  0
LINE
  5
506
100
AcDbEntity
  8
DETAIL
  6
CONTINUOUS
 62
     5
100
AcDbLine
 10
727.966277
 20
870.483053
 30
0.0
 11
736.966277
 21
870.640149
 31
0.0
  0
ARC
  5
507
100
AcDbEntity
  8
DETAIL
  6
CONTINUOUS
 62
     5
100
AcDbCircle
 10
703.466277
 20
838.783053
 30
0.0
 40
0.5
100
AcDbArc
 50
180.0
 51
270.0
  0
ARC
  5
508
100
AcDbEntity
  8
DETAIL
  6
CONTINUOUS
 62
     5
100
AcDbCircle
 10
703.466277
 20
869.783053
 30
0.0
 40
0.5
100
AcDbArc
 50
90.0
 51
180.0
  0
LINE
  5
509
100
AcDbEntity
  8
DETAIL
  6
CONTINUOUS
 62
     5
100
AcDbLine
 10
727.966277
 20
870.483053
 30
0.0
 11
727.966277
 21
838.083053
 31
0.0
  0
LINE
  5
50A
100
AcDbEntity
  8
DETAIL
  6
CONTINUOUS
 62
     5
100
AcDbLine
 10
727.966277
 20
838.283053
 30
0.0
 11
703.466277
 21
838.283053
 31
0.0
  0
LINE
  5
50B
100
AcDbEntity
  8
DETAIL
  6
CONTINUOUS
 62
     5
100
AcDbLine
 10
727.966277
 20
870.283053
 30
0.0
 11
703.466277
 21
870.283053
 31
0.0
  0
LINE
  5
50C
100
AcDbEntity
  8
DETAIL
  6
CONTINUOUS
 62
     5
100
AcDbLine
 10
702.966277
 20
869.783053
 30
0.0
 11
702.966277
 21
838.783053
 31
0.0
  0
LINE
  5
50D
100
AcDbEntity
  8
DETAIL
  6
CONTINUOUS
 62
     5
100
AcDbLine
 10
702.966277
 20
869.783053
 30
0.0
 11
702.966277
 21
838.783053
 31
0.0
  0
LINE
  5
50E
100
AcDbEntity
  8
DETAIL
  6
CONTINUOUS
 62
     5
100
AcDbLine
 10
727.966277
 20
870.283053
 30
0.0
 11
703.466277
 21
870.283053
 31
0.0
  0
LINE
  5
50F
100
AcDbEntity
  8
DETAIL
  6
CONTINUOUS
 62
     5
100
AcDbLine
 10
727.966277
 20
838.283053
 30
0.0
 11
703.466277
 21
838.283053
 31
0.0
  0
LINE
  5
510
100
AcDbEntity
  8
DETAIL
  6
CONTINUOUS
 62
     5
100
AcDbLine
 10
727.966277
 20
870.483053
 30
0.0
 11
727.966277
 21
838.083053
 31
0.0
  0
ARC
  5
511
100
AcDbEntity
  8
DETAIL
  6
CONTINUOUS
 62
     5
100
AcDbCircle
 10
703.466277
 20
869.783053
 30
0.0
 40
0.5
100
AcDbArc
 50
90.0
 51
180.0
  0
ARC
  5
512
100
AcDbEntity
  8
DETAIL
  6
CONTINUOUS
 62
     5
100
AcDbCircle
 10
703.466277
 20
838.783053
 30
0.0
 40
0.5
100
AcDbArc
 50
180.0
 51
270.0
  0
LINE
  5
513
100
AcDbEntity
  8
DETAIL
  6
CONTINUOUS
 62
     5
100
AcDbLine
 10
727.966277
 20
838.083053
 30
0.0
 11
736.966277
 21
837.925957
 31
0.0
  0
LINE
  5
514
100
AcDbEntity
  8
DETAIL
  6
CONTINUOUS
 62
     5
100
AcDbLine
 10
727.966277
 20
870.483053
 30
0.0
 11
736.966277
 21
870.640149
 31
0.0
  0
TEXT
  5
515
100
AcDbEntity
  8
SIZE
  6
CONTINUOUS
 62
    30
100
AcDbText
 10
775.964966
 20
745.724636
 30
0.0
 40
55.0
  1
39
 41
0.9
 72
     1
 11
814.857823
 21
745.724636
 31
0.0
100
AcDbText
  0
LINE
  5
516
100
AcDbEntity
  8
NOTE
  6
CONTINUOUS
 62
     4
100
AcDbLine
 10
343.713568
 20
1144.235883
 30
0.0
 11
-0.000014
 21
1144.235883
 31
0.0
  0
TEXT
  5
517
100
AcDbEntity
  8
NOTE
  6
CONTINUOUS
 62
     4
100
AcDbText
 10
21.675258
 20
1160.062414
 30
0.0
 40
60.0
  1
RL %%C9.52
 50
0.000003
 41
0.7
  7
STANDARD1
100
AcDbText
  0
LINE
  5
518
100
AcDbEntity
  8
SIZE
  6
CONTINUOUS
 62
    30
100
AcDbLine
 10
696.966277
 20
1411.283053
 30
0.0
 11
696.966277
 21
1752.586498
 31
0.0
  0
LINE
  5
519
100
AcDbEntity
  8
SIZE
  6
CONTINUOUS
 62
    30
100
AcDbLine
 10
716.966277
 20
1394.283053
 30
0.0
 11
716.966277
 21
1614.305205
 31
0.0
  0
LINE
  5
51A
100
AcDbEntity
  8
SIZE
  6
CONTINUOUS
 62
    30
100
AcDbLine
 10
700.966277
 20
1316.283053
 30
0.0
 11
334.051157
 21
1316.283053
 31
0.0
  0
LINE
  5
51B
100
AcDbEntity
  8
NOTE
  6
CONTINUOUS
 62
     4
100
AcDbLine
 10
624.01557
 20
1376.292824
 30
0.0
 11
278.265521
 21
1376.292824
 31
0.0
  0
TEXT
  5
51C
100
AcDbEntity
  8
NOTE
  6
CONTINUOUS
 62
     4
100
AcDbText
 10
299.940793
 20
1392.119355
 30
0.0
 40
60.0
  1
D1 VP-25
 50
0.000003
 41
0.7
  7
STANDARD1
100
AcDbText
  0
POINT
  5
51D
100
AcDbEntity
  8
DEFPOINTS
  6
CONTINUOUS
 62
     7
100
AcDbPoint
 10
364.051157
 20
1316.283053
 30
0.0
  0
LINE
  5
51E
100
AcDbEntity
  8
SIZE
  6
CONTINUOUS
 62
    30
100
AcDbLine
 10
364.051157
 20
1311.283053
 30
0.0
 11
364.051157
 21
1306.283053
 31
0.0
  0
CIRCLE
  5
51F
100
AcDbEntity
  8
SIZE
  6
CONTINUOUS
 62
    30
100
AcDbCircle
 10
364.051157
 20
1316.283053
 30
0.0
 40
5.0
  0
LINE
  5
520
100
AcDbEntity
  8
SIZE
  6
CONTINUOUS
 62
    30
100
AcDbLine
 10
746.966277
 20
1077.528138
 30
0.0
 11
870.751991
 21
1077.528138
 31
0.0
  0
LINE
  5
521
100
AcDbEntity
  8
SIZE
  6
CONTINUOUS
 62
    30
100
AcDbLine
 10
746.966277
 20
984.430442
 30
0.0
 11
882.721876
 21
984.430442
 31
0.0
  0
POINT
  5
522
100
AcDbEntity
  8
DEFPOINTS
  6
CONTINUOUS
 62
     7
100
AcDbPoint
 10
736.966277
 20
1077.528138
 30
0.0
  0
LINE
  5
523
100
AcDbEntity
  8
SIZE
  6
CONTINUOUS
 62
    30
100
AcDbLine
 10
741.966277
 20
1077.528138
 30
0.0
 11
746.966277
 21
1077.528138
 31
0.0
  0
CIRCLE
  5
524
100
AcDbEntity
  8
SIZE
  6
CONTINUOUS
 62
    30
100
AcDbCircle
 10
736.966277
 20
1077.528138
 30
0.0
 40
5.0
  0
LINE
  5
525
100
AcDbEntity
  8
SIZE
  6
CONTINUOUS
 62
    30
100
AcDbLine
 10
695.966277
 20
1077.528138
 30
0.0
 11
690.966277
 21
1077.528138
 31
0.0
  0
CIRCLE
  5
526
100
AcDbEntity
  8
SIZE
  6
CONTINUOUS
 62
    30
100
AcDbCircle
 10
700.966277
 20
1077.528138
 30
0.0
 40
5.0
  0
LINE
  5
527
100
AcDbEntity
  8
SIZE
  6
CONTINUOUS
 62
    30
100
AcDbLine
 10
700.966277
 20
1077.528138
 30
0.0
 11
736.966277
 21
1077.528138
 31
0.0
  0
LINE
  5
528
100
AcDbEntity
  8
SIZE
  6
CONTINUOUS
 62
    30
100
AcDbLine
 10
690.966277
 20
1077.528138
 30
0.0
 11
680.966277
 21
1077.528138
 31
0.0
  0
POINT
  5
529
100
AcDbEntity
  8
DEFPOINTS
  6
CONTINUOUS
 62
     7
100
AcDbPoint
 10
702.966277
 20
984.430442
 30
0.0
  0
LINE
  5
52A
100
AcDbEntity
  8
SIZE
  6
CONTINUOUS
 62
    30
100
AcDbLine
 10
741.966277
 20
984.430442
 30
0.0
 11
746.966277
 21
984.430442
 31
0.0
  0
CIRCLE
  5
52B
100
AcDbEntity
  8
SIZE
  6
CONTINUOUS
 62
    30
100
AcDbCircle
 10
736.966277
 20
984.430442
 30
0.0
 40
5.0
  0
LINE
  5
52C
100
AcDbEntity
  8
SIZE
  6
CONTINUOUS
 62
    30
100
AcDbLine
 10
697.966277
 20
984.430442
 30
0.0
 11
692.966277
 21
984.430442
 31
0.0
  0
CIRCLE
  5
52D
100
AcDbEntity
  8
SIZE
  6
CONTINUOUS
 62
    30
100
AcDbCircle
 10
702.966277
 20
984.430442
 30
0.0
 40
5.0
  0
LINE
  5
52E
100
AcDbEntity
  8
SIZE
  6
CONTINUOUS
 62
    30
100
AcDbLine
 10
702.966277
 20
984.430442
 30
0.0
 11
736.966277
 21
984.430442
 31
0.0
  0
LINE
  5
52F
100
AcDbEntity
  8
SIZE
  6
CONTINUOUS
 62
    30
100
AcDbLine
 10
692.966277
 20
984.430442
 30
0.0
 11
682.966277
 21
984.430442
 31
0.0
  0
TEXT
  5
530
100
AcDbEntity
  8
SIZE
  6
CONTINUOUS
 62
    30
100
AcDbText
 10
774.966277
 20
1095.528138
 30
0.0
 40
55.0
  1
36
 41
0.9
 72
     1
 11
813.859134
 21
1095.528138
 31
0.0
100
AcDbText
  0
TEXT
  5
531
100
AcDbEntity
  8
SIZE
  6
CONTINUOUS
 62
    30
100
AcDbText
 10
782.221876
 20
1002.430442
 30
0.0
 40
55.0
  1
34
 41
0.9
 72
     1
 11
823.471876
 21
1002.430442
 31
0.0
100
AcDbText
  0
LINE
  5
532
100
AcDbEntity
  8
SIZE
  6
CONTINUOUS
 62
    30
100
AcDbLine
 10
820.98427
 20
1478.192865
 30
0.0
 11
720.966277
 21
1478.192865
 31
0.0
  0
LINE
  5
533
100
AcDbEntity
  8
SIZE
  6
CONTINUOUS
 62
    30
100
AcDbLine
 10
720.966277
 20
1336.283053
 30
0.0
 11
720.966277
 21
1508.192865
 31
0.0
  0
LINE
  5
534
100
AcDbEntity
  8
SIZE
  6
CONTINUOUS
 62
    30
100
AcDbLine
 10
716.966277
 20
1394.283053
 30
0.0
 11
716.966277
 21
1508.192865
 31
0.0
  0
LINE
  5
535
100
AcDbEntity
  8
SIZE
  6
CONTINUOUS
 62
    30
100
AcDbLine
 10
716.966277
 20
1394.283053
 30
0.0
 11
716.966277
 21
1508.192865
 31
0.0
  0
POINT
  5
536
100
AcDbEntity
  8
DEFPOINTS
  6
CONTINUOUS
 62
     7
100
AcDbPoint
 10
696.966277
 20
1391.283053
 30
0.0
  0
POINT
  5
537
100
AcDbEntity
  8
DEFPOINTS
  6
CONTINUOUS
 62
     7
100
AcDbPoint
 10
720.966277
 20
1316.283053
 30
0.0
  0
POINT
  5
538
100
AcDbEntity
  8
DEFPOINTS
  6
CONTINUOUS
 62
     7
100
AcDbPoint
 10
716.966277
 20
1374.283053
 30
0.0
  0
POINT
  5
539
100
AcDbEntity
  8
DEFPOINTS
  6
CONTINUOUS
 62
     7
100
AcDbPoint
 10
716.966277
 20
1374.283053
 30
0.0
  0
POINT
  5
53A
100
AcDbEntity
  8
DEFPOINTS
  6
CONTINUOUS
 62
     7
100
AcDbPoint
 10
696.966277
 20
1391.283053
 30
0.0
  0
POINT
  5
53B
100
AcDbEntity
  8
DEFPOINTS
  6
CONTINUOUS
 62
     7
100
AcDbPoint
 10
720.966277
 20
1316.283053
 30
0.0
  0
POINT
  5
53C
100
AcDbEntity
  8
DEFPOINTS
  6
CONTINUOUS
 62
     7
100
AcDbPoint
 10
716.966277
 20
1374.283053
 30
0.0
  0
CIRCLE
  5
53D
100
AcDbEntity
  8
FIX
  6
CONTINUOUS
 62
    11
100
AcDbCircle
 10
743.966277
 20
1285.283053
 30
0.0
 40
12.421498
  0
LINE
  5
53E
100
AcDbEntity
  8
NOTE
  6
CONTINUOUS
 62
     4
100
AcDbLine
 10
743.966277
 20
1300.278219
 30
0.0
 11
743.966277
 21
1270.287887
 31
0.0
  0
LINE
  5
53F
100
AcDbEntity
  8
NOTE
  6
CONTINUOUS
 62
     4
100
AcDbLine
 10
728.971111
 20
1285.283053
 30
0.0
 11
758.961443
 21
1285.283053
 31
0.0
  0
LINE
  5
540
100
AcDbEntity
  8
DETAIL
  6
CONTINUOUS
 62
     5
100
AcDbLine
 10
758.936942
 20
1316.283053
 30
0.0
 11
758.936942
 21
1255.682923
 31
0.0
  0
LINE
  5
541
100
AcDbEntity
  8
DETAIL
  6
CONTINUOUS
 62
     5
100
AcDbLine
 10
720.966277
 20
1291.283053
 30
0.0
 11
720.966277
 21
1316.283053
 31
0.0
  0
LINE
  5
542
100
AcDbEntity
  8
DETAIL
  6
CONTINUOUS
 62
     5
100
AcDbLine
 10
720.966277
 20
1255.682923
 30
0.0
 11
720.966277
 21
1279.283053
 31
0.0
  0
LINE
  5
543
100
AcDbEntity
  8
DETAIL
  6
CONTINUOUS
 62
     5
100
AcDbLine
 10
758.936942
 20
1255.682923
 30
0.0
 11
720.966277
 21
1255.682923
 31
0.0
  0
LINE
  5
544
100
AcDbEntity
  8
DETAIL
  6
CONTINUOUS
 62
     5
100
AcDbLine
 10
750.966277
 20
1293.283053
 30
0.0
 11
750.966277
 21
1277.283053
 31
0.0
  0
LINE
  5
545
100
AcDbEntity
  8
DETAIL
  6
CONTINUOUS
 62
     5
100
AcDbLine
 10
736.966277
 20
1291.283053
 30
0.0
 11
720.966277
 21
1291.283053
 31
0.0
  0
LINE
  5
546
100
AcDbEntity
  8
DETAIL
  6
CONTINUOUS
 62
     5
100
AcDbLine
 10
736.966277
 20
1279.283053
 30
0.0
 11
720.966277
 21
1279.283053
 31
0.0
  0
LINE
  5
547
100
AcDbEntity
  8
DETAIL
  6
CONTINUOUS
 62
     5
100
AcDbLine
 10
736.966277
 20
1279.283053
 30
0.0
 11
736.966277
 21
1277.283053
 31
0.0
  0
ARC
  5
548
100
AcDbEntity
  8
DETAIL
  6
CONTINUOUS
 62
     5
100
AcDbCircle
 10
743.966277
 20
1293.283053
 30
0.0
 40
7.0
100
AcDbArc
 50
0.0
 51
180.0
  0
ARC
  5
549
100
AcDbEntity
  8
DETAIL
  6
CONTINUOUS
 62
     5
100
AcDbCircle
 10
743.966277
 20
1277.283053
 30
0.0
 40
7.0
100
AcDbArc
 50
180.0
 51
0.0
  0
LINE
  5
54A
100
AcDbEntity
  8
DETAIL
  6
CONTINUOUS
 62
     5
100
AcDbLine
 10
736.966277
 20
1293.283053
 30
0.0
 11
736.966277
 21
1291.283053
 31
0.0
  0
LINE
  5
54B
100
AcDbEntity
  8
DETAIL
  6
CONTINUOUS
 62
     5
100
AcDbLine
 10
736.966277
 20
1293.283053
 30
0.0
 11
736.966277
 21
1291.283053
 31
0.0
  0
ARC
  5
54C
100
AcDbEntity
  8
DETAIL
  6
CONTINUOUS
 62
     5
100
AcDbCircle
 10
743.966277
 20
1277.283053
 30
0.0
 40
7.0
100
AcDbArc
 50
180.0
 51
0.0
  0
ARC
  5
54D
100
AcDbEntity
  8
DETAIL
  6
CONTINUOUS
 62
     5
100
AcDbCircle
 10
743.966277
 20
1293.283053
 30
0.0
 40
7.0
100
AcDbArc
 50
0.0
 51
180.0
  0
LINE
  5
54E
100
AcDbEntity
  8
DETAIL
  6
CONTINUOUS
 62
     5
100
AcDbLine
 10
736.966277
 20
1279.283053
 30
0.0
 11
736.966277
 21
1277.283053
 31
0.0
  0
LINE
  5
54F
100
AcDbEntity
  8
DETAIL
  6
CONTINUOUS
 62
     5
100
AcDbLine
 10
736.966277
 20
1255.682923
 30
0.0
 11
721.166277
 21
1255.682923
 31
0.0
  0
LINE
  5
550
100
AcDbEntity
  8
DETAIL
  6
CONTINUOUS
 62
     5
100
AcDbLine
 10
736.966277
 20
1279.283053
 30
0.0
 11
720.966277
 21
1279.283053
 31
0.0
  0
LINE
  5
551
100
AcDbEntity
  8
DETAIL
  6
CONTINUOUS
 62
     5
100
AcDbLine
 10
736.966277
 20
1291.283053
 30
0.0
 11
720.966277
 21
1291.283053
 31
0.0
  0
LINE
  5
552
100
AcDbEntity
  8
DETAIL
  6
CONTINUOUS
 62
     5
100
AcDbLine
 10
750.966277
 20
1293.283053
 30
0.0
 11
750.966277
 21
1277.283053
 31
0.0
  0
TEXT
  5
553
100
AcDbEntity
  8
SIZE
  6
CONTINUOUS
 62
    30
100
AcDbText
 10
578.823419
 20
1496.192865
 30
0.0
 40
55.0
  1
20
 41
0.9
 72
     1
 11
618.894848
 21
1496.192865
 31
0.0
100
AcDbText
  0
LINE
  5
554
100
AcDbEntity
  8
SIZE
  6
CONTINUOUS
 62
    30
100
AcDbLine
 10
686.966277
 20
1478.192865
 30
0.0
 11
560.82342
 21
1478.192865
 31
0.0
  0
POINT
  5
555
100
AcDbEntity
  8
DEFPOINTS
  6
CONTINUOUS
 62
     7
100
AcDbPoint
 10
720.966277
 20
1478.192865
 30
0.0
  0
LINE
  5
556
100
AcDbEntity
  8
SIZE
  6
CONTINUOUS
 62
    30
100
AcDbLine
 10
725.966277
 20
1478.192865
 30
0.0
 11
730.966277
 21
1478.192865
 31
0.0
  0
CIRCLE
  5
557
100
AcDbEntity
  8
SIZE
  6
CONTINUOUS
 62
    30
100
AcDbCircle
 10
720.966277
 20
1478.192865
 30
0.0
 40
5.0
  0
LINE
  5
558
100
AcDbEntity
  8
SIZE
  6
CONTINUOUS
 62
    30
100
AcDbLine
 10
711.966277
 20
1478.192865
 30
0.0
 11
706.966277
 21
1478.192865
 31
0.0
  0
CIRCLE
  5
559
100
AcDbEntity
  8
SIZE
  6
CONTINUOUS
 62
    30
100
AcDbCircle
 10
716.966277
 20
1478.192865
 30
0.0
 40
5.0
  0
LINE
  5
55A
100
AcDbEntity
  8
SIZE
  6
CONTINUOUS
 62
    30
100
AcDbLine
 10
716.966277
 20
1478.192865
 30
0.0
 11
720.966277
 21
1478.192865
 31
0.0
  0
LINE
  5
55B
100
AcDbEntity
  8
SIZE
  6
CONTINUOUS
 62
    30
100
AcDbLine
 10
716.966277
 20
1478.192865
 30
0.0
 11
720.966277
 21
1478.192865
 31
0.0
  0
LINE
  5
55C
100
AcDbEntity
  8
SIZE
  6
CONTINUOUS
 62
    30
100
AcDbLine
 10
730.966277
 20
1478.192865
 30
0.0
 11
740.966277
 21
1478.192865
 31
0.0
  0
LINE
  5
55D
100
AcDbEntity
  8
SIZE
  6
CONTINUOUS
 62
    30
100
AcDbLine
 10
706.966277
 20
1478.192865
 30
0.0
 11
696.966277
 21
1478.192865
 31
0.0
  0
POINT
  5
55E
100
AcDbEntity
  8
DEFPOINTS
  6
CONTINUOUS
 62
     7
100
AcDbPoint
 10
716.966277
 20
1478.192865
 30
0.0
  0
LINE
  5
55F
100
AcDbEntity
  8
SIZE
  6
CONTINUOUS
 62
    30
100
AcDbLine
 10
691.966277
 20
1478.192865
 30
0.0
 11
686.966277
 21
1478.192865
 31
0.0
  0
CIRCLE
  5
560
100
AcDbEntity
  8
SIZE
  6
CONTINUOUS
 62
    30
100
AcDbCircle
 10
696.966277
 20
1478.192865
 30
0.0
 40
5.0
  0
LINE
  5
561
100
AcDbEntity
  8
SIZE
  6
CONTINUOUS
 62
    30
100
AcDbLine
 10
721.966277
 20
1478.192865
 30
0.0
 11
726.966277
 21
1478.192865
 31
0.0
  0
CIRCLE
  5
562
100
AcDbEntity
  8
SIZE
  6
CONTINUOUS
 62
    30
100
AcDbCircle
 10
716.966277
 20
1478.192865
 30
0.0
 40
5.0
  0
LINE
  5
563
100
AcDbEntity
  8
SIZE
  6
CONTINUOUS
 62
    30
100
AcDbLine
 10
716.966277
 20
1478.192865
 30
0.0
 11
696.966277
 21
1478.192865
 31
0.0
  0
LINE
  5
564
100
AcDbEntity
  8
SIZE
  6
CONTINUOUS
 62
    30
100
AcDbLine
 10
726.966277
 20
1478.192865
 30
0.0
 11
736.966277
 21
1478.192865
 31
0.0
  0
LINE
  5
565
100
AcDbEntity
  8
SIZE
  6
CONTINUOUS
 62
    30
100
AcDbLine
 10
696.966277
 20
1411.283053
 30
0.0
 11
696.966277
 21
1508.192865
 31
0.0
  0
LINE
  5
566
100
AcDbEntity
  8
DETAIL
  6
CONTINUOUS
 62
     5
100
AcDbLine
 10
766.966277
 20
1302.283053
 30
0.0
 11
769.966277
 21
1299.283053
 31
0.0
  0
LINE
  5
567
100
AcDbEntity
  8
DETAIL
  6
CONTINUOUS
 62
     5
100
AcDbLine
 10
766.966277
 20
1302.283053
 30
0.0
 11
766.966277
 21
1316.283053
 31
0.0
  0
LINE
  5
568
100
AcDbEntity
  8
DETAIL
  6
CONTINUOUS
 62
     5
100
AcDbLine
 10
766.966277
 20
1302.283053
 30
0.0
 11
766.966277
 21
1316.283053
 31
0.0
  0
LINE
  5
569
100
AcDbEntity
  8
DETAIL
  6
CONTINUOUS
 62
     5
100
AcDbLine
 10
766.966277
 20
1302.283053
 30
0.0
 11
769.966277
 21
1299.283053
 31
0.0
  0
TEXT
  5
56A
100
AcDbEntity
  8
SIZE
  6
CONTINUOUS
 62
    30
100
AcDbText
 10
767.627128
 20
1496.192865
 30
0.0
 40
55.0
  1
4
 41
0.9
 72
     1
 11
785.305699
 21
1496.192865
 31
0.0
100
AcDbText
  0
LINE
  5
56B
100
AcDbEntity
  8
SIZE
  6
CONTINUOUS
 62
    30
100
AcDbLine
 10
721.966277
 20
1584.305205
 30
0.0
 11
726.966277
 21
1584.305205
 31
0.0
  0
CIRCLE
  5
56C
100
AcDbEntity
  8
SIZE
  6
CONTINUOUS
 62
    30
100
AcDbCircle
 10
716.966277
 20
1584.305205
 30
0.0
 40
5.0
  0
LINE
  5
56D
100
AcDbEntity
  8
SIZE
  6
CONTINUOUS
 62
    30
100
AcDbLine
 10
701.966277
 20
1722.586498
 30
0.0
 11
706.966277
 21
1722.586498
 31
0.0
  0
CIRCLE
  5
56E
100
AcDbEntity
  8
SIZE
  6
CONTINUOUS
 62
    30
100
AcDbCircle
 10
696.966277
 20
1722.586498
 30
0.0
 40
5.0
  0
LINE
  5
56F
100
AcDbEntity
  8
BASIS
  6
DASHDOT
 62
     6
100
AcDbLine
 10
1316.966277
 20
1418.783053
 30
0.0
 11
1316.966277
 21
428.783053
 31
0.0
  0
CIRCLE
  5
570
100
AcDbEntity
  8
ARRANGE
  6
CONTINUOUS
 62
     1
100
AcDbCircle
 10
1316.966277
 20
948.783053
 30
0.0
 40
50.0
  0
LINE
  5
571
100
AcDbEntity
  8
SIZE
  6
CONTINUOUS
 62
    30
100
AcDbLine
 10
2192.333943
 20
1275.283053
 30
0.0
 11
2192.333943
 21
625.283053
 31
0.0
  0
TEXT
  5
572
100
AcDbEntity
  8
SIZE
  6
CONTINUOUS
 62
    30
100
AcDbText
 10
2178.059727
 20
815.498223
 30
0.0
 40
60.0
  1
(吊りボルトピッチ)
 50
90.000003
 41
0.7
  7
STANDARD1
100
AcDbText
  0
LINE
  5
573
100
AcDbEntity
  8
SIZE
  6
CONTINUOUS
 62
    30
100
AcDbLine
 10
2660.031499
 20
801.283053
 30
0.0
 11
2660.031499
 21
1381.283053
 31
0.0
  0
TEXT
  5
574
100
AcDbEntity
  8
SIZE
  6
CONTINUOUS
 62
    30
100
AcDbText
 10
2490.299366
 20
817.618767
 30
0.0
 40
55.0
  1
566(天井開口寸法)
 50
90.0
 41
0.9
 72
     1
 11
2490.299366
 21
1091.283053
 31
0.0
100
AcDbText
  0
LINE
  5
575
100
AcDbEntity
  8
SIZE
  6
CONTINUOUS
 62
    30
100
AcDbLine
 10
2506.704128
 20
818.283053
 30
0.0
 11
2506.704128
 21
1364.283053
 31
0.0
  0
LINE
  5
576
100
AcDbEntity
  8
DETAIL
  6
CONTINUOUS
 62
     5
100
AcDbLine
 10
1936.966277
 20
1391.283053
 30
0.0
 11
1936.966277
 21
791.283053
 31
0.0
  0
LINE
  5
577
100
AcDbEntity
  8
OUTLINE
  6
CONTINUOUS
 62
     3
100
AcDbLine
 10
1936.966277
 20
1391.283053
 30
0.0
 11
1936.966277
 21
791.283053
 31
0.0
  0
LINE
  5
578
100
AcDbEntity
  8
OUTLINE
  6
CONTINUOUS
 62
     3
100
AcDbLine
 10
1896.966277
 20
581.283053
 30
0.0
 11
1896.966277
 21
1316.283053
 31
0.0
  0
LINE
  5
579
100
AcDbEntity
  8
SERVICESPACE
  6
CONTINUOUS
 62
     2
100
AcDbLine
 10
1916.966277
 20
808.283053
 30
0.0
 11
1916.966277
 21
1374.283053
 31
0.0
  0
LINE
  5
57A
100
AcDbEntity
  8
ARRANGE
  6
CONTINUOUS
 62
     1
100
AcDbLine
 10
1366.93004
 20
998.379648
 30
0.0
 11
1267.002514
 21
899.186458
 31
0.0
  0
LINE
  5
57B
100
AcDbEntity
  8
ARRANGE
  6
CONTINUOUS
 62
     1
100
AcDbLine
 10
1367.003627
 20
899.2607
 30
0.0
 11
1266.928927
 21
998.305406
 31
0.0
  0
LINE
  5
57C
100
AcDbEntity
  8
DETAIL
  6
CONTINUOUS
 62
     5
100
AcDbLine
 10
1896.966277
 20
641.883183
 30
0.0
 11
1896.966277
 21
1255.682923
 31
0.0
  0
LINE
  5
57D
100
AcDbEntity
  8
SIZE
  6
CONTINUOUS
 62
    30
100
AcDbLine
 10
1884.966277
 20
131.930303
 30
0.0
 11
1879.966277
 21
131.930303
 31
0.0
  0
LINE
  5
57E
100
AcDbEntity
  8
SIZE
  6
CONTINUOUS
 62
    30
100
AcDbLine
 10
1884.966277
 20
131.930303
 30
0.0
 11
1879.966277
 21
131.930303
 31
0.0
  0
LINE
  5
57F
100
AcDbEntity
  8
SIZE
  6
CONTINUOUS
 62
    30
100
AcDbLine
 10
1886.966277
 20
245.659303
 30
0.0
 11
1876.966277
 21
245.659303
 31
0.0
  0
LINE
  5
580
100
AcDbEntity
  8
SIZE
  6
CONTINUOUS
 62
    30
100
AcDbLine
 10
1886.966277
 20
380.415772
 30
0.0
 11
1676.966277
 21
380.415772
 31
0.0
  0
CIRCLE
  5
581
100
AcDbEntity
  8
FIX
  6
CONTINUOUS
 62
    11
100
AcDbCircle
 10
1889.966277
 20
615.283053
 30
0.0
 40
12.421498
  0
LINE
  5
582
100
AcDbEntity
  8
NOTE
  6
CONTINUOUS
 62
     4
100
AcDbLine
 10
1874.971111
 20
615.283053
 30
0.0
 11
1904.961443
 21
615.283053
 31
0.0
  0
LINE
  5
583
100
AcDbEntity
  8
DETAIL
  6
CONTINUOUS
 62
     5
100
AcDbLine
 10
1874.995612
 20
641.883183
 30
0.0
 11
1912.966277
 21
641.883183
 31
0.0
  0
ARC
  5
584
100
AcDbEntity
  8
DETAIL
  6
CONTINUOUS
 62
     5
100
AcDbCircle
 10
1889.966277
 20
607.283053
 30
0.0
 40
7.0
100
AcDbArc
 50
180.0
 51
0.0
  0
ARC
  5
585
100
AcDbEntity
  8
DETAIL
  6
CONTINUOUS
 62
     5
100
AcDbCircle
 10
1889.966277
 20
623.283053
 30
0.0
 40
7.0
100
AcDbArc
 50
0.0
 51
180.0
  0
ARC
  5
586
100
AcDbEntity
  8
DETAIL
  6
CONTINUOUS
 62
     5
100
AcDbCircle
 10
1889.966277
 20
623.283053
 30
0.0
 40
7.0
100
AcDbArc
 50
0.0
 51
180.0
  0
ARC
  5
587
100
AcDbEntity
  8
DETAIL
  6
CONTINUOUS
 62
     5
100
AcDbCircle
 10
1889.966277
 20
607.283053
 30
0.0
 40
7.0
100
AcDbArc
 50
180.0
 51
0.0
  0
TEXT
  5
588
100
AcDbEntity
  8
SIZE
  6
CONTINUOUS
 62
    30
100
AcDbText
 10
1240.217571
 20
48.000008
 30
0.0
 40
55.0
  1
1192
 41
0.9
 72
     1
 11
1318.003285
 21
48.000008
 31
0.0
100
AcDbText
  0
TEXT
  5
589
100
AcDbEntity
  8
SIZE
  6
CONTINUOUS
 62
    30
100
AcDbText
 10
1239.180563
 20
263.659303
 30
0.0
 40
55.0
  1
1160
 41
0.9
 72
     1
 11
1316.966277
 21
263.659303
 31
0.0
100
AcDbText
  0
LINE
  5
58A
100
AcDbEntity
  8
SIZE
  6
CONTINUOUS
 62
    30
100
AcDbLine
 10
1879.966277
 20
131.930303
 30
0.0
 11
1869.966277
 21
131.930303
 31
0.0
  0
LINE
  5
58B
100
AcDbEntity
  8
SIZE
  6
CONTINUOUS
 62
    30
100
AcDbLine
 10
1656.966277
 20
380.415772
 30
0.0
 11
1356.966277
 21
380.415772
 31
0.0
  0
TEXT
  5
58C
100
AcDbEntity
  8
NOTE
  6
CONTINUOUS
 62
     4
100
AcDbText
 10
1136.090318
 20
715.523077
 30
0.0
 40
60.0
  1
%%C200 吹出円形フランジ
 50
0.000003
 41
0.7
  7
STANDARD1
100
AcDbText
  0
LINE
  5
58D
100
AcDbEntity
  8
NOTE
  6
CONTINUOUS
 62
     4
100
AcDbLine
 10
1714.03401
 20
700.72741
 30
0.0
 11
1114.768926
 21
700.72741
 31
0.0
  0
LINE
  5
58E
100
AcDbEntity
  8
DETAIL
  6
CONTINUOUS
 62
     5
100
AcDbLine
 10
1446.966277
 20
551.283053
 30
0.0
 11
1246.663126
 21
551.283053
 31
0.0
  0
LINE
  5
58F
100
AcDbEntity
  8
DETAIL
  6
CONTINUOUS
 62
     5
100
AcDbLine
 10
1444.466277
 20
511.283053
 30
0.0
 11
1249.466277
 21
511.283053
 31
0.0
  0
LINE
  5
590
100
AcDbEntity
  8
NOTE
  6
CONTINUOUS
 62
     4
100
AcDbLine
 10
1114.768926
 20
700.72741
 30
0.0
 11
1026.966277
 21
511.283053
 31
0.0
  0
TEXT
  5
591
100
AcDbEntity
  8
SIZE
  6
CONTINUOUS
 62
    30
100
AcDbText
 10
1123.32342
 20
398.415772
 30
0.0
 40
55.0
  1
320
 41
0.9
 72
     1
 11
1186.966277
 21
398.415772
 31
0.0
100
AcDbText
  0
LINE
  5
592
100
AcDbEntity
  8
SIZE
  6
CONTINUOUS
 62
    30
100
AcDbLine
 10
1336.966277
 20
380.415772
 30
0.0
 11
1036.966277
 21
380.415772
 31
0.0
  0
ARC
  5
593
100
AcDbEntity
  8
DETAIL
  6
CONTINUOUS
 62
     5
100
AcDbCircle
 10
1194.22753
 20
466.320564
 30
0.0
 40
100.0
100
AcDbArc
 50
58.772114
 51
94.164056
  0
LINE
  5
594
100
AcDbEntity
  8
NOTE
  6
CONTINUOUS
 62
     4
100
AcDbLine
 10
1026.966277
 20
583.227568
 30
0.0
 11
1026.966277
 21
439.338538
 31
0.0
  0
POINT
  5
595
100
AcDbEntity
  8
DEFPOINTS
  6
CONTINUOUS
 62
     7
100
AcDbPoint
 10
1026.966277
 20
380.415772
 30
0.0
  0
POINT
  5
596
100
AcDbEntity
  8
DEFPOINTS
  6
CONTINUOUS
 62
     7
100
AcDbPoint
 10
1026.966277
 20
441.338538
 30
0.0
  0
LINE
  5
597
100
AcDbEntity
  8
SIZE
  6
CONTINUOUS
 62
    30
100
AcDbLine
 10
1031.966277
 20
380.415772
 30
0.0
 11
1036.966277
 21
380.415772
 31
0.0
  0
CIRCLE
  5
598
100
AcDbEntity
  8
SIZE
  6
CONTINUOUS
 62
    30
100
AcDbCircle
 10
1026.966277
 20
380.415772
 30
0.0
 40
5.0
  0
LINE
  5
599
100
AcDbEntity
  8
SIZE
  6
CONTINUOUS
 62
    30
100
AcDbLine
 10
1026.966277
 20
421.338538
 30
0.0
 11
1026.966277
 21
350.415772
 31
0.0
  0
LINE
  5
59A
100
AcDbEntity
  8
NOTE
  6
CONTINUOUS
 62
     4
100
AcDbLine
 10
1026.966277
 20
511.283053
 30
0.0
 11
1034.391859
 21
544.857007
 31
0.0
  0
LINE
  5
59B
100
AcDbEntity
  8
NOTE
  6
CONTINUOUS
 62
     4
100
AcDbLine
 10
1026.966277
 20
511.283053
 30
0.0
 11
1050.183997
 21
536.646159
 31
0.0
  0
LINE
  5
59C
100
AcDbEntity
  8
DETAIL
  6
CONTINUOUS
 62
     5
100
AcDbLine
 10
1124.466277
 20
511.283053
 30
0.0
 11
1126.90148
 21
550.2463
 31
0.0
  0
ARC
  5
59D
100
AcDbEntity
  8
DETAIL
  6
CONTINUOUS
 62
     5
100
AcDbCircle
 10
1179.705024
 20
466.320564
 30
0.0
 40
100.0
100
AcDbArc
 50
85.835944
 51
121.227886
  0
ARC
  5
59E
100
AcDbEntity
  8
DETAIL
  6
CONTINUOUS
 62
     5
100
AcDbCircle
 10
1128.897585
 20
550.121543
 30
0.0
 40
2.0
100
AcDbArc
 50
121.227886
 51
176.423666
  0
LINE
  5
59F
100
AcDbEntity
  8
NOTE
  6
CONTINUOUS
 62
     4
100
AcDbLine
 10
1346.966277
 20
583.227568
 30
0.0
 11
1346.966277
 21
439.338538
 31
0.0
  0
POINT
  5
5A0
100
AcDbEntity
  8
DEFPOINTS
  6
CONTINUOUS
 62
     7
100
AcDbPoint
 10
1346.966277
 20
441.338538
 30
0.0
  0
LINE
  5
5A1
100
AcDbEntity
  8
SIZE
  6
CONTINUOUS
 62
    30
100
AcDbLine
 10
1341.966277
 20
380.415772
 30
0.0
 11
1336.966277
 21
380.415772
 31
0.0
  0
CIRCLE
  5
5A2
100
AcDbEntity
  8
SIZE
  6
CONTINUOUS
 62
    30
100
AcDbCircle
 10
1346.966277
 20
380.415772
 30
0.0
 40
5.0
  0
LINE
  5
5A3
100
AcDbEntity
  8
SIZE
  6
CONTINUOUS
 62
    30
100
AcDbLine
 10
1346.966277
 20
421.338538
 30
0.0
 11
1346.966277
 21
350.415772
 31
0.0
  0
POINT
  5
5A4
100
AcDbEntity
  8
DEFPOINTS
  6
CONTINUOUS
 62
     7
100
AcDbPoint
 10
1346.966277
 20
380.415772
 30
0.0
  0
POINT
  5
5A5
100
AcDbEntity
  8
DEFPOINTS
  6
CONTINUOUS
 62
     7
100
AcDbPoint
 10
1346.966277
 20
441.338538
 30
0.0
  0
LINE
  5
5A6
100
AcDbEntity
  8
SIZE
  6
CONTINUOUS
 62
    30
100
AcDbLine
 10
1351.966277
 20
380.415772
 30
0.0
 11
1356.966277
 21
380.415772
 31
0.0
  0
CIRCLE
  5
5A7
100
AcDbEntity
  8
SIZE
  6
CONTINUOUS
 62
    30
100
AcDbCircle
 10
1346.966277
 20
380.415772
 30
0.0
 40
5.0
  0
LINE
  5
5A8
100
AcDbEntity
  8
SIZE
  6
CONTINUOUS
 62
    30
100
AcDbLine
 10
1346.966277
 20
421.338538
 30
0.0
 11
1346.966277
 21
350.415772
 31
0.0
  0
LINE
  5
5A9
100
AcDbEntity
  8
NOTE
  6
CONTINUOUS
 62
     4
100
AcDbLine
 10
1275.021762
 20
511.283053
 30
0.0
 11
1418.910792
 21
511.283053
 31
0.0
  0
ARC
  5
5AA
100
AcDbEntity
  8
DETAIL
  6
CONTINUOUS
 62
     5
100
AcDbCircle
 10
1245.034969
 20
550.121543
 30
0.0
 40
2.0
100
AcDbArc
 50
3.576334
 51
58.772114
  0
LINE
  5
5AB
100
AcDbEntity
  8
DETAIL
  6
CONTINUOUS
 62
     5
100
AcDbLine
 10
1249.466277
 20
511.283053
 30
0.0
 11
1247.031074
 21
550.2463
 31
0.0
  0
LINE
  5
5AC
100
AcDbEntity
  8
DETAIL
  6
CONTINUOUS
 62
     5
100
AcDbLine
 10
1874.995612
 20
581.283053
 30
0.0
 11
1874.995612
 21
641.883183
 31
0.0
  0
LINE
  5
5AD
100
AcDbEntity
  8
SIZE
  6
CONTINUOUS
 62
    30
100
AcDbLine
 10
1661.966277
 20
380.415772
 30
0.0
 11
1656.966277
 21
380.415772
 31
0.0
  0
LINE
  5
5AE
100
AcDbEntity
  8
NOTE
  6
CONTINUOUS
 62
     4
100
AcDbLine
 10
1595.021762
 20
511.283053
 30
0.0
 11
1738.910792
 21
511.283053
 31
0.0
  0
LINE
  5
5AF
100
AcDbEntity
  8
DETAIL
  6
CONTINUOUS
 62
     5
100
AcDbLine
 10
1764.466277
 20
511.283053
 30
0.0
 11
1569.466277
 21
511.283053
 31
0.0
  0
LINE
  5
5B0
100
AcDbEntity
  8
DETAIL
  6
CONTINUOUS
 62
     5
100
AcDbLine
 10
1766.966277
 20
551.283053
 30
0.0
 11
1566.956941
 21
551.283053
 31
0.0
  0
TEXT
  5
5B1
100
AcDbEntity
  8
SIZE
  6
CONTINUOUS
 62
    30
100
AcDbText
 10
1443.32342
 20
398.415772
 30
0.0
 40
55.0
  1
320
 41
0.9
 72
     1
 11
1506.966277
 21
398.415772
 31
0.0
100
AcDbText
  0
ARC
  5
5B2
100
AcDbEntity
  8
DETAIL
  6
CONTINUOUS
 62
     5
100
AcDbCircle
 10
1513.859582
 20
467.357317
 30
0.0
 40
100.0
100
AcDbArc
 50
58.5564
 51
94.164056
  0
ARC
  5
5B3
100
AcDbEntity
  8
DETAIL
  6
CONTINUOUS
 62
     5
100
AcDbCircle
 10
1448.979319
 20
551.429288
 30
0.0
 40
2.0
100
AcDbArc
 50
120.920929
 51
176.423666
  0
LINE
  5
5B4
100
AcDbEntity
  8
DETAIL
  6
CONTINUOUS
 62
     5
100
AcDbLine
 10
1444.466277
 20
511.283053
 30
0.0
 11
1446.983214
 21
551.554045
 31
0.0
  0
ARC
  5
5B5
100
AcDbEntity
  8
DETAIL
  6
CONTINUOUS
 62
     5
100
AcDbCircle
 10
1499.337076
 20
467.357317
 30
0.0
 40
100.0
100
AcDbArc
 50
85.835944
 51
120.920929
  0
ARC
  5
5B6
100
AcDbEntity
  8
DETAIL
  6
CONTINUOUS
 62
     5
100
AcDbCircle
 10
1564.982164
 20
550.966417
 30
0.0
 40
2.0
100
AcDbArc
 50
3.576334
 51
58.5564
  0
LINE
  5
5B7
100
AcDbEntity
  8
DETAIL
  6
CONTINUOUS
 62
     5
100
AcDbLine
 10
1569.466277
 20
511.283053
 30
0.0
 11
1566.978269
 21
551.091173
 31
0.0
  0
LINE
  5
5B8
100
AcDbEntity
  8
NOTE
  6
CONTINUOUS
 62
     4
100
AcDbLine
 10
1666.966277
 20
583.227568
 30
0.0
 11
1666.966277
 21
439.338538
 31
0.0
  0
TEXT
  5
5B9
100
AcDbEntity
  8
SIZE
  6
CONTINUOUS
 62
    30
100
AcDbText
 10
1718.32342
 20
398.415772
 30
0.0
 40
55.0
  1
230
 41
0.9
 72
     1
 11
1781.966277
 21
398.415772
 31
0.0
100
AcDbText
  0
POINT
  5
5BA
100
AcDbEntity
  8
DEFPOINTS
  6
CONTINUOUS
 62
     7
100
AcDbPoint
 10
1666.966277
 20
441.338538
 30
0.0
  0
CIRCLE
  5
5BB
100
AcDbEntity
  8
SIZE
  6
CONTINUOUS
 62
    30
100
AcDbCircle
 10
1666.966277
 20
380.415772
 30
0.0
 40
5.0
  0
LINE
  5
5BC
100
AcDbEntity
  8
SIZE
  6
CONTINUOUS
 62
    30
100
AcDbLine
 10
1666.966277
 20
421.338538
 30
0.0
 11
1666.966277
 21
350.415772
 31
0.0
  0
POINT
  5
5BD
100
AcDbEntity
  8
DEFPOINTS
  6
CONTINUOUS
 62
     7
100
AcDbPoint
 10
1666.966277
 20
380.415772
 30
0.0
  0
POINT
  5
5BE
100
AcDbEntity
  8
DEFPOINTS
  6
CONTINUOUS
 62
     7
100
AcDbPoint
 10
1666.966277
 20
441.338538
 30
0.0
  0
LINE
  5
5BF
100
AcDbEntity
  8
SIZE
  6
CONTINUOUS
 62
    30
100
AcDbLine
 10
1671.966277
 20
380.415772
 30
0.0
 11
1676.966277
 21
380.415772
 31
0.0
  0
CIRCLE
  5
5C0
100
AcDbEntity
  8
SIZE
  6
CONTINUOUS
 62
    30
100
AcDbCircle
 10
1666.966277
 20
380.415772
 30
0.0
 40
5.0
  0
LINE
  5
5C1
100
AcDbEntity
  8
SIZE
  6
CONTINUOUS
 62
    30
100
AcDbLine
 10
1666.966277
 20
421.338538
 30
0.0
 11
1666.966277
 21
350.415772
 31
0.0
  0
ARC
  5
5C2
100
AcDbEntity
  8
DETAIL
  6
CONTINUOUS
 62
     5
100
AcDbCircle
 10
1776.966277
 20
551.283053
 30
0.0
 40
10.0
100
AcDbArc
 50
93.959234
 51
180.0
  0
LINE
  5
5C3
100
AcDbEntity
  8
DETAIL
  6
CONTINUOUS
 62
     5
100
AcDbLine
 10
1764.466277
 20
511.283053
 30
0.0
 11
1766.966277
 21
551.283053
 31
0.0
  0
LINE
  5
5C4
100
AcDbEntity
  8
DETAIL
  6
CONTINUOUS
 62
     5
100
AcDbLine
 10
1882.966277
 20
607.283053
 30
0.0
 11
1882.966277
 21
623.283053
 31
0.0
  0
LINE
  5
5C5
100
AcDbEntity
  8
DETAIL
  6
CONTINUOUS
 62
     5
100
AcDbLine
 10
1882.966277
 20
607.283053
 30
0.0
 11
1882.966277
 21
623.283053
 31
0.0
  0
ARC
  5
5C6
100
AcDbEntity
  8
DETAIL
  6
CONTINUOUS
 62
     5
100
AcDbCircle
 10
1860.966277
 20
575.283053
 30
0.0
 40
4.0
100
AcDbArc
 50
270.0
 51
0.0
  0
LINE
  5
5C7
100
AcDbEntity
  8
DETAIL
  6
CONTINUOUS
 62
     5
100
AcDbLine
 10
1864.966277
 20
581.283053
 30
0.0
 11
1864.966277
 21
575.283053
 31
0.0
  0
LINE
  5
5C8
100
AcDbEntity
  8
DETAIL
  6
CONTINUOUS
 62
     5
100
AcDbLine
 10
1776.27581
 20
561.259187
 30
0.0
 11
1860.966277
 21
571.283053
 31
0.0
  0
LINE
  5
5C9
100
AcDbEntity
  8
SIZE
  6
CONTINUOUS
 62
    30
100
AcDbLine
 10
1912.966277
 20
561.283053
 30
0.0
 11
1912.966277
 21
101.930303
 31
0.0
  0
LINE
  5
5CA
100
AcDbEntity
  8
SIZE
  6
CONTINUOUS
 62
    30
100
AcDbLine
 10
1889.966277
 20
580.287887
 30
0.0
 11
1889.966277
 21
101.930303
 31
0.0
  0
LINE
  5
5CB
100
AcDbEntity
  8
SIZE
  6
CONTINUOUS
 62
    30
100
AcDbLine
 10
1889.966277
 20
580.287887
 30
0.0
 11
1889.966277
 21
101.930303
 31
0.0
  0
LINE
  5
5CC
100
AcDbEntity
  8
SIZE
  6
CONTINUOUS
 62
    30
100
AcDbLine
 10
1912.966277
 20
561.283053
 30
0.0
 11
1912.966277
 21
215.659303
 31
0.0
  0
LINE
  5
5CD
100
AcDbEntity
  8
SIZE
  6
CONTINUOUS
 62
    30
100
AcDbLine
 10
1896.966277
 20
621.883183
 30
0.0
 11
1896.966277
 21
215.659303
 31
0.0
  0
LINE
  5
5CE
100
AcDbEntity
  8
SIZE
  6
CONTINUOUS
 62
    30
100
AcDbLine
 10
1896.966277
 20
621.883183
 30
0.0
 11
1896.966277
 21
215.659303
 31
0.0
  0
LINE
  5
5CF
100
AcDbEntity
  8
SIZE
  6
CONTINUOUS
 62
    30
100
AcDbLine
 10
1912.966277
 20
561.283053
 30
0.0
 11
1912.966277
 21
0.000008
 31
0.0
  0
CIRCLE
  5
5D0
100
AcDbEntity
  8
SIZE
  6
CONTINUOUS
 62
    30
100
AcDbCircle
 10
1912.966277
 20
30.000008
 30
0.0
 40
5.0
  0
TEXT
  5
5D1
100
AcDbEntity
  8
SIZE
  6
CONTINUOUS
 62
    30
100
AcDbText
 10
1954.646127
 20
149.930303
 30
0.0
 40
55.0
  1
23
 41
0.9
 72
     1
 11
1994.717556
 21
149.930303
 31
0.0
100
AcDbText
  0
LINE
  5
5D2
100
AcDbEntity
  8
SIZE
  6
CONTINUOUS
 62
    30
100
AcDbLine
 10
2052.788985
 20
131.930303
 30
0.0
 11
1912.966277
 21
131.930303
 31
0.0
  0
POINT
  5
5D3
100
AcDbEntity
  8
DEFPOINTS
  6
CONTINUOUS
 62
     7
100
AcDbPoint
 10
1912.966277
 20
131.930303
 30
0.0
  0
LINE
  5
5D4
100
AcDbEntity
  8
SIZE
  6
CONTINUOUS
 62
    30
100
AcDbLine
 10
1917.966277
 20
131.930303
 30
0.0
 11
1922.966277
 21
131.930303
 31
0.0
  0
CIRCLE
  5
5D5
100
AcDbEntity
  8
SIZE
  6
CONTINUOUS
 62
    30
100
AcDbCircle
 10
1912.966277
 20
131.930303
 30
0.0
 40
5.0
  0
CIRCLE
  5
5D6
100
AcDbEntity
  8
SIZE
  6
CONTINUOUS
 62
    30
100
AcDbCircle
 10
1889.966277
 20
131.930303
 30
0.0
 40
5.0
  0
LINE
  5
5D7
100
AcDbEntity
  8
SIZE
  6
CONTINUOUS
 62
    30
100
AcDbLine
 10
1889.966277
 20
131.930303
 30
0.0
 11
1912.966277
 21
131.930303
 31
0.0
  0
LINE
  5
5D8
100
AcDbEntity
  8
SIZE
  6
CONTINUOUS
 62
    30
100
AcDbLine
 10
1889.966277
 20
131.930303
 30
0.0
 11
1912.966277
 21
131.930303
 31
0.0
  0
LINE
  5
5D9
100
AcDbEntity
  8
SIZE
  6
CONTINUOUS
 62
    30
100
AcDbLine
 10
1922.966277
 20
131.930303
 30
0.0
 11
1932.966277
 21
131.930303
 31
0.0
  0
POINT
  5
5DA
100
AcDbEntity
  8
DEFPOINTS
  6
CONTINUOUS
 62
     7
100
AcDbPoint
 10
1889.966277
 20
131.930303
 30
0.0
  0
CIRCLE
  5
5DB
100
AcDbEntity
  8
SIZE
  6
CONTINUOUS
 62
    30
100
AcDbCircle
 10
1889.966277
 20
131.930303
 30
0.0
 40
5.0
  0
POINT
  5
5DC
100
AcDbEntity
  8
DEFPOINTS
  6
CONTINUOUS
 62
     7
100
AcDbPoint
 10
1912.966277
 20
30.000008
 30
0.0
  0
LINE
  5
5DD
100
AcDbEntity
  8
SIZE
  6
CONTINUOUS
 62
    30
100
AcDbLine
 10
1907.966277
 20
30.000008
 30
0.0
 11
1902.966277
 21
30.000008
 31
0.0
  0
TEXT
  5
5DE
100
AcDbEntity
  8
SIZE
  6
CONTINUOUS
 62
    30
100
AcDbText
 10
1953.069991
 20
263.659303
 30
0.0
 40
55.0
  1
16
 41
0.9
 72
     1
 11
1987.248562
 21
263.659303
 31
0.0
100
AcDbText
  0
LINE
  5
5DF
100
AcDbEntity
  8
SIZE
  6
CONTINUOUS
 62
    30
100
AcDbLine
 10
2039.427134
 20
245.659303
 30
0.0
 11
1912.966277
 21
245.659303
 31
0.0
  0
POINT
  5
5E0
100
AcDbEntity
  8
DEFPOINTS
  6
CONTINUOUS
 62
     7
100
AcDbPoint
 10
1912.966277
 20
245.659303
 30
0.0
  0
LINE
  5
5E1
100
AcDbEntity
  8
SIZE
  6
CONTINUOUS
 62
    30
100
AcDbLine
 10
1917.966277
 20
245.659303
 30
0.0
 11
1922.966277
 21
245.659303
 31
0.0
  0
CIRCLE
  5
5E2
100
AcDbEntity
  8
SIZE
  6
CONTINUOUS
 62
    30
100
AcDbCircle
 10
1912.966277
 20
245.659303
 30
0.0
 40
5.0
  0
LINE
  5
5E3
100
AcDbEntity
  8
SIZE
  6
CONTINUOUS
 62
    30
100
AcDbLine
 10
1891.966277
 20
245.659303
 30
0.0
 11
1886.966277
 21
245.659303
 31
0.0
  0
CIRCLE
  5
5E4
100
AcDbEntity
  8
SIZE
  6
CONTINUOUS
 62
    30
100
AcDbCircle
 10
1896.966277
 20
245.659303
 30
0.0
 40
5.0
  0
LINE
  5
5E5
100
AcDbEntity
  8
SIZE
  6
CONTINUOUS
 62
    30
100
AcDbLine
 10
1896.966277
 20
245.659303
 30
0.0
 11
1912.966277
 21
245.659303
 31
0.0
  0
LINE
  5
5E6
100
AcDbEntity
  8
SIZE
  6
CONTINUOUS
 62
    30
100
AcDbLine
 10
1896.966277
 20
245.659303
 30
0.0
 11
1912.966277
 21
245.659303
 31
0.0
  0
LINE
  5
5E7
100
AcDbEntity
  8
SIZE
  6
CONTINUOUS
 62
    30
100
AcDbLine
 10
1922.966277
 20
245.659303
 30
0.0
 11
1932.966277
 21
245.659303
 31
0.0
  0
POINT
  5
5E8
100
AcDbEntity
  8
DEFPOINTS
  6
CONTINUOUS
 62
     7
100
AcDbPoint
 10
1896.966277
 20
245.659303
 30
0.0
  0
LINE
  5
5E9
100
AcDbEntity
  8
SIZE
  6
CONTINUOUS
 62
    30
100
AcDbLine
 10
1891.966277
 20
245.659303
 30
0.0
 11
1886.966277
 21
245.659303
 31
0.0
  0
CIRCLE
  5
5EA
100
AcDbEntity
  8
SIZE
  6
CONTINUOUS
 62
    30
100
AcDbCircle
 10
1896.966277
 20
245.659303
 30
0.0
 40
5.0
  0
LINE
  5
5EB
100
AcDbEntity
  8
SIZE
  6
CONTINUOUS
 62
    30
100
AcDbLine
 10
1956.966277
 20
791.283053
 30
0.0
 11
2690.031499
 21
791.283053
 31
0.0
  0
LINE
  5
5EC
100
AcDbEntity
  8
SIZE
  6
CONTINUOUS
 62
    30
100
AcDbLine
 10
1956.966277
 20
791.283053
 30
0.0
 11
2690.031499
 21
791.283053
 31
0.0
  0
LINE
  5
5ED
100
AcDbEntity
  8
SIZE
  6
CONTINUOUS
 62
    30
100
AcDbLine
 10
1932.966277
 20
581.283053
 30
0.0
 11
2690.031499
 21
581.283053
 31
0.0
  0
LINE
  5
5EE
100
AcDbEntity
  8
SIZE
  6
CONTINUOUS
 62
    30
100
AcDbLine
 10
1936.966277
 20
808.283053
 30
0.0
 11
2536.704128
 21
808.283053
 31
0.0
  0
LINE
  5
5EF
100
AcDbEntity
  8
SIZE
  6
CONTINUOUS
 62
    30
100
AcDbLine
 10
1936.966277
 20
808.283053
 30
0.0
 11
2536.704128
 21
808.283053
 31
0.0
  0
LINE
  5
5F0
100
AcDbEntity
  8
SIZE
  6
CONTINUOUS
 62
    30
100
AcDbLine
 10
1932.966277
 20
581.283053
 30
0.0
 11
2536.704128
 21
581.283053
 31
0.0
  0
LINE
  5
5F1
100
AcDbEntity
  8
NOTE
  6
CONTINUOUS
 62
     4
100
AcDbLine
 10
2731.786098
 20
364.151069
 30
0.0
 11
2025.899062
 21
364.151069
 31
0.0
  0
TEXT
  5
5F2
100
AcDbEntity
  8
NOTE
  6
CONTINUOUS
 62
     4
100
AcDbText
 10
2040.446761
 20
379.9776
 30
0.0
 40
60.0
  1
AH 4-14×30長穴(M10)
 50
0.000003
 41
0.7
  7
STANDARD1
100
AcDbText
  0
TEXT
  5
5F3
100
AcDbEntity
  8
SIZE
  6
CONTINUOUS
 62
    30
100
AcDbText
 10
2178.85847
 20
637.915563
 30
0.0
 40
55.0
  1
670
 50
90.0
 41
0.9
 72
     1
 11
2178.85847
 21
701.55842
 31
0.0
100
AcDbText
  0
LINE
  5
5F4
100
AcDbEntity
  8
DETAIL
  6
CONTINUOUS
 62
     5
100
AcDbLine
 10
1912.966277
 20
641.883183
 30
0.0
 11
1912.966277
 21
621.283053
 31
0.0
  0
LINE
  5
5F5
100
AcDbEntity
  8
SIZE
  6
CONTINUOUS
 62
    30
100
AcDbLine
 10
1924.961443
 20
615.283053
 30
0.0
 11
2222.333943
 21
615.283053
 31
0.0
  0
LINE
  5
5F6
100
AcDbEntity
  8
NOTE
  6
CONTINUOUS
 62
     4
100
AcDbLine
 10
2025.899062
 20
364.151069
 30
0.0
 11
1889.966277
 21
615.283053
 31
0.0
  0
LINE
  5
5F7
100
AcDbEntity
  8
SIZE
  6
CONTINUOUS
 62
    30
100
AcDbLine
 10
1896.966277
 20
561.283053
 30
0.0
 11
1896.966277
 21
350.415772
 31
0.0
  0
LINE
  5
5F8
100
AcDbEntity
  8
SIZE
  6
CONTINUOUS
 62
    30
100
AcDbLine
 10
1891.966277
 20
380.415772
 30
0.0
 11
1886.966277
 21
380.415772
 31
0.0
  0
CIRCLE
  5
5F9
100
AcDbEntity
  8
SIZE
  6
CONTINUOUS
 62
    30
100
AcDbCircle
 10
1896.966277
 20
380.415772
 30
0.0
 40
5.0
  0
POINT
  5
5FA
100
AcDbEntity
  8
DEFPOINTS
  6
CONTINUOUS
 62
     7
100
AcDbPoint
 10
1912.966277
 20
581.283053
 30
0.0
  0
POINT
  5
5FB
100
AcDbEntity
  8
DEFPOINTS
  6
CONTINUOUS
 62
     7
100
AcDbPoint
 10
1912.966277
 20
581.283053
 30
0.0
  0
POINT
  5
5FC
100
AcDbEntity
  8
DEFPOINTS
  6
CONTINUOUS
 62
     7
100
AcDbPoint
 10
1912.966277
 20
581.283053
 30
0.0
  0
POINT
  5
5FD
100
AcDbEntity
  8
DEFPOINTS
  6
CONTINUOUS
 62
     7
100
AcDbPoint
 10
1889.966277
 20
600.287887
 30
0.0
  0
POINT
  5
5FE
100
AcDbEntity
  8
DEFPOINTS
  6
CONTINUOUS
 62
     7
100
AcDbPoint
 10
1889.966277
 20
600.287887
 30
0.0
  0
POINT
  5
5FF
100
AcDbEntity
  8
DEFPOINTS
  6
CONTINUOUS
 62
     7
100
AcDbPoint
 10
1912.966277
 20
581.283053
 30
0.0
  0
LINE
  5
600
100
AcDbEntity
  8
NOTE
  6
CONTINUOUS
 62
     4
100
AcDbLine
 10
1889.966277
 20
615.283053
 30
0.0
 11
1913.405519
 21
590.124524
 31
0.0
  0
LINE
  5
601
100
AcDbEntity
  8
NOTE
  6
CONTINUOUS
 62
     4
100
AcDbLine
 10
1889.966277
 20
615.283053
 30
0.0
 11
1897.685991
 21
581.775506
 31
0.0
  0
POINT
  5
602
100
AcDbEntity
  8
DEFPOINTS
  6
CONTINUOUS
 62
     7
100
AcDbPoint
 10
1896.966277
 20
581.283053
 30
0.0
  0
POINT
  5
603
100
AcDbEntity
  8
DEFPOINTS
  6
CONTINUOUS
 62
     7
100
AcDbPoint
 10
1912.966277
 20
581.283053
 30
0.0
  0
LINE
  5
604
100
AcDbEntity
  8
NOTE
  6
CONTINUOUS
 62
     4
100
AcDbLine
 10
1889.966277
 20
630.278219
 30
0.0
 11
1889.966277
 21
600.287887
 31
0.0
  0
LINE
  5
605
100
AcDbEntity
  8
DETAIL
  6
CONTINUOUS
 62
     5
100
AcDbLine
 10
1912.966277
 20
609.283053
 30
0.0
 11
1912.966277
 21
581.283053
 31
0.0
  0
LINE
  5
606
100
AcDbEntity
  8
DETAIL
  6
CONTINUOUS
 62
     5
100
AcDbLine
 10
1896.966277
 20
609.283053
 30
0.0
 11
1912.966277
 21
609.283053
 31
0.0
  0
LINE
  5
607
100
AcDbEntity
  8
DETAIL
  6
CONTINUOUS
 62
     5
100
AcDbLine
 10
1896.966277
 20
621.283053
 30
0.0
 11
1912.966277
 21
621.283053
 31
0.0
  0
LINE
  5
608
100
AcDbEntity
  8
DETAIL
  6
CONTINUOUS
 62
     5
100
AcDbLine
 10
1896.966277
 20
621.283053
 30
0.0
 11
1896.966277
 21
623.283053
 31
0.0
  0
LINE
  5
609
100
AcDbEntity
  8
DETAIL
  6
CONTINUOUS
 62
     5
100
AcDbLine
 10
1896.966277
 20
607.283053
 30
0.0
 11
1896.966277
 21
609.283053
 31
0.0
  0
LINE
  5
60A
100
AcDbEntity
  8
DETAIL
  6
CONTINUOUS
 62
     5
100
AcDbLine
 10
1896.966277
 20
607.283053
 30
0.0
 11
1896.966277
 21
609.283053
 31
0.0
  0
LINE
  5
60B
100
AcDbEntity
  8
DETAIL
  6
CONTINUOUS
 62
     5
100
AcDbLine
 10
1896.966277
 20
621.283053
 30
0.0
 11
1896.966277
 21
623.283053
 31
0.0
  0
LINE
  5
60C
100
AcDbEntity
  8
DETAIL
  6
CONTINUOUS
 62
     5
100
AcDbLine
 10
1896.966277
 20
621.283053
 30
0.0
 11
1912.966277
 21
621.283053
 31
0.0
  0
LINE
  5
60D
100
AcDbEntity
  8
DETAIL
  6
CONTINUOUS
 62
     5
100
AcDbLine
 10
1896.966277
 20
609.283053
 30
0.0
 11
1912.966277
 21
609.283053
 31
0.0
  0
LINE
  5
60E
100
AcDbEntity
  8
SIZE
  6
CONTINUOUS
 62
    30
100
AcDbLine
 10
2192.333943
 20
620.283053
 30
0.0
 11
2192.333943
 21
625.283053
 31
0.0
  0
CIRCLE
  5
60F
100
AcDbEntity
  8
SIZE
  6
CONTINUOUS
 62
    30
100
AcDbCircle
 10
2192.333943
 20
615.283053
 30
0.0
 40
5.0
  0
CIRCLE
  5
610
100
AcDbEntity
  8
SIZE
  6
CONTINUOUS
 62
    30
100
AcDbCircle
 10
2056.358951
 20
791.283053
 30
0.0
 40
5.0
  0
LINE
  5
611
100
AcDbEntity
  8
SIZE
  6
CONTINUOUS
 62
    30
100
AcDbLine
 10
2056.358951
 20
808.283053
 30
0.0
 11
2056.358951
 21
791.283053
 31
0.0
  0
TEXT
  5
612
100
AcDbEntity
  8
SIZE
  6
CONTINUOUS
 62
    30
100
AcDbText
 10
2038.358951
 20
682.568767
 30
0.0
 40
55.0
  1
17
 50
90.0
 41
0.9
 72
     1
 11
2038.358951
 21
717.92591
 31
0.0
100
AcDbText
  0
LINE
  5
613
100
AcDbEntity
  8
SIZE
  6
CONTINUOUS
 62
    30
100
AcDbLine
 10
1956.966277
 20
791.283053
 30
0.0
 11
2086.358951
 21
791.283053
 31
0.0
  0
POINT
  5
614
100
AcDbEntity
  8
DEFPOINTS
  6
CONTINUOUS
 62
     7
100
AcDbPoint
 10
1936.966277
 20
791.283053
 30
0.0
  0
POINT
  5
615
100
AcDbEntity
  8
DEFPOINTS
  6
CONTINUOUS
 62
     7
100
AcDbPoint
 10
1936.966277
 20
791.283053
 30
0.0
  0
POINT
  5
616
100
AcDbEntity
  8
DEFPOINTS
  6
CONTINUOUS
 62
     7
100
AcDbPoint
 10
1936.966277
 20
791.283053
 30
0.0
  0
LINE
  5
617
100
AcDbEntity
  8
DETAIL
  6
CONTINUOUS
 62
     5
100
AcDbLine
 10
1936.966277
 20
791.283053
 30
0.0
 11
1896.966277
 21
791.283053
 31
0.0
  0
LINE
  5
618
100
AcDbEntity
  8
OUTLINE
  6
CONTINUOUS
 62
     3
100
AcDbLine
 10
1936.966277
 20
791.283053
 30
0.0
 11
1896.966277
 21
791.283053
 31
0.0
  0
POINT
  5
619
100
AcDbEntity
  8
DEFPOINTS
  6
CONTINUOUS
 62
     7
100
AcDbPoint
 10
1896.966277
 20
641.883183
 30
0.0
  0
POINT
  5
61A
100
AcDbEntity
  8
DEFPOINTS
  6
CONTINUOUS
 62
     7
100
AcDbPoint
 10
1896.966277
 20
641.883183
 30
0.0
  0
LINE
  5
61B
100
AcDbEntity
  8
DETAIL
  6
CONTINUOUS
 62
     5
100
AcDbLine
 10
1896.966277
 20
641.883183
 30
0.0
 11
1912.966277
 21
641.883183
 31
0.0
  0
POINT
  5
61C
100
AcDbEntity
  8
DEFPOINTS
  6
CONTINUOUS
 62
     7
100
AcDbPoint
 10
2056.358951
 20
791.283053
 30
0.0
  0
LINE
  5
61D
100
AcDbEntity
  8
SIZE
  6
CONTINUOUS
 62
    30
100
AcDbLine
 10
2056.358951
 20
786.283053
 30
0.0
 11
2056.358951
 21
781.283053
 31
0.0
  0
LINE
  5
61E
100
AcDbEntity
  8
SIZE
  6
CONTINUOUS
 62
    30
100
AcDbLine
 10
2056.358951
 20
781.283053
 30
0.0
 11
2056.358951
 21
664.568767
 31
0.0
  0
LINE
  5
61F
100
AcDbEntity
  8
SIZE
  6
CONTINUOUS
 62
    30
100
AcDbLine
 10
1936.966277
 20
808.283053
 30
0.0
 11
2086.358951
 21
808.283053
 31
0.0
  0
POINT
  5
620
100
AcDbEntity
  8
DEFPOINTS
  6
CONTINUOUS
 62
     7
100
AcDbPoint
 10
1916.966277
 20
808.283053
 30
0.0
  0
POINT
  5
621
100
AcDbEntity
  8
DEFPOINTS
  6
CONTINUOUS
 62
     7
100
AcDbPoint
 10
1916.966277
 20
808.283053
 30
0.0
  0
POINT
  5
622
100
AcDbEntity
  8
DEFPOINTS
  6
CONTINUOUS
 62
     7
100
AcDbPoint
 10
1916.966277
 20
808.283053
 30
0.0
  0
LINE
  5
623
100
AcDbEntity
  8
SERVICESPACE
  6
CONTINUOUS
 62
     2
100
AcDbLine
 10
1896.966277
 20
808.283053
 30
0.0
 11
1916.966277
 21
808.283053
 31
0.0
  0
LINE
  5
624
100
AcDbEntity
  8
SIZE
  6
CONTINUOUS
 62
    30
100
AcDbLine
 10
2056.358951
 20
813.283053
 30
0.0
 11
2056.358951
 21
818.283053
 31
0.0
  0
CIRCLE
  5
625
100
AcDbEntity
  8
SIZE
  6
CONTINUOUS
 62
    30
100
AcDbCircle
 10
2056.358951
 20
808.283053
 30
0.0
 40
5.0
  0
LINE
  5
626
100
AcDbEntity
  8
SIZE
  6
CONTINUOUS
 62
    30
100
AcDbLine
 10
2056.358951
 20
818.283053
 30
0.0
 11
2056.358951
 21
828.283053
 31
0.0
  0
TEXT
  5
627
100
AcDbEntity
  8
SIZE
  6
CONTINUOUS
 62
    30
100
AcDbText
 10
2642.031499
 20
627.354482
 30
0.0
 40
55.0
  1
210
 50
90.0
 41
0.9
 72
     1
 11
2642.031499
 21
686.283053
 31
0.0
100
AcDbText
  0
LINE
  5
628
100
AcDbEntity
  8
SIZE
  6
CONTINUOUS
 62
    30
100
AcDbLine
 10
2660.031499
 20
591.283053
 30
0.0
 11
2660.031499
 21
781.283053
 31
0.0
  0
TEXT
  5
629
100
AcDbEntity
  8
SIZE
  6
CONTINUOUS
 62
    30
100
AcDbText
 10
2488.704128
 20
631.140196
 30
0.0
 40
55.0
  1
227
 50
90.0
 41
0.9
 72
     1
 11
2488.704128
 21
694.783053
 31
0.0
100
AcDbText
  0
LINE
  5
62A
100
AcDbEntity
  8
SIZE
  6
CONTINUOUS
 62
    30
100
AcDbLine
 10
2506.704128
 20
591.283053
 30
0.0
 11
2506.704128
 21
798.283053
 31
0.0
  0
LINE
  5
62B
100
AcDbEntity
  8
SIZE
  6
CONTINUOUS
 62
    30
100
AcDbLine
 10
2506.704128
 20
586.283053
 30
0.0
 11
2506.704128
 21
591.283053
 31
0.0
  0
CIRCLE
  5
62C
100
AcDbEntity
  8
SIZE
  6
CONTINUOUS
 62
    30
100
AcDbCircle
 10
2506.704128
 20
581.283053
 30
0.0
 40
5.0
  0
LINE
  5
62D
100
AcDbEntity
  8
SIZE
  6
CONTINUOUS
 62
    30
100
AcDbLine
 10
2660.031499
 20
586.283053
 30
0.0
 11
2660.031499
 21
591.283053
 31
0.0
  0
CIRCLE
  5
62E
100
AcDbEntity
  8
SIZE
  6
CONTINUOUS
 62
    30
100
AcDbCircle
 10
2660.031499
 20
581.283053
 30
0.0
 40
5.0
  0
LINE
  5
62F
100
AcDbEntity
  8
SIZE
  6
CONTINUOUS
 62
    30
100
AcDbLine
 10
2506.704128
 20
813.283053
 30
0.0
 11
2506.704128
 21
818.283053
 31
0.0
  0
CIRCLE
  5
630
100
AcDbEntity
  8
SIZE
  6
CONTINUOUS
 62
    30
100
AcDbCircle
 10
2506.704128
 20
808.283053
 30
0.0
 40
5.0
  0
POINT
  5
631
100
AcDbEntity
  8
DEFPOINTS
  6
CONTINUOUS
 62
     7
100
AcDbPoint
 10
2506.704128
 20
808.283053
 30
0.0
  0
LINE
  5
632
100
AcDbEntity
  8
SIZE
  6
CONTINUOUS
 62
    30
100
AcDbLine
 10
2506.704128
 20
803.283053
 30
0.0
 11
2506.704128
 21
798.283053
 31
0.0
  0
CIRCLE
  5
633
100
AcDbEntity
  8
SIZE
  6
CONTINUOUS
 62
    30
100
AcDbCircle
 10
2506.704128
 20
808.283053
 30
0.0
 40
5.0
  0
CIRCLE
  5
634
100
AcDbEntity
  8
SIZE
  6
CONTINUOUS
 62
    30
100
AcDbCircle
 10
2660.031499
 20
791.283053
 30
0.0
 40
5.0
  0
CIRCLE
  5
635
100
AcDbEntity
  8
SIZE
  6
CONTINUOUS
 62
    30
100
AcDbCircle
 10
2660.031499
 20
791.283053
 30
0.0
 40
5.0
  0
POINT
  5
636
100
AcDbEntity
  8
DEFPOINTS
  6
CONTINUOUS
 62
     7
100
AcDbPoint
 10
2660.031499
 20
791.283053
 30
0.0
  0
LINE
  5
637
100
AcDbEntity
  8
SIZE
  6
CONTINUOUS
 62
    30
100
AcDbLine
 10
2660.031499
 20
786.283053
 30
0.0
 11
2660.031499
 21
781.283053
 31
0.0
  0
LINE
  5
638
100
AcDbEntity
  8
SIZE
  6
CONTINUOUS
 62
    30
100
AcDbLine
 10
2660.031499
 20
796.283053
 30
0.0
 11
2660.031499
 21
801.283053
 31
0.0
  0
LINE
  5
639
100
AcDbEntity
  8
BASIS
  6
DASHDOT
 62
     6
100
AcDbLine
 10
2000.422798
 20
948.783053
 30
0.0
 11
1316.966277
 21
948.783053
 31
0.0
  0
LINE
  5
63A
100
AcDbEntity
  8
SIZE
  6
CONTINUOUS
 62
    30
100
AcDbLine
 10
1812.948284
 20
1478.192865
 30
0.0
 11
1912.966277
 21
1478.192865
 31
0.0
  0
CIRCLE
  5
63B
100
AcDbEntity
  8
FIX
  6
CONTINUOUS
 62
    11
100
AcDbCircle
 10
1889.966277
 20
1285.283053
 30
0.0
 40
12.421498
  0
LINE
  5
63C
100
AcDbEntity
  8
NOTE
  6
CONTINUOUS
 62
     4
100
AcDbLine
 10
1874.971111
 20
1285.283053
 30
0.0
 11
1904.961443
 21
1285.283053
 31
0.0
  0
LINE
  5
63D
100
AcDbEntity
  8
DETAIL
  6
CONTINUOUS
 62
     5
100
AcDbLine
 10
1874.995612
 20
1255.682923
 30
0.0
 11
1912.966277
 21
1255.682923
 31
0.0
  0
ARC
  5
63E
100
AcDbEntity
  8
DETAIL
  6
CONTINUOUS
 62
     5
100
AcDbCircle
 10
1889.966277
 20
1293.283053
 30
0.0
 40
7.0
100
AcDbArc
 50
0.0
 51
180.0
  0
ARC
  5
63F
100
AcDbEntity
  8
DETAIL
  6
CONTINUOUS
 62
     5
100
AcDbCircle
 10
1889.966277
 20
1277.283053
 30
0.0
 40
7.0
100
AcDbArc
 50
180.0
 51
0.0
  0
ARC
  5
640
100
AcDbEntity
  8
DETAIL
  6
CONTINUOUS
 62
     5
100
AcDbCircle
 10
1889.966277
 20
1277.283053
 30
0.0
 40
7.0
100
AcDbArc
 50
180.0
 51
0.0
  0
ARC
  5
641
100
AcDbEntity
  8
DETAIL
  6
CONTINUOUS
 62
     5
100
AcDbCircle
 10
1889.966277
 20
1293.283053
 30
0.0
 40
7.0
100
AcDbArc
 50
0.0
 51
180.0
  0
LINE
  5
642
100
AcDbEntity
  8
DETAIL
  6
CONTINUOUS
 62
     5
100
AcDbLine
 10
1874.995612
 20
1316.283053
 30
0.0
 11
1874.995612
 21
1255.682923
 31
0.0
  0
LINE
  5
643
100
AcDbEntity
  8
DETAIL
  6
CONTINUOUS
 62
     5
100
AcDbLine
 10
1882.966277
 20
1293.283053
 30
0.0
 11
1882.966277
 21
1277.283053
 31
0.0
  0
LINE
  5
644
100
AcDbEntity
  8
DETAIL
  6
CONTINUOUS
 62
     5
100
AcDbLine
 10
1882.966277
 20
1293.283053
 30
0.0
 11
1882.966277
 21
1277.283053
 31
0.0
  0
LINE
  5
645
100
AcDbEntity
  8
DETAIL
  6
CONTINUOUS
 62
     5
100
AcDbLine
 10
1863.966277
 20
1299.283053
 30
0.0
 11
1866.966277
 21
1302.283053
 31
0.0
  0
LINE
  5
646
100
AcDbEntity
  8
DETAIL
  6
CONTINUOUS
 62
     5
100
AcDbLine
 10
1866.966277
 20
1302.283053
 30
0.0
 11
1866.966277
 21
1316.283053
 31
0.0
  0
LINE
  5
647
100
AcDbEntity
  8
DETAIL
  6
CONTINUOUS
 62
     5
100
AcDbLine
 10
1866.966277
 20
1302.283053
 30
0.0
 11
1866.966277
 21
1316.283053
 31
0.0
  0
LINE
  5
648
100
AcDbEntity
  8
DETAIL
  6
CONTINUOUS
 62
     5
100
AcDbLine
 10
1863.966277
 20
1299.283053
 30
0.0
 11
1866.966277
 21
1302.283053
 31
0.0
  0
TEXT
  5
649
100
AcDbEntity
  8
SIZE
  6
CONTINUOUS
 62
    30
100
AcDbText
 10
1830.948284
 20
1496.192865
 30
0.0
 40
55.0
  1
4
 41
0.9
 72
     1
 11
1848.626855
 21
1496.192865
 31
0.0
100
AcDbText
  0
TEXT
  5
64A
100
AcDbEntity
  8
SIZE
  6
CONTINUOUS
 62
    30
100
AcDbText
 10
1069.975623
 20
1602.305205
 30
0.0
 40
55.0
  1
1200（天井開口寸法）
 41
0.9
 72
     1
 11
1377.347052
 21
1602.305205
 31
0.0
100
AcDbText
  0
TEXT
  5
64B
100
AcDbEntity
  8
SIZE
  6
CONTINUOUS
 62
    30
100
AcDbText
 10
1234.466277
 20
1740.586498
 30
0.0
 40
55.0
  1
1240
 41
0.9
 72
     1
 11
1316.966277
 21
1740.586498
 31
0.0
100
AcDbText
  0
LINE
  5
64C
100
AcDbEntity
  8
SIZE
  6
CONTINUOUS
 62
    30
100
AcDbLine
 10
1936.966277
 20
1411.283053
 30
0.0
 11
1936.966277
 21
1752.586498
 31
0.0
  0
LINE
  5
64D
100
AcDbEntity
  8
SIZE
  6
CONTINUOUS
 62
    30
100
AcDbLine
 10
1916.966277
 20
1394.283053
 30
0.0
 11
1916.966277
 21
1614.305205
 31
0.0
  0
LINE
  5
64E
100
AcDbEntity
  8
SIZE
  6
CONTINUOUS
 62
    30
100
AcDbLine
 10
1956.966277
 20
1391.283053
 30
0.0
 11
2690.031499
 21
1391.283053
 31
0.0
  0
LINE
  5
64F
100
AcDbEntity
  8
SIZE
  6
CONTINUOUS
 62
    30
100
AcDbLine
 10
1936.966277
 20
1374.283053
 30
0.0
 11
2536.704128
 21
1374.283053
 31
0.0
  0
LINE
  5
650
100
AcDbEntity
  8
SIZE
  6
CONTINUOUS
 62
    30
100
AcDbLine
 10
2192.333943
 20
1300.783053
 30
0.0
 11
2305.983791
 21
1199.340926
 31
0.0
  0
TEXT
  5
651
100
AcDbEntity
  8
SIZE
  6
CONTINUOUS
 62
    30
100
AcDbText
 10
2287.983791
 20
1122.412354
 30
0.0
 40
55.0
  1
31
 50
90.0
 41
0.9
 72
     1
 11
2287.983791
 21
1151.87664
 31
0.0
100
AcDbText
  0
LINE
  5
652
100
AcDbEntity
  8
SIZE
  6
CONTINUOUS
 62
    30
100
AcDbLine
 10
2305.983791
 20
1199.340926
 30
0.0
 11
2305.983791
 21
1104.412354
 31
0.0
  0
LINE
  5
653
100
AcDbEntity
  8
SIZE
  6
CONTINUOUS
 62
    30
100
AcDbLine
 10
1924.961443
 20
1285.283053
 30
0.0
 11
2222.333943
 21
1285.283053
 31
0.0
  0
LINE
  5
654
100
AcDbEntity
  8
SIZE
  6
CONTINUOUS
 62
    30
100
AcDbLine
 10
1924.961443
 20
1285.283053
 30
0.0
 11
2222.333943
 21
1285.283053
 31
0.0
  0
LINE
  5
655
100
AcDbEntity
  8
SIZE
  6
CONTINUOUS
 62
    30
100
AcDbLine
 10
1932.966277
 20
1316.283053
 30
0.0
 11
2222.333943
 21
1316.283053
 31
0.0
  0
LINE
  5
656
100
AcDbEntity
  8
SIZE
  6
CONTINUOUS
 62
    30
100
AcDbLine
 10
1932.966277
 20
1316.283053
 30
0.0
 11
2222.333943
 21
1316.283053
 31
0.0
  0
LINE
  5
657
100
AcDbEntity
  8
SIZE
  6
CONTINUOUS
 62
    30
100
AcDbLine
 10
1936.966277
 20
1374.283053
 30
0.0
 11
2222.333943
 21
1374.283053
 31
0.0
  0
LINE
  5
658
100
AcDbEntity
  8
SIZE
  6
CONTINUOUS
 62
    30
100
AcDbLine
 10
1936.966277
 20
1374.283053
 30
0.0
 11
2222.333943
 21
1374.283053
 31
0.0
  0
LINE
  5
659
100
AcDbEntity
  8
SIZE
  6
CONTINUOUS
 62
    30
100
AcDbLine
 10
1956.966277
 20
1391.283053
 30
0.0
 11
2222.333943
 21
1391.283053
 31
0.0
  0
LINE
  5
65A
100
AcDbEntity
  8
SIZE
  6
CONTINUOUS
 62
    30
100
AcDbLine
 10
1912.966277
 20
1336.283053
 30
0.0
 11
1912.966277
 21
1508.192865
 31
0.0
  0
LINE
  5
65B
100
AcDbEntity
  8
SIZE
  6
CONTINUOUS
 62
    30
100
AcDbLine
 10
1916.966277
 20
1394.283053
 30
0.0
 11
1916.966277
 21
1508.192865
 31
0.0
  0
LINE
  5
65C
100
AcDbEntity
  8
SIZE
  6
CONTINUOUS
 62
    30
100
AcDbLine
 10
1916.966277
 20
1394.283053
 30
0.0
 11
1916.966277
 21
1508.192865
 31
0.0
  0
POINT
  5
65D
100
AcDbEntity
  8
DEFPOINTS
  6
CONTINUOUS
 62
     7
100
AcDbPoint
 10
1936.966277
 20
1391.283053
 30
0.0
  0
POINT
  5
65E
100
AcDbEntity
  8
DEFPOINTS
  6
CONTINUOUS
 62
     7
100
AcDbPoint
 10
1916.966277
 20
1374.283053
 30
0.0
  0
POINT
  5
65F
100
AcDbEntity
  8
DEFPOINTS
  6
CONTINUOUS
 62
     7
100
AcDbPoint
 10
1904.961443
 20
1285.283053
 30
0.0
  0
POINT
  5
660
100
AcDbEntity
  8
DEFPOINTS
  6
CONTINUOUS
 62
     7
100
AcDbPoint
 10
1912.966277
 20
1316.283053
 30
0.0
  0
POINT
  5
661
100
AcDbEntity
  8
DEFPOINTS
  6
CONTINUOUS
 62
     7
100
AcDbPoint
 10
1912.966277
 20
1316.283053
 30
0.0
  0
POINT
  5
662
100
AcDbEntity
  8
DEFPOINTS
  6
CONTINUOUS
 62
     7
100
AcDbPoint
 10
1916.966277
 20
1374.283053
 30
0.0
  0
POINT
  5
663
100
AcDbEntity
  8
DEFPOINTS
  6
CONTINUOUS
 62
     7
100
AcDbPoint
 10
1916.966277
 20
1374.283053
 30
0.0
  0
POINT
  5
664
100
AcDbEntity
  8
DEFPOINTS
  6
CONTINUOUS
 62
     7
100
AcDbPoint
 10
1936.966277
 20
1391.283053
 30
0.0
  0
POINT
  5
665
100
AcDbEntity
  8
DEFPOINTS
  6
CONTINUOUS
 62
     7
100
AcDbPoint
 10
1936.966277
 20
1391.283053
 30
0.0
  0
POINT
  5
666
100
AcDbEntity
  8
DEFPOINTS
  6
CONTINUOUS
 62
     7
100
AcDbPoint
 10
1912.966277
 20
1316.283053
 30
0.0
  0
POINT
  5
667
100
AcDbEntity
  8
DEFPOINTS
  6
CONTINUOUS
 62
     7
100
AcDbPoint
 10
1916.966277
 20
1374.283053
 30
0.0
  0
POINT
  5
668
100
AcDbEntity
  8
DEFPOINTS
  6
CONTINUOUS
 62
     7
100
AcDbPoint
 10
1916.966277
 20
1374.283053
 30
0.0
  0
POINT
  5
669
100
AcDbEntity
  8
DEFPOINTS
  6
CONTINUOUS
 62
     7
100
AcDbPoint
 10
1936.966277
 20
1391.283053
 30
0.0
  0
POINT
  5
66A
100
AcDbEntity
  8
DEFPOINTS
  6
CONTINUOUS
 62
     7
100
AcDbPoint
 10
1916.966277
 20
1374.283053
 30
0.0
  0
LINE
  5
66B
100
AcDbEntity
  8
NOTE
  6
CONTINUOUS
 62
     4
100
AcDbLine
 10
1889.966277
 20
1300.278219
 30
0.0
 11
1889.966277
 21
1270.287887
 31
0.0
  0
LINE
  5
66C
100
AcDbEntity
  8
DETAIL
  6
CONTINUOUS
 62
     5
100
AcDbLine
 10
1912.966277
 20
1279.283053
 30
0.0
 11
1912.966277
 21
1255.682923
 31
0.0
  0
LINE
  5
66D
100
AcDbEntity
  8
DETAIL
  6
CONTINUOUS
 62
     5
100
AcDbLine
 10
1912.966277
 20
1316.283053
 30
0.0
 11
1912.966277
 21
1291.283053
 31
0.0
  0
LINE
  5
66E
100
AcDbEntity
  8
DETAIL
  6
CONTINUOUS
 62
     5
100
AcDbLine
 10
1896.966277
 20
1255.682923
 30
0.0
 11
1912.966277
 21
1255.682923
 31
0.0
  0
LINE
  5
66F
100
AcDbEntity
  8
DETAIL
  6
CONTINUOUS
 62
     5
100
AcDbLine
 10
1896.966277
 20
1291.283053
 30
0.0
 11
1912.966277
 21
1291.283053
 31
0.0
  0
LINE
  5
670
100
AcDbEntity
  8
DETAIL
  6
CONTINUOUS
 62
     5
100
AcDbLine
 10
1896.966277
 20
1279.283053
 30
0.0
 11
1912.966277
 21
1279.283053
 31
0.0
  0
LINE
  5
671
100
AcDbEntity
  8
DETAIL
  6
CONTINUOUS
 62
     5
100
AcDbLine
 10
1896.966277
 20
1279.283053
 30
0.0
 11
1896.966277
 21
1277.283053
 31
0.0
  0
LINE
  5
672
100
AcDbEntity
  8
DETAIL
  6
CONTINUOUS
 62
     5
100
AcDbLine
 10
1896.966277
 20
1293.283053
 30
0.0
 11
1896.966277
 21
1291.283053
 31
0.0
  0
LINE
  5
673
100
AcDbEntity
  8
DETAIL
  6
CONTINUOUS
 62
     5
100
AcDbLine
 10
1896.966277
 20
1293.283053
 30
0.0
 11
1896.966277
 21
1291.283053
 31
0.0
  0
LINE
  5
674
100
AcDbEntity
  8
DETAIL
  6
CONTINUOUS
 62
     5
100
AcDbLine
 10
1896.966277
 20
1279.283053
 30
0.0
 11
1896.966277
 21
1277.283053
 31
0.0
  0
LINE
  5
675
100
AcDbEntity
  8
DETAIL
  6
CONTINUOUS
 62
     5
100
AcDbLine
 10
1896.966277
 20
1279.283053
 30
0.0
 11
1912.966277
 21
1279.283053
 31
0.0
  0
LINE
  5
676
100
AcDbEntity
  8
DETAIL
  6
CONTINUOUS
 62
     5
100
AcDbLine
 10
1896.966277
 20
1291.283053
 30
0.0
 11
1912.966277
 21
1291.283053
 31
0.0
  0
TEXT
  5
677
100
AcDbEntity
  8
SIZE
  6
CONTINUOUS
 62
    30
100
AcDbText
 10
1974.966277
 20
1496.192865
 30
0.0
 40
55.0
  1
20
 41
0.9
 72
     1
 11
2015.037706
 21
1496.192865
 31
0.0
100
AcDbText
  0
LINE
  5
678
100
AcDbEntity
  8
SIZE
  6
CONTINUOUS
 62
    30
100
AcDbLine
 10
1946.966277
 20
1478.192865
 30
0.0
 11
2073.109134
 21
1478.192865
 31
0.0
  0
POINT
  5
679
100
AcDbEntity
  8
DEFPOINTS
  6
CONTINUOUS
 62
     7
100
AcDbPoint
 10
1912.966277
 20
1478.192865
 30
0.0
  0
LINE
  5
67A
100
AcDbEntity
  8
SIZE
  6
CONTINUOUS
 62
    30
100
AcDbLine
 10
1907.966277
 20
1478.192865
 30
0.0
 11
1902.966277
 21
1478.192865
 31
0.0
  0
CIRCLE
  5
67B
100
AcDbEntity
  8
SIZE
  6
CONTINUOUS
 62
    30
100
AcDbCircle
 10
1912.966277
 20
1478.192865
 30
0.0
 40
5.0
  0
LINE
  5
67C
100
AcDbEntity
  8
SIZE
  6
CONTINUOUS
 62
    30
100
AcDbLine
 10
1921.966277
 20
1478.192865
 30
0.0
 11
1926.966277
 21
1478.192865
 31
0.0
  0
CIRCLE
  5
67D
100
AcDbEntity
  8
SIZE
  6
CONTINUOUS
 62
    30
100
AcDbCircle
 10
1916.966277
 20
1478.192865
 30
0.0
 40
5.0
  0
LINE
  5
67E
100
AcDbEntity
  8
SIZE
  6
CONTINUOUS
 62
    30
100
AcDbLine
 10
1916.966277
 20
1478.192865
 30
0.0
 11
1912.966277
 21
1478.192865
 31
0.0
  0
LINE
  5
67F
100
AcDbEntity
  8
SIZE
  6
CONTINUOUS
 62
    30
100
AcDbLine
 10
1916.966277
 20
1478.192865
 30
0.0
 11
1912.966277
 21
1478.192865
 31
0.0
  0
LINE
  5
680
100
AcDbEntity
  8
SIZE
  6
CONTINUOUS
 62
    30
100
AcDbLine
 10
1902.966277
 20
1478.192865
 30
0.0
 11
1892.966277
 21
1478.192865
 31
0.0
  0
LINE
  5
681
100
AcDbEntity
  8
SIZE
  6
CONTINUOUS
 62
    30
100
AcDbLine
 10
1926.966277
 20
1478.192865
 30
0.0
 11
1936.966277
 21
1478.192865
 31
0.0
  0
POINT
  5
682
100
AcDbEntity
  8
DEFPOINTS
  6
CONTINUOUS
 62
     7
100
AcDbPoint
 10
1916.966277
 20
1478.192865
 30
0.0
  0
LINE
  5
683
100
AcDbEntity
  8
SIZE
  6
CONTINUOUS
 62
    30
100
AcDbLine
 10
1941.966277
 20
1478.192865
 30
0.0
 11
1946.966277
 21
1478.192865
 31
0.0
  0
CIRCLE
  5
684
100
AcDbEntity
  8
SIZE
  6
CONTINUOUS
 62
    30
100
AcDbCircle
 10
1936.966277
 20
1478.192865
 30
0.0
 40
5.0
  0
LINE
  5
685
100
AcDbEntity
  8
SIZE
  6
CONTINUOUS
 62
    30
100
AcDbLine
 10
1911.966277
 20
1478.192865
 30
0.0
 11
1906.966277
 21
1478.192865
 31
0.0
  0
CIRCLE
  5
686
100
AcDbEntity
  8
SIZE
  6
CONTINUOUS
 62
    30
100
AcDbCircle
 10
1916.966277
 20
1478.192865
 30
0.0
 40
5.0
  0
LINE
  5
687
100
AcDbEntity
  8
SIZE
  6
CONTINUOUS
 62
    30
100
AcDbLine
 10
1916.966277
 20
1478.192865
 30
0.0
 11
1936.966277
 21
1478.192865
 31
0.0
  0
LINE
  5
688
100
AcDbEntity
  8
SIZE
  6
CONTINUOUS
 62
    30
100
AcDbLine
 10
1906.966277
 20
1478.192865
 30
0.0
 11
1896.966277
 21
1478.192865
 31
0.0
  0
LINE
  5
689
100
AcDbEntity
  8
SIZE
  6
CONTINUOUS
 62
    30
100
AcDbLine
 10
1936.966277
 20
1411.283053
 30
0.0
 11
1936.966277
 21
1508.192865
 31
0.0
  0
LINE
  5
68A
100
AcDbEntity
  8
SIZE
  6
CONTINUOUS
 62
    30
100
AcDbLine
 10
2192.333943
 20
1345.283053
 30
0.0
 11
2310.414474
 21
1418.714703
 31
0.0
  0
LINE
  5
68B
100
AcDbEntity
  8
SIZE
  6
CONTINUOUS
 62
    30
100
AcDbLine
 10
2192.333943
 20
1401.283053
 30
0.0
 11
2192.333943
 21
1517.997339
 31
0.0
  0
LINE
  5
68C
100
AcDbEntity
  8
SIZE
  6
CONTINUOUS
 62
    30
100
AcDbLine
 10
2192.333943
 20
1280.283053
 30
0.0
 11
2192.333943
 21
1275.283053
 31
0.0
  0
CIRCLE
  5
68D
100
AcDbEntity
  8
SIZE
  6
CONTINUOUS
 62
    30
100
AcDbCircle
 10
2192.333943
 20
1285.283053
 30
0.0
 40
5.0
  0
POINT
  5
68E
100
AcDbEntity
  8
DEFPOINTS
  6
CONTINUOUS
 62
     7
100
AcDbPoint
 10
2192.333943
 20
1285.283053
 30
0.0
  0
LINE
  5
68F
100
AcDbEntity
  8
SIZE
  6
CONTINUOUS
 62
    30
100
AcDbLine
 10
2192.333943
 20
1280.283053
 30
0.0
 11
2192.333943
 21
1275.283053
 31
0.0
  0
CIRCLE
  5
690
100
AcDbEntity
  8
SIZE
  6
CONTINUOUS
 62
    30
100
AcDbCircle
 10
2192.333943
 20
1285.283053
 30
0.0
 40
5.0
  0
LINE
  5
691
100
AcDbEntity
  8
SIZE
  6
CONTINUOUS
 62
    30
100
AcDbLine
 10
2192.333943
 20
1321.283053
 30
0.0
 11
2192.333943
 21
1326.283053
 31
0.0
  0
CIRCLE
  5
692
100
AcDbEntity
  8
SIZE
  6
CONTINUOUS
 62
    30
100
AcDbCircle
 10
2192.333943
 20
1316.283053
 30
0.0
 40
5.0
  0
LINE
  5
693
100
AcDbEntity
  8
SIZE
  6
CONTINUOUS
 62
    30
100
AcDbLine
 10
2192.333943
 20
1316.283053
 30
0.0
 11
2192.333943
 21
1285.283053
 31
0.0
  0
LINE
  5
694
100
AcDbEntity
  8
SIZE
  6
CONTINUOUS
 62
    30
100
AcDbLine
 10
2192.333943
 20
1316.283053
 30
0.0
 11
2192.333943
 21
1285.283053
 31
0.0
  0
LINE
  5
695
100
AcDbEntity
  8
SIZE
  6
CONTINUOUS
 62
    30
100
AcDbLine
 10
2192.333943
 20
1275.283053
 30
0.0
 11
2192.333943
 21
1265.283053
 31
0.0
  0
LINE
  5
696
100
AcDbEntity
  8
SIZE
  6
CONTINUOUS
 62
    30
100
AcDbLine
 10
2192.333943
 20
1326.283053
 30
0.0
 11
2192.333943
 21
1336.283053
 31
0.0
  0
POINT
  5
697
100
AcDbEntity
  8
DEFPOINTS
  6
CONTINUOUS
 62
     7
100
AcDbPoint
 10
2192.333943
 20
1316.283053
 30
0.0
  0
LINE
  5
698
100
AcDbEntity
  8
SIZE
  6
CONTINUOUS
 62
    30
100
AcDbLine
 10
2192.333943
 20
1321.283053
 30
0.0
 11
2192.333943
 21
1326.283053
 31
0.0
  0
CIRCLE
  5
699
100
AcDbEntity
  8
SIZE
  6
CONTINUOUS
 62
    30
100
AcDbCircle
 10
2192.333943
 20
1316.283053
 30
0.0
 40
5.0
  0
LINE
  5
69A
100
AcDbEntity
  8
SIZE
  6
CONTINUOUS
 62
    30
100
AcDbLine
 10
2192.333943
 20
1369.283053
 30
0.0
 11
2192.333943
 21
1364.283053
 31
0.0
  0
CIRCLE
  5
69B
100
AcDbEntity
  8
SIZE
  6
CONTINUOUS
 62
    30
100
AcDbCircle
 10
2192.333943
 20
1374.283053
 30
0.0
 40
5.0
  0
LINE
  5
69C
100
AcDbEntity
  8
SIZE
  6
CONTINUOUS
 62
    30
100
AcDbLine
 10
2192.333943
 20
1364.283053
 30
0.0
 11
2192.333943
 21
1326.283053
 31
0.0
  0
POINT
  5
69D
100
AcDbEntity
  8
DEFPOINTS
  6
CONTINUOUS
 62
     7
100
AcDbPoint
 10
2192.333943
 20
1374.283053
 30
0.0
  0
LINE
  5
69E
100
AcDbEntity
  8
SIZE
  6
CONTINUOUS
 62
    30
100
AcDbLine
 10
2192.333943
 20
1396.283053
 30
0.0
 11
2192.333943
 21
1401.283053
 31
0.0
  0
CIRCLE
  5
69F
100
AcDbEntity
  8
SIZE
  6
CONTINUOUS
 62
    30
100
AcDbCircle
 10
2192.333943
 20
1391.283053
 30
0.0
 40
5.0
  0
LINE
  5
6A0
100
AcDbEntity
  8
SIZE
  6
CONTINUOUS
 62
    30
100
AcDbLine
 10
2192.333943
 20
1369.283053
 30
0.0
 11
2192.333943
 21
1364.283053
 31
0.0
  0
CIRCLE
  5
6A1
100
AcDbEntity
  8
SIZE
  6
CONTINUOUS
 62
    30
100
AcDbCircle
 10
2192.333943
 20
1374.283053
 30
0.0
 40
5.0
  0
LINE
  5
6A2
100
AcDbEntity
  8
SIZE
  6
CONTINUOUS
 62
    30
100
AcDbLine
 10
2192.333943
 20
1374.283053
 30
0.0
 11
2192.333943
 21
1391.283053
 31
0.0
  0
LINE
  5
6A3
100
AcDbEntity
  8
SIZE
  6
CONTINUOUS
 62
    30
100
AcDbLine
 10
2192.333943
 20
1364.283053
 30
0.0
 11
2192.333943
 21
1354.283053
 31
0.0
  0
TEXT
  5
6A4
100
AcDbEntity
  8
SIZE
  6
CONTINUOUS
 62
    30
100
AcDbText
 10
2174.333943
 20
1429.283053
 30
0.0
 40
55.0
  1
17
 50
90.0
 41
0.9
 72
     1
 11
2174.333943
 21
1464.640196
 31
0.0
100
AcDbText
  0
TEXT
  5
6A5
100
AcDbEntity
  8
SIZE
  6
CONTINUOUS
 62
    30
100
AcDbText
 10
2292.414474
 20
1436.714702
 30
0.0
 40
55.0
  1
58
 50
90.0
 41
0.9
 72
     1
 11
2292.414474
 21
1476.786131
 31
0.0
100
AcDbText
  0
LINE
  5
6A6
100
AcDbEntity
  8
SIZE
  6
CONTINUOUS
 62
    30
100
AcDbLine
 10
2310.414474
 20
1418.714703
 30
0.0
 11
2310.414474
 21
1534.85756
 31
0.0
  0
TEXT
  5
6A7
100
AcDbEntity
  8
SIZE
  6
CONTINUOUS
 62
    30
100
AcDbText
 10
2642.031499
 20
1027.640196
 30
0.0
 40
55.0
  1
600
 50
90.0
 41
0.9
 72
     1
 11
2642.031499
 21
1091.283053
 31
0.0
100
AcDbText
  0
POINT
  5
6A8
100
AcDbEntity
  8
DEFPOINTS
  6
CONTINUOUS
 62
     7
100
AcDbPoint
 10
2506.704128
 20
1374.283053
 30
0.0
  0
LINE
  5
6A9
100
AcDbEntity
  8
SIZE
  6
CONTINUOUS
 62
    30
100
AcDbLine
 10
2506.704128
 20
1369.283053
 30
0.0
 11
2506.704128
 21
1364.283053
 31
0.0
  0
CIRCLE
  5
6AA
100
AcDbEntity
  8
SIZE
  6
CONTINUOUS
 62
    30
100
AcDbCircle
 10
2506.704128
 20
1374.283053
 30
0.0
 40
5.0
  0
POINT
  5
6AB
100
AcDbEntity
  8
DEFPOINTS
  6
CONTINUOUS
 62
     7
100
AcDbPoint
 10
2660.031499
 20
1391.283053
 30
0.0
  0
LINE
  5
6AC
100
AcDbEntity
  8
SIZE
  6
CONTINUOUS
 62
    30
100
AcDbLine
 10
2660.031499
 20
1386.283053
 30
0.0
 11
2660.031499
 21
1381.283053
 31
0.0
  0
CIRCLE
  5
6AD
100
AcDbEntity
  8
SIZE
  6
CONTINUOUS
 62
    30
100
AcDbCircle
 10
2660.031499
 20
1391.283053
 30
0.0
 40
5.0
  0
POINT
  5
6AE
100
AcDbEntity
  8
DEFPOINTS
  6
CONTINUOUS
 62
     7
100
AcDbPoint
 10
1916.966277
 20
1584.305205
 30
0.0
  0
LINE
  5
6AF
100
AcDbEntity
  8
SIZE
  6
CONTINUOUS
 62
    30
100
AcDbLine
 10
1911.966277
 20
1584.305205
 30
0.0
 11
1906.966277
 21
1584.305205
 31
0.0
  0
CIRCLE
  5
6B0
100
AcDbEntity
  8
SIZE
  6
CONTINUOUS
 62
    30
100
AcDbCircle
 10
1916.966277
 20
1584.305205
 30
0.0
 40
5.0
  0
POINT
  5
6B1
100
AcDbEntity
  8
DEFPOINTS
  6
CONTINUOUS
 62
     7
100
AcDbPoint
 10
1936.966277
 20
1722.586498
 30
0.0
  0
LINE
  5
6B2
100
AcDbEntity
  8
SIZE
  6
CONTINUOUS
 62
    30
100
AcDbLine
 10
1931.966277
 20
1722.586498
 30
0.0
 11
1926.966277
 21
1722.586498
 31
0.0
  0
CIRCLE
  5
6B3
100
AcDbEntity
  8
SIZE
  6
CONTINUOUS
 62
    30
100
AcDbCircle
 10
1936.966277
 20
1722.586498
 30
0.0
 40
5.0
  0
ENDBLK
  5
6B5
100
AcDbEntity
  8
0
 62
     7
100
AcDbBlockEnd
  0
ENDSEC
  0
SECTION
  2
ENTITIES
  0
TEXT
  5
6B7
100
AcDbEntity
  8
ETC
  6
CONTINUOUS
 62
    61
100
AcDbText
 10
363.673767
 20
820.731326
 30
0.0
 40
80.0
  1
PDFY-P71_90M-E2_1
 50
0.000003
 41
0.8
100
AcDbText
  0
LINE
  5
6B8
100
AcDbEntity
  8
SIZE
  6
CONTINUOUS
 62
    30
100
AcDbLine
 10
-610.0
 20
773.803445
 30
0.0
 11
610.0
 21
773.803445
 31
0.0
  0
LINE
  5
6B9
100
AcDbEntity
  8
DETAIL
  6
CONTINUOUS
 62
     5
100
AcDbLine
 10
-620.0
 20
442.5
 30
0.0
 11
620.0
 21
442.5
 31
0.0
  0
LINE
  5
6BA
100
AcDbEntity
  8
OUTLINE
  6
CONTINUOUS
 62
     3
100
AcDbLine
 10
-620.0
 20
442.5
 30
0.0
 11
620.0
 21
442.5
 31
0.0
  0
TEXT
  5
6BB
100
AcDbEntity
  8
SIZE
  6
CONTINUOUS
 62
    30
100
AcDbText
 10
-347.207143
 20
-799.447988
 30
0.0
 40
55.0
  1
1146(吊りボルトピッチ)
 41
0.9
 72
     1
 11
0.0
 21
-799.447988
 31
0.0
100
AcDbText
  0
LINE
  5
6BC
100
AcDbEntity
  8
SIZE
  6
CONTINUOUS
 62
    30
100
AcDbLine
 10
-563.0
 20
-816.85275
 30
0.0
 11
563.0
 21
-816.85275
 31
0.0
  0
LINE
  5
6BD
100
AcDbEntity
  8
SIZE
  6
CONTINUOUS
 62
    30
100
AcDbLine
 10
-570.0
 20
-703.12375
 30
0.0
 11
570.0
 21
-703.12375
 31
0.0
  0
LINE
  5
6BE
100
AcDbEntity
  8
SIZE
  6
CONTINUOUS
 62
    30
100
AcDbLine
 10
-586.0
 20
-918.783045
 30
0.0
 11
586.0
 21
-918.783045
 31
0.0
  0
LINE
  5
6BF
100
AcDbEntity
  8
SIZE
  6
CONTINUOUS
 62
    30
100
AcDbLine
 10
-590.0
 20
635.522152
 30
0.0
 11
590.0
 21
635.522152
 31
0.0
  0
LINE
  5
6C0
100
AcDbEntity
  8
NOTE
  6
CONTINUOUS
 62
     4
100
AcDbLine
 10
-361.944515
 20
-437.5
 30
0.0
 11
-218.055485
 21
-437.5
 31
0.0
  0
LINE
  5
6C1
100
AcDbEntity
  8
OUTLINE
  6
CONTINUOUS
 62
     3
100
AcDbLine
 10
580.0
 20
367.5
 30
0.0
 11
-580.0
 21
367.5
 31
0.0
  0
LINE
  5
6C2
100
AcDbEntity
  8
OUTLINE
  6
CONTINUOUS
 62
     3
100
AcDbLine
 10
-580.0
 20
-367.5
 30
0.0
 11
580.0
 21
-367.5
 31
0.0
  0
LINE
  5
6C3
100
AcDbEntity
  8
SERVICESPACE
  6
CONTINUOUS
 62
     2
100
AcDbLine
 10
-600.0
 20
-140.5
 30
0.0
 11
600.0
 21
-140.5
 31
0.0
  0
LINE
  5
6C4
100
AcDbEntity
  8
SERVICESPACE
  6
CONTINUOUS
 62
     2
100
AcDbLine
 10
-600.0
 20
425.5
 30
0.0
 11
600.0
 21
425.5
 31
0.0
  0
LINE
  5
6C5
100
AcDbEntity
  8
BASIS
  6
DASHDOT
 62
     6
100
AcDbLine
 10
-683.0
 20
0.0
 30
0.0
 11
683.0
 21
0.0
 31
0.0
  0
LINE
  5
6C6
100
AcDbEntity
  8
DETAIL
  6
CONTINUOUS
 62
     5
100
AcDbLine
 10
-596.0
 20
367.5
 30
0.0
 11
596.0
 21
367.5
 31
0.0
  0
LINE
  5
6C7
100
AcDbEntity
  8
DETAIL
  6
CONTINUOUS
 62
     5
100
AcDbLine
 10
-596.0
 20
-367.5
 30
0.0
 11
596.0
 21
-367.5
 31
0.0
  0
LINE
  5
6C9
100
AcDbEntity
  8
DETAIL
  6
CONTINUOUS
 62
     5
100
AcDbLine
 10
-547.0
 20
350.5
 30
0.0
 11
547.0
 21
350.5
 31
0.0
  0
LINE
  5
6CA
100
AcDbEntity
  8
DETAIL
  6
CONTINUOUS
 62
     5
100
AcDbLine
 10
-547.0
 20
350.5
 30
0.0
 11
547.0
 21
350.5
 31
0.0
  0
LINE
  5
6CB
100
AcDbEntity
  8
DETAIL
  6
CONTINUOUS
 62
     5
100
AcDbLine
 10
-387.5
 20
-437.5
 30
0.0
 11
-192.5
 21
-437.5
 31
0.0
  0
LINE
  5
6CC
100
AcDbEntity
  8
DETAIL
  6
CONTINUOUS
 62
     5
100
AcDbLine
 10
-189.696849
 20
-397.5
 30
0.0
 11
-390.0
 21
-397.5
 31
0.0
  0
LINE
  5
6CD
100
AcDbEntity
  8
DETAIL
  6
CONTINUOUS
 62
     5
100
AcDbLine
 10
-544.0
 20
-377.5
 30
0.0
 11
544.0
 21
-377.5
 31
0.0
  0
LINE
  5
6CE
100
AcDbEntity
  8
SIZE
  6
CONTINUOUS
 62
    30
100
AcDbLine
 10
-580.0
 20
-19.5
 30
0.0
 11
-580.0
 21
158.745085
 31
0.0
  0
LINE
  5
6CF
100
AcDbEntity
  8
SIZE
  6
CONTINUOUS
 62
    30
100
AcDbLine
 10
-616.008862
 20
-165.0
 30
0.0
 11
-616.0
 21
158.745085
 31
0.0
  0
LINE
  5
6D0
100
AcDbEntity
  8
DETAIL
  6
CONTINUOUS
 62
     5
100
AcDbLine
 10
-620.0
 20
-157.5
 30
0.0
 11
-620.0
 21
442.5
 31
0.0
  0
LINE
  5
6D1
100
AcDbEntity
  8
OUTLINE
  6
CONTINUOUS
 62
     3
100
AcDbLine
 10
-620.0
 20
-157.5
 30
0.0
 11
-620.0
 21
442.5
 31
0.0
  0
LINE
  5
6D2
100
AcDbEntity
  8
SIZE
  6
CONTINUOUS
 62
    30
100
AcDbLine
 10
-614.0
 20
-74.5
 30
0.0
 11
-614.0
 21
65.647389
 31
0.0
  0
LINE
  5
6D3
100
AcDbEntity
  8
SIZE
  6
CONTINUOUS
 62
    30
100
AcDbLine
 10
-580.0
 20
-58.142904
 30
0.0
 11
-580.0
 21
65.647389
 31
0.0
  0
TEXT
  5
6D4
100
AcDbEntity
  8
SIZE
  6
CONTINUOUS
 62
    30
100
AcDbText
 10
-970.91512
 20
-63.642857
 30
0.0
 40
55.0
  1
735
 50
90.0
 41
0.9
 72
     1
 11
-970.91512
 21
0.0
 31
0.0
100
AcDbText
  0
LINE
  5
6D5
100
AcDbEntity
  8
SIZE
  6
CONTINUOUS
 62
    30
100
AcDbLine
 10
-952.91512
 20
-357.5
 30
0.0
 11
-952.91512
 21
357.5
 31
0.0
  0
LINE
  5
6D6
100
AcDbEntity
  8
NOTE
  6
CONTINUOUS
 62
     4
100
AcDbLine
 10
-692.950707
 20
427.509771
 30
0.0
 11
-614.0
 21
-94.5
 31
0.0
  0
LINE
  5
6D7
100
AcDbEntity
  8
OUTLINE
  6
CONTINUOUS
 62
     3
100
AcDbLine
 10
-580.0
 20
367.5
 30
0.0
 11
-580.0
 21
-367.5
 31
0.0
  0
LINE
  5
6D8
100
AcDbEntity
  8
SERVICESPACE
  6
CONTINUOUS
 62
     2
100
AcDbLine
 10
-600.0
 20
425.5
 30
0.0
 11
-600.0
 21
-110.5
 31
0.0
  0
LINE
  5
6D9
100
AcDbEntity
  8
NOTE
  6
CONTINUOUS
 62
     4
100
AcDbLine
 10
-973.252709
 20
195.45283
 30
0.0
 11
-616.0
 21
-175.5
 31
0.0
  0
LINE
  5
6DA
100
AcDbEntity
  8
DETAIL
  6
CONTINUOUS
 62
     5
100
AcDbLine
 10
-580.0
 20
-306.89987
 30
0.0
 11
-580.0
 21
306.89987
 31
0.0
  0
LINE
  5
6DB
100
AcDbEntity
  8
SIZE
  6
CONTINUOUS
 62
    30
100
AcDbLine
 10
-573.0
 20
-368.495166
 30
0.0
 11
-573.0
 21
-846.85275
 31
0.0
  0
LINE
  5
6DC
100
AcDbEntity
  8
SIZE
  6
CONTINUOUS
 62
    30
100
AcDbLine
 10
-573.0
 20
-368.495166
 30
0.0
 11
-573.0
 21
-846.85275
 31
0.0
  0
LINE
  5
6DD
100
AcDbEntity
  8
SIZE
  6
CONTINUOUS
 62
    30
100
AcDbLine
 10
-596.0
 20
-387.5
 30
0.0
 11
-596.0
 21
-846.85275
 31
0.0
  0
LINE
  5
6DE
100
AcDbEntity
  8
SIZE
  6
CONTINUOUS
 62
    30
100
AcDbLine
 10
-580.0
 20
-326.89987
 30
0.0
 11
-580.0
 21
-733.12375
 31
0.0
  0
LINE
  5
6DF
100
AcDbEntity
  8
SIZE
  6
CONTINUOUS
 62
    30
100
AcDbLine
 10
-580.0
 20
-326.89987
 30
0.0
 11
-580.0
 21
-733.12375
 31
0.0
  0
LINE
  5
6E0
100
AcDbEntity
  8
SIZE
  6
CONTINUOUS
 62
    30
100
AcDbLine
 10
-596.0
 20
-387.5
 30
0.0
 11
-596.0
 21
-733.12375
 31
0.0
  0
LINE
  5
6E1
100
AcDbEntity
  8
SIZE
  6
CONTINUOUS
 62
    30
100
AcDbLine
 10
-596.0
 20
-387.5
 30
0.0
 11
-596.0
 21
-948.783045
 31
0.0
  0
CIRCLE
  5
6E2
100
AcDbEntity
  8
SIZE
  6
CONTINUOUS
 62
    30
100
AcDbCircle
 10
-596.0
 20
-918.783045
 30
0.0
 40
5.0
  0
TEXT
  5
6E3
100
AcDbEntity
  8
SIZE
  6
CONTINUOUS
 62
    30
100
AcDbText
 10
-714.142858
 20
-798.85275
 30
0.0
 40
55.0
  1
23
 41
0.9
 72
     1
 11
-674.071429
 21
-798.85275
 31
0.0
100
AcDbText
  0
LINE
  5
6E4
100
AcDbEntity
  8
SIZE
  6
CONTINUOUS
 62
    30
100
AcDbLine
 10
-606.0
 20
-816.85275
 30
0.0
 11
-732.142857
 21
-816.85275
 31
0.0
  0
LINE
  5
6E5
100
AcDbEntity
  8
SIZE
  6
CONTINUOUS
 62
    30
100
AcDbLine
 10
-568.0
 20
-816.85275
 30
0.0
 11
-563.0
 21
-816.85275
 31
0.0
  0
CIRCLE
  5
6E6
100
AcDbEntity
  8
SIZE
  6
CONTINUOUS
 62
    30
100
AcDbCircle
 10
-573.0
 20
-816.85275
 30
0.0
 40
5.0
  0
POINT
  5
6E7
100
AcDbEntity
  8
DEFPOINTS
  6
CONTINUOUS
 62
     7
100
AcDbPoint
 10
-573.0
 20
-816.85275
 30
0.0
  0
LINE
  5
6E8
100
AcDbEntity
  8
SIZE
  6
CONTINUOUS
 62
    30
100
AcDbLine
 10
-601.0
 20
-816.85275
 30
0.0
 11
-606.0
 21
-816.85275
 31
0.0
  0
CIRCLE
  5
6E9
100
AcDbEntity
  8
SIZE
  6
CONTINUOUS
 62
    30
100
AcDbCircle
 10
-596.0
 20
-816.85275
 30
0.0
 40
5.0
  0
LINE
  5
6EA
100
AcDbEntity
  8
SIZE
  6
CONTINUOUS
 62
    30
100
AcDbLine
 10
-568.0
 20
-816.85275
 30
0.0
 11
-563.0
 21
-816.85275
 31
0.0
  0
CIRCLE
  5
6EB
100
AcDbEntity
  8
SIZE
  6
CONTINUOUS
 62
    30
100
AcDbCircle
 10
-573.0
 20
-816.85275
 30
0.0
 40
5.0
  0
LINE
  5
6EC
100
AcDbEntity
  8
SIZE
  6
CONTINUOUS
 62
    30
100
AcDbLine
 10
-573.0
 20
-816.85275
 30
0.0
 11
-596.0
 21
-816.85275
 31
0.0
  0
LINE
  5
6ED
100
AcDbEntity
  8
SIZE
  6
CONTINUOUS
 62
    30
100
AcDbLine
 10
-563.0
 20
-816.85275
 30
0.0
 11
-553.0
 21
-816.85275
 31
0.0
  0
LINE
  5
6EE
100
AcDbEntity
  8
SIZE
  6
CONTINUOUS
 62
    30
100
AcDbLine
 10
-591.0
 20
-918.783045
 30
0.0
 11
-586.0
 21
-918.783045
 31
0.0
  0
TEXT
  5
6EF
100
AcDbEntity
  8
SIZE
  6
CONTINUOUS
 62
    30
100
AcDbText
 10
-702.357142
 20
-685.12375
 30
0.0
 40
55.0
  1
16
 41
0.9
 72
     1
 11
-668.178571
 21
-685.12375
 31
0.0
100
AcDbText
  0
LINE
  5
6F0
100
AcDbEntity
  8
SIZE
  6
CONTINUOUS
 62
    30
100
AcDbLine
 10
-606.0
 20
-703.12375
 30
0.0
 11
-720.357143
 21
-703.12375
 31
0.0
  0
LINE
  5
6F1
100
AcDbEntity
  8
SIZE
  6
CONTINUOUS
 62
    30
100
AcDbLine
 10
-575.0
 20
-703.12375
 30
0.0
 11
-570.0
 21
-703.12375
 31
0.0
  0
CIRCLE
  5
6F2
100
AcDbEntity
  8
SIZE
  6
CONTINUOUS
 62
    30
100
AcDbCircle
 10
-580.0
 20
-703.12375
 30
0.0
 40
5.0
  0
POINT
  5
6F3
100
AcDbEntity
  8
DEFPOINTS
  6
CONTINUOUS
 62
     7
100
AcDbPoint
 10
-580.0
 20
-703.12375
 30
0.0
  0
LINE
  5
6F4
100
AcDbEntity
  8
SIZE
  6
CONTINUOUS
 62
    30
100
AcDbLine
 10
-601.0
 20
-703.12375
 30
0.0
 11
-606.0
 21
-703.12375
 31
0.0
  0
CIRCLE
  5
6F5
100
AcDbEntity
  8
SIZE
  6
CONTINUOUS
 62
    30
100
AcDbCircle
 10
-596.0
 20
-703.12375
 30
0.0
 40
5.0
  0
LINE
  5
6F6
100
AcDbEntity
  8
SIZE
  6
CONTINUOUS
 62
    30
100
AcDbLine
 10
-575.0
 20
-703.12375
 30
0.0
 11
-570.0
 21
-703.12375
 31
0.0
  0
CIRCLE
  5
6F7
100
AcDbEntity
  8
SIZE
  6
CONTINUOUS
 62
    30
100
AcDbCircle
 10
-580.0
 20
-703.12375
 30
0.0
 40
5.0
  0
LINE
  5
6F8
100
AcDbEntity
  8
SIZE
  6
CONTINUOUS
 62
    30
100
AcDbLine
 10
-580.0
 20
-703.12375
 30
0.0
 11
-596.0
 21
-703.12375
 31
0.0
  0
LINE
  5
6F9
100
AcDbEntity
  8
SIZE
  6
CONTINUOUS
 62
    30
100
AcDbLine
 10
-570.0
 20
-703.12375
 30
0.0
 11
-560.0
 21
-703.12375
 31
0.0
  0
LINE
  5
6FA
100
AcDbEntity
  8
SIZE
  6
CONTINUOUS
 62
    30
100
AcDbLine
 10
-620.0
 20
-367.5
 30
0.0
 11
-982.91512
 21
-367.5
 31
0.0
  0
LINE
  5
6FB
100
AcDbEntity
  8
SIZE
  6
CONTINUOUS
 62
    30
100
AcDbLine
 10
-620.0
 20
-367.5
 30
0.0
 11
-982.91512
 21
-367.5
 31
0.0
  0
LINE
  5
6FC
100
AcDbEntity
  8
SIZE
  6
CONTINUOUS
 62
    30
100
AcDbLine
 10
-407.5
 20
-437.5
 30
0.0
 11
-982.91512
 21
-437.5
 31
0.0
  0
LINE
  5
6FD
100
AcDbEntity
  8
SIZE
  6
CONTINUOUS
 62
    30
100
AcDbLine
 10
-616.0
 20
-367.5
 30
0.0
 11
-856.02047
 21
-367.5
 31
0.0
  0
LINE
  5
6FE
100
AcDbEntity
  8
SIZE
  6
CONTINUOUS
 62
    30
100
AcDbLine
 10
-650.716652
 20
-94.5
 30
0.0
 11
-856.02047
 21
-94.5
 31
0.0
  0
TEXT
  5
6FF
100
AcDbEntity
  8
SIZE
  6
CONTINUOUS
 62
    30
100
AcDbText
 10
-725.310248
 20
-225.416542
 30
0.0
 40
55.0
  1
64
 50
90.0
 41
0.9
 72
     1
 11
-725.310248
 21
-184.166542
 31
0.0
100
AcDbText
  0
TEXT
  5
700
100
AcDbEntity
  8
SIZE
  6
CONTINUOUS
 62
    30
100
AcDbText
 10
-725.526083
 20
-362.428571
 30
0.0
 40
55.0
  1
128
 50
90.0
 41
0.9
 72
     1
 11
-725.526083
 21
-303.5
 31
0.0
100
AcDbText
  0
LINE
  5
701
100
AcDbEntity
  8
NOTE
  6
CONTINUOUS
 62
     4
100
AcDbLine
 10
-777.506787
 20
-566.162005
 30
0.0
 11
-619.0
 21
-239.499996
 31
0.0
  0
LINE
  5
702
100
AcDbEntity
  8
SIZE
  6
CONTINUOUS
 62
    30
100
AcDbLine
 10
-826.02047
 20
-104.5
 30
0.0
 11
-826.02047
 21
-357.5
 31
0.0
  0
TEXT
  5
703
100
AcDbEntity
  8
SIZE
  6
CONTINUOUS
 62
    30
100
AcDbText
 10
-970.91512
 20
-442.571429
 30
0.0
 40
55.0
  1
70
 50
90.0
 41
0.9
 72
     1
 11
-970.91512
 21
-402.5
 31
0.0
100
AcDbText
  0
LINE
  5
704
100
AcDbEntity
  8
NOTE
  6
CONTINUOUS
 62
     4
100
AcDbLine
 10
-777.506787
 20
-566.162005
 30
0.0
 11
-1171.109505
 21
-566.162005
 31
0.0
  0
TEXT
  5
705
100
AcDbEntity
  8
NOTE
  6
CONTINUOUS
 62
     4
100
AcDbText
 10
-1149.434233
 20
-550.335474
 30
0.0
 40
60.0
  1
RG %%C15.88
 50
0.000003
 41
0.7
  7
STANDARD1
100
AcDbText
  0
LINE
  5
706
100
AcDbEntity
  8
SIZE
  6
CONTINUOUS
 62
    30
100
AcDbLine
 10
-952.91512
 20
-362.5
 30
0.0
 11
-952.91512
 21
-357.5
 31
0.0
  0
CIRCLE
  5
707
100
AcDbEntity
  8
SIZE
  6
CONTINUOUS
 62
    30
100
AcDbCircle
 10
-952.91512
 20
-367.5
 30
0.0
 40
5.0
  0
POINT
  5
708
100
AcDbEntity
  8
DEFPOINTS
  6
CONTINUOUS
 62
     7
100
AcDbPoint
 10
-952.91512
 20
-367.5
 30
0.0
  0
LINE
  5
709
100
AcDbEntity
  8
SIZE
  6
CONTINUOUS
 62
    30
100
AcDbLine
 10
-952.91512
 20
-362.5
 30
0.0
 11
-952.91512
 21
-357.5
 31
0.0
  0
CIRCLE
  5
70A
100
AcDbEntity
  8
SIZE
  6
CONTINUOUS
 62
    30
100
AcDbCircle
 10
-952.91512
 20
-367.5
 30
0.0
 40
5.0
  0
LINE
  5
70B
100
AcDbEntity
  8
SIZE
  6
CONTINUOUS
 62
    30
100
AcDbLine
 10
-952.91512
 20
-442.5
 30
0.0
 11
-952.91512
 21
-447.5
 31
0.0
  0
CIRCLE
  5
70C
100
AcDbEntity
  8
SIZE
  6
CONTINUOUS
 62
    30
100
AcDbCircle
 10
-952.91512
 20
-437.5
 30
0.0
 40
5.0
  0
LINE
  5
70D
100
AcDbEntity
  8
SIZE
  6
CONTINUOUS
 62
    30
100
AcDbLine
 10
-952.91512
 20
-437.5
 30
0.0
 11
-952.91512
 21
-367.5
 31
0.0
  0
LINE
  5
70E
100
AcDbEntity
  8
SIZE
  6
CONTINUOUS
 62
    30
100
AcDbLine
 10
-952.91512
 20
-357.5
 30
0.0
 11
-952.91512
 21
-347.5
 31
0.0
  0
LINE
  5
70F
100
AcDbEntity
  8
SIZE
  6
CONTINUOUS
 62
    30
100
AcDbLine
 10
-952.91512
 20
-447.5
 30
0.0
 11
-952.91512
 21
-457.5
 31
0.0
  0
POINT
  5
710
100
AcDbEntity
  8
DEFPOINTS
  6
CONTINUOUS
 62
     7
100
AcDbPoint
 10
-826.02047
 20
-367.5
 30
0.0
  0
LINE
  5
711
100
AcDbEntity
  8
SIZE
  6
CONTINUOUS
 62
    30
100
AcDbLine
 10
-826.02047
 20
-362.5
 30
0.0
 11
-826.02047
 21
-357.5
 31
0.0
  0
CIRCLE
  5
712
100
AcDbEntity
  8
SIZE
  6
CONTINUOUS
 62
    30
100
AcDbCircle
 10
-826.02047
 20
-367.5
 30
0.0
 40
5.0
  0
TEXT
  5
713
100
AcDbEntity
  8
SIZE
  6
CONTINUOUS
 62
    30
100
AcDbText
 10
-844.02047
 20
-294.642857
 30
0.0
 40
55.0
  1
273
 50
90.0
 41
0.9
 72
     1
 11
-844.02047
 21
-231.0
 31
0.0
100
AcDbText
  0
LINE
  5
714
100
AcDbEntity
  8
SIZE
  6
CONTINUOUS
 62
    30
100
AcDbLine
 10
-826.02047
 20
-99.5
 30
0.0
 11
-826.02047
 21
-104.5
 31
0.0
  0
CIRCLE
  5
715
100
AcDbEntity
  8
SIZE
  6
CONTINUOUS
 62
    30
100
AcDbCircle
 10
-826.02047
 20
-94.5
 30
0.0
 40
5.0
  0
LINE
  5
716
100
AcDbEntity
  8
SIZE
  6
CONTINUOUS
 62
    30
100
AcDbLine
 10
-619.0
 20
-259.499996
 30
0.0
 11
-619.0
 21
-597.157915
 31
0.0
  0
LINE
  5
717
100
AcDbEntity
  8
SIZE
  6
CONTINUOUS
 62
    30
100
AcDbLine
 10
-707.526083
 20
-367.5
 30
0.0
 11
-707.526083
 21
-239.5
 31
0.0
  0
LINE
  5
718
100
AcDbEntity
  8
DETAIL
  6
CONTINUOUS
 62
     5
100
AcDbLine
 10
-558.029335
 20
-367.5
 30
0.0
 11
-558.029335
 21
-306.89987
 31
0.0
  0
LINE
  5
719
100
AcDbEntity
  8
DETAIL
  6
CONTINUOUS
 62
     5
100
AcDbLine
 10
-596.0
 20
-306.89987
 30
0.0
 11
-596.0
 21
-327.5
 31
0.0
  0
LINE
  5
71A
100
AcDbEntity
  8
SIZE
  6
CONTINUOUS
 62
    30
100
AcDbLine
 10
-580.0
 20
-326.89987
 30
0.0
 11
-580.0
 21
-597.157919
 31
0.0
  0
TEXT
  5
71B
100
AcDbEntity
  8
SIZE
  6
CONTINUOUS
 62
    30
100
AcDbText
 10
-731.785714
 20
-549.157919
 30
0.0
 40
55.0
  1
39
 41
0.9
 72
     1
 11
-692.892857
 21
-549.157919
 31
0.0
100
AcDbText
  0
LINE
  5
71C
100
AcDbEntity
  8
SIZE
  6
CONTINUOUS
 62
    30
100
AcDbLine
 10
-629.0
 20
-567.157915
 30
0.0
 11
-752.785714
 21
-567.157915
 31
0.0
  0
POINT
  5
71D
100
AcDbEntity
  8
DEFPOINTS
  6
CONTINUOUS
 62
     7
100
AcDbPoint
 10
-580.0
 20
-567.157919
 30
0.0
  0
LINE
  5
71E
100
AcDbEntity
  8
SIZE
  6
CONTINUOUS
 62
    30
100
AcDbLine
 10
-624.0
 20
-567.157915
 30
0.0
 11
-629.0
 21
-567.157915
 31
0.0
  0
CIRCLE
  5
71F
100
AcDbEntity
  8
SIZE
  6
CONTINUOUS
 62
    30
100
AcDbCircle
 10
-619.0
 20
-567.157915
 30
0.0
 40
5.0
  0
LINE
  5
720
100
AcDbEntity
  8
SIZE
  6
CONTINUOUS
 62
    30
100
AcDbLine
 10
-575.0
 20
-567.157919
 30
0.0
 11
-570.0
 21
-567.157919
 31
0.0
  0
CIRCLE
  5
721
100
AcDbEntity
  8
SIZE
  6
CONTINUOUS
 62
    30
100
AcDbCircle
 10
-580.0
 20
-567.157919
 30
0.0
 40
5.0
  0
LINE
  5
722
100
AcDbEntity
  8
SIZE
  6
CONTINUOUS
 62
    30
100
AcDbLine
 10
-580.0
 20
-567.157919
 30
0.0
 11
-619.0
 21
-567.157915
 31
0.0
  0
LINE
  5
723
100
AcDbEntity
  8
SIZE
  6
CONTINUOUS
 62
    30
100
AcDbLine
 10
-570.0
 20
-567.157919
 30
0.0
 11
-560.0
 21
-567.157919
 31
0.0
  0
LINE
  5
724
100
AcDbEntity
  8
SIZE
  6
CONTINUOUS
 62
    30
100
AcDbLine
 10
-600.0
 20
-367.5
 30
0.0
 11
-737.526083
 21
-367.5
 31
0.0
  0
LINE
  5
725
100
AcDbEntity
  8
SIZE
  6
CONTINUOUS
 62
    30
100
AcDbLine
 10
-707.526083
 20
-372.5
 30
0.0
 11
-707.526083
 21
-377.5
 31
0.0
  0
CIRCLE
  5
726
100
AcDbEntity
  8
SIZE
  6
CONTINUOUS
 62
    30
100
AcDbCircle
 10
-707.526083
 20
-367.5
 30
0.0
 40
5.0
  0
LINE
  5
727
100
AcDbEntity
  8
SIZE
  6
CONTINUOUS
 62
    30
100
AcDbLine
 10
-707.526083
 20
-377.5
 30
0.0
 11
-707.526083
 21
-387.5
 31
0.0
  0
POINT
  5
728
100
AcDbEntity
  8
DEFPOINTS
  6
CONTINUOUS
 62
     7
100
AcDbPoint
 10
-573.0
 20
-348.495166
 30
0.0
  0
POINT
  5
729
100
AcDbEntity
  8
DEFPOINTS
  6
CONTINUOUS
 62
     7
100
AcDbPoint
 10
-573.0
 20
-348.495166
 30
0.0
  0
POINT
  5
72A
100
AcDbEntity
  8
DEFPOINTS
  6
CONTINUOUS
 62
     7
100
AcDbPoint
 10
-596.0
 20
-367.5
 30
0.0
  0
POINT
  5
72B
100
AcDbEntity
  8
DEFPOINTS
  6
CONTINUOUS
 62
     7
100
AcDbPoint
 10
-596.0
 20
-367.5
 30
0.0
  0
POINT
  5
72C
100
AcDbEntity
  8
DEFPOINTS
  6
CONTINUOUS
 62
     7
100
AcDbPoint
 10
-600.0
 20
-367.5
 30
0.0
  0
POINT
  5
72D
100
AcDbEntity
  8
DEFPOINTS
  6
CONTINUOUS
 62
     7
100
AcDbPoint
 10
-600.0
 20
-367.5
 30
0.0
  0
POINT
  5
72E
100
AcDbEntity
  8
DEFPOINTS
  6
CONTINUOUS
 62
     7
100
AcDbPoint
 10
-596.0
 20
-367.5
 30
0.0
  0
POINT
  5
72F
100
AcDbEntity
  8
DEFPOINTS
  6
CONTINUOUS
 62
     7
100
AcDbPoint
 10
-580.0
 20
-367.5
 30
0.0
  0
POINT
  5
730
100
AcDbEntity
  8
DEFPOINTS
  6
CONTINUOUS
 62
     7
100
AcDbPoint
 10
-596.0
 20
-367.5
 30
0.0
  0
CIRCLE
  5
731
100
AcDbEntity
  8
FIX
  6
CONTINUOUS
 62
    11
100
AcDbCircle
 10
-573.0
 20
-333.5
 30
0.0
 40
12.421498
  0
LINE
  5
732
100
AcDbEntity
  8
NOTE
  6
CONTINUOUS
 62
     4
100
AcDbLine
 10
-573.0
 20
-318.504834
 30
0.0
 11
-573.0
 21
-348.495166
 31
0.0
  0
LINE
  5
733
100
AcDbEntity
  8
NOTE
  6
CONTINUOUS
 62
     4
100
AcDbLine
 10
-587.995166
 20
-333.5
 30
0.0
 11
-558.004834
 21
-333.5
 31
0.0
  0
LINE
  5
734
100
AcDbEntity
  8
DETAIL
  6
CONTINUOUS
 62
     5
100
AcDbLine
 10
-596.0
 20
-339.5
 30
0.0
 11
-596.0
 21
-367.5
 31
0.0
  0
LINE
  5
735
100
AcDbEntity
  8
DETAIL
  6
CONTINUOUS
 62
     5
100
AcDbLine
 10
-566.0
 20
-341.5
 30
0.0
 11
-566.0
 21
-325.5
 31
0.0
  0
LINE
  5
736
100
AcDbEntity
  8
DETAIL
  6
CONTINUOUS
 62
     5
100
AcDbLine
 10
-580.0
 20
-339.5
 30
0.0
 11
-596.0
 21
-339.5
 31
0.0
  0
LINE
  5
737
100
AcDbEntity
  8
DETAIL
  6
CONTINUOUS
 62
     5
100
AcDbLine
 10
-580.0
 20
-327.5
 30
0.0
 11
-596.0
 21
-327.5
 31
0.0
  0
LINE
  5
738
100
AcDbEntity
  8
DETAIL
  6
CONTINUOUS
 62
     5
100
AcDbLine
 10
-580.0
 20
-327.5
 30
0.0
 11
-580.0
 21
-325.5
 31
0.0
  0
ARC
  5
739
100
AcDbEntity
  8
DETAIL
  6
CONTINUOUS
 62
     5
100
AcDbCircle
 10
-573.0
 20
-341.5
 30
0.0
 40
7.0
100
AcDbArc
 50
180.0
 51
0.0
  0
ARC
  5
73A
100
AcDbEntity
  8
DETAIL
  6
CONTINUOUS
 62
     5
100
AcDbCircle
 10
-573.0
 20
-325.5
 30
0.0
 40
7.0
100
AcDbArc
 50
0.0
 51
180.0
  0
LINE
  5
73B
100
AcDbEntity
  8
DETAIL
  6
CONTINUOUS
 62
     5
100
AcDbLine
 10
-580.0
 20
-341.5
 30
0.0
 11
-580.0
 21
-339.5
 31
0.0
  0
LINE
  5
73C
100
AcDbEntity
  8
DETAIL
  6
CONTINUOUS
 62
     5
100
AcDbLine
 10
-580.0
 20
-341.5
 30
0.0
 11
-580.0
 21
-339.5
 31
0.0
  0
ARC
  5
73D
100
AcDbEntity
  8
DETAIL
  6
CONTINUOUS
 62
     5
100
AcDbCircle
 10
-573.0
 20
-325.5
 30
0.0
 40
7.0
100
AcDbArc
 50
0.0
 51
180.0
  0
ARC
  5
73E
100
AcDbEntity
  8
DETAIL
  6
CONTINUOUS
 62
     5
100
AcDbCircle
 10
-573.0
 20
-341.5
 30
0.0
 40
7.0
100
AcDbArc
 50
180.0
 51
0.0
  0
LINE
  5
73F
100
AcDbEntity
  8
DETAIL
  6
CONTINUOUS
 62
     5
100
AcDbLine
 10
-580.0
 20
-327.5
 30
0.0
 11
-580.0
 21
-325.5
 31
0.0
  0
LINE
  5
740
100
AcDbEntity
  8
DETAIL
  6
CONTINUOUS
 62
     5
100
AcDbLine
 10
-580.0
 20
-327.5
 30
0.0
 11
-596.0
 21
-327.5
 31
0.0
  0
LINE
  5
741
100
AcDbEntity
  8
DETAIL
  6
CONTINUOUS
 62
     5
100
AcDbLine
 10
-580.0
 20
-339.5
 30
0.0
 11
-596.0
 21
-339.5
 31
0.0
  0
LINE
  5
742
100
AcDbEntity
  8
DETAIL
  6
CONTINUOUS
 62
     5
100
AcDbLine
 10
-566.0
 20
-341.5
 30
0.0
 11
-566.0
 21
-325.5
 31
0.0
  0
LINE
  5
743
100
AcDbEntity
  8
SIZE
  6
CONTINUOUS
 62
    30
100
AcDbLine
 10
-453.481121
 20
-447.5
 30
0.0
 11
-453.481121
 21
-573.642857
 31
0.0
  0
TEXT
  5
744
100
AcDbEntity
  8
SIZE
  6
CONTINUOUS
 62
    30
100
AcDbText
 10
-471.481121
 20
-555.642858
 30
0.0
 40
55.0
  1
40
 50
90.0
 41
0.9
 72
     1
 11
-471.481121
 21
-515.571429
 31
0.0
100
AcDbText
  0
LINE
  5
745
100
AcDbEntity
  8
SIZE
  6
CONTINUOUS
 62
    30
100
AcDbLine
 10
-407.5
 20
-437.5
 30
0.0
 11
-483.481121
 21
-437.5
 31
0.0
  0
LINE
  5
746
100
AcDbEntity
  8
SIZE
  6
CONTINUOUS
 62
    30
100
AcDbLine
 10
-410.0
 20
-397.5
 30
0.0
 11
-483.481121
 21
-397.5
 31
0.0
  0
LINE
  5
747
100
AcDbEntity
  8
DETAIL
  6
CONTINUOUS
 62
     5
100
AcDbLine
 10
-544.46833
 20
-377.472489
 30
0.0
 11
-398.829175
 21
-387.568778
 31
0.0
  0
POINT
  5
748
100
AcDbEntity
  8
DEFPOINTS
  6
CONTINUOUS
 62
     7
100
AcDbPoint
 10
-453.481121
 20
-437.5
 30
0.0
  0
LINE
  5
749
100
AcDbEntity
  8
SIZE
  6
CONTINUOUS
 62
    30
100
AcDbLine
 10
-453.481121
 20
-442.5
 30
0.0
 11
-453.481121
 21
-447.5
 31
0.0
  0
CIRCLE
  5
74A
100
AcDbEntity
  8
SIZE
  6
CONTINUOUS
 62
    30
100
AcDbCircle
 10
-453.481121
 20
-437.5
 30
0.0
 40
5.0
  0
LINE
  5
74B
100
AcDbEntity
  8
SIZE
  6
CONTINUOUS
 62
    30
100
AcDbLine
 10
-453.481121
 20
-392.5
 30
0.0
 11
-453.481121
 21
-387.5
 31
0.0
  0
CIRCLE
  5
74C
100
AcDbEntity
  8
SIZE
  6
CONTINUOUS
 62
    30
100
AcDbCircle
 10
-453.481121
 20
-397.5
 30
0.0
 40
5.0
  0
LINE
  5
74D
100
AcDbEntity
  8
SIZE
  6
CONTINUOUS
 62
    30
100
AcDbLine
 10
-453.481121
 20
-397.5
 30
0.0
 11
-453.481121
 21
-437.5
 31
0.0
  0
LINE
  5
74E
100
AcDbEntity
  8
SIZE
  6
CONTINUOUS
 62
    30
100
AcDbLine
 10
-453.481121
 20
-387.5
 30
0.0
 11
-453.481121
 21
-377.5
 31
0.0
  0
LINE
  5
74F
100
AcDbEntity
  8
DETAIL
  6
CONTINUOUS
 62
     5
100
AcDbLine
 10
-548.0
 20
-367.5
 30
0.0
 11
-548.0
 21
-373.5
 31
0.0
  0
ARC
  5
750
100
AcDbEntity
  8
DETAIL
  6
CONTINUOUS
 62
     5
100
AcDbCircle
 10
-544.0
 20
-373.5
 30
0.0
 40
4.0
100
AcDbArc
 50
180.0
 51
263.276243
  0
POINT
  5
751
100
AcDbEntity
  8
DEFPOINTS
  6
CONTINUOUS
 62
     7
100
AcDbPoint
 10
-387.5
 20
-437.5
 30
0.0
  0
POINT
  5
752
100
AcDbEntity
  8
DEFPOINTS
  6
CONTINUOUS
 62
     7
100
AcDbPoint
 10
-390.0
 20
-397.5
 30
0.0
  0
POINT
  5
753
100
AcDbEntity
  8
DEFPOINTS
  6
CONTINUOUS
 62
     7
100
AcDbPoint
 10
-387.5
 20
-437.5
 30
0.0
  0
ARC
  5
754
100
AcDbEntity
  8
DETAIL
  6
CONTINUOUS
 62
     5
100
AcDbCircle
 10
-400.0
 20
-397.5
 30
0.0
 40
10.0
100
AcDbArc
 50
0.0
 51
83.276243
  0
LINE
  5
755
100
AcDbEntity
  8
DETAIL
  6
CONTINUOUS
 62
     5
100
AcDbLine
 10
-387.5
 20
-437.5
 30
0.0
 11
-390.0
 21
-397.5
 31
0.0
  0
LINE
  5
757
100
AcDbEntity
  8
NOTE
  6
CONTINUOUS
 62
     4
100
AcDbLine
 10
-616.0
 20
-175.5
 30
0.0
 11
-631.114085
 21
-144.6145
 31
0.0
  0
LINE
  5
758
100
AcDbEntity
  8
SIZE
  6
CONTINUOUS
 62
    30
100
AcDbLine
 10
-644.5
 20
-175.5
 30
0.0
 11
-737.526083
 21
-175.5
 31
0.0
  0
LINE
  5
759
100
AcDbEntity
  8
SIZE
  6
CONTINUOUS
 62
    30
100
AcDbLine
 10
-647.268297
 20
-239.5
 30
0.0
 11
-737.526083
 21
-239.5
 31
0.0
  0
LINE
  5
75A
100
AcDbEntity
  8
SIZE
  6
CONTINUOUS
 62
    30
100
AcDbLine
 10
-647.268297
 20
-239.5
 30
0.0
 11
-737.526083
 21
-239.5
 31
0.0
  0
POINT
  5
75B
100
AcDbEntity
  8
DEFPOINTS
  6
CONTINUOUS
 62
     7
100
AcDbPoint
 10
-707.526083
 20
-175.5
 30
0.0
  0
LINE
  5
75C
100
AcDbEntity
  8
SIZE
  6
CONTINUOUS
 62
    30
100
AcDbLine
 10
-707.526083
 20
-180.5
 30
0.0
 11
-707.526083
 21
-185.5
 31
0.0
  0
CIRCLE
  5
75D
100
AcDbEntity
  8
SIZE
  6
CONTINUOUS
 62
    30
100
AcDbCircle
 10
-707.526083
 20
-175.5
 30
0.0
 40
5.0
  0
LINE
  5
75E
100
AcDbEntity
  8
SIZE
  6
CONTINUOUS
 62
    30
100
AcDbLine
 10
-707.526083
 20
-234.5
 30
0.0
 11
-707.526083
 21
-229.5
 31
0.0
  0
CIRCLE
  5
75F
100
AcDbEntity
  8
SIZE
  6
CONTINUOUS
 62
    30
100
AcDbCircle
 10
-707.526083
 20
-239.5
 30
0.0
 40
5.0
  0
LINE
  5
760
100
AcDbEntity
  8
SIZE
  6
CONTINUOUS
 62
    30
100
AcDbLine
 10
-707.526083
 20
-229.5
 30
0.0
 11
-707.526083
 21
-185.5
 31
0.0
  0
POINT
  5
761
100
AcDbEntity
  8
DEFPOINTS
  6
CONTINUOUS
 62
     7
100
AcDbPoint
 10
-707.526083
 20
-239.5
 30
0.0
  0
LINE
  5
762
100
AcDbEntity
  8
SIZE
  6
CONTINUOUS
 62
    30
100
AcDbLine
 10
-707.526083
 20
-234.5
 30
0.0
 11
-707.526083
 21
-229.5
 31
0.0
  0
CIRCLE
  5
763
100
AcDbEntity
  8
SIZE
  6
CONTINUOUS
 62
    30
100
AcDbCircle
 10
-707.526083
 20
-239.5
 30
0.0
 40
5.0
  0
LINE
  5
764
100
AcDbEntity
  8
SIZE
  6
CONTINUOUS
 62
    30
100
AcDbLine
 10
-707.526083
 20
-229.5
 30
0.0
 11
-707.526083
 21
-219.5
 31
0.0
  0
POINT
  5
765
100
AcDbEntity
  8
DEFPOINTS
  6
CONTINUOUS
 62
     7
100
AcDbPoint
 10
-619.0
 20
-228.249996
 30
0.0
  0
LINE
  5
766
100
AcDbEntity
  8
NOTE
  6
CONTINUOUS
 62
     4
100
AcDbLine
 10
-616.0
 20
-170.000008
 30
0.0
 11
-616.0
 21
-180.999992
 31
0.0
  0
LINE
  5
767
100
AcDbEntity
  8
DETAIL
  6
CONTINUOUS
 62
     5
100
AcDbLine
 10
-597.009149
 20
-181.0
 30
0.0
 11
-580.0
 21
-181.0
 31
0.0
  0
LINE
  5
768
100
AcDbEntity
  8
DETAIL
  6
CONTINUOUS
 62
     5
100
AcDbLine
 10
-596.009149
 20
-185.0
 30
0.0
 11
-580.0
 21
-185.0
 31
0.0
  0
LINE
  5
769
100
AcDbEntity
  8
DETAIL
  6
CONTINUOUS
 62
     5
100
AcDbLine
 10
-596.009149
 20
-166.0
 30
0.0
 11
-580.0
 21
-166.0
 31
0.0
  0
LINE
  5
76A
100
AcDbEntity
  8
DETAIL
  6
CONTINUOUS
 62
     5
100
AcDbLine
 10
-597.009149
 20
-170.0
 30
0.0
 11
-580.0
 21
-170.0
 31
0.0
  0
LINE
  5
76B
100
AcDbEntity
  8
DETAIL
  6
CONTINUOUS
 62
     5
100
AcDbLine
 10
-613.009149
 20
-186.0
 30
0.0
 11
-600.009149
 21
-186.0
 31
0.0
  0
LINE
  5
76C
100
AcDbEntity
  8
DETAIL
  6
CONTINUOUS
 62
     5
100
AcDbLine
 10
-612.009149
 20
-181.0
 30
0.0
 11
-599.009149
 21
-181.0
 31
0.0
  0
LINE
  5
76D
100
AcDbEntity
  8
DETAIL
  6
CONTINUOUS
 62
     5
100
AcDbLine
 10
-599.009149
 20
-185.0
 30
0.0
 11
-600.009149
 21
-186.0
 31
0.0
  0
LINE
  5
76E
100
AcDbEntity
  8
DETAIL
  6
CONTINUOUS
 62
     5
100
AcDbLine
 10
-597.009149
 20
-184.0
 30
0.0
 11
-596.009149
 21
-185.0
 31
0.0
  0
LINE
  5
76F
100
AcDbEntity
  8
DETAIL
  6
CONTINUOUS
 62
     5
100
AcDbLine
 10
-612.009149
 20
-181.0
 30
0.0
 11
-613.009149
 21
-180.0
 31
0.0
  0
LINE
  5
770
100
AcDbEntity
  8
DETAIL
  6
CONTINUOUS
 62
     5
100
AcDbLine
 10
-612.009149
 20
-181.0
 30
0.0
 11
-613.009149
 21
-182.0
 31
0.0
  0
LINE
  5
771
100
AcDbEntity
  8
DETAIL
  6
CONTINUOUS
 62
     5
100
AcDbLine
 10
-599.009149
 20
-180.26
 30
0.0
 11
-597.009149
 21
-180.26
 31
0.0
  0
LINE
  5
772
100
AcDbEntity
  8
DETAIL
  6
CONTINUOUS
 62
     5
100
AcDbLine
 10
-597.009149
 20
-184.0
 30
0.0
 11
-597.009149
 21
-167.0
 31
0.0
  0
LINE
  5
773
100
AcDbEntity
  8
DETAIL
  6
CONTINUOUS
 62
     5
100
AcDbLine
 10
-599.009149
 20
-185.0
 30
0.0
 11
-599.009149
 21
-166.0
 31
0.0
  0
LINE
  5
774
100
AcDbEntity
  8
DETAIL
  6
CONTINUOUS
 62
     5
100
AcDbLine
 10
-613.009149
 20
-165.0
 30
0.0
 11
-600.009149
 21
-165.0
 31
0.0
  0
LINE
  5
775
100
AcDbEntity
  8
DETAIL
  6
CONTINUOUS
 62
     5
100
AcDbLine
 10
-613.009149
 20
-186.0
 30
0.0
 11
-613.009149
 21
-165.0
 31
0.0
  0
LINE
  5
776
100
AcDbEntity
  8
DETAIL
  6
CONTINUOUS
 62
     5
100
AcDbLine
 10
-612.009149
 20
-170.0
 30
0.0
 11
-599.009149
 21
-170.0
 31
0.0
  0
LINE
  5
777
100
AcDbEntity
  8
DETAIL
  6
CONTINUOUS
 62
     5
100
AcDbLine
 10
-600.009149
 20
-165.0
 30
0.0
 11
-599.009149
 21
-166.0
 31
0.0
  0
LINE
  5
778
100
AcDbEntity
  8
DETAIL
  6
CONTINUOUS
 62
     5
100
AcDbLine
 10
-597.009149
 20
-167.0
 30
0.0
 11
-596.009149
 21
-166.0
 31
0.0
  0
LINE
  5
779
100
AcDbEntity
  8
DETAIL
  6
CONTINUOUS
 62
     5
100
AcDbLine
 10
-612.009149
 20
-170.0
 30
0.0
 11
-613.009149
 21
-169.0
 31
0.0
  0
LINE
  5
77A
100
AcDbEntity
  8
DETAIL
  6
CONTINUOUS
 62
     5
100
AcDbLine
 10
-612.009149
 20
-170.0
 30
0.0
 11
-613.009149
 21
-171.0
 31
0.0
  0
LINE
  5
77B
100
AcDbEntity
  8
DETAIL
  6
CONTINUOUS
 62
     5
100
AcDbLine
 10
-599.009149
 20
-170.74
 30
0.0
 11
-597.009149
 21
-170.74
 31
0.0
  0
LINE
  5
782
100
AcDbEntity
  8
DETAIL
  6
CONTINUOUS
 62
     5
100
AcDbLine
 10
-616.0
 20
-181.0
 30
0.0
 11
-616.0
 21
-170.0
 31
0.0
  0
LINE
  5
783
100
AcDbEntity
  8
DETAIL
  6
CONTINUOUS
 62
     5
100
AcDbLine
 10
-616.0
 20
-181.0
 30
0.0
 11
-613.009149
 21
-186.0
 31
0.0
  0
LINE
  5
784
100
AcDbEntity
  8
DETAIL
  6
CONTINUOUS
 62
     5
100
AcDbLine
 10
-599.009149
 20
-185.0
 30
0.0
 11
-600.009149
 21
-186.0
 31
0.0
  0
LINE
  5
78C
100
AcDbEntity
  8
DETAIL
  6
CONTINUOUS
 62
     5
100
AcDbLine
 10
-613.009149
 20
-186.0
 30
0.0
 11
-613.009149
 21
-165.0
 31
0.0
  0
LINE
  5
78E
100
AcDbEntity
  8
DETAIL
  6
CONTINUOUS
 62
     5
100
AcDbLine
 10
-616.0
 20
-170.0
 30
0.0
 11
-613.009149
 21
-165.0
 31
0.0
  0
LINE
  5
794
100
AcDbEntity
  8
NOTE
  6
CONTINUOUS
 62
     4
100
AcDbLine
 10
-619.0
 20
-228.25
 30
0.0
 11
-619.0
 21
-250.749992
 31
0.0
  0
LINE
  5
795
100
AcDbEntity
  8
DETAIL
  6
CONTINUOUS
 62
     5
100
AcDbLine
 10
-619.0
 20
-228.25
 30
0.0
 11
-619.0
 21
-250.75
 31
0.0
  0
LINE
  5
796
100
AcDbEntity
  8
DETAIL
  6
CONTINUOUS
 62
     5
100
AcDbLine
 10
-580.0
 20
-251.0
 30
0.0
 11
-594.009149
 21
-250.999996
 31
0.0
  0
LINE
  5
797
100
AcDbEntity
  8
DETAIL
  6
CONTINUOUS
 62
     5
100
AcDbLine
 10
-580.009149
 20
-228.0
 30
0.0
 11
-591.009149
 21
-228.0
 31
0.0
  0
LINE
  5
798
100
AcDbEntity
  8
DETAIL
  6
CONTINUOUS
 62
     5
100
AcDbLine
 10
-614.009149
 20
-246.499996
 30
0.0
 11
-616.009149
 21
-248.499996
 31
0.0
  0
LINE
  5
79A
100
AcDbEntity
  8
DETAIL
  6
CONTINUOUS
 62
     5
100
AcDbLine
 10
-614.009149
 20
-246.499996
 30
0.0
 11
-616.009149
 21
-244.499996
 31
0.0
  0
LINE
  5
79C
100
AcDbEntity
  8
DETAIL
  6
CONTINUOUS
 62
     5
100
AcDbLine
 10
-614.009149
 20
-232.499996
 30
0.0
 11
-616.009149
 21
-234.499996
 31
0.0
  0
LINE
  5
79E
100
AcDbEntity
  8
DETAIL
  6
CONTINUOUS
 62
     5
100
AcDbLine
 10
-614.009149
 20
-232.499996
 30
0.0
 11
-616.009149
 21
-230.499996
 31
0.0
  0
LINE
  5
7A0
100
AcDbEntity
  8
DETAIL
  6
CONTINUOUS
 62
     5
100
AcDbLine
 10
-602.009149
 20
-232.499996
 30
0.0
 11
-600.009149
 21
-230.499996
 31
0.0
  0
LINE
  5
7A2
100
AcDbEntity
  8
DETAIL
  6
CONTINUOUS
 62
     5
100
AcDbLine
 10
-602.009149
 20
-232.499996
 30
0.0
 11
-600.009149
 21
-234.499996
 31
0.0
  0
LINE
  5
7A4
100
AcDbEntity
  8
DETAIL
  6
CONTINUOUS
 62
     5
100
AcDbLine
 10
-602.009149
 20
-246.499996
 30
0.0
 11
-600.009149
 21
-244.499996
 31
0.0
  0
LINE
  5
7A6
100
AcDbEntity
  8
DETAIL
  6
CONTINUOUS
 62
     5
100
AcDbLine
 10
-602.009149
 20
-246.499996
 30
0.0
 11
-600.009149
 21
-248.499996
 31
0.0
  0
LINE
  5
7A8
100
AcDbEntity
  8
DETAIL
  6
CONTINUOUS
 62
     5
100
AcDbLine
 10
-602.009149
 20
-246.499996
 30
0.0
 11
-614.009149
 21
-246.499996
 31
0.0
  0
LINE
  5
7AA
100
AcDbEntity
  8
DETAIL
  6
CONTINUOUS
 62
     5
100
AcDbLine
 10
-602.009149
 20
-232.499996
 30
0.0
 11
-614.009149
 21
-232.499996
 31
0.0
  0
LINE
  5
7AC
100
AcDbEntity
  8
DETAIL
  6
CONTINUOUS
 62
     5
100
AcDbLine
 10
-600.009149
 20
-250.499996
 30
0.0
 11
-602.009149
 21
-252.499996
 31
0.0
  0
LINE
  5
7AE
100
AcDbEntity
  8
DETAIL
  6
CONTINUOUS
 62
     5
100
AcDbLine
 10
-600.009149
 20
-228.499996
 30
0.0
 11
-602.009149
 21
-226.499996
 31
0.0
  0
LINE
  5
7B0
100
AcDbEntity
  8
DETAIL
  6
CONTINUOUS
 62
     5
100
AcDbLine
 10
-619.0
 20
-250.749996
 30
0.0
 11
-616.009149
 21
-252.499996
 31
0.0
  0
LINE
  5
7B1
100
AcDbEntity
  8
DETAIL
  6
CONTINUOUS
 62
     5
100
AcDbLine
 10
-616.009149
 20
-226.499996
 30
0.0
 11
-619.0
 21
-228.25
 31
0.0
  0
LINE
  5
7B2
100
AcDbEntity
  8
DETAIL
  6
CONTINUOUS
 62
     5
100
AcDbLine
 10
-616.009149
 20
-226.499996
 30
0.0
 11
-616.009149
 21
-252.499996
 31
0.0
  0
LINE
  5
7B4
100
AcDbEntity
  8
DETAIL
  6
CONTINUOUS
 62
     5
100
AcDbLine
 10
-600.009149
 20
-228.499996
 30
0.0
 11
-600.009149
 21
-250.499996
 31
0.0
  0
LINE
  5
7B6
100
AcDbEntity
  8
DETAIL
  6
CONTINUOUS
 62
     5
100
AcDbLine
 10
-602.009149
 20
-252.499996
 30
0.0
 11
-616.009149
 21
-252.499996
 31
0.0
  0
LINE
  5
7B8
100
AcDbEntity
  8
DETAIL
  6
CONTINUOUS
 62
     5
100
AcDbLine
 10
-602.009149
 20
-226.499996
 30
0.0
 11
-616.009149
 21
-226.499996
 31
0.0
  0
LINE
  5
7BB
100
AcDbEntity
  8
DETAIL
  6
CONTINUOUS
 62
     5
100
AcDbLine
 10
-600.009149
 20
-247.44
 30
0.0
 11
-596.009149
 21
-247.44
 31
0.0
  0
LINE
  5
7BC
100
AcDbEntity
  8
DETAIL
  6
CONTINUOUS
 62
     5
100
AcDbLine
 10
-600.009149
 20
-231.56
 30
0.0
 11
-596.009149
 21
-231.56
 31
0.0
  0
LINE
  5
7BD
100
AcDbEntity
  8
DETAIL
  6
CONTINUOUS
 62
     5
100
AcDbLine
 10
-596.009149
 20
-229.999996
 30
0.0
 11
-594.009149
 21
-227.999996
 31
0.0
  0
LINE
  5
7BE
100
AcDbEntity
  8
DETAIL
  6
CONTINUOUS
 62
     5
100
AcDbLine
 10
-596.009149
 20
-248.999996
 30
0.0
 11
-594.009149
 21
-250.999996
 31
0.0
  0
LINE
  5
7BF
100
AcDbEntity
  8
DETAIL
  6
CONTINUOUS
 62
     5
100
AcDbLine
 10
-596.009149
 20
-229.999996
 30
0.0
 11
-596.009149
 21
-248.999996
 31
0.0
  0
LINE
  5
7E6
100
AcDbEntity
  8
DETAIL
  6
CONTINUOUS
 62
     5
100
AcDbLine
 10
-580.009149
 20
-228.0
 30
0.0
 11
-594.009149
 21
-227.999996
 31
0.0
  0
LINE
  5
7E8
100
AcDbEntity
  8
DETAIL
  6
CONTINUOUS
 62
     5
100
AcDbLine
 10
-580.0
 20
-157.5
 30
0.0
 11
-620.0
 21
-157.5
 31
0.0
  0
LINE
  5
7E9
100
AcDbEntity
  8
OUTLINE
  6
CONTINUOUS
 62
     3
100
AcDbLine
 10
-580.0
 20
-157.5
 30
0.0
 11
-620.0
 21
-157.5
 31
0.0
  0
POINT
  5
7EA
100
AcDbEntity
  8
DEFPOINTS
  6
CONTINUOUS
 62
     7
100
AcDbPoint
 10
-580.0
 20
-306.89987
 30
0.0
  0
POINT
  5
7EB
100
AcDbEntity
  8
DEFPOINTS
  6
CONTINUOUS
 62
     7
100
AcDbPoint
 10
-580.0
 20
-306.89987
 30
0.0
  0
POINT
  5
7ED
100
AcDbEntity
  8
DEFPOINTS
  6
CONTINUOUS
 62
     7
100
AcDbPoint
 10
-580.009149
 20
-185.0
 30
0.0
  0
POINT
  5
7EE
100
AcDbEntity
  8
DEFPOINTS
  6
CONTINUOUS
 62
     7
100
AcDbPoint
 10
-619.0
 20
-175.5
 30
0.0
  0
POINT
  5
7F7
100
AcDbEntity
  8
DEFPOINTS
  6
CONTINUOUS
 62
     7
100
AcDbPoint
 10
-580.0
 20
-306.89987
 30
0.0
  0
POINT
  5
7F8
100
AcDbEntity
  8
DEFPOINTS
  6
CONTINUOUS
 62
     7
100
AcDbPoint
 10
-619.0
 20
-239.499996
 30
0.0
  0
POINT
  5
7F9
100
AcDbEntity
  8
DEFPOINTS
  6
CONTINUOUS
 62
     7
100
AcDbPoint
 10
-621.5
 20
-175.5
 30
0.0
  0
POINT
  5
7FA
100
AcDbEntity
  8
DEFPOINTS
  6
CONTINUOUS
 62
     7
100
AcDbPoint
 10
-627.268297
 20
-239.5
 30
0.0
  0
POINT
  5
7FB
100
AcDbEntity
  8
DEFPOINTS
  6
CONTINUOUS
 62
     7
100
AcDbPoint
 10
-627.268297
 20
-239.5
 30
0.0
  0
LINE
  5
7FC
100
AcDbEntity
  8
NOTE
  6
CONTINUOUS
 62
     4
100
AcDbLine
 10
-607.758297
 20
-239.499996
 30
0.0
 11
-630.258297
 21
-239.499996
 31
0.0
  0
LINE
  5
7FD
100
AcDbEntity
  8
NOTE
  6
CONTINUOUS
 62
     4
100
AcDbLine
 10
-619.0
 20
-239.499996
 30
0.0
 11
-627.268109
 21
-272.876455
 31
0.0
  0
LINE
  5
7FE
100
AcDbEntity
  8
NOTE
  6
CONTINUOUS
 62
     4
100
AcDbLine
 10
-619.0
 20
-239.499996
 30
0.0
 11
-642.848622
 21
-264.270803
 31
0.0
  0
LINE
  5
7FF
100
AcDbEntity
  8
NOTE
  6
CONTINUOUS
 62
     4
100
AcDbLine
 10
-610.5
 20
-175.5
 30
0.0
 11
-621.5
 21
-175.5
 31
0.0
  0
LINE
  5
800
100
AcDbEntity
  8
NOTE
  6
CONTINUOUS
 62
     4
100
AcDbLine
 10
-616.0
 20
-175.5
 30
0.0
 11
-644.531931
 21
-156.309415
 31
0.0
  0
LINE
  5
801
100
AcDbEntity
  8
DETAIL
  6
CONTINUOUS
 62
     5
100
AcDbLine
 10
-558.029335
 20
-306.89987
 30
0.0
 11
-596.0
 21
-306.89987
 31
0.0
  0
POINT
  5
803
100
AcDbEntity
  8
DEFPOINTS
  6
CONTINUOUS
 62
     7
100
AcDbPoint
 10
-580.0
 20
-39.5
 30
0.0
  0
LINE
  5
804
100
AcDbEntity
  8
SERVICESPACE
  6
CONTINUOUS
 62
     2
100
AcDbLine
 10
-600.0
 20
-110.5
 30
0.0
 11
-600.0
 21
-140.5
 31
0.0
  0
POINT
  5
805
100
AcDbEntity
  8
DEFPOINTS
  6
CONTINUOUS
 62
     7
100
AcDbPoint
 10
-614.0
 20
-94.5
 30
0.0
  0
POINT
  5
806
100
AcDbEntity
  8
DEFPOINTS
  6
CONTINUOUS
 62
     7
100
AcDbPoint
 10
-580.0
 20
-78.142904
 30
0.0
  0
POINT
  5
807
100
AcDbEntity
  8
DEFPOINTS
  6
CONTINUOUS
 62
     7
100
AcDbPoint
 10
-630.716652
 20
-94.5
 30
0.0
  0
LINE
  5
808
100
AcDbEntity
  8
NOTE
  6
CONTINUOUS
 62
     4
100
AcDbLine
 10
-597.283348
 20
-94.5
 30
0.0
 11
-630.716652
 21
-94.5
 31
0.0
  0
LINE
  5
809
100
AcDbEntity
  8
NOTE
  6
CONTINUOUS
 62
     4
100
AcDbLine
 10
-614.0
 20
-77.783348
 30
0.0
 11
-614.0
 21
-111.216652
 31
0.0
  0
LINE
  5
80A
100
AcDbEntity
  8
NOTE
  6
CONTINUOUS
 62
     4
100
AcDbLine
 10
-614.0
 20
-94.5
 30
0.0
 11
-627.88219
 21
-63.041544
 31
0.0
  0
LINE
  5
80B
100
AcDbEntity
  8
NOTE
  6
CONTINUOUS
 62
     4
100
AcDbLine
 10
-614.0
 20
-94.5
 30
0.0
 11
-610.2931
 21
-60.315083
 31
0.0
  0
LINE
  5
80C
100
AcDbEntity
  8
DETAIL
  6
CONTINUOUS
 62
     5
100
AcDbLine
 10
-589.0
 20
-110.7
 30
0.0
 11
-580.0
 21
-110.857096
 31
0.0
  0
LINE
  5
80D
100
AcDbEntity
  8
DETAIL
  6
CONTINUOUS
 62
     5
100
AcDbLine
 10
-589.0
 20
-78.3
 30
0.0
 11
-580.0
 21
-78.142904
 31
0.0
  0
ARC
  5
80E
100
AcDbEntity
  8
DETAIL
  6
CONTINUOUS
 62
     5
100
AcDbCircle
 10
-613.5
 20
-110.0
 30
0.0
 40
0.5
100
AcDbArc
 50
180.0
 51
270.0
  0
ARC
  5
80F
100
AcDbEntity
  8
DETAIL
  6
CONTINUOUS
 62
     5
100
AcDbCircle
 10
-613.5
 20
-79.0
 30
0.0
 40
0.5
100
AcDbArc
 50
90.0
 51
180.0
  0
LINE
  5
810
100
AcDbEntity
  8
DETAIL
  6
CONTINUOUS
 62
     5
100
AcDbLine
 10
-589.0
 20
-78.3
 30
0.0
 11
-589.0
 21
-110.7
 31
0.0
  0
LINE
  5
811
100
AcDbEntity
  8
DETAIL
  6
CONTINUOUS
 62
     5
100
AcDbLine
 10
-589.0
 20
-110.5
 30
0.0
 11
-613.5
 21
-110.5
 31
0.0
  0
LINE
  5
812
100
AcDbEntity
  8
DETAIL
  6
CONTINUOUS
 62
     5
100
AcDbLine
 10
-589.0
 20
-78.5
 30
0.0
 11
-613.5
 21
-78.5
 31
0.0
  0
LINE
  5
813
100
AcDbEntity
  8
DETAIL
  6
CONTINUOUS
 62
     5
100
AcDbLine
 10
-614.0
 20
-79.0
 30
0.0
 11
-614.0
 21
-110.0
 31
0.0
  0
LINE
  5
814
100
AcDbEntity
  8
DETAIL
  6
CONTINUOUS
 62
     5
100
AcDbLine
 10
-614.0
 20
-79.0
 30
0.0
 11
-614.0
 21
-110.0
 31
0.0
  0
LINE
  5
815
100
AcDbEntity
  8
DETAIL
  6
CONTINUOUS
 62
     5
100
AcDbLine
 10
-589.0
 20
-78.5
 30
0.0
 11
-613.5
 21
-78.5
 31
0.0
  0
LINE
  5
816
100
AcDbEntity
  8
DETAIL
  6
CONTINUOUS
 62
     5
100
AcDbLine
 10
-589.0
 20
-110.5
 30
0.0
 11
-613.5
 21
-110.5
 31
0.0
  0
LINE
  5
817
100
AcDbEntity
  8
DETAIL
  6
CONTINUOUS
 62
     5
100
AcDbLine
 10
-589.0
 20
-78.3
 30
0.0
 11
-589.0
 21
-110.7
 31
0.0
  0
ARC
  5
818
100
AcDbEntity
  8
DETAIL
  6
CONTINUOUS
 62
     5
100
AcDbCircle
 10
-613.5
 20
-79.0
 30
0.0
 40
0.5
100
AcDbArc
 50
90.0
 51
180.0
  0
ARC
  5
819
100
AcDbEntity
  8
DETAIL
  6
CONTINUOUS
 62
     5
100
AcDbCircle
 10
-613.5
 20
-110.0
 30
0.0
 40
0.5
100
AcDbArc
 50
180.0
 51
270.0
  0
LINE
  5
81A
100
AcDbEntity
  8
DETAIL
  6
CONTINUOUS
 62
     5
100
AcDbLine
 10
-589.0
 20
-110.7
 30
0.0
 11
-580.0
 21
-110.857096
 31
0.0
  0
LINE
  5
81B
100
AcDbEntity
  8
DETAIL
  6
CONTINUOUS
 62
     5
100
AcDbLine
 10
-589.0
 20
-78.3
 30
0.0
 11
-580.0
 21
-78.142904
 31
0.0
  0
LINE
  5
81D
100
AcDbEntity
  8
NOTE
  6
CONTINUOUS
 62
     4
100
AcDbLine
 10
-973.252709
 20
195.45283
 30
0.0
 11
-1316.966291
 21
195.45283
 31
0.0
  0
TEXT
  5
81E
100
AcDbEntity
  8
NOTE
  6
CONTINUOUS
 62
     4
100
AcDbText
 10
-1295.291019
 20
211.279361
 30
0.0
 40
60.0
  1
RL %%C9.52
 50
0.000003
 41
0.7
  7
STANDARD1
100
AcDbText
  0
LINE
  5
81F
100
AcDbEntity
  8
SIZE
  6
CONTINUOUS
 62
    30
100
AcDbLine
 10
-620.0
 20
462.5
 30
0.0
 11
-620.0
 21
803.803445
 31
0.0
  0
LINE
  5
820
100
AcDbEntity
  8
SIZE
  6
CONTINUOUS
 62
    30
100
AcDbLine
 10
-600.0
 20
445.5
 30
0.0
 11
-600.0
 21
665.522152
 31
0.0
  0
LINE
  5
821
100
AcDbEntity
  8
SIZE
  6
CONTINUOUS
 62
    30
100
AcDbLine
 10
-616.0
 20
367.5
 30
0.0
 11
-982.91512
 21
367.5
 31
0.0
  0
LINE
  5
822
100
AcDbEntity
  8
NOTE
  6
CONTINUOUS
 62
     4
100
AcDbLine
 10
-692.950707
 20
427.509771
 30
0.0
 11
-1038.700756
 21
427.509771
 31
0.0
  0
TEXT
  5
823
100
AcDbEntity
  8
NOTE
  6
CONTINUOUS
 62
     4
100
AcDbText
 10
-1017.025484
 20
443.336302
 30
0.0
 40
60.0
  1
D1 VP-25
 50
0.000003
 41
0.7
  7
STANDARD1
100
AcDbText
  0
POINT
  5
824
100
AcDbEntity
  8
DEFPOINTS
  6
CONTINUOUS
 62
     7
100
AcDbPoint
 10
-952.91512
 20
367.5
 30
0.0
  0
LINE
  5
825
100
AcDbEntity
  8
SIZE
  6
CONTINUOUS
 62
    30
100
AcDbLine
 10
-952.91512
 20
362.5
 30
0.0
 11
-952.91512
 21
357.5
 31
0.0
  0
CIRCLE
  5
826
100
AcDbEntity
  8
SIZE
  6
CONTINUOUS
 62
    30
100
AcDbCircle
 10
-952.91512
 20
367.5
 30
0.0
 40
5.0
  0
LINE
  5
827
100
AcDbEntity
  8
SIZE
  6
CONTINUOUS
 62
    30
100
AcDbLine
 10
-570.0
 20
128.745085
 30
0.0
 11
-446.214286
 21
128.745085
 31
0.0
  0
LINE
  5
828
100
AcDbEntity
  8
SIZE
  6
CONTINUOUS
 62
    30
100
AcDbLine
 10
-570.0
 20
35.647389
 30
0.0
 11
-434.244401
 21
35.647389
 31
0.0
  0
POINT
  5
829
100
AcDbEntity
  8
DEFPOINTS
  6
CONTINUOUS
 62
     7
100
AcDbPoint
 10
-580.0
 20
128.745085
 30
0.0
  0
LINE
  5
82A
100
AcDbEntity
  8
SIZE
  6
CONTINUOUS
 62
    30
100
AcDbLine
 10
-575.0
 20
128.745085
 30
0.0
 11
-570.0
 21
128.745085
 31
0.0
  0
CIRCLE
  5
82B
100
AcDbEntity
  8
SIZE
  6
CONTINUOUS
 62
    30
100
AcDbCircle
 10
-580.0
 20
128.745085
 30
0.0
 40
5.0
  0
LINE
  5
82C
100
AcDbEntity
  8
SIZE
  6
CONTINUOUS
 62
    30
100
AcDbLine
 10
-621.0
 20
128.745085
 30
0.0
 11
-626.0
 21
128.745085
 31
0.0
  0
CIRCLE
  5
82D
100
AcDbEntity
  8
SIZE
  6
CONTINUOUS
 62
    30
100
AcDbCircle
 10
-616.0
 20
128.745085
 30
0.0
 40
5.0
  0
LINE
  5
82E
100
AcDbEntity
  8
SIZE
  6
CONTINUOUS
 62
    30
100
AcDbLine
 10
-616.0
 20
128.745085
 30
0.0
 11
-580.0
 21
128.745085
 31
0.0
  0
LINE
  5
82F
100
AcDbEntity
  8
SIZE
  6
CONTINUOUS
 62
    30
100
AcDbLine
 10
-626.0
 20
128.745085
 30
0.0
 11
-636.0
 21
128.745085
 31
0.0
  0
POINT
  5
830
100
AcDbEntity
  8
DEFPOINTS
  6
CONTINUOUS
 62
     7
100
AcDbPoint
 10
-614.0
 20
35.647389
 30
0.0
  0
LINE
  5
831
100
AcDbEntity
  8
SIZE
  6
CONTINUOUS
 62
    30
100
AcDbLine
 10
-575.0
 20
35.647389
 30
0.0
 11
-570.0
 21
35.647389
 31
0.0
  0
CIRCLE
  5
832
100
AcDbEntity
  8
SIZE
  6
CONTINUOUS
 62
    30
100
AcDbCircle
 10
-580.0
 20
35.647389
 30
0.0
 40
5.0
  0
LINE
  5
833
100
AcDbEntity
  8
SIZE
  6
CONTINUOUS
 62
    30
100
AcDbLine
 10
-619.0
 20
35.647389
 30
0.0
 11
-624.0
 21
35.647389
 31
0.0
  0
CIRCLE
  5
834
100
AcDbEntity
  8
SIZE
  6
CONTINUOUS
 62
    30
100
AcDbCircle
 10
-614.0
 20
35.647389
 30
0.0
 40
5.0
  0
LINE
  5
835
100
AcDbEntity
  8
SIZE
  6
CONTINUOUS
 62
    30
100
AcDbLine
 10
-614.0
 20
35.647389
 30
0.0
 11
-580.0
 21
35.647389
 31
0.0
  0
LINE
  5
836
100
AcDbEntity
  8
SIZE
  6
CONTINUOUS
 62
    30
100
AcDbLine
 10
-624.0
 20
35.647389
 30
0.0
 11
-634.0
 21
35.647389
 31
0.0
  0
TEXT
  5
837
100
AcDbEntity
  8
SIZE
  6
CONTINUOUS
 62
    30
100
AcDbText
 10
-542.0
 20
146.745085
 30
0.0
 40
55.0
  1
36
 41
0.9
 72
     1
 11
-503.107143
 21
146.745085
 31
0.0
100
AcDbText
  0
TEXT
  5
838
100
AcDbEntity
  8
SIZE
  6
CONTINUOUS
 62
    30
100
AcDbText
 10
-534.744401
 20
53.647389
 30
0.0
 40
55.0
  1
34
 41
0.9
 72
     1
 11
-493.494401
 21
53.647389
 31
0.0
100
AcDbText
  0
LINE
  5
839
100
AcDbEntity
  8
SIZE
  6
CONTINUOUS
 62
    30
100
AcDbLine
 10
-495.982007
 20
529.409812
 30
0.0
 11
-596.0
 21
529.409812
 31
0.0
  0
LINE
  5
83A
100
AcDbEntity
  8
SIZE
  6
CONTINUOUS
 62
    30
100
AcDbLine
 10
-596.0
 20
387.5
 30
0.0
 11
-596.0
 21
559.409812
 31
0.0
  0
LINE
  5
83B
100
AcDbEntity
  8
SIZE
  6
CONTINUOUS
 62
    30
100
AcDbLine
 10
-600.0
 20
445.5
 30
0.0
 11
-600.0
 21
559.409812
 31
0.0
  0
LINE
  5
83C
100
AcDbEntity
  8
SIZE
  6
CONTINUOUS
 62
    30
100
AcDbLine
 10
-600.0
 20
445.5
 30
0.0
 11
-600.0
 21
559.409812
 31
0.0
  0
POINT
  5
83D
100
AcDbEntity
  8
DEFPOINTS
  6
CONTINUOUS
 62
     7
100
AcDbPoint
 10
-620.0
 20
442.5
 30
0.0
  0
POINT
  5
83E
100
AcDbEntity
  8
DEFPOINTS
  6
CONTINUOUS
 62
     7
100
AcDbPoint
 10
-596.0
 20
367.5
 30
0.0
  0
POINT
  5
83F
100
AcDbEntity
  8
DEFPOINTS
  6
CONTINUOUS
 62
     7
100
AcDbPoint
 10
-600.0
 20
425.5
 30
0.0
  0
POINT
  5
840
100
AcDbEntity
  8
DEFPOINTS
  6
CONTINUOUS
 62
     7
100
AcDbPoint
 10
-600.0
 20
425.5
 30
0.0
  0
POINT
  5
841
100
AcDbEntity
  8
DEFPOINTS
  6
CONTINUOUS
 62
     7
100
AcDbPoint
 10
-620.0
 20
442.5
 30
0.0
  0
POINT
  5
842
100
AcDbEntity
  8
DEFPOINTS
  6
CONTINUOUS
 62
     7
100
AcDbPoint
 10
-596.0
 20
367.5
 30
0.0
  0
POINT
  5
843
100
AcDbEntity
  8
DEFPOINTS
  6
CONTINUOUS
 62
     7
100
AcDbPoint
 10
-600.0
 20
425.5
 30
0.0
  0
CIRCLE
  5
844
100
AcDbEntity
  8
FIX
  6
CONTINUOUS
 62
    11
100
AcDbCircle
 10
-573.0
 20
336.5
 30
0.0
 40
12.421498
  0
LINE
  5
845
100
AcDbEntity
  8
NOTE
  6
CONTINUOUS
 62
     4
100
AcDbLine
 10
-573.0
 20
351.495166
 30
0.0
 11
-573.0
 21
321.504834
 31
0.0
  0
LINE
  5
846
100
AcDbEntity
  8
NOTE
  6
CONTINUOUS
 62
     4
100
AcDbLine
 10
-587.995166
 20
336.5
 30
0.0
 11
-558.004834
 21
336.5
 31
0.0
  0
LINE
  5
847
100
AcDbEntity
  8
DETAIL
  6
CONTINUOUS
 62
     5
100
AcDbLine
 10
-558.029335
 20
367.5
 30
0.0
 11
-558.029335
 21
306.89987
 31
0.0
  0
LINE
  5
848
100
AcDbEntity
  8
DETAIL
  6
CONTINUOUS
 62
     5
100
AcDbLine
 10
-596.0
 20
342.5
 30
0.0
 11
-596.0
 21
367.5
 31
0.0
  0
LINE
  5
849
100
AcDbEntity
  8
DETAIL
  6
CONTINUOUS
 62
     5
100
AcDbLine
 10
-596.0
 20
306.89987
 30
0.0
 11
-596.0
 21
330.5
 31
0.0
  0
LINE
  5
84A
100
AcDbEntity
  8
DETAIL
  6
CONTINUOUS
 62
     5
100
AcDbLine
 10
-558.029335
 20
306.89987
 30
0.0
 11
-596.0
 21
306.89987
 31
0.0
  0
LINE
  5
84B
100
AcDbEntity
  8
DETAIL
  6
CONTINUOUS
 62
     5
100
AcDbLine
 10
-566.0
 20
344.5
 30
0.0
 11
-566.0
 21
328.5
 31
0.0
  0
LINE
  5
84C
100
AcDbEntity
  8
DETAIL
  6
CONTINUOUS
 62
     5
100
AcDbLine
 10
-580.0
 20
342.5
 30
0.0
 11
-596.0
 21
342.5
 31
0.0
  0
LINE
  5
84D
100
AcDbEntity
  8
DETAIL
  6
CONTINUOUS
 62
     5
100
AcDbLine
 10
-580.0
 20
330.5
 30
0.0
 11
-596.0
 21
330.5
 31
0.0
  0
LINE
  5
84E
100
AcDbEntity
  8
DETAIL
  6
CONTINUOUS
 62
     5
100
AcDbLine
 10
-580.0
 20
330.5
 30
0.0
 11
-580.0
 21
328.5
 31
0.0
  0
ARC
  5
84F
100
AcDbEntity
  8
DETAIL
  6
CONTINUOUS
 62
     5
100
AcDbCircle
 10
-573.0
 20
344.5
 30
0.0
 40
7.0
100
AcDbArc
 50
0.0
 51
180.0
  0
ARC
  5
850
100
AcDbEntity
  8
DETAIL
  6
CONTINUOUS
 62
     5
100
AcDbCircle
 10
-573.0
 20
328.5
 30
0.0
 40
7.0
100
AcDbArc
 50
180.0
 51
0.0
  0
LINE
  5
851
100
AcDbEntity
  8
DETAIL
  6
CONTINUOUS
 62
     5
100
AcDbLine
 10
-580.0
 20
344.5
 30
0.0
 11
-580.0
 21
342.5
 31
0.0
  0
LINE
  5
852
100
AcDbEntity
  8
DETAIL
  6
CONTINUOUS
 62
     5
100
AcDbLine
 10
-580.0
 20
344.5
 30
0.0
 11
-580.0
 21
342.5
 31
0.0
  0
ARC
  5
853
100
AcDbEntity
  8
DETAIL
  6
CONTINUOUS
 62
     5
100
AcDbCircle
 10
-573.0
 20
328.5
 30
0.0
 40
7.0
100
AcDbArc
 50
180.0
 51
0.0
  0
ARC
  5
854
100
AcDbEntity
  8
DETAIL
  6
CONTINUOUS
 62
     5
100
AcDbCircle
 10
-573.0
 20
344.5
 30
0.0
 40
7.0
100
AcDbArc
 50
0.0
 51
180.0
  0
LINE
  5
855
100
AcDbEntity
  8
DETAIL
  6
CONTINUOUS
 62
     5
100
AcDbLine
 10
-580.0
 20
330.5
 30
0.0
 11
-580.0
 21
328.5
 31
0.0
  0
LINE
  5
857
100
AcDbEntity
  8
DETAIL
  6
CONTINUOUS
 62
     5
100
AcDbLine
 10
-580.0
 20
330.5
 30
0.0
 11
-596.0
 21
330.5
 31
0.0
  0
LINE
  5
858
100
AcDbEntity
  8
DETAIL
  6
CONTINUOUS
 62
     5
100
AcDbLine
 10
-580.0
 20
342.5
 30
0.0
 11
-596.0
 21
342.5
 31
0.0
  0
LINE
  5
859
100
AcDbEntity
  8
DETAIL
  6
CONTINUOUS
 62
     5
100
AcDbLine
 10
-566.0
 20
344.5
 30
0.0
 11
-566.0
 21
328.5
 31
0.0
  0
TEXT
  5
85A
100
AcDbEntity
  8
SIZE
  6
CONTINUOUS
 62
    30
100
AcDbText
 10
-738.142858
 20
547.409812
 30
0.0
 40
55.0
  1
20
 41
0.9
 72
     1
 11
-698.071429
 21
547.409812
 31
0.0
100
AcDbText
  0
LINE
  5
85B
100
AcDbEntity
  8
SIZE
  6
CONTINUOUS
 62
    30
100
AcDbLine
 10
-630.0
 20
529.409812
 30
0.0
 11
-756.142857
 21
529.409812
 31
0.0
  0
POINT
  5
85C
100
AcDbEntity
  8
DEFPOINTS
  6
CONTINUOUS
 62
     7
100
AcDbPoint
 10
-596.0
 20
529.409812
 30
0.0
  0
LINE
  5
85D
100
AcDbEntity
  8
SIZE
  6
CONTINUOUS
 62
    30
100
AcDbLine
 10
-591.0
 20
529.409812
 30
0.0
 11
-586.0
 21
529.409812
 31
0.0
  0
CIRCLE
  5
85E
100
AcDbEntity
  8
SIZE
  6
CONTINUOUS
 62
    30
100
AcDbCircle
 10
-596.0
 20
529.409812
 30
0.0
 40
5.0
  0
LINE
  5
85F
100
AcDbEntity
  8
SIZE
  6
CONTINUOUS
 62
    30
100
AcDbLine
 10
-605.0
 20
529.409812
 30
0.0
 11
-610.0
 21
529.409812
 31
0.0
  0
CIRCLE
  5
860
100
AcDbEntity
  8
SIZE
  6
CONTINUOUS
 62
    30
100
AcDbCircle
 10
-600.0
 20
529.409812
 30
0.0
 40
5.0
  0
LINE
  5
861
100
AcDbEntity
  8
SIZE
  6
CONTINUOUS
 62
    30
100
AcDbLine
 10
-600.0
 20
529.409812
 30
0.0
 11
-596.0
 21
529.409812
 31
0.0
  0
LINE
  5
862
100
AcDbEntity
  8
SIZE
  6
CONTINUOUS
 62
    30
100
AcDbLine
 10
-600.0
 20
529.409812
 30
0.0
 11
-596.0
 21
529.409812
 31
0.0
  0
LINE
  5
863
100
AcDbEntity
  8
SIZE
  6
CONTINUOUS
 62
    30
100
AcDbLine
 10
-586.0
 20
529.409812
 30
0.0
 11
-576.0
 21
529.409812
 31
0.0
  0
LINE
  5
864
100
AcDbEntity
  8
SIZE
  6
CONTINUOUS
 62
    30
100
AcDbLine
 10
-610.0
 20
529.409812
 30
0.0
 11
-620.0
 21
529.409812
 31
0.0
  0
POINT
  5
865
100
AcDbEntity
  8
DEFPOINTS
  6
CONTINUOUS
 62
     7
100
AcDbPoint
 10
-600.0
 20
529.409812
 30
0.0
  0
LINE
  5
866
100
AcDbEntity
  8
SIZE
  6
CONTINUOUS
 62
    30
100
AcDbLine
 10
-625.0
 20
529.409812
 30
0.0
 11
-630.0
 21
529.409812
 31
0.0
  0
CIRCLE
  5
867
100
AcDbEntity
  8
SIZE
  6
CONTINUOUS
 62
    30
100
AcDbCircle
 10
-620.0
 20
529.409812
 30
0.0
 40
5.0
  0
LINE
  5
868
100
AcDbEntity
  8
SIZE
  6
CONTINUOUS
 62
    30
100
AcDbLine
 10
-595.0
 20
529.409812
 30
0.0
 11
-590.0
 21
529.409812
 31
0.0
  0
CIRCLE
  5
869
100
AcDbEntity
  8
SIZE
  6
CONTINUOUS
 62
    30
100
AcDbCircle
 10
-600.0
 20
529.409812
 30
0.0
 40
5.0
  0
LINE
  5
86A
100
AcDbEntity
  8
SIZE
  6
CONTINUOUS
 62
    30
100
AcDbLine
 10
-600.0
 20
529.409812
 30
0.0
 11
-620.0
 21
529.409812
 31
0.0
  0
LINE
  5
86B
100
AcDbEntity
  8
SIZE
  6
CONTINUOUS
 62
    30
100
AcDbLine
 10
-590.0
 20
529.409812
 30
0.0
 11
-580.0
 21
529.409812
 31
0.0
  0
LINE
  5
86C
100
AcDbEntity
  8
SIZE
  6
CONTINUOUS
 62
    30
100
AcDbLine
 10
-620.0
 20
462.5
 30
0.0
 11
-620.0
 21
559.409812
 31
0.0
  0
LINE
  5
86D
100
AcDbEntity
  8
DETAIL
  6
CONTINUOUS
 62
     5
100
AcDbLine
 10
-550.0
 20
353.5
 30
0.0
 11
-547.0
 21
350.5
 31
0.0
  0
LINE
  5
86E
100
AcDbEntity
  8
DETAIL
  6
CONTINUOUS
 62
     5
100
AcDbLine
 10
-550.0
 20
353.5
 30
0.0
 11
-550.0
 21
367.5
 31
0.0
  0
LINE
  5
86F
100
AcDbEntity
  8
DETAIL
  6
CONTINUOUS
 62
     5
100
AcDbLine
 10
-550.0
 20
353.5
 30
0.0
 11
-550.0
 21
367.5
 31
0.0
  0
LINE
  5
870
100
AcDbEntity
  8
DETAIL
  6
CONTINUOUS
 62
     5
100
AcDbLine
 10
-550.0
 20
353.5
 30
0.0
 11
-547.0
 21
350.5
 31
0.0
  0
TEXT
  5
871
100
AcDbEntity
  8
SIZE
  6
CONTINUOUS
 62
    30
100
AcDbText
 10
-549.339149
 20
547.409812
 30
0.0
 40
55.0
  1
4
 41
0.9
 72
     1
 11
-531.660578
 21
547.409812
 31
0.0
100
AcDbText
  0
LINE
  5
872
100
AcDbEntity
  8
SIZE
  6
CONTINUOUS
 62
    30
100
AcDbLine
 10
-595.0
 20
635.522152
 30
0.0
 11
-590.0
 21
635.522152
 31
0.0
  0
CIRCLE
  5
873
100
AcDbEntity
  8
SIZE
  6
CONTINUOUS
 62
    30
100
AcDbCircle
 10
-600.0
 20
635.522152
 30
0.0
 40
5.0
  0
LINE
  5
874
100
AcDbEntity
  8
SIZE
  6
CONTINUOUS
 62
    30
100
AcDbLine
 10
-615.0
 20
773.803445
 30
0.0
 11
-610.0
 21
773.803445
 31
0.0
  0
CIRCLE
  5
875
100
AcDbEntity
  8
SIZE
  6
CONTINUOUS
 62
    30
100
AcDbCircle
 10
-620.0
 20
773.803445
 30
0.0
 40
5.0
  0
LINE
  5
876
100
AcDbEntity
  8
BASIS
  6
DASHDOT
 62
     6
100
AcDbLine
 10
0.0
 20
495.0
 30
0.0
 11
0.0
 21
-495.0
 31
0.0
  0
CIRCLE
  5
877
100
AcDbEntity
  8
ARRANGE
  6
CONTINUOUS
 62
     1
100
AcDbCircle
 10
0.0
 20
0.0
 30
0.0
 40
50.0
  0
LINE
  5
878
100
AcDbEntity
  8
SIZE
  6
CONTINUOUS
 62
    30
100
AcDbLine
 10
875.367666
 20
326.5
 30
0.0
 11
875.367666
 21
-323.5
 31
0.0
  0
TEXT
  5
879
100
AcDbEntity
  8
SIZE
  6
CONTINUOUS
 62
    30
100
AcDbText
 10
861.09345
 20
-133.28483
 30
0.0
 40
60.0
  1
(吊りボルトピッチ)
 50
90.000003
 41
0.7
  7
STANDARD1
100
AcDbText
  0
LINE
  5
87A
100
AcDbEntity
  8
SIZE
  6
CONTINUOUS
 62
    30
100
AcDbLine
 10
1343.065222
 20
-147.5
 30
0.0
 11
1343.065222
 21
432.5
 31
0.0
  0
TEXT
  5
87B
100
AcDbEntity
  8
SIZE
  6
CONTINUOUS
 62
    30
100
AcDbText
 10
1173.333089
 20
-131.164286
 30
0.0
 40
55.0
  1
566(天井開口寸法)
 50
90.0
 41
0.9
 72
     1
 11
1173.333089
 21
142.5
 31
0.0
100
AcDbText
  0
LINE
  5
87C
100
AcDbEntity
  8
SIZE
  6
CONTINUOUS
 62
    30
100
AcDbLine
 10
1189.737851
 20
-130.5
 30
0.0
 11
1189.737851
 21
415.5
 31
0.0
  0
LINE
  5
87D
100
AcDbEntity
  8
DETAIL
  6
CONTINUOUS
 62
     5
100
AcDbLine
 10
620.0
 20
442.5
 30
0.0
 11
620.0
 21
-157.5
 31
0.0
  0
LINE
  5
87E
100
AcDbEntity
  8
OUTLINE
  6
CONTINUOUS
 62
     3
100
AcDbLine
 10
620.0
 20
442.5
 30
0.0
 11
620.0
 21
-157.5
 31
0.0
  0
LINE
  5
87F
100
AcDbEntity
  8
OUTLINE
  6
CONTINUOUS
 62
     3
100
AcDbLine
 10
580.0
 20
-367.5
 30
0.0
 11
580.0
 21
367.5
 31
0.0
  0
LINE
  5
880
100
AcDbEntity
  8
SERVICESPACE
  6
CONTINUOUS
 62
     2
100
AcDbLine
 10
600.0
 20
-140.5
 30
0.0
 11
600.0
 21
425.5
 31
0.0
  0
LINE
  5
881
100
AcDbEntity
  8
ARRANGE
  6
CONTINUOUS
 62
     1
100
AcDbLine
 10
49.963763
 20
49.596595
 30
0.0
 11
-49.963763
 21
-49.596595
 31
0.0
  0
LINE
  5
882
100
AcDbEntity
  8
ARRANGE
  6
CONTINUOUS
 62
     1
100
AcDbLine
 10
50.03735
 20
-49.522353
 30
0.0
 11
-50.03735
 21
49.522353
 31
0.0
  0
LINE
  5
883
100
AcDbEntity
  8
DETAIL
  6
CONTINUOUS
 62
     5
100
AcDbLine
 10
580.0
 20
-306.89987
 30
0.0
 11
580.0
 21
306.89987
 31
0.0
  0
LINE
  5
884
100
AcDbEntity
  8
SIZE
  6
CONTINUOUS
 62
    30
100
AcDbLine
 10
568.0
 20
-816.85275
 30
0.0
 11
563.0
 21
-816.85275
 31
0.0
  0
LINE
  5
885
100
AcDbEntity
  8
SIZE
  6
CONTINUOUS
 62
    30
100
AcDbLine
 10
568.0
 20
-816.85275
 30
0.0
 11
563.0
 21
-816.85275
 31
0.0
  0
LINE
  5
886
100
AcDbEntity
  8
SIZE
  6
CONTINUOUS
 62
    30
100
AcDbLine
 10
570.0
 20
-703.12375
 30
0.0
 11
560.0
 21
-703.12375
 31
0.0
  0
LINE
  5
887
100
AcDbEntity
  8
SIZE
  6
CONTINUOUS
 62
    30
100
AcDbLine
 10
570.0
 20
-568.367281
 30
0.0
 11
360.0
 21
-568.367281
 31
0.0
  0
CIRCLE
  5
888
100
AcDbEntity
  8
FIX
  6
CONTINUOUS
 62
    11
100
AcDbCircle
 10
573.0
 20
-333.5
 30
0.0
 40
12.421498
  0
LINE
  5
889
100
AcDbEntity
  8
NOTE
  6
CONTINUOUS
 62
     4
100
AcDbLine
 10
558.004834
 20
-333.5
 30
0.0
 11
587.995166
 21
-333.5
 31
0.0
  0
LINE
  5
88A
100
AcDbEntity
  8
DETAIL
  6
CONTINUOUS
 62
     5
100
AcDbLine
 10
558.029335
 20
-306.89987
 30
0.0
 11
596.0
 21
-306.89987
 31
0.0
  0
ARC
  5
88B
100
AcDbEntity
  8
DETAIL
  6
CONTINUOUS
 62
     5
100
AcDbCircle
 10
573.0
 20
-341.5
 30
0.0
 40
7.0
100
AcDbArc
 50
180.0
 51
0.0
  0
ARC
  5
88C
100
AcDbEntity
  8
DETAIL
  6
CONTINUOUS
 62
     5
100
AcDbCircle
 10
573.0
 20
-325.5
 30
0.0
 40
7.0
100
AcDbArc
 50
0.0
 51
180.0
  0
ARC
  5
88D
100
AcDbEntity
  8
DETAIL
  6
CONTINUOUS
 62
     5
100
AcDbCircle
 10
573.0
 20
-325.5
 30
0.0
 40
7.0
100
AcDbArc
 50
0.0
 51
180.0
  0
ARC
  5
88E
100
AcDbEntity
  8
DETAIL
  6
CONTINUOUS
 62
     5
100
AcDbCircle
 10
573.0
 20
-341.5
 30
0.0
 40
7.0
100
AcDbArc
 50
180.0
 51
0.0
  0
TEXT
  5
88F
100
AcDbEntity
  8
SIZE
  6
CONTINUOUS
 62
    30
100
AcDbText
 10
-76.748706
 20
-900.783045
 30
0.0
 40
55.0
  1
1192
 41
0.9
 72
     1
 11
1.037008
 21
-900.783045
 31
0.0
100
AcDbText
  0
TEXT
  5
890
100
AcDbEntity
  8
SIZE
  6
CONTINUOUS
 62
    30
100
AcDbText
 10
-77.785714
 20
-685.12375
 30
0.0
 40
55.0
  1
1160
 41
0.9
 72
     1
 11
0.0
 21
-685.12375
 31
0.0
100
AcDbText
  0
LINE
  5
891
100
AcDbEntity
  8
SIZE
  6
CONTINUOUS
 62
    30
100
AcDbLine
 10
563.0
 20
-816.85275
 30
0.0
 11
553.0
 21
-816.85275
 31
0.0
  0
LINE
  5
892
100
AcDbEntity
  8
SIZE
  6
CONTINUOUS
 62
    30
100
AcDbLine
 10
340.0
 20
-568.367281
 30
0.0
 11
40.0
 21
-568.367281
 31
0.0
  0
TEXT
  5
893
100
AcDbEntity
  8
NOTE
  6
CONTINUOUS
 62
     4
100
AcDbText
 10
-180.875959
 20
-233.259976
 30
0.0
 40
60.0
  1
%%C200 吹出円形フランジ
 50
0.000003
 41
0.7
  7
STANDARD1
100
AcDbText
  0
LINE
  5
894
100
AcDbEntity
  8
NOTE
  6
CONTINUOUS
 62
     4
100
AcDbLine
 10
397.067733
 20
-248.055643
 30
0.0
 11
-202.197351
 21
-248.055643
 31
0.0
  0
LINE
  5
895
100
AcDbEntity
  8
DETAIL
  6
CONTINUOUS
 62
     5
100
AcDbLine
 10
130.0
 20
-397.5
 30
0.0
 11
-70.303151
 21
-397.5
 31
0.0
  0
LINE
  5
896
100
AcDbEntity
  8
DETAIL
  6
CONTINUOUS
 62
     5
100
AcDbLine
 10
127.5
 20
-437.5
 30
0.0
 11
-67.5
 21
-437.5
 31
0.0
  0
LINE
  5
897
100
AcDbEntity
  8
NOTE
  6
CONTINUOUS
 62
     4
100
AcDbLine
 10
-202.197351
 20
-248.055643
 30
0.0
 11
-290.0
 21
-437.5
 31
0.0
  0
TEXT
  5
898
100
AcDbEntity
  8
SIZE
  6
CONTINUOUS
 62
    30
100
AcDbText
 10
-193.642857
 20
-550.367281
 30
0.0
 40
55.0
  1
320
 41
0.9
 72
     1
 11
-130.0
 21
-550.367281
 31
0.0
100
AcDbText
  0
LINE
  5
899
100
AcDbEntity
  8
SIZE
  6
CONTINUOUS
 62
    30
100
AcDbLine
 10
20.0
 20
-568.367281
 30
0.0
 11
-280.0
 21
-568.367281
 31
0.0
  0
ARC
  5
89A
100
AcDbEntity
  8
DETAIL
  6
CONTINUOUS
 62
     5
100
AcDbCircle
 10
-122.738747
 20
-482.462489
 30
0.0
 40
100.0
100
AcDbArc
 50
58.772114
 51
94.164056
  0
LINE
  5
89B
100
AcDbEntity
  8
NOTE
  6
CONTINUOUS
 62
     4
100
AcDbLine
 10
-290.0
 20
-365.555485
 30
0.0
 11
-290.0
 21
-509.444515
 31
0.0
  0
POINT
  5
89C
100
AcDbEntity
  8
DEFPOINTS
  6
CONTINUOUS
 62
     7
100
AcDbPoint
 10
-290.0
 20
-568.367281
 30
0.0
  0
POINT
  5
89D
100
AcDbEntity
  8
DEFPOINTS
  6
CONTINUOUS
 62
     7
100
AcDbPoint
 10
-290.0
 20
-507.444515
 30
0.0
  0
LINE
  5
89E
100
AcDbEntity
  8
SIZE
  6
CONTINUOUS
 62
    30
100
AcDbLine
 10
-285.0
 20
-568.367281
 30
0.0
 11
-280.0
 21
-568.367281
 31
0.0
  0
CIRCLE
  5
89F
100
AcDbEntity
  8
SIZE
  6
CONTINUOUS
 62
    30
100
AcDbCircle
 10
-290.0
 20
-568.367281
 30
0.0
 40
5.0
  0
LINE
  5
8A0
100
AcDbEntity
  8
SIZE
  6
CONTINUOUS
 62
    30
100
AcDbLine
 10
-290.0
 20
-527.444515
 30
0.0
 11
-290.0
 21
-598.367281
 31
0.0
  0
LINE
  5
8A1
100
AcDbEntity
  8
NOTE
  6
CONTINUOUS
 62
     4
100
AcDbLine
 10
-290.0
 20
-437.5
 30
0.0
 11
-282.574418
 21
-403.926046
 31
0.0
  0
LINE
  5
8A2
100
AcDbEntity
  8
NOTE
  6
CONTINUOUS
 62
     4
100
AcDbLine
 10
-290.0
 20
-437.5
 30
0.0
 11
-266.78228
 21
-412.136894
 31
0.0
  0
LINE
  5
8A3
100
AcDbEntity
  8
DETAIL
  6
CONTINUOUS
 62
     5
100
AcDbLine
 10
-192.5
 20
-437.5
 30
0.0
 11
-190.064797
 21
-398.536753
 31
0.0
  0
ARC
  5
8A4
100
AcDbEntity
  8
DETAIL
  6
CONTINUOUS
 62
     5
100
AcDbCircle
 10
-137.261253
 20
-482.462489
 30
0.0
 40
100.0
100
AcDbArc
 50
85.835944
 51
121.227886
  0
ARC
  5
8A5
100
AcDbEntity
  8
DETAIL
  6
CONTINUOUS
 62
     5
100
AcDbCircle
 10
-188.068692
 20
-398.66151
 30
0.0
 40
2.0
100
AcDbArc
 50
121.227886
 51
176.423666
  0
LINE
  5
8A6
100
AcDbEntity
  8
NOTE
  6
CONTINUOUS
 62
     4
100
AcDbLine
 10
30.0
 20
-365.555485
 30
0.0
 11
30.0
 21
-509.444515
 31
0.0
  0
POINT
  5
8A7
100
AcDbEntity
  8
DEFPOINTS
  6
CONTINUOUS
 62
     7
100
AcDbPoint
 10
30.0
 20
-507.444515
 30
0.0
  0
LINE
  5
8A8
100
AcDbEntity
  8
SIZE
  6
CONTINUOUS
 62
    30
100
AcDbLine
 10
25.0
 20
-568.367281
 30
0.0
 11
20.0
 21
-568.367281
 31
0.0
  0
CIRCLE
  5
8A9
100
AcDbEntity
  8
SIZE
  6
CONTINUOUS
 62
    30
100
AcDbCircle
 10
30.0
 20
-568.367281
 30
0.0
 40
5.0
  0
LINE
  5
8AA
100
AcDbEntity
  8
SIZE
  6
CONTINUOUS
 62
    30
100
AcDbLine
 10
30.0
 20
-527.444515
 30
0.0
 11
30.0
 21
-598.367281
 31
0.0
  0
POINT
  5
8AB
100
AcDbEntity
  8
DEFPOINTS
  6
CONTINUOUS
 62
     7
100
AcDbPoint
 10
30.0
 20
-568.367281
 30
0.0
  0
POINT
  5
8AC
100
AcDbEntity
  8
DEFPOINTS
  6
CONTINUOUS
 62
     7
100
AcDbPoint
 10
30.0
 20
-507.444515
 30
0.0
  0
LINE
  5
8AD
100
AcDbEntity
  8
SIZE
  6
CONTINUOUS
 62
    30
100
AcDbLine
 10
35.0
 20
-568.367281
 30
0.0
 11
40.0
 21
-568.367281
 31
0.0
  0
CIRCLE
  5
8AE
100
AcDbEntity
  8
SIZE
  6
CONTINUOUS
 62
    30
100
AcDbCircle
 10
30.0
 20
-568.367281
 30
0.0
 40
5.0
  0
LINE
  5
8AF
100
AcDbEntity
  8
SIZE
  6
CONTINUOUS
 62
    30
100
AcDbLine
 10
30.0
 20
-527.444515
 30
0.0
 11
30.0
 21
-598.367281
 31
0.0
  0
LINE
  5
8B0
100
AcDbEntity
  8
NOTE
  6
CONTINUOUS
 62
     4
100
AcDbLine
 10
-41.944515
 20
-437.5
 30
0.0
 11
101.944515
 21
-437.5
 31
0.0
  0
ARC
  5
8B1
100
AcDbEntity
  8
DETAIL
  6
CONTINUOUS
 62
     5
100
AcDbCircle
 10
-71.931308
 20
-398.66151
 30
0.0
 40
2.0
100
AcDbArc
 50
3.576334
 51
58.772114
  0
LINE
  5
8B2
100
AcDbEntity
  8
DETAIL
  6
CONTINUOUS
 62
     5
100
AcDbLine
 10
-67.5
 20
-437.5
 30
0.0
 11
-69.935203
 21
-398.536753
 31
0.0
  0
LINE
  5
8B3
100
AcDbEntity
  8
DETAIL
  6
CONTINUOUS
 62
     5
100
AcDbLine
 10
558.029335
 20
-367.5
 30
0.0
 11
558.029335
 21
-306.89987
 31
0.0
  0
LINE
  5
8B4
100
AcDbEntity
  8
SIZE
  6
CONTINUOUS
 62
    30
100
AcDbLine
 10
345.0
 20
-568.367281
 30
0.0
 11
340.0
 21
-568.367281
 31
0.0
  0
LINE
  5
8B5
100
AcDbEntity
  8
NOTE
  6
CONTINUOUS
 62
     4
100
AcDbLine
 10
278.055485
 20
-437.5
 30
0.0
 11
421.944515
 21
-437.5
 31
0.0
  0
LINE
  5
8B6
100
AcDbEntity
  8
DETAIL
  6
CONTINUOUS
 62
     5
100
AcDbLine
 10
447.5
 20
-437.5
 30
0.0
 11
252.5
 21
-437.5
 31
0.0
  0
LINE
  5
8B7
100
AcDbEntity
  8
DETAIL
  6
CONTINUOUS
 62
     5
100
AcDbLine
 10
450.0
 20
-397.5
 30
0.0
 11
249.990664
 21
-397.5
 31
0.0
  0
TEXT
  5
8B8
100
AcDbEntity
  8
SIZE
  6
CONTINUOUS
 62
    30
100
AcDbText
 10
126.357143
 20
-550.367281
 30
0.0
 40
55.0
  1
320
 41
0.9
 72
     1
 11
190.0
 21
-550.367281
 31
0.0
100
AcDbText
  0
ARC
  5
8B9
100
AcDbEntity
  8
DETAIL
  6
CONTINUOUS
 62
     5
100
AcDbCircle
 10
196.893305
 20
-481.425736
 30
0.0
 40
100.0
100
AcDbArc
 50
58.5564
 51
94.164056
  0
ARC
  5
8BA
100
AcDbEntity
  8
DETAIL
  6
CONTINUOUS
 62
     5
100
AcDbCircle
 10
132.013042
 20
-397.353765
 30
0.0
 40
2.0
100
AcDbArc
 50
120.920929
 51
176.423666
  0
LINE
  5
8BB
100
AcDbEntity
  8
DETAIL
  6
CONTINUOUS
 62
     5
100
AcDbLine
 10
127.5
 20
-437.5
 30
0.0
 11
130.016937
 21
-397.229008
 31
0.0
  0
ARC
  5
8BC
100
AcDbEntity
  8
DETAIL
  6
CONTINUOUS
 62
     5
100
AcDbCircle
 10
182.370799
 20
-481.425736
 30
0.0
 40
100.0
100
AcDbArc
 50
85.835944
 51
120.920929
  0
ARC
  5
8BD
100
AcDbEntity
  8
DETAIL
  6
CONTINUOUS
 62
     5
100
AcDbCircle
 10
248.015887
 20
-397.816636
 30
0.0
 40
2.0
100
AcDbArc
 50
3.576334
 51
58.5564
  0
LINE
  5
8BE
100
AcDbEntity
  8
DETAIL
  6
CONTINUOUS
 62
     5
100
AcDbLine
 10
252.5
 20
-437.5
 30
0.0
 11
250.011992
 21
-397.69188
 31
0.0
  0
LINE
  5
8BF
100
AcDbEntity
  8
NOTE
  6
CONTINUOUS
 62
     4
100
AcDbLine
 10
350.0
 20
-365.555485
 30
0.0
 11
350.0
 21
-509.444515
 31
0.0
  0
TEXT
  5
8C0
100
AcDbEntity
  8
SIZE
  6
CONTINUOUS
 62
    30
100
AcDbText
 10
401.357143
 20
-550.367281
 30
0.0
 40
55.0
  1
230
 41
0.9
 72
     1
 11
465.0
 21
-550.367281
 31
0.0
100
AcDbText
  0
POINT
  5
8C1
100
AcDbEntity
  8
DEFPOINTS
  6
CONTINUOUS
 62
     7
100
AcDbPoint
 10
350.0
 20
-507.444515
 30
0.0
  0
CIRCLE
  5
8C2
100
AcDbEntity
  8
SIZE
  6
CONTINUOUS
 62
    30
100
AcDbCircle
 10
350.0
 20
-568.367281
 30
0.0
 40
5.0
  0
LINE
  5
8C3
100
AcDbEntity
  8
SIZE
  6
CONTINUOUS
 62
    30
100
AcDbLine
 10
350.0
 20
-527.444515
 30
0.0
 11
350.0
 21
-598.367281
 31
0.0
  0
POINT
  5
8C4
100
AcDbEntity
  8
DEFPOINTS
  6
CONTINUOUS
 62
     7
100
AcDbPoint
 10
350.0
 20
-568.367281
 30
0.0
  0
POINT
  5
8C5
100
AcDbEntity
  8
DEFPOINTS
  6
CONTINUOUS
 62
     7
100
AcDbPoint
 10
350.0
 20
-507.444515
 30
0.0
  0
LINE
  5
8C6
100
AcDbEntity
  8
SIZE
  6
CONTINUOUS
 62
    30
100
AcDbLine
 10
355.0
 20
-568.367281
 30
0.0
 11
360.0
 21
-568.367281
 31
0.0
  0
CIRCLE
  5
8C7
100
AcDbEntity
  8
SIZE
  6
CONTINUOUS
 62
    30
100
AcDbCircle
 10
350.0
 20
-568.367281
 30
0.0
 40
5.0
  0
LINE
  5
8C8
100
AcDbEntity
  8
SIZE
  6
CONTINUOUS
 62
    30
100
AcDbLine
 10
350.0
 20
-527.444515
 30
0.0
 11
350.0
 21
-598.367281
 31
0.0
  0
ARC
  5
8C9
100
AcDbEntity
  8
DETAIL
  6
CONTINUOUS
 62
     5
100
AcDbCircle
 10
460.0
 20
-397.5
 30
0.0
 40
10.0
100
AcDbArc
 50
93.959234
 51
180.0
  0
LINE
  5
8CA
100
AcDbEntity
  8
DETAIL
  6
CONTINUOUS
 62
     5
100
AcDbLine
 10
447.5
 20
-437.5
 30
0.0
 11
450.0
 21
-397.5
 31
0.0
  0
LINE
  5
8CB
100
AcDbEntity
  8
DETAIL
  6
CONTINUOUS
 62
     5
100
AcDbLine
 10
566.0
 20
-341.5
 30
0.0
 11
566.0
 21
-325.5
 31
0.0
  0
LINE
  5
8CC
100
AcDbEntity
  8
DETAIL
  6
CONTINUOUS
 62
     5
100
AcDbLine
 10
566.0
 20
-341.5
 30
0.0
 11
566.0
 21
-325.5
 31
0.0
  0
ARC
  5
8CD
100
AcDbEntity
  8
DETAIL
  6
CONTINUOUS
 62
     5
100
AcDbCircle
 10
544.0
 20
-373.5
 30
0.0
 40
4.0
100
AcDbArc
 50
270.0
 51
0.0
  0
LINE
  5
8CE
100
AcDbEntity
  8
DETAIL
  6
CONTINUOUS
 62
     5
100
AcDbLine
 10
548.0
 20
-367.5
 30
0.0
 11
548.0
 21
-373.5
 31
0.0
  0
LINE
  5
8CF
100
AcDbEntity
  8
DETAIL
  6
CONTINUOUS
 62
     5
100
AcDbLine
 10
459.309533
 20
-387.523866
 30
0.0
 11
544.0
 21
-377.5
 31
0.0
  0
LINE
  5
8D0
100
AcDbEntity
  8
SIZE
  6
CONTINUOUS
 62
    30
100
AcDbLine
 10
596.0
 20
-387.5
 30
0.0
 11
596.0
 21
-846.85275
 31
0.0
  0
LINE
  5
8D1
100
AcDbEntity
  8
SIZE
  6
CONTINUOUS
 62
    30
100
AcDbLine
 10
573.0
 20
-368.495166
 30
0.0
 11
573.0
 21
-846.85275
 31
0.0
  0
LINE
  5
8D2
100
AcDbEntity
  8
SIZE
  6
CONTINUOUS
 62
    30
100
AcDbLine
 10
573.0
 20
-368.495166
 30
0.0
 11
573.0
 21
-846.85275
 31
0.0
  0
LINE
  5
8D3
100
AcDbEntity
  8
SIZE
  6
CONTINUOUS
 62
    30
100
AcDbLine
 10
596.0
 20
-387.5
 30
0.0
 11
596.0
 21
-733.12375
 31
0.0
  0
LINE
  5
8D4
100
AcDbEntity
  8
SIZE
  6
CONTINUOUS
 62
    30
100
AcDbLine
 10
580.0
 20
-326.89987
 30
0.0
 11
580.0
 21
-733.12375
 31
0.0
  0
LINE
  5
8D5
100
AcDbEntity
  8
SIZE
  6
CONTINUOUS
 62
    30
100
AcDbLine
 10
580.0
 20
-326.89987
 30
0.0
 11
580.0
 21
-733.12375
 31
0.0
  0
LINE
  5
8D6
100
AcDbEntity
  8
SIZE
  6
CONTINUOUS
 62
    30
100
AcDbLine
 10
596.0
 20
-387.5
 30
0.0
 11
596.0
 21
-948.783045
 31
0.0
  0
CIRCLE
  5
8D7
100
AcDbEntity
  8
SIZE
  6
CONTINUOUS
 62
    30
100
AcDbCircle
 10
596.0
 20
-918.783045
 30
0.0
 40
5.0
  0
TEXT
  5
8D8
100
AcDbEntity
  8
SIZE
  6
CONTINUOUS
 62
    30
100
AcDbText
 10
637.67985
 20
-798.85275
 30
0.0
 40
55.0
  1
23
 41
0.9
 72
     1
 11
677.751279
 21
-798.85275
 31
0.0
100
AcDbText
  0
LINE
  5
8D9
100
AcDbEntity
  8
SIZE
  6
CONTINUOUS
 62
    30
100
AcDbLine
 10
735.822708
 20
-816.85275
 30
0.0
 11
596.0
 21
-816.85275
 31
0.0
  0
POINT
  5
8DA
100
AcDbEntity
  8
DEFPOINTS
  6
CONTINUOUS
 62
     7
100
AcDbPoint
 10
596.0
 20
-816.85275
 30
0.0
  0
LINE
  5
8DB
100
AcDbEntity
  8
SIZE
  6
CONTINUOUS
 62
    30
100
AcDbLine
 10
601.0
 20
-816.85275
 30
0.0
 11
606.0
 21
-816.85275
 31
0.0
  0
CIRCLE
  5
8DC
100
AcDbEntity
  8
SIZE
  6
CONTINUOUS
 62
    30
100
AcDbCircle
 10
596.0
 20
-816.85275
 30
0.0
 40
5.0
  0
CIRCLE
  5
8DD
100
AcDbEntity
  8
SIZE
  6
CONTINUOUS
 62
    30
100
AcDbCircle
 10
573.0
 20
-816.85275
 30
0.0
 40
5.0
  0
LINE
  5
8DE
100
AcDbEntity
  8
SIZE
  6
CONTINUOUS
 62
    30
100
AcDbLine
 10
573.0
 20
-816.85275
 30
0.0
 11
596.0
 21
-816.85275
 31
0.0
  0
LINE
  5
8DF
100
AcDbEntity
  8
SIZE
  6
CONTINUOUS
 62
    30
100
AcDbLine
 10
573.0
 20
-816.85275
 30
0.0
 11
596.0
 21
-816.85275
 31
0.0
  0
LINE
  5
8E0
100
AcDbEntity
  8
SIZE
  6
CONTINUOUS
 62
    30
100
AcDbLine
 10
606.0
 20
-816.85275
 30
0.0
 11
616.0
 21
-816.85275
 31
0.0
  0
POINT
  5
8E1
100
AcDbEntity
  8
DEFPOINTS
  6
CONTINUOUS
 62
     7
100
AcDbPoint
 10
573.0
 20
-816.85275
 30
0.0
  0
CIRCLE
  5
8E2
100
AcDbEntity
  8
SIZE
  6
CONTINUOUS
 62
    30
100
AcDbCircle
 10
573.0
 20
-816.85275
 30
0.0
 40
5.0
  0
POINT
  5
8E3
100
AcDbEntity
  8
DEFPOINTS
  6
CONTINUOUS
 62
     7
100
AcDbPoint
 10
596.0
 20
-918.783045
 30
0.0
  0
LINE
  5
8E4
100
AcDbEntity
  8
SIZE
  6
CONTINUOUS
 62
    30
100
AcDbLine
 10
591.0
 20
-918.783045
 30
0.0
 11
586.0
 21
-918.783045
 31
0.0
  0
TEXT
  5
8E5
100
AcDbEntity
  8
SIZE
  6
CONTINUOUS
 62
    30
100
AcDbText
 10
636.103714
 20
-685.12375
 30
0.0
 40
55.0
  1
16
 41
0.9
 72
     1
 11
670.282285
 21
-685.12375
 31
0.0
100
AcDbText
  0
LINE
  5
8E6
100
AcDbEntity
  8
SIZE
  6
CONTINUOUS
 62
    30
100
AcDbLine
 10
722.460857
 20
-703.12375
 30
0.0
 11
596.0
 21
-703.12375
 31
0.0
  0
POINT
  5
8E7
100
AcDbEntity
  8
DEFPOINTS
  6
CONTINUOUS
 62
     7
100
AcDbPoint
 10
596.0
 20
-703.12375
 30
0.0
  0
LINE
  5
8E8
100
AcDbEntity
  8
SIZE
  6
CONTINUOUS
 62
    30
100
AcDbLine
 10
601.0
 20
-703.12375
 30
0.0
 11
606.0
 21
-703.12375
 31
0.0
  0
CIRCLE
  5
8E9
100
AcDbEntity
  8
SIZE
  6
CONTINUOUS
 62
    30
100
AcDbCircle
 10
596.0
 20
-703.12375
 30
0.0
 40
5.0
  0
LINE
  5
8EA
100
AcDbEntity
  8
SIZE
  6
CONTINUOUS
 62
    30
100
AcDbLine
 10
575.0
 20
-703.12375
 30
0.0
 11
570.0
 21
-703.12375
 31
0.0
  0
CIRCLE
  5
8EB
100
AcDbEntity
  8
SIZE
  6
CONTINUOUS
 62
    30
100
AcDbCircle
 10
580.0
 20
-703.12375
 30
0.0
 40
5.0
  0
LINE
  5
8EC
100
AcDbEntity
  8
SIZE
  6
CONTINUOUS
 62
    30
100
AcDbLine
 10
580.0
 20
-703.12375
 30
0.0
 11
596.0
 21
-703.12375
 31
0.0
  0
LINE
  5
8ED
100
AcDbEntity
  8
SIZE
  6
CONTINUOUS
 62
    30
100
AcDbLine
 10
580.0
 20
-703.12375
 30
0.0
 11
596.0
 21
-703.12375
 31
0.0
  0
LINE
  5
8EE
100
AcDbEntity
  8
SIZE
  6
CONTINUOUS
 62
    30
100
AcDbLine
 10
606.0
 20
-703.12375
 30
0.0
 11
616.0
 21
-703.12375
 31
0.0
  0
POINT
  5
8EF
100
AcDbEntity
  8
DEFPOINTS
  6
CONTINUOUS
 62
     7
100
AcDbPoint
 10
580.0
 20
-703.12375
 30
0.0
  0
LINE
  5
8F0
100
AcDbEntity
  8
SIZE
  6
CONTINUOUS
 62
    30
100
AcDbLine
 10
575.0
 20
-703.12375
 30
0.0
 11
570.0
 21
-703.12375
 31
0.0
  0
CIRCLE
  5
8F1
100
AcDbEntity
  8
SIZE
  6
CONTINUOUS
 62
    30
100
AcDbCircle
 10
580.0
 20
-703.12375
 30
0.0
 40
5.0
  0
LINE
  5
8F2
100
AcDbEntity
  8
SIZE
  6
CONTINUOUS
 62
    30
100
AcDbLine
 10
640.0
 20
-157.5
 30
0.0
 11
1373.065222
 21
-157.5
 31
0.0
  0
LINE
  5
8F3
100
AcDbEntity
  8
SIZE
  6
CONTINUOUS
 62
    30
100
AcDbLine
 10
640.0
 20
-157.5
 30
0.0
 11
1373.065222
 21
-157.5
 31
0.0
  0
LINE
  5
8F4
100
AcDbEntity
  8
SIZE
  6
CONTINUOUS
 62
    30
100
AcDbLine
 10
616.0
 20
-367.5
 30
0.0
 11
1373.065222
 21
-367.5
 31
0.0
  0
LINE
  5
8F5
100
AcDbEntity
  8
SIZE
  6
CONTINUOUS
 62
    30
100
AcDbLine
 10
620.0
 20
-140.5
 30
0.0
 11
1219.737851
 21
-140.5
 31
0.0
  0
LINE
  5
8F6
100
AcDbEntity
  8
SIZE
  6
CONTINUOUS
 62
    30
100
AcDbLine
 10
620.0
 20
-140.5
 30
0.0
 11
1219.737851
 21
-140.5
 31
0.0
  0
LINE
  5
8F7
100
AcDbEntity
  8
SIZE
  6
CONTINUOUS
 62
    30
100
AcDbLine
 10
616.0
 20
-367.5
 30
0.0
 11
1219.737851
 21
-367.5
 31
0.0
  0
LINE
  5
8F8
100
AcDbEntity
  8
NOTE
  6
CONTINUOUS
 62
     4
100
AcDbLine
 10
1414.819821
 20
-584.631984
 30
0.0
 11
708.932785
 21
-584.631984
 31
0.0
  0
TEXT
  5
8F9
100
AcDbEntity
  8
NOTE
  6
CONTINUOUS
 62
     4
100
AcDbText
 10
723.480484
 20
-568.805453
 30
0.0
 40
60.0
  1
AH 4-14×30長穴(M10)
 50
0.000003
 41
0.7
  7
STANDARD1
100
AcDbText
  0
TEXT
  5
8FA
100
AcDbEntity
  8
SIZE
  6
CONTINUOUS
 62
    30
100
AcDbText
 10
861.892193
 20
-310.86749
 30
0.0
 40
55.0
  1
670
 50
90.0
 41
0.9
 72
     1
 11
861.892193
 21
-247.224633
 31
0.0
100
AcDbText
  0
LINE
  5
8FB
100
AcDbEntity
  8
DETAIL
  6
CONTINUOUS
 62
     5
100
AcDbLine
 10
596.0
 20
-306.89987
 30
0.0
 11
596.0
 21
-327.5
 31
0.0
  0
LINE
  5
8FC
100
AcDbEntity
  8
SIZE
  6
CONTINUOUS
 62
    30
100
AcDbLine
 10
607.995166
 20
-333.5
 30
0.0
 11
905.367666
 21
-333.5
 31
0.0
  0
LINE
  5
8FD
100
AcDbEntity
  8
NOTE
  6
CONTINUOUS
 62
     4
100
AcDbLine
 10
708.932785
 20
-584.631984
 30
0.0
 11
573.0
 21
-333.5
 31
0.0
  0
LINE
  5
8FE
100
AcDbEntity
  8
SIZE
  6
CONTINUOUS
 62
    30
100
AcDbLine
 10
580.0
 20
-387.5
 30
0.0
 11
580.0
 21
-598.367281
 31
0.0
  0
LINE
  5
8FF
100
AcDbEntity
  8
SIZE
  6
CONTINUOUS
 62
    30
100
AcDbLine
 10
575.0
 20
-568.367281
 30
0.0
 11
570.0
 21
-568.367281
 31
0.0
  0
CIRCLE
  5
900
100
AcDbEntity
  8
SIZE
  6
CONTINUOUS
 62
    30
100
AcDbCircle
 10
580.0
 20
-568.367281
 30
0.0
 40
5.0
  0
POINT
  5
901
100
AcDbEntity
  8
DEFPOINTS
  6
CONTINUOUS
 62
     7
100
AcDbPoint
 10
596.0
 20
-367.5
 30
0.0
  0
POINT
  5
902
100
AcDbEntity
  8
DEFPOINTS
  6
CONTINUOUS
 62
     7
100
AcDbPoint
 10
596.0
 20
-367.5
 30
0.0
  0
POINT
  5
903
100
AcDbEntity
  8
DEFPOINTS
  6
CONTINUOUS
 62
     7
100
AcDbPoint
 10
596.0
 20
-367.5
 30
0.0
  0
POINT
  5
904
100
AcDbEntity
  8
DEFPOINTS
  6
CONTINUOUS
 62
     7
100
AcDbPoint
 10
573.0
 20
-348.495166
 30
0.0
  0
POINT
  5
905
100
AcDbEntity
  8
DEFPOINTS
  6
CONTINUOUS
 62
     7
100
AcDbPoint
 10
573.0
 20
-348.495166
 30
0.0
  0
POINT
  5
906
100
AcDbEntity
  8
DEFPOINTS
  6
CONTINUOUS
 62
     7
100
AcDbPoint
 10
596.0
 20
-367.5
 30
0.0
  0
LINE
  5
907
100
AcDbEntity
  8
NOTE
  6
CONTINUOUS
 62
     4
100
AcDbLine
 10
573.0
 20
-333.5
 30
0.0
 11
596.439242
 21
-358.658529
 31
0.0
  0
LINE
  5
908
100
AcDbEntity
  8
NOTE
  6
CONTINUOUS
 62
     4
100
AcDbLine
 10
573.0
 20
-333.5
 30
0.0
 11
580.719714
 21
-367.007547
 31
0.0
  0
POINT
  5
909
100
AcDbEntity
  8
DEFPOINTS
  6
CONTINUOUS
 62
     7
100
AcDbPoint
 10
580.0
 20
-367.5
 30
0.0
  0
POINT
  5
90A
100
AcDbEntity
  8
DEFPOINTS
  6
CONTINUOUS
 62
     7
100
AcDbPoint
 10
596.0
 20
-367.5
 30
0.0
  0
LINE
  5
90B
100
AcDbEntity
  8
NOTE
  6
CONTINUOUS
 62
     4
100
AcDbLine
 10
573.0
 20
-318.504834
 30
0.0
 11
573.0
 21
-348.495166
 31
0.0
  0
LINE
  5
90C
100
AcDbEntity
  8
DETAIL
  6
CONTINUOUS
 62
     5
100
AcDbLine
 10
596.0
 20
-339.5
 30
0.0
 11
596.0
 21
-367.5
 31
0.0
  0
LINE
  5
90D
100
AcDbEntity
  8
DETAIL
  6
CONTINUOUS
 62
     5
100
AcDbLine
 10
580.0
 20
-339.5
 30
0.0
 11
596.0
 21
-339.5
 31
0.0
  0
LINE
  5
90E
100
AcDbEntity
  8
DETAIL
  6
CONTINUOUS
 62
     5
100
AcDbLine
 10
580.0
 20
-327.5
 30
0.0
 11
596.0
 21
-327.5
 31
0.0
  0
LINE
  5
90F
100
AcDbEntity
  8
DETAIL
  6
CONTINUOUS
 62
     5
100
AcDbLine
 10
580.0
 20
-327.5
 30
0.0
 11
580.0
 21
-325.5
 31
0.0
  0
LINE
  5
910
100
AcDbEntity
  8
DETAIL
  6
CONTINUOUS
 62
     5
100
AcDbLine
 10
580.0
 20
-341.5
 30
0.0
 11
580.0
 21
-339.5
 31
0.0
  0
LINE
  5
911
100
AcDbEntity
  8
DETAIL
  6
CONTINUOUS
 62
     5
100
AcDbLine
 10
580.0
 20
-341.5
 30
0.0
 11
580.0
 21
-339.5
 31
0.0
  0
LINE
  5
912
100
AcDbEntity
  8
DETAIL
  6
CONTINUOUS
 62
     5
100
AcDbLine
 10
580.0
 20
-327.5
 30
0.0
 11
580.0
 21
-325.5
 31
0.0
  0
LINE
  5
913
100
AcDbEntity
  8
DETAIL
  6
CONTINUOUS
 62
     5
100
AcDbLine
 10
580.0
 20
-327.5
 30
0.0
 11
596.0
 21
-327.5
 31
0.0
  0
LINE
  5
914
100
AcDbEntity
  8
DETAIL
  6
CONTINUOUS
 62
     5
100
AcDbLine
 10
580.0
 20
-339.5
 30
0.0
 11
596.0
 21
-339.5
 31
0.0
  0
LINE
  5
915
100
AcDbEntity
  8
SIZE
  6
CONTINUOUS
 62
    30
100
AcDbLine
 10
875.367666
 20
-328.5
 30
0.0
 11
875.367666
 21
-323.5
 31
0.0
  0
CIRCLE
  5
916
100
AcDbEntity
  8
SIZE
  6
CONTINUOUS
 62
    30
100
AcDbCircle
 10
875.367666
 20
-333.5
 30
0.0
 40
5.0
  0
CIRCLE
  5
917
100
AcDbEntity
  8
SIZE
  6
CONTINUOUS
 62
    30
100
AcDbCircle
 10
739.392674
 20
-157.5
 30
0.0
 40
5.0
  0
LINE
  5
918
100
AcDbEntity
  8
SIZE
  6
CONTINUOUS
 62
    30
100
AcDbLine
 10
739.392674
 20
-140.5
 30
0.0
 11
739.392674
 21
-157.5
 31
0.0
  0
TEXT
  5
919
100
AcDbEntity
  8
SIZE
  6
CONTINUOUS
 62
    30
100
AcDbText
 10
721.392674
 20
-266.214286
 30
0.0
 40
55.0
  1
17
 50
90.0
 41
0.9
 72
     1
 11
721.392674
 21
-230.857143
 31
0.0
100
AcDbText
  0
LINE
  5
91A
100
AcDbEntity
  8
SIZE
  6
CONTINUOUS
 62
    30
100
AcDbLine
 10
640.0
 20
-157.5
 30
0.0
 11
769.392674
 21
-157.5
 31
0.0
  0
POINT
  5
91B
100
AcDbEntity
  8
DEFPOINTS
  6
CONTINUOUS
 62
     7
100
AcDbPoint
 10
620.0
 20
-157.5
 30
0.0
  0
POINT
  5
91C
100
AcDbEntity
  8
DEFPOINTS
  6
CONTINUOUS
 62
     7
100
AcDbPoint
 10
620.0
 20
-157.5
 30
0.0
  0
POINT
  5
91D
100
AcDbEntity
  8
DEFPOINTS
  6
CONTINUOUS
 62
     7
100
AcDbPoint
 10
620.0
 20
-157.5
 30
0.0
  0
LINE
  5
91E
100
AcDbEntity
  8
DETAIL
  6
CONTINUOUS
 62
     5
100
AcDbLine
 10
620.0
 20
-157.5
 30
0.0
 11
580.0
 21
-157.5
 31
0.0
  0
LINE
  5
91F
100
AcDbEntity
  8
OUTLINE
  6
CONTINUOUS
 62
     3
100
AcDbLine
 10
620.0
 20
-157.5
 30
0.0
 11
580.0
 21
-157.5
 31
0.0
  0
POINT
  5
923
100
AcDbEntity
  8
DEFPOINTS
  6
CONTINUOUS
 62
     7
100
AcDbPoint
 10
739.392674
 20
-157.5
 30
0.0
  0
LINE
  5
924
100
AcDbEntity
  8
SIZE
  6
CONTINUOUS
 62
    30
100
AcDbLine
 10
739.392674
 20
-162.5
 30
0.0
 11
739.392674
 21
-167.5
 31
0.0
  0
LINE
  5
925
100
AcDbEntity
  8
SIZE
  6
CONTINUOUS
 62
    30
100
AcDbLine
 10
739.392674
 20
-167.5
 30
0.0
 11
739.392674
 21
-284.214286
 31
0.0
  0
LINE
  5
926
100
AcDbEntity
  8
SIZE
  6
CONTINUOUS
 62
    30
100
AcDbLine
 10
620.0
 20
-140.5
 30
0.0
 11
769.392674
 21
-140.5
 31
0.0
  0
POINT
  5
927
100
AcDbEntity
  8
DEFPOINTS
  6
CONTINUOUS
 62
     7
100
AcDbPoint
 10
600.0
 20
-140.5
 30
0.0
  0
POINT
  5
928
100
AcDbEntity
  8
DEFPOINTS
  6
CONTINUOUS
 62
     7
100
AcDbPoint
 10
600.0
 20
-140.5
 30
0.0
  0
POINT
  5
929
100
AcDbEntity
  8
DEFPOINTS
  6
CONTINUOUS
 62
     7
100
AcDbPoint
 10
600.0
 20
-140.5
 30
0.0
  0
LINE
  5
92B
100
AcDbEntity
  8
SIZE
  6
CONTINUOUS
 62
    30
100
AcDbLine
 10
739.392674
 20
-135.5
 30
0.0
 11
739.392674
 21
-130.5
 31
0.0
  0
CIRCLE
  5
92C
100
AcDbEntity
  8
SIZE
  6
CONTINUOUS
 62
    30
100
AcDbCircle
 10
739.392674
 20
-140.5
 30
0.0
 40
5.0
  0
LINE
  5
92D
100
AcDbEntity
  8
SIZE
  6
CONTINUOUS
 62
    30
100
AcDbLine
 10
739.392674
 20
-130.5
 30
0.0
 11
739.392674
 21
-120.5
 31
0.0
  0
TEXT
  5
92E
100
AcDbEntity
  8
SIZE
  6
CONTINUOUS
 62
    30
100
AcDbText
 10
1325.065222
 20
-321.428571
 30
0.0
 40
55.0
  1
210
 50
90.0
 41
0.9
 72
     1
 11
1325.065222
 21
-262.5
 31
0.0
100
AcDbText
  0
LINE
  5
92F
100
AcDbEntity
  8
SIZE
  6
CONTINUOUS
 62
    30
100
AcDbLine
 10
1343.065222
 20
-357.5
 30
0.0
 11
1343.065222
 21
-167.5
 31
0.0
  0
TEXT
  5
930
100
AcDbEntity
  8
SIZE
  6
CONTINUOUS
 62
    30
100
AcDbText
 10
1171.737851
 20
-317.642857
 30
0.0
 40
55.0
  1
227
 50
90.0
 41
0.9
 72
     1
 11
1171.737851
 21
-254.0
 31
0.0
100
AcDbText
  0
LINE
  5
931
100
AcDbEntity
  8
SIZE
  6
CONTINUOUS
 62
    30
100
AcDbLine
 10
1189.737851
 20
-357.5
 30
0.0
 11
1189.737851
 21
-150.5
 31
0.0
  0
LINE
  5
932
100
AcDbEntity
  8
SIZE
  6
CONTINUOUS
 62
    30
100
AcDbLine
 10
1189.737851
 20
-362.5
 30
0.0
 11
1189.737851
 21
-357.5
 31
0.0
  0
CIRCLE
  5
933
100
AcDbEntity
  8
SIZE
  6
CONTINUOUS
 62
    30
100
AcDbCircle
 10
1189.737851
 20
-367.5
 30
0.0
 40
5.0
  0
LINE
  5
934
100
AcDbEntity
  8
SIZE
  6
CONTINUOUS
 62
    30
100
AcDbLine
 10
1343.065222
 20
-362.5
 30
0.0
 11
1343.065222
 21
-357.5
 31
0.0
  0
CIRCLE
  5
935
100
AcDbEntity
  8
SIZE
  6
CONTINUOUS
 62
    30
100
AcDbCircle
 10
1343.065222
 20
-367.5
 30
0.0
 40
5.0
  0
LINE
  5
936
100
AcDbEntity
  8
SIZE
  6
CONTINUOUS
 62
    30
100
AcDbLine
 10
1189.737851
 20
-135.5
 30
0.0
 11
1189.737851
 21
-130.5
 31
0.0
  0
CIRCLE
  5
937
100
AcDbEntity
  8
SIZE
  6
CONTINUOUS
 62
    30
100
AcDbCircle
 10
1189.737851
 20
-140.5
 30
0.0
 40
5.0
  0
POINT
  5
938
100
AcDbEntity
  8
DEFPOINTS
  6
CONTINUOUS
 62
     7
100
AcDbPoint
 10
1189.737851
 20
-140.5
 30
0.0
  0
LINE
  5
939
100
AcDbEntity
  8
SIZE
  6
CONTINUOUS
 62
    30
100
AcDbLine
 10
1189.737851
 20
-145.5
 30
0.0
 11
1189.737851
 21
-150.5
 31
0.0
  0
CIRCLE
  5
93A
100
AcDbEntity
  8
SIZE
  6
CONTINUOUS
 62
    30
100
AcDbCircle
 10
1189.737851
 20
-140.5
 30
0.0
 40
5.0
  0
CIRCLE
  5
93B
100
AcDbEntity
  8
SIZE
  6
CONTINUOUS
 62
    30
100
AcDbCircle
 10
1343.065222
 20
-157.5
 30
0.0
 40
5.0
  0
CIRCLE
  5
93C
100
AcDbEntity
  8
SIZE
  6
CONTINUOUS
 62
    30
100
AcDbCircle
 10
1343.065222
 20
-157.5
 30
0.0
 40
5.0
  0
POINT
  5
93D
100
AcDbEntity
  8
DEFPOINTS
  6
CONTINUOUS
 62
     7
100
AcDbPoint
 10
1343.065222
 20
-157.5
 30
0.0
  0
LINE
  5
93E
100
AcDbEntity
  8
SIZE
  6
CONTINUOUS
 62
    30
100
AcDbLine
 10
1343.065222
 20
-162.5
 30
0.0
 11
1343.065222
 21
-167.5
 31
0.0
  0
LINE
  5
93F
100
AcDbEntity
  8
SIZE
  6
CONTINUOUS
 62
    30
100
AcDbLine
 10
1343.065222
 20
-152.5
 30
0.0
 11
1343.065222
 21
-147.5
 31
0.0
  0
LINE
  5
941
100
AcDbEntity
  8
SIZE
  6
CONTINUOUS
 62
    30
100
AcDbLine
 10
495.982007
 20
529.409812
 30
0.0
 11
596.0
 21
529.409812
 31
0.0
  0
CIRCLE
  5
942
100
AcDbEntity
  8
FIX
  6
CONTINUOUS
 62
    11
100
AcDbCircle
 10
573.0
 20
336.5
 30
0.0
 40
12.421498
  0
LINE
  5
943
100
AcDbEntity
  8
NOTE
  6
CONTINUOUS
 62
     4
100
AcDbLine
 10
558.004834
 20
336.5
 30
0.0
 11
587.995166
 21
336.5
 31
0.0
  0
LINE
  5
944
100
AcDbEntity
  8
DETAIL
  6
CONTINUOUS
 62
     5
100
AcDbLine
 10
558.029335
 20
306.89987
 30
0.0
 11
596.0
 21
306.89987
 31
0.0
  0
ARC
  5
945
100
AcDbEntity
  8
DETAIL
  6
CONTINUOUS
 62
     5
100
AcDbCircle
 10
573.0
 20
344.5
 30
0.0
 40
7.0
100
AcDbArc
 50
0.0
 51
180.0
  0
ARC
  5
946
100
AcDbEntity
  8
DETAIL
  6
CONTINUOUS
 62
     5
100
AcDbCircle
 10
573.0
 20
328.5
 30
0.0
 40
7.0
100
AcDbArc
 50
180.0
 51
0.0
  0
ARC
  5
947
100
AcDbEntity
  8
DETAIL
  6
CONTINUOUS
 62
     5
100
AcDbCircle
 10
573.0
 20
328.5
 30
0.0
 40
7.0
100
AcDbArc
 50
180.0
 51
0.0
  0
ARC
  5
948
100
AcDbEntity
  8
DETAIL
  6
CONTINUOUS
 62
     5
100
AcDbCircle
 10
573.0
 20
344.5
 30
0.0
 40
7.0
100
AcDbArc
 50
0.0
 51
180.0
  0
LINE
  5
949
100
AcDbEntity
  8
DETAIL
  6
CONTINUOUS
 62
     5
100
AcDbLine
 10
558.029335
 20
367.5
 30
0.0
 11
558.029335
 21
306.89987
 31
0.0
  0
LINE
  5
94A
100
AcDbEntity
  8
DETAIL
  6
CONTINUOUS
 62
     5
100
AcDbLine
 10
566.0
 20
344.5
 30
0.0
 11
566.0
 21
328.5
 31
0.0
  0
LINE
  5
94B
100
AcDbEntity
  8
DETAIL
  6
CONTINUOUS
 62
     5
100
AcDbLine
 10
566.0
 20
344.5
 30
0.0
 11
566.0
 21
328.5
 31
0.0
  0
LINE
  5
94C
100
AcDbEntity
  8
DETAIL
  6
CONTINUOUS
 62
     5
100
AcDbLine
 10
547.0
 20
350.5
 30
0.0
 11
550.0
 21
353.5
 31
0.0
  0
LINE
  5
94D
100
AcDbEntity
  8
DETAIL
  6
CONTINUOUS
 62
     5
100
AcDbLine
 10
550.0
 20
353.5
 30
0.0
 11
550.0
 21
367.5
 31
0.0
  0
LINE
  5
94E
100
AcDbEntity
  8
DETAIL
  6
CONTINUOUS
 62
     5
100
AcDbLine
 10
550.0
 20
353.5
 30
0.0
 11
550.0
 21
367.5
 31
0.0
  0
LINE
  5
94F
100
AcDbEntity
  8
DETAIL
  6
CONTINUOUS
 62
     5
100
AcDbLine
 10
547.0
 20
350.5
 30
0.0
 11
550.0
 21
353.5
 31
0.0
  0
TEXT
  5
950
100
AcDbEntity
  8
SIZE
  6
CONTINUOUS
 62
    30
100
AcDbText
 10
513.982007
 20
547.409812
 30
0.0
 40
55.0
  1
4
 41
0.9
 72
     1
 11
531.660578
 21
547.409812
 31
0.0
100
AcDbText
  0
TEXT
  5
951
100
AcDbEntity
  8
SIZE
  6
CONTINUOUS
 62
    30
100
AcDbText
 10
-246.990654
 20
653.522152
 30
0.0
 40
55.0
  1
1200（天井開口寸法）
 41
0.9
 72
     1
 11
60.380775
 21
653.522152
 31
0.0
100
AcDbText
  0
TEXT
  5
952
100
AcDbEntity
  8
SIZE
  6
CONTINUOUS
 62
    30
100
AcDbText
 10
-82.5
 20
791.803445
 30
0.0
 40
55.0
  1
1240
 41
0.9
 72
     1
 11
0.0
 21
791.803445
 31
0.0
100
AcDbText
  0
LINE
  5
953
100
AcDbEntity
  8
SIZE
  6
CONTINUOUS
 62
    30
100
AcDbLine
 10
620.0
 20
462.5
 30
0.0
 11
620.0
 21
803.803445
 31
0.0
  0
LINE
  5
954
100
AcDbEntity
  8
SIZE
  6
CONTINUOUS
 62
    30
100
AcDbLine
 10
600.0
 20
445.5
 30
0.0
 11
600.0
 21
665.522152
 31
0.0
  0
LINE
  5
955
100
AcDbEntity
  8
SIZE
  6
CONTINUOUS
 62
    30
100
AcDbLine
 10
640.0
 20
442.5
 30
0.0
 11
1373.065222
 21
442.5
 31
0.0
  0
LINE
  5
956
100
AcDbEntity
  8
SIZE
  6
CONTINUOUS
 62
    30
100
AcDbLine
 10
620.0
 20
425.5
 30
0.0
 11
1219.737851
 21
425.5
 31
0.0
  0
LINE
  5
957
100
AcDbEntity
  8
SIZE
  6
CONTINUOUS
 62
    30
100
AcDbLine
 10
875.367666
 20
352.0
 30
0.0
 11
989.017514
 21
250.557873
 31
0.0
  0
TEXT
  5
958
100
AcDbEntity
  8
SIZE
  6
CONTINUOUS
 62
    30
100
AcDbText
 10
971.017514
 20
173.629301
 30
0.0
 40
55.0
  1
31
 50
90.0
 41
0.9
 72
     1
 11
971.017514
 21
203.093587
 31
0.0
100
AcDbText
  0
LINE
  5
959
100
AcDbEntity
  8
SIZE
  6
CONTINUOUS
 62
    30
100
AcDbLine
 10
989.017514
 20
250.557873
 30
0.0
 11
989.017514
 21
155.629301
 31
0.0
  0
LINE
  5
95A
100
AcDbEntity
  8
SIZE
  6
CONTINUOUS
 62
    30
100
AcDbLine
 10
607.995166
 20
336.5
 30
0.0
 11
905.367666
 21
336.5
 31
0.0
  0
LINE
  5
95B
100
AcDbEntity
  8
SIZE
  6
CONTINUOUS
 62
    30
100
AcDbLine
 10
607.995166
 20
336.5
 30
0.0
 11
905.367666
 21
336.5
 31
0.0
  0
LINE
  5
95C
100
AcDbEntity
  8
SIZE
  6
CONTINUOUS
 62
    30
100
AcDbLine
 10
616.0
 20
367.5
 30
0.0
 11
905.367666
 21
367.5
 31
0.0
  0
LINE
  5
95D
100
AcDbEntity
  8
SIZE
  6
CONTINUOUS
 62
    30
100
AcDbLine
 10
616.0
 20
367.5
 30
0.0
 11
905.367666
 21
367.5
 31
0.0
  0
LINE
  5
95E
100
AcDbEntity
  8
SIZE
  6
CONTINUOUS
 62
    30
100
AcDbLine
 10
620.0
 20
425.5
 30
0.0
 11
905.367666
 21
425.5
 31
0.0
  0
LINE
  5
95F
100
AcDbEntity
  8
SIZE
  6
CONTINUOUS
 62
    30
100
AcDbLine
 10
620.0
 20
425.5
 30
0.0
 11
905.367666
 21
425.5
 31
0.0
  0
LINE
  5
960
100
AcDbEntity
  8
SIZE
  6
CONTINUOUS
 62
    30
100
AcDbLine
 10
640.0
 20
442.5
 30
0.0
 11
905.367666
 21
442.5
 31
0.0
  0
LINE
  5
961
100
AcDbEntity
  8
SIZE
  6
CONTINUOUS
 62
    30
100
AcDbLine
 10
596.0
 20
387.5
 30
0.0
 11
596.0
 21
559.409812
 31
0.0
  0
LINE
  5
962
100
AcDbEntity
  8
SIZE
  6
CONTINUOUS
 62
    30
100
AcDbLine
 10
600.0
 20
445.5
 30
0.0
 11
600.0
 21
559.409812
 31
0.0
  0
LINE
  5
963
100
AcDbEntity
  8
SIZE
  6
CONTINUOUS
 62
    30
100
AcDbLine
 10
600.0
 20
445.5
 30
0.0
 11
600.0
 21
559.409812
 31
0.0
  0
POINT
  5
964
100
AcDbEntity
  8
DEFPOINTS
  6
CONTINUOUS
 62
     7
100
AcDbPoint
 10
620.0
 20
442.5
 30
0.0
  0
POINT
  5
965
100
AcDbEntity
  8
DEFPOINTS
  6
CONTINUOUS
 62
     7
100
AcDbPoint
 10
600.0
 20
425.5
 30
0.0
  0
POINT
  5
966
100
AcDbEntity
  8
DEFPOINTS
  6
CONTINUOUS
 62
     7
100
AcDbPoint
 10
587.995166
 20
336.5
 30
0.0
  0
POINT
  5
967
100
AcDbEntity
  8
DEFPOINTS
  6
CONTINUOUS
 62
     7
100
AcDbPoint
 10
596.0
 20
367.5
 30
0.0
  0
POINT
  5
968
100
AcDbEntity
  8
DEFPOINTS
  6
CONTINUOUS
 62
     7
100
AcDbPoint
 10
596.0
 20
367.5
 30
0.0
  0
POINT
  5
969
100
AcDbEntity
  8
DEFPOINTS
  6
CONTINUOUS
 62
     7
100
AcDbPoint
 10
600.0
 20
425.5
 30
0.0
  0
POINT
  5
96A
100
AcDbEntity
  8
DEFPOINTS
  6
CONTINUOUS
 62
     7
100
AcDbPoint
 10
600.0
 20
425.5
 30
0.0
  0
POINT
  5
96B
100
AcDbEntity
  8
DEFPOINTS
  6
CONTINUOUS
 62
     7
100
AcDbPoint
 10
620.0
 20
442.5
 30
0.0
  0
POINT
  5
96C
100
AcDbEntity
  8
DEFPOINTS
  6
CONTINUOUS
 62
     7
100
AcDbPoint
 10
620.0
 20
442.5
 30
0.0
  0
POINT
  5
96D
100
AcDbEntity
  8
DEFPOINTS
  6
CONTINUOUS
 62
     7
100
AcDbPoint
 10
596.0
 20
367.5
 30
0.0
  0
POINT
  5
96E
100
AcDbEntity
  8
DEFPOINTS
  6
CONTINUOUS
 62
     7
100
AcDbPoint
 10
600.0
 20
425.5
 30
0.0
  0
POINT
  5
96F
100
AcDbEntity
  8
DEFPOINTS
  6
CONTINUOUS
 62
     7
100
AcDbPoint
 10
600.0
 20
425.5
 30
0.0
  0
POINT
  5
970
100
AcDbEntity
  8
DEFPOINTS
  6
CONTINUOUS
 62
     7
100
AcDbPoint
 10
620.0
 20
442.5
 30
0.0
  0
POINT
  5
971
100
AcDbEntity
  8
DEFPOINTS
  6
CONTINUOUS
 62
     7
100
AcDbPoint
 10
600.0
 20
425.5
 30
0.0
  0
LINE
  5
972
100
AcDbEntity
  8
NOTE
  6
CONTINUOUS
 62
     4
100
AcDbLine
 10
573.0
 20
351.495166
 30
0.0
 11
573.0
 21
321.504834
 31
0.0
  0
LINE
  5
973
100
AcDbEntity
  8
DETAIL
  6
CONTINUOUS
 62
     5
100
AcDbLine
 10
596.0
 20
330.5
 30
0.0
 11
596.0
 21
306.89987
 31
0.0
  0
LINE
  5
974
100
AcDbEntity
  8
DETAIL
  6
CONTINUOUS
 62
     5
100
AcDbLine
 10
596.0
 20
367.5
 30
0.0
 11
596.0
 21
342.5
 31
0.0
  0
LINE
  5
976
100
AcDbEntity
  8
DETAIL
  6
CONTINUOUS
 62
     5
100
AcDbLine
 10
580.0
 20
342.5
 30
0.0
 11
596.0
 21
342.5
 31
0.0
  0
LINE
  5
977
100
AcDbEntity
  8
DETAIL
  6
CONTINUOUS
 62
     5
100
AcDbLine
 10
580.0
 20
330.5
 30
0.0
 11
596.0
 21
330.5
 31
0.0
  0
LINE
  5
978
100
AcDbEntity
  8
DETAIL
  6
CONTINUOUS
 62
     5
100
AcDbLine
 10
580.0
 20
330.5
 30
0.0
 11
580.0
 21
328.5
 31
0.0
  0
LINE
  5
979
100
AcDbEntity
  8
DETAIL
  6
CONTINUOUS
 62
     5
100
AcDbLine
 10
580.0
 20
344.5
 30
0.0
 11
580.0
 21
342.5
 31
0.0
  0
LINE
  5
97A
100
AcDbEntity
  8
DETAIL
  6
CONTINUOUS
 62
     5
100
AcDbLine
 10
580.0
 20
344.5
 30
0.0
 11
580.0
 21
342.5
 31
0.0
  0
LINE
  5
97B
100
AcDbEntity
  8
DETAIL
  6
CONTINUOUS
 62
     5
100
AcDbLine
 10
580.0
 20
330.5
 30
0.0
 11
580.0
 21
328.5
 31
0.0
  0
LINE
  5
97C
100
AcDbEntity
  8
DETAIL
  6
CONTINUOUS
 62
     5
100
AcDbLine
 10
580.0
 20
330.5
 30
0.0
 11
596.0
 21
330.5
 31
0.0
  0
LINE
  5
97D
100
AcDbEntity
  8
DETAIL
  6
CONTINUOUS
 62
     5
100
AcDbLine
 10
580.0
 20
342.5
 30
0.0
 11
596.0
 21
342.5
 31
0.0
  0
TEXT
  5
97E
100
AcDbEntity
  8
SIZE
  6
CONTINUOUS
 62
    30
100
AcDbText
 10
658.0
 20
547.409812
 30
0.0
 40
55.0
  1
20
 41
0.9
 72
     1
 11
698.071429
 21
547.409812
 31
0.0
100
AcDbText
  0
LINE
  5
97F
100
AcDbEntity
  8
SIZE
  6
CONTINUOUS
 62
    30
100
AcDbLine
 10
630.0
 20
529.409812
 30
0.0
 11
756.142857
 21
529.409812
 31
0.0
  0
POINT
  5
980
100
AcDbEntity
  8
DEFPOINTS
  6
CONTINUOUS
 62
     7
100
AcDbPoint
 10
596.0
 20
529.409812
 30
0.0
  0
LINE
  5
981
100
AcDbEntity
  8
SIZE
  6
CONTINUOUS
 62
    30
100
AcDbLine
 10
591.0
 20
529.409812
 30
0.0
 11
586.0
 21
529.409812
 31
0.0
  0
CIRCLE
  5
982
100
AcDbEntity
  8
SIZE
  6
CONTINUOUS
 62
    30
100
AcDbCircle
 10
596.0
 20
529.409812
 30
0.0
 40
5.0
  0
LINE
  5
983
100
AcDbEntity
  8
SIZE
  6
CONTINUOUS
 62
    30
100
AcDbLine
 10
605.0
 20
529.409812
 30
0.0
 11
610.0
 21
529.409812
 31
0.0
  0
CIRCLE
  5
984
100
AcDbEntity
  8
SIZE
  6
CONTINUOUS
 62
    30
100
AcDbCircle
 10
600.0
 20
529.409812
 30
0.0
 40
5.0
  0
LINE
  5
985
100
AcDbEntity
  8
SIZE
  6
CONTINUOUS
 62
    30
100
AcDbLine
 10
600.0
 20
529.409812
 30
0.0
 11
596.0
 21
529.409812
 31
0.0
  0
LINE
  5
986
100
AcDbEntity
  8
SIZE
  6
CONTINUOUS
 62
    30
100
AcDbLine
 10
600.0
 20
529.409812
 30
0.0
 11
596.0
 21
529.409812
 31
0.0
  0
LINE
  5
987
100
AcDbEntity
  8
SIZE
  6
CONTINUOUS
 62
    30
100
AcDbLine
 10
586.0
 20
529.409812
 30
0.0
 11
576.0
 21
529.409812
 31
0.0
  0
LINE
  5
988
100
AcDbEntity
  8
SIZE
  6
CONTINUOUS
 62
    30
100
AcDbLine
 10
610.0
 20
529.409812
 30
0.0
 11
620.0
 21
529.409812
 31
0.0
  0
POINT
  5
989
100
AcDbEntity
  8
DEFPOINTS
  6
CONTINUOUS
 62
     7
100
AcDbPoint
 10
600.0
 20
529.409812
 30
0.0
  0
LINE
  5
98A
100
AcDbEntity
  8
SIZE
  6
CONTINUOUS
 62
    30
100
AcDbLine
 10
625.0
 20
529.409812
 30
0.0
 11
630.0
 21
529.409812
 31
0.0
  0
CIRCLE
  5
98B
100
AcDbEntity
  8
SIZE
  6
CONTINUOUS
 62
    30
100
AcDbCircle
 10
620.0
 20
529.409812
 30
0.0
 40
5.0
  0
LINE
  5
98C
100
AcDbEntity
  8
SIZE
  6
CONTINUOUS
 62
    30
100
AcDbLine
 10
595.0
 20
529.409812
 30
0.0
 11
590.0
 21
529.409812
 31
0.0
  0
CIRCLE
  5
98D
100
AcDbEntity
  8
SIZE
  6
CONTINUOUS
 62
    30
100
AcDbCircle
 10
600.0
 20
529.409812
 30
0.0
 40
5.0
  0
LINE
  5
98E
100
AcDbEntity
  8
SIZE
  6
CONTINUOUS
 62
    30
100
AcDbLine
 10
600.0
 20
529.409812
 30
0.0
 11
620.0
 21
529.409812
 31
0.0
  0
LINE
  5
98F
100
AcDbEntity
  8
SIZE
  6
CONTINUOUS
 62
    30
100
AcDbLine
 10
590.0
 20
529.409812
 30
0.0
 11
580.0
 21
529.409812
 31
0.0
  0
LINE
  5
990
100
AcDbEntity
  8
SIZE
  6
CONTINUOUS
 62
    30
100
AcDbLine
 10
620.0
 20
462.5
 30
0.0
 11
620.0
 21
559.409812
 31
0.0
  0
LINE
  5
991
100
AcDbEntity
  8
SIZE
  6
CONTINUOUS
 62
    30
100
AcDbLine
 10
875.367666
 20
396.5
 30
0.0
 11
993.448197
 21
469.93165
 31
0.0
  0
LINE
  5
992
100
AcDbEntity
  8
SIZE
  6
CONTINUOUS
 62
    30
100
AcDbLine
 10
875.367666
 20
452.5
 30
0.0
 11
875.367666
 21
569.214286
 31
0.0
  0
LINE
  5
993
100
AcDbEntity
  8
SIZE
  6
CONTINUOUS
 62
    30
100
AcDbLine
 10
875.367666
 20
331.5
 30
0.0
 11
875.367666
 21
326.5
 31
0.0
  0
CIRCLE
  5
994
100
AcDbEntity
  8
SIZE
  6
CONTINUOUS
 62
    30
100
AcDbCircle
 10
875.367666
 20
336.5
 30
0.0
 40
5.0
  0
POINT
  5
995
100
AcDbEntity
  8
DEFPOINTS
  6
CONTINUOUS
 62
     7
100
AcDbPoint
 10
875.367666
 20
336.5
 30
0.0
  0
LINE
  5
996
100
AcDbEntity
  8
SIZE
  6
CONTINUOUS
 62
    30
100
AcDbLine
 10
875.367666
 20
331.5
 30
0.0
 11
875.367666
 21
326.5
 31
0.0
  0
CIRCLE
  5
997
100
AcDbEntity
  8
SIZE
  6
CONTINUOUS
 62
    30
100
AcDbCircle
 10
875.367666
 20
336.5
 30
0.0
 40
5.0
  0
LINE
  5
998
100
AcDbEntity
  8
SIZE
  6
CONTINUOUS
 62
    30
100
AcDbLine
 10
875.367666
 20
372.5
 30
0.0
 11
875.367666
 21
377.5
 31
0.0
  0
CIRCLE
  5
999
100
AcDbEntity
  8
SIZE
  6
CONTINUOUS
 62
    30
100
AcDbCircle
 10
875.367666
 20
367.5
 30
0.0
 40
5.0
  0
LINE
  5
99A
100
AcDbEntity
  8
SIZE
  6
CONTINUOUS
 62
    30
100
AcDbLine
 10
875.367666
 20
367.5
 30
0.0
 11
875.367666
 21
336.5
 31
0.0
  0
LINE
  5
99B
100
AcDbEntity
  8
SIZE
  6
CONTINUOUS
 62
    30
100
AcDbLine
 10
875.367666
 20
367.5
 30
0.0
 11
875.367666
 21
336.5
 31
0.0
  0
LINE
  5
99C
100
AcDbEntity
  8
SIZE
  6
CONTINUOUS
 62
    30
100
AcDbLine
 10
875.367666
 20
326.5
 30
0.0
 11
875.367666
 21
316.5
 31
0.0
  0
LINE
  5
99D
100
AcDbEntity
  8
SIZE
  6
CONTINUOUS
 62
    30
100
AcDbLine
 10
875.367666
 20
377.5
 30
0.0
 11
875.367666
 21
387.5
 31
0.0
  0
POINT
  5
99E
100
AcDbEntity
  8
DEFPOINTS
  6
CONTINUOUS
 62
     7
100
AcDbPoint
 10
875.367666
 20
367.5
 30
0.0
  0
LINE
  5
99F
100
AcDbEntity
  8
SIZE
  6
CONTINUOUS
 62
    30
100
AcDbLine
 10
875.367666
 20
372.5
 30
0.0
 11
875.367666
 21
377.5
 31
0.0
  0
CIRCLE
  5
9A0
100
AcDbEntity
  8
SIZE
  6
CONTINUOUS
 62
    30
100
AcDbCircle
 10
875.367666
 20
367.5
 30
0.0
 40
5.0
  0
LINE
  5
9A1
100
AcDbEntity
  8
SIZE
  6
CONTINUOUS
 62
    30
100
AcDbLine
 10
875.367666
 20
420.5
 30
0.0
 11
875.367666
 21
415.5
 31
0.0
  0
CIRCLE
  5
9A2
100
AcDbEntity
  8
SIZE
  6
CONTINUOUS
 62
    30
100
AcDbCircle
 10
875.367666
 20
425.5
 30
0.0
 40
5.0
  0
LINE
  5
9A3
100
AcDbEntity
  8
SIZE
  6
CONTINUOUS
 62
    30
100
AcDbLine
 10
875.367666
 20
415.5
 30
0.0
 11
875.367666
 21
377.5
 31
0.0
  0
POINT
  5
9A4
100
AcDbEntity
  8
DEFPOINTS
  6
CONTINUOUS
 62
     7
100
AcDbPoint
 10
875.367666
 20
425.5
 30
0.0
  0
LINE
  5
9A5
100
AcDbEntity
  8
SIZE
  6
CONTINUOUS
 62
    30
100
AcDbLine
 10
875.367666
 20
447.5
 30
0.0
 11
875.367666
 21
452.5
 31
0.0
  0
CIRCLE
  5
9A6
100
AcDbEntity
  8
SIZE
  6
CONTINUOUS
 62
    30
100
AcDbCircle
 10
875.367666
 20
442.5
 30
0.0
 40
5.0
  0
LINE
  5
9A7
100
AcDbEntity
  8
SIZE
  6
CONTINUOUS
 62
    30
100
AcDbLine
 10
875.367666
 20
420.5
 30
0.0
 11
875.367666
 21
415.5
 31
0.0
  0
CIRCLE
  5
9A8
100
AcDbEntity
  8
SIZE
  6
CONTINUOUS
 62
    30
100
AcDbCircle
 10
875.367666
 20
425.5
 30
0.0
 40
5.0
  0
LINE
  5
9A9
100
AcDbEntity
  8
SIZE
  6
CONTINUOUS
 62
    30
100
AcDbLine
 10
875.367666
 20
425.5
 30
0.0
 11
875.367666
 21
442.5
 31
0.0
  0
LINE
  5
9AA
100
AcDbEntity
  8
SIZE
  6
CONTINUOUS
 62
    30
100
AcDbLine
 10
875.367666
 20
415.5
 30
0.0
 11
875.367666
 21
405.5
 31
0.0
  0
TEXT
  5
9AB
100
AcDbEntity
  8
SIZE
  6
CONTINUOUS
 62
    30
100
AcDbText
 10
857.367666
 20
480.5
 30
0.0
 40
55.0
  1
17
 50
90.0
 41
0.9
 72
     1
 11
857.367666
 21
515.857143
 31
0.0
100
AcDbText
  0
TEXT
  5
9AC
100
AcDbEntity
  8
SIZE
  6
CONTINUOUS
 62
    30
100
AcDbText
 10
975.448197
 20
487.931649
 30
0.0
 40
55.0
  1
58
 50
90.0
 41
0.9
 72
     1
 11
975.448197
 21
528.003078
 31
0.0
100
AcDbText
  0
LINE
  5
9AD
100
AcDbEntity
  8
SIZE
  6
CONTINUOUS
 62
    30
100
AcDbLine
 10
993.448197
 20
469.93165
 30
0.0
 11
993.448197
 21
586.074507
 31
0.0
  0
TEXT
  5
9AE
100
AcDbEntity
  8
SIZE
  6
CONTINUOUS
 62
    30
100
AcDbText
 10
1325.065222
 20
78.857143
 30
0.0
 40
55.0
  1
600
 50
90.0
 41
0.9
 72
     1
 11
1325.065222
 21
142.5
 31
0.0
100
AcDbText
  0
POINT
  5
9AF
100
AcDbEntity
  8
DEFPOINTS
  6
CONTINUOUS
 62
     7
100
AcDbPoint
 10
1189.737851
 20
425.5
 30
0.0
  0
LINE
  5
9B0
100
AcDbEntity
  8
SIZE
  6
CONTINUOUS
 62
    30
100
AcDbLine
 10
1189.737851
 20
420.5
 30
0.0
 11
1189.737851
 21
415.5
 31
0.0
  0
CIRCLE
  5
9B1
100
AcDbEntity
  8
SIZE
  6
CONTINUOUS
 62
    30
100
AcDbCircle
 10
1189.737851
 20
425.5
 30
0.0
 40
5.0
  0
POINT
  5
9B2
100
AcDbEntity
  8
DEFPOINTS
  6
CONTINUOUS
 62
     7
100
AcDbPoint
 10
1343.065222
 20
442.5
 30
0.0
  0
LINE
  5
9B3
100
AcDbEntity
  8
SIZE
  6
CONTINUOUS
 62
    30
100
AcDbLine
 10
1343.065222
 20
437.5
 30
0.0
 11
1343.065222
 21
432.5
 31
0.0
  0
CIRCLE
  5
9B4
100
AcDbEntity
  8
SIZE
  6
CONTINUOUS
 62
    30
100
AcDbCircle
 10
1343.065222
 20
442.5
 30
0.0
 40
5.0
  0
POINT
  5
9B5
100
AcDbEntity
  8
DEFPOINTS
  6
CONTINUOUS
 62
     7
100
AcDbPoint
 10
600.0
 20
635.522152
 30
0.0
  0
LINE
  5
9B6
100
AcDbEntity
  8
SIZE
  6
CONTINUOUS
 62
    30
100
AcDbLine
 10
595.0
 20
635.522152
 30
0.0
 11
590.0
 21
635.522152
 31
0.0
  0
CIRCLE
  5
9B7
100
AcDbEntity
  8
SIZE
  6
CONTINUOUS
 62
    30
100
AcDbCircle
 10
600.0
 20
635.522152
 30
0.0
 40
5.0
  0
POINT
  5
9B8
100
AcDbEntity
  8
DEFPOINTS
  6
CONTINUOUS
 62
     7
100
AcDbPoint
 10
620.0
 20
773.803445
 30
0.0
  0
LINE
  5
9B9
100
AcDbEntity
  8
SIZE
  6
CONTINUOUS
 62
    30
100
AcDbLine
 10
615.0
 20
773.803445
 30
0.0
 11
610.0
 21
773.803445
 31
0.0
  0
CIRCLE
  5
9BA
100
AcDbEntity
  8
SIZE
  6
CONTINUOUS
 62
    30
100
AcDbCircle
 10
620.0
 20
773.803445
 30
0.0
 40
5.0
  0
ENDSEC
  0
SECTION
  2
OBJECTS
  0
DICTIONARY
  5
9C7
100
AcDbDictionary
  3
ACAD_GROUP
350
9C8
  3
ACAD_MLINESTYLE
350
9D6
  0
DICTIONARY
  5
9C8
102
{ACAD_REACTORS
330
9C7
102
}
100
AcDbDictionary
  0
DICTIONARY
  5
9D6
102
{ACAD_REACTORS
330
9C7
102
}
100
AcDbDictionary
  3
STANDARD
350
9D7
  0
MLINESTYLE
  5
9D7
102
{ACAD_REACTORS
330
9D6
102
}
100
AcDbMlineStyle
  2
STANDARD
 70
     0
  3

 62
   256
 51
90.0
 52
90.0
 71
     2
 49
0.5
 62
   256
  6
BYLAYER
 49
-0.5
 62
   256
  6
BYLAYER
  0
ENDSEC
  0
EOF
