  0
SECTION
  2
HEADER
  9
$ACADVER
  1
AC1014
  9
$ACADMAINTVER
 70
     0
  9
$DWGCODEPAGE
  3
ANSI_932
  9
$INSBASE
 10
0.0
 20
0.0
 30
0.0
  9
$EXTMIN
 10
-1252.503047
 20
-372.153483
 30
-0.001526
  9
$EXTMAX
 10
1343.7702
 20
1210.577414
 30
0.0
  9
$LIMMIN
 10
-4267.152221
 20
-2696.08321
  9
$LIMMAX
 10
7190.717423
 20
5141.155364
  9
$ORTHOMODE
 70
     0
  9
$REGENMODE
 70
     1
  9
$FILLMODE
 70
     1
  9
$QTEXTMODE
 70
     0
  9
$MIRRTEXT
 70
     0
  9
$DRAGMODE
 70
     2
  9
$LTSCALE
 40
20.0
  9
$OSMODE
 70
    37
  9
$ATTMODE
 70
     1
  9
$TEXTSIZE
 40
64.0
  9
$TRACEWID
 40
0.05
  9
$TEXTSTYLE
  7
STANDARD
  9
$CLAYER
  8
SIZE
  9
$CELTYPE
  6
CONTINUOUS
  9
$CECOLOR
 62
     7
  9
$CELTSCALE
 40
1.0
  9
$DELOBJ
 70
     1
  9
$DISPSILH
 70
     0
  9
$DIMSCALE
 40
1.0
  9
$DIMASZ
 40
10.0
  9
$DIMEXO
 40
20.0
  9
$DIMDLI
 40
200.0
  9
$DIMRND
 40
0.0
  9
$DIMDLE
 40
0.0
  9
$DIMEXE
 40
30.0
  9
$DIMTP
 40
0.0
  9
$DIMTM
 40
0.0
  9
$DIMTXT
 40
55.0
  9
$DIMCEN
 40
0.0
  9
$DIMTSZ
 40
0.0
  9
$DIMTOL
 70
     0
  9
$DIMLIM
 70
     0
  9
$DIMTIH
 70
     0
  9
$DIMTOH
 70
     0
  9
$DIMSE1
 70
     0
  9
$DIMSE2
 70
     0
  9
$DIMTAD
 70
     1
  9
$DIMZIN
 70
     8
  9
$DIMBLK
  1

  9
$DIMASO
 70
     1
  9
$DIMSHO
 70
     0
  9
$DIMPOST
  1

  9
$DIMAPOST
  1

  9
$DIMALT
 70
     0
  9
$DIMALTD
 70
     2
  9
$DIMALTF
 40
25.4
  9
$DIMLFAC
 40
1.0
  9
$DIMTOFL
 70
     1
  9
$DIMTVP
 40
0.0
  9
$DIMTIX
 70
     1
  9
$DIMSOXD
 70
     0
  9
$DIMSAH
 70
     1
  9
$DIMBLK1
  1
_DOTBLANK
  9
$DIMBLK2
  1
_DOTBLANK
  9
$DIMSTYLE
  2
STANDARD
  9
$DIMCLRD
 70
     0
  9
$DIMCLRE
 70
     0
  9
$DIMCLRT
 70
     0
  9
$DIMTFAC
 40
1.0
  9
$DIMGAP
 40
0.09
  9
$DIMJUST
 70
     0
  9
$DIMSD1
 70
     0
  9
$DIMSD2
 70
     0
  9
$DIMTOLJ
 70
     1
  9
$DIMTZIN
 70
     0
  9
$DIMALTZ
 70
     0
  9
$DIMALTTZ
 70
     0
  9
$DIMFIT
 70
     3
  9
$DIMUPT
 70
     0
  9
$DIMUNIT
 70
     2
  9
$DIMDEC
 70
     4
  9
$DIMTDEC
 70
     4
  9
$DIMALTU
 70
     2
  9
$DIMALTTD
 70
     2
  9
$DIMTXSTY
  7
STANDARD
  9
$DIMAUNIT
 70
     0
  9
$LUNITS
 70
     2
  9
$LUPREC
 70
     4
  9
$SKETCHINC
 40
0.1
  9
$FILLETRAD
 40
30.0
  9
$AUNITS
 70
     1
  9
$AUPREC
 70
     3
  9
$MENU
  1
ACAD
  9
$ELEVATION
 40
0.0
  9
$PELEVATION
 40
0.0
  9
$THICKNESS
 40
0.0
  9
$LIMCHECK
 70
     0
  9
$BLIPMODE
 70
     0
  9
$CHAMFERA
 40
0.0
  9
$CHAMFERB
 40
0.0
  9
$CHAMFERC
 40
0.0
  9
$CHAMFERD
 40
0.0
  9
$SKPOLY
 70
     0
  9
$TDCREATE
 40
2450330.439930995
  9
$TDUPDATE
 40
2454503.613907002
  9
$TDINDWG
 40
3.5085529977
  9
$TDUSRTIMER
 40
3.5085529977
  9
$USRTIMER
 70
     1
  9
$ANGBASE
 50
0.0
  9
$ANGDIR
 70
     0
  9
$PDMODE
 70
     3
  9
$PDSIZE
 40
-2.0
  9
$PLINEWID
 40
0.0
  9
$COORDS
 70
     1
  9
$SPLFRAME
 70
     0
  9
$SPLINETYPE
 70
     6
  9
$SPLINESEGS
 70
     8
  9
$ATTDIA
 70
     0
  9
$ATTREQ
 70
     1
  9
$HANDLING
 70
     1
  9
$HANDSEED
  5
8F8
  9
$SURFTAB1
 70
     6
  9
$SURFTAB2
 70
     6
  9
$SURFTYPE
 70
     6
  9
$SURFU
 70
     6
  9
$SURFV
 70
     6
  9
$UCSNAME
  2

  9
$UCSORG
 10
0.0
 20
0.0
 30
0.0
  9
$UCSXDIR
 10
1.0
 20
0.0
 30
0.0
  9
$UCSYDIR
 10
0.0
 20
1.0
 30
0.0
  9
$PUCSNAME
  2

  9
$PUCSORG
 10
0.0
 20
0.0
 30
0.0
  9
$PUCSXDIR
 10
1.0
 20
0.0
 30
0.0
  9
$PUCSYDIR
 10
0.0
 20
1.0
 30
0.0
  9
$USERI1
 70
     0
  9
$USERI2
 70
     0
  9
$USERI3
 70
     0
  9
$USERI4
 70
     0
  9
$USERI5
 70
     0
  9
$USERR1
 40
20.0
  9
$USERR2
 40
0.0
  9
$USERR3
 40
0.0
  9
$USERR4
 40
0.0
  9
$USERR5
 40
0.0
  9
$WORLDVIEW
 70
     1
  9
$SHADEDGE
 70
     3
  9
$SHADEDIF
 70
    70
  9
$TILEMODE
 70
     1
  9
$MAXACTVP
 70
    48
  9
$PINSBASE
 10
0.0
 20
0.0
 30
0.0
  9
$PLIMCHECK
 70
     0
  9
$PEXTMIN
 10
1.000000E+20
 20
1.000000E+20
 30
1.000000E+20
  9
$PEXTMAX
 10
-1.000000E+20
 20
-1.000000E+20
 30
-1.000000E+20
  9
$PLIMMIN
 10
0.0
 20
0.0
  9
$PLIMMAX
 10
12.0
 20
9.0
  9
$UNITMODE
 70
     0
  9
$VISRETAIN
 70
     1
  9
$PLINEGEN
 70
     0
  9
$PSLTSCALE
 70
     1
  9
$TREEDEPTH
 70
  3020
  9
$PICKSTYLE
 70
     0
  9
$CMLSTYLE
  2
STANDARD
  9
$CMLJUST
 70
     0
  9
$CMLSCALE
 40
1.0
  9
$PROXYGRAPHICS
 70
     1
  9
$MEASUREMENT
 70
     0
  0
ENDSEC
  0
SECTION
  2
CLASSES
  0
ENDSEC
  0
SECTION
  2
TABLES
  0
TABLE
  2
VPORT
  5
8C6
100
AcDbSymbolTable
 70
     2
  0
VPORT
  5
8F7
100
AcDbSymbolTableRecord
100
AcDbViewportTableRecord
  2
*ACTIVE
 70
     0
 10
0.0
 20
0.0
 11
1.0
 21
1.0
 12
1645.853864
 22
1222.536077
 13
0.0
 23
0.0
 14
50.0
 24
50.0
 15
100.0
 25
100.0
 16
0.0
 26
0.0
 36
1.0
 17
0.0
 27
0.0
 37
0.0
 40
7837.238574
 41
1.508951
 42
50.0
 43
0.0
 44
0.0
 50
0.0
 51
0.0
 71
     0
 72
  1000
 73
     1
 74
     0
 75
     0
 76
     0
 77
     0
 78
     0
  0
ENDTAB
  0
TABLE
  2
LTYPE
  5
8C3
100
AcDbSymbolTable
 70
     2
  0
LTYPE
  5
8D0
100
AcDbSymbolTableRecord
100
AcDbLinetypeTableRecord
  2
BYBLOCK
 70
     0
  3

 72
    65
 73
     0
 40
0.0
  0
LTYPE
  5
8D1
100
AcDbSymbolTableRecord
100
AcDbLinetypeTableRecord
  2
BYLAYER
 70
     0
  3

 72
    65
 73
     0
 40
0.0
  0
LTYPE
  5
8D2
100
AcDbSymbolTableRecord
100
AcDbLinetypeTableRecord
  2
CONTINUOUS
 70
     0
  3
実線
 72
    65
 73
     0
 40
0.0
  0
LTYPE
  5
8DE
100
AcDbSymbolTableRecord
100
AcDbLinetypeTableRecord
  2
DASHDOT
 70
     0
  3
____ _ ____ _ ____ _ ____ _ ____ _ ____ _ ____
 72
    65
 73
     4
 40
5.5
 49
4.0
 74
     0
 49
-0.6
 74
     0
 49
0.3
 74
     0
 49
-0.6
 74
     0
  0
ENDTAB
  0
TABLE
  2
LAYER
  5
8C0
100
AcDbSymbolTable
 70
    12
  0
LAYER
  5
8CC
100
AcDbSymbolTableRecord
100
AcDbLayerTableRecord
  2
0
 70
     0
 62
     7
  6
CONTINUOUS
  0
LAYER
  5
8DD
100
AcDbSymbolTableRecord
100
AcDbLayerTableRecord
  2
SIZE
 70
     0
 62
    30
  6
CONTINUOUS
  0
LAYER
  5
8DF
100
AcDbSymbolTableRecord
100
AcDbLayerTableRecord
  2
OUTLINE
 70
     0
 62
     3
  6
CONTINUOUS
  0
LAYER
  5
8E0
100
AcDbSymbolTableRecord
100
AcDbLayerTableRecord
  2
DETAIL
 70
     0
 62
     5
  6
CONTINUOUS
  0
LAYER
  5
8E1
100
AcDbSymbolTableRecord
100
AcDbLayerTableRecord
  2
BASIS
 70
     0
 62
     6
  6
DASHDOT
  0
LAYER
  5
8E2
100
AcDbSymbolTableRecord
100
AcDbLayerTableRecord
  2
NOTE
 70
     0
 62
     4
  6
CONTINUOUS
  0
LAYER
  5
8E3
100
AcDbSymbolTableRecord
100
AcDbLayerTableRecord
  2
ARRANGE
 70
     0
 62
     1
  6
CONTINUOUS
  0
LAYER
  5
8E4
100
AcDbSymbolTableRecord
100
AcDbLayerTableRecord
  2
FIX
 70
     0
 62
    11
  6
CONTINUOUS
  0
LAYER
  5
8E5
100
AcDbSymbolTableRecord
100
AcDbLayerTableRecord
  2
SERVICESPACE
 70
     0
 62
     2
  6
DASHDOT
  0
LAYER
  5
8E6
100
AcDbSymbolTableRecord
100
AcDbLayerTableRecord
  2
ETC
 70
     0
 62
    61
  6
CONTINUOUS
  0
LAYER
  5
8E7
100
AcDbSymbolTableRecord
100
AcDbLayerTableRecord
  2
SYMBOLLINE
 70
     0
 62
    15
  6
CONTINUOUS
  0
LAYER
  5
8E8
100
AcDbSymbolTableRecord
100
AcDbLayerTableRecord
  2
DEFPOINTS
 70
     0
 62
     7
  6
CONTINUOUS
  0
ENDTAB
  0
TABLE
  2
STYLE
  5
8C1
100
AcDbSymbolTable
 70
     2
  0
STYLE
  5
8CD
100
AcDbSymbolTableRecord
100
AcDbTextStyleTableRecord
  2
STANDARD
 70
     0
 40
0.0
 41
0.9
 50
0.0
 71
     0
 42
64.0
  3
SIMPLEX
  4
BIGFONT
  0
STYLE
  5
8E9
100
AcDbSymbolTableRecord
100
AcDbTextStyleTableRecord
  2
STANDARD1
 70
     0
 40
0.0
 41
1.0
 50
0.0
 71
     0
 42
64.0
  3
MONOTXT
  4
BIGFONT
  0
ENDTAB
  0
TABLE
  2
VIEW
  5
8C4
100
AcDbSymbolTable
 70
     1
  0
VIEW
  5
8EA
100
AcDbSymbolTableRecord
100
AcDbViewTableRecord
  2
ALL
 70
     0
 40
9000.0
 10
241.506647
 20
0.0
 41
12483.01
 11
0.0
 21
0.0
 31
1.0
 12
0.0
 22
0.0
 32
0.0
 42
50.0
 43
0.0
 44
0.0
 50
0.0
 71
     0
  0
ENDTAB
  0
TABLE
  2
UCS
  5
8C5
100
AcDbSymbolTable
 70
     0
  0
ENDTAB
  0
TABLE
  2
APPID
  5
8C7
100
AcDbSymbolTable
 70
     1
  0
APPID
  5
8CE
100
AcDbSymbolTableRecord
100
AcDbRegAppTableRecord
  2
ACAD
 70
     0
  0
ENDTAB
  0
TABLE
  2
DIMSTYLE
  5
8C8
100
AcDbSymbolTable
 70
     1
  0
DIMSTYLE
105
8EB
100
AcDbSymbolTableRecord
100
AcDbDimStyleTableRecord
  2
STANDARD
 70
     0
  3

  4

  5

  6

  7

 40
1.0
 41
0.18
 42
0.0625
 43
0.38
 44
0.18
 45
0.0
 46
0.0
 47
0.0
 48
0.0
140
0.18
141
0.09
142
0.0
143
25.4
144
1.0
145
0.0
146
1.0
147
0.09
 71
     0
 72
     0
 73
     1
 74
     1
 75
     0
 76
     0
 77
     0
 78
     0
170
     0
171
     2
172
     0
173
     0
174
     0
175
     0
176
     0
177
     0
178
     0
270
     2
271
     4
272
     4
273
     2
274
     2
340
8CD
275
     0
280
     0
281
     0
282
     0
283
     1
284
     0
285
     0
286
     0
287
     3
288
     0
  0
ENDTAB
  0
TABLE
  2
BLOCK_RECORD
  5
8BF
100
AcDbSymbolTable
 70
     4
  0
BLOCK_RECORD
  5
8D6
100
AcDbSymbolTableRecord
100
AcDbBlockTableRecord
  2
*MODEL_SPACE
  0
BLOCK_RECORD
  5
8D3
100
AcDbSymbolTableRecord
100
AcDbBlockTableRecord
  2
*PAPER_SPACE
  0
BLOCK_RECORD
  5
8EF
100
AcDbSymbolTableRecord
100
AcDbBlockTableRecord
  2
$MODEL_SPACE
  0
BLOCK_RECORD
  5
8F1
100
AcDbSymbolTableRecord
100
AcDbBlockTableRecord
  2
$PAPER_SPACE
  0
BLOCK_RECORD
  5
8F3
100
AcDbSymbolTableRecord
100
AcDbBlockTableRecord
  2
_DOTBLANK
  0
BLOCK_RECORD
  5
8F5
100
AcDbSymbolTableRecord
100
AcDbBlockTableRecord
  2
A$C788550BB
  0
ENDTAB
  0
ENDSEC
  0
SECTION
  2
BLOCKS
  0
BLOCK
  5
8D7
100
AcDbEntity
  8
0
100
AcDbBlockBegin
  2
*MODEL_SPACE
 70
     0
 10
0.0
 20
0.0
 30
0.0
  3
*MODEL_SPACE
  1

  0
ENDBLK
  5
8D8
100
AcDbEntity
  8
0
100
AcDbBlockEnd
  0
BLOCK
  5
8D4
100
AcDbEntity
 67
     1
  8
0
100
AcDbBlockBegin
  2
*PAPER_SPACE
 70
     0
 10
0.0
 20
0.0
 30
0.0
  3
*PAPER_SPACE
  1

  0
ENDBLK
  5
8D5
100
AcDbEntity
 67
     1
  8
0
100
AcDbBlockEnd
  0
BLOCK
  5
8F0
100
AcDbEntity
  8
0
100
AcDbBlockBegin
  2
$MODEL_SPACE
 70
     0
 10
0.0
 20
0.0
 30
0.0
  3
$MODEL_SPACE
  1

  0
ENDBLK
  5
31A
100
AcDbEntity
  8
0
100
AcDbBlockEnd
  0
BLOCK
  5
8F2
100
AcDbEntity
  8
0
100
AcDbBlockBegin
  2
$PAPER_SPACE
 70
     0
 10
0.0
 20
0.0
 30
0.0
  3
$PAPER_SPACE
  1

  0
ENDBLK
  5
317
100
AcDbEntity
  8
0
100
AcDbBlockEnd
  0
BLOCK
  5
8F4
100
AcDbEntity
  8
0
100
AcDbBlockBegin
  2
_DOTBLANK
 70
     0
 10
0.0
 20
0.0
 30
0.0
  3
_DOTBLANK
  1

  0
CIRCLE
  5
32
100
AcDbEntity
  8
0
  6
CONTINUOUS
 62
     7
100
AcDbCircle
 10
0.0
 20
0.0
 30
0.0
 40
0.5
  0
LINE
  5
33
100
AcDbEntity
  8
0
  6
CONTINUOUS
 62
     7
100
AcDbLine
 10
-0.5
 20
0.0
 30
0.0
 11
-1.0
 21
0.0
 31
0.0
  0
ENDBLK
  5
34
100
AcDbEntity
  8
0
100
AcDbBlockEnd
  0
BLOCK
  5
8F6
100
AcDbEntity
  8
0
 62
     7
100
AcDbBlockBegin
  2
A$C788550BB
 70
     0
 10
0.0
 20
0.0
 30
0.0
  3
A$C788550BB
  1

  0
LINE
  5
339
100
AcDbEntity
  8
OUTLINE
  6
CONTINUOUS
 62
     3
100
AcDbLine
 10
1858.997826
 20
371.937793
 30
0.0
 11
658.997826
 21
371.937793
 31
0.0
  0
TEXT
  5
33A
100
AcDbEntity
  8
ETC
  6
CONTINUOUS
 62
    61
100
AcDbText
 10
0.000016
 20
1461.158661
 30
0.0
 40
80.0
  1
MPD-RP71_80FA3_2
 50
0.000003
 41
0.8
100
AcDbText
  0
LINE
  5
33B
100
AcDbEntity
  8
SIZE
  6
CONTINUOUS
 62
    30
100
AcDbLine
 10
688.997826
 20
193.127904
 30
0.0
 11
1868.997826
 21
193.127904
 31
0.0
  0
TEXT
  5
33C
100
AcDbEntity
  8
SIZE
  6
CONTINUOUS
 62
    30
100
AcDbText
 10
931.790683
 20
1305.504977
 30
0.0
 40
55.0
  1
1146(吊りボルトピッチ)
 41
0.9
 72
     1
 11
1278.997826
 21
1305.504977
 31
0.0
100
AcDbText
  0
LINE
  5
33D
100
AcDbEntity
  8
SIZE
  6
CONTINUOUS
 62
    30
100
AcDbLine
 10
715.997826
 20
1289.100215
 30
0.0
 11
1841.997826
 21
1289.100215
 31
0.0
  0
LINE
  5
33E
100
AcDbEntity
  8
SIZE
  6
CONTINUOUS
 62
    30
100
AcDbLine
 10
708.997826
 20
1172.04099
 30
0.0
 11
1848.997826
 21
1172.04099
 31
0.0
  0
LINE
  5
33F
100
AcDbEntity
  8
OUTLINE
  6
CONTINUOUS
 62
     3
100
AcDbLine
 10
1858.997826
 20
418.937793
 30
0.0
 11
698.997826
 21
418.937793
 31
0.0
  0
LINE
  5
340
100
AcDbEntity
  8
OUTLINE
  6
CONTINUOUS
 62
     3
100
AcDbLine
 10
1845.527826
 20
363.937793
 30
0.0
 11
712.467826
 21
363.937793
 31
0.0
  0
LINE
  5
341
100
AcDbEntity
  8
SIZE
  6
CONTINUOUS
 62
    30
100
AcDbLine
 10
668.997826
 20
46.870331
 30
0.0
 11
1888.997826
 21
46.870331
 31
0.0
  0
LINE
  5
342
100
AcDbEntity
  8
OUTLINE
  6
CONTINUOUS
 62
     3
100
AcDbLine
 10
1858.997826
 20
511.937793
 30
0.0
 11
698.997826
 21
511.937793
 31
0.0
  0
LINE
  5
343
100
AcDbEntity
  8
OUTLINE
  6
CONTINUOUS
 62
     3
100
AcDbLine
 10
698.997826
 20
804.937793
 30
0.0
 11
1858.997826
 21
804.937793
 31
0.0
  0
LINE
  5
344
100
AcDbEntity
  8
DETAIL
  6
CONTINUOUS
 62
     5
100
AcDbLine
 10
698.997826
 20
511.937793
 30
0.0
 11
1858.997826
 21
511.937793
 31
0.0
  0
LINE
  5
345
100
AcDbEntity
  8
SIZE
  6
CONTINUOUS
 62
    30
100
AcDbLine
 10
692.997826
 20
1401.087567
 30
0.0
 11
1864.997826
 21
1401.087567
 31
0.0
  0
LINE
  5
346
100
AcDbEntity
  8
DETAIL
  6
CONTINUOUS
 62
     5
100
AcDbLine
 10
698.997826
 20
804.937793
 30
0.0
 11
1858.997826
 21
804.937793
 31
0.0
  0
LINE
  5
347
100
AcDbEntity
  8
DETAIL
  6
CONTINUOUS
 62
     5
100
AcDbLine
 10
698.997826
 20
804.937793
 30
0.0
 11
1858.997826
 21
804.937793
 31
0.0
  0
LINE
  5
348
100
AcDbEntity
  8
DETAIL
  6
CONTINUOUS
 62
     5
100
AcDbLine
 10
1853.997826
 20
539.337793
 30
0.0
 11
703.997826
 21
539.337793
 31
0.0
  0
LINE
  5
349
100
AcDbEntity
  8
DETAIL
  6
CONTINUOUS
 62
     5
100
AcDbLine
 10
1853.997826
 20
539.337793
 30
0.0
 11
703.997826
 21
539.337793
 31
0.0
  0
LINE
  5
34A
100
AcDbEntity
  8
NOTE
  6
CONTINUOUS
 62
     4
100
AcDbLine
 10
1108.997826
 20
668.937793
 30
0.0
 11
868.997826
 21
668.937793
 31
0.0
  0
CIRCLE
  5
34B
100
AcDbEntity
  8
DETAIL
  6
CONTINUOUS
 62
     5
100
AcDbCircle
 10
988.997826
 20
668.937793
 30
0.0
 40
100.0
  0
CIRCLE
  5
34C
100
AcDbEntity
  8
DETAIL
  6
CONTINUOUS
 62
     5
100
AcDbCircle
 10
988.997826
 20
668.937793
 30
0.0
 40
85.5
  0
LINE
  5
34D
100
AcDbEntity
  8
DETAIL
  6
CONTINUOUS
 62
     5
100
AcDbLine
 10
1816.997826
 20
779.937793
 30
0.0
 11
740.997826
 21
779.937793
 31
0.0
  0
LINE
  5
34E
100
AcDbEntity
  8
DETAIL
  6
CONTINUOUS
 62
     5
100
AcDbLine
 10
1816.997826
 20
563.937793
 30
0.0
 11
740.997826
 21
563.937793
 31
0.0
  0
LINE
  5
34F
100
AcDbEntity
  8
DETAIL
  6
CONTINUOUS
 62
     5
100
AcDbLine
 10
716.997826
 20
526.937793
 30
0.0
 11
1840.997826
 21
526.937793
 31
0.0
  0
LINE
  5
350
100
AcDbEntity
  8
DETAIL
  6
CONTINUOUS
 62
     5
100
AcDbLine
 10
713.997826
 20
511.937793
 30
0.0
 11
1843.997826
 21
511.937793
 31
0.0
  0
LINE
  5
351
100
AcDbEntity
  8
DETAIL
  6
CONTINUOUS
 62
     5
100
AcDbLine
 10
716.997826
 20
526.937793
 30
0.0
 11
1840.997826
 21
526.937793
 31
0.0
  0
LINE
  5
352
100
AcDbEntity
  8
DETAIL
  6
CONTINUOUS
 62
     5
100
AcDbLine
 10
713.997826
 20
511.937793
 30
0.0
 11
1843.997826
 21
511.937793
 31
0.0
  0
LINE
  5
353
100
AcDbEntity
  8
DETAIL
  6
CONTINUOUS
 62
     5
100
AcDbLine
 10
1858.997826
 20
418.937793
 30
0.0
 11
698.997826
 21
418.937793
 31
0.0
  0
LINE
  5
354
100
AcDbEntity
  8
DETAIL
  6
CONTINUOUS
 62
     5
100
AcDbLine
 10
1845.527826
 20
363.937793
 30
0.0
 11
712.467826
 21
363.937793
 31
0.0
  0
LINE
  5
355
100
AcDbEntity
  8
DETAIL
  6
CONTINUOUS
 62
     5
100
AcDbLine
 10
1858.997826
 20
371.937793
 30
0.0
 11
658.997826
 21
371.937793
 31
0.0
  0
LINE
  5
356
100
AcDbEntity
  8
OUTLINE
  6
CONTINUOUS
 62
     3
100
AcDbLine
 10
658.997826
 20
367.931285
 30
0.0
 11
658.997826
 21
371.937793
 31
0.0
  0
LINE
  5
357
100
AcDbEntity
  8
NOTE
  6
CONTINUOUS
 62
     4
100
AcDbLine
 10
461.511928
 20
146.443865
 30
0.0
 11
698.997826
 21
539.937793
 31
0.0
  0
LINE
  5
358
100
AcDbEntity
  8
NOTE
  6
CONTINUOUS
 62
     4
100
AcDbLine
 10
426.624965
 20
293.112968
 30
0.0
 11
662.997826
 21
604.937793
 31
0.0
  0
LINE
  5
359
100
AcDbEntity
  8
DETAIL
  6
CONTINUOUS
 62
     5
100
AcDbLine
 10
658.997826
 20
367.931285
 30
0.0
 11
658.997826
 21
371.937793
 31
0.0
  0
LINE
  5
35A
100
AcDbEntity
  8
NOTE
  6
CONTINUOUS
 62
     4
100
AcDbLine
 10
461.511928
 20
146.443865
 30
0.0
 11
26.581129
 21
146.443865
 31
0.0
  0
TEXT
  5
35B
100
AcDbEntity
  8
NOTE
  6
CONTINUOUS
 62
     4
100
AcDbText
 10
48.2564
 20
162.270395
 30
0.0
 40
60.0
  1
D2（自然排水口）
 50
0.000003
 41
0.7
  7
STANDARD1
100
AcDbText
  0
LINE
  5
35C
100
AcDbEntity
  8
NOTE
  6
CONTINUOUS
 62
     4
100
AcDbLine
 10
426.619948
 20
293.106349
 30
0.0
 11
54.326703
 21
293.106349
 31
0.0
  0
TEXT
  5
35D
100
AcDbEntity
  8
NOTE
  6
CONTINUOUS
 62
     4
100
AcDbText
 10
76.001975
 20
308.93288
 30
0.0
 40
60.0
  1
RG %%C15.88
 50
0.000003
 41
0.7
  7
STANDARD1
100
AcDbText
  0
LINE
  5
35E
100
AcDbEntity
  8
SIZE
  6
CONTINUOUS
 62
    30
100
AcDbLine
 10
658.997826
 20
347.931285
 30
0.0
 11
658.997826
 21
16.870331
 31
0.0
  0
LINE
  5
35F
100
AcDbEntity
  8
SIZE
  6
CONTINUOUS
 62
    30
100
AcDbLine
 10
663.997826
 20
46.870331
 30
0.0
 11
668.997826
 21
46.870331
 31
0.0
  0
CIRCLE
  5
360
100
AcDbEntity
  8
SIZE
  6
CONTINUOUS
 62
    30
100
AcDbCircle
 10
658.997826
 20
46.870331
 30
0.0
 40
5.0
  0
LINE
  5
361
100
AcDbEntity
  8
SIZE
  6
CONTINUOUS
 62
    30
100
AcDbLine
 10
678.997826
 20
352.937793
 30
0.0
 11
678.997826
 21
163.127904
 31
0.0
  0
TEXT
  5
362
100
AcDbEntity
  8
SIZE
  6
CONTINUOUS
 62
    30
100
AcDbText
 10
540.854968
 20
211.127904
 30
0.0
 40
55.0
  1
20
 41
0.9
 72
     1
 11
580.926397
 21
211.127904
 31
0.0
100
AcDbText
  0
LINE
  5
363
100
AcDbEntity
  8
SIZE
  6
CONTINUOUS
 62
    30
100
AcDbLine
 10
678.997826
 20
352.937793
 30
0.0
 11
678.997826
 21
163.127904
 31
0.0
  0
LINE
  5
364
100
AcDbEntity
  8
SIZE
  6
CONTINUOUS
 62
    30
100
AcDbLine
 10
658.997826
 20
347.931285
 30
0.0
 11
658.997826
 21
163.127904
 31
0.0
  0
LINE
  5
365
100
AcDbEntity
  8
SIZE
  6
CONTINUOUS
 62
    30
100
AcDbLine
 10
648.997826
 20
193.127904
 30
0.0
 11
522.854969
 21
193.127904
 31
0.0
  0
LINE
  5
366
100
AcDbEntity
  8
SIZE
  6
CONTINUOUS
 62
    30
100
AcDbLine
 10
683.997826
 20
193.127904
 30
0.0
 11
688.997826
 21
193.127904
 31
0.0
  0
CIRCLE
  5
367
100
AcDbEntity
  8
SIZE
  6
CONTINUOUS
 62
    30
100
AcDbCircle
 10
678.997826
 20
193.127904
 30
0.0
 40
5.0
  0
POINT
  5
368
100
AcDbEntity
  8
DEFPOINTS
  6
CONTINUOUS
 62
     7
100
AcDbPoint
 10
678.997826
 20
193.127904
 30
0.0
  0
LINE
  5
369
100
AcDbEntity
  8
SIZE
  6
CONTINUOUS
 62
    30
100
AcDbLine
 10
653.997826
 20
193.127904
 30
0.0
 11
648.997826
 21
193.127904
 31
0.0
  0
CIRCLE
  5
36A
100
AcDbEntity
  8
SIZE
  6
CONTINUOUS
 62
    30
100
AcDbCircle
 10
658.997826
 20
193.127904
 30
0.0
 40
5.0
  0
LINE
  5
36B
100
AcDbEntity
  8
SIZE
  6
CONTINUOUS
 62
    30
100
AcDbLine
 10
683.997826
 20
193.127904
 30
0.0
 11
688.997826
 21
193.127904
 31
0.0
  0
CIRCLE
  5
36C
100
AcDbEntity
  8
SIZE
  6
CONTINUOUS
 62
    30
100
AcDbCircle
 10
678.997826
 20
193.127904
 30
0.0
 40
5.0
  0
LINE
  5
36D
100
AcDbEntity
  8
SIZE
  6
CONTINUOUS
 62
    30
100
AcDbLine
 10
678.997826
 20
193.127904
 30
0.0
 11
658.997826
 21
193.127904
 31
0.0
  0
LINE
  5
36E
100
AcDbEntity
  8
SIZE
  6
CONTINUOUS
 62
    30
100
AcDbLine
 10
688.997826
 20
193.127904
 30
0.0
 11
698.997826
 21
193.127904
 31
0.0
  0
POINT
  5
36F
100
AcDbEntity
  8
DEFPOINTS
  6
CONTINUOUS
 62
     7
100
AcDbPoint
 10
658.997826
 20
367.931285
 30
0.0
  0
LINE
  5
370
100
AcDbEntity
  8
OUTLINE
  6
CONTINUOUS
 62
     3
100
AcDbLine
 10
658.997826
 20
367.931285
 30
0.0
 11
712.467826
 21
363.937793
 31
0.0
  0
POINT
  5
371
100
AcDbEntity
  8
DEFPOINTS
  6
CONTINUOUS
 62
     7
100
AcDbPoint
 10
658.997826
 20
367.931285
 30
0.0
  0
LINE
  5
372
100
AcDbEntity
  8
DETAIL
  6
CONTINUOUS
 62
     5
100
AcDbLine
 10
658.997826
 20
367.931285
 30
0.0
 11
712.467826
 21
363.937793
 31
0.0
  0
TEXT
  5
373
100
AcDbEntity
  8
SIZE
  6
CONTINUOUS
 62
    30
100
AcDbText
 10
106.438642
 20
604.209373
 30
0.0
 40
55.0
  1
265
 50
90.0
 41
0.9
 72
     1
 11
106.438642
 21
667.85223
 31
0.0
100
AcDbText
  0
LINE
  5
374
100
AcDbEntity
  8
SIZE
  6
CONTINUOUS
 62
    30
100
AcDbLine
 10
698.997826
 20
824.937793
 30
0.0
 11
698.997826
 21
1003.182878
 31
0.0
  0
LINE
  5
375
100
AcDbEntity
  8
SIZE
  6
CONTINUOUS
 62
    30
100
AcDbLine
 10
662.997826
 20
636.187793
 30
0.0
 11
662.997826
 21
1003.182878
 31
0.0
  0
LINE
  5
376
100
AcDbEntity
  8
SIZE
  6
CONTINUOUS
 62
    30
100
AcDbLine
 10
705.997826
 20
839.932959
 30
0.0
 11
705.997826
 21
1319.100215
 31
0.0
  0
LINE
  5
377
100
AcDbEntity
  8
SIZE
  6
CONTINUOUS
 62
    30
100
AcDbLine
 10
705.997826
 20
839.932959
 30
0.0
 11
705.997826
 21
1319.100215
 31
0.0
  0
LINE
  5
378
100
AcDbEntity
  8
SIZE
  6
CONTINUOUS
 62
    30
100
AcDbLine
 10
682.997826
 20
820.637793
 30
0.0
 11
682.997826
 21
1319.100215
 31
0.0
  0
LINE
  5
379
100
AcDbEntity
  8
SIZE
  6
CONTINUOUS
 62
    30
100
AcDbLine
 10
698.997826
 20
824.937793
 30
0.0
 11
698.997826
 21
1202.04099
 31
0.0
  0
LINE
  5
37A
100
AcDbEntity
  8
SIZE
  6
CONTINUOUS
 62
    30
100
AcDbLine
 10
698.997826
 20
824.937793
 30
0.0
 11
698.997826
 21
1202.04099
 31
0.0
  0
LINE
  5
37B
100
AcDbEntity
  8
SIZE
  6
CONTINUOUS
 62
    30
100
AcDbLine
 10
682.997826
 20
820.637793
 30
0.0
 11
682.997826
 21
1202.04099
 31
0.0
  0
LINE
  5
37C
100
AcDbEntity
  8
SIZE
  6
CONTINUOUS
 62
    30
100
AcDbLine
 10
659.988677
 20
652.937793
 30
0.0
 11
659.988677
 21
1104.292025
 31
0.0
  0
LINE
  5
37D
100
AcDbEntity
  8
SIZE
  6
CONTINUOUS
 62
    30
100
AcDbLine
 10
698.997826
 20
824.937793
 30
0.0
 11
698.997826
 21
1104.292025
 31
0.0
  0
LINE
  5
37E
100
AcDbEntity
  8
NOTE
  6
CONTINUOUS
 62
     4
100
AcDbLine
 10
449.085845
 20
1003.890623
 30
0.0
 11
659.997826
 21
632.937793
 31
0.0
  0
LINE
  5
37F
100
AcDbEntity
  8
NOTE
  6
CONTINUOUS
 62
     4
100
AcDbLine
 10
448.55667
 20
1125.335282
 30
0.0
 11
664.997826
 21
696.937793
 31
0.0
  0
LINE
  5
380
100
AcDbEntity
  8
SIZE
  6
CONTINUOUS
 62
    30
100
AcDbLine
 10
682.997826
 20
819.037793
 30
0.0
 11
682.997826
 21
1431.087567
 31
0.0
  0
LINE
  5
381
100
AcDbEntity
  8
SIZE
  6
CONTINUOUS
 62
    30
100
AcDbLine
 10
673.506975
 20
539.937793
 30
0.0
 11
94.438642
 21
539.937793
 31
0.0
  0
LINE
  5
382
100
AcDbEntity
  8
SIZE
  6
CONTINUOUS
 62
    30
100
AcDbLine
 10
667.297826
 20
804.937793
 30
0.0
 11
94.438642
 21
804.937793
 31
0.0
  0
LINE
  5
383
100
AcDbEntity
  8
SIZE
  6
CONTINUOUS
 62
    30
100
AcDbLine
 10
631.738677
 20
604.937793
 30
0.0
 11
322.277757
 21
604.937793
 31
0.0
  0
LINE
  5
384
100
AcDbEntity
  8
SIZE
  6
CONTINUOUS
 62
    30
100
AcDbLine
 10
634.497826
 20
632.937793
 30
0.0
 11
322.277757
 21
632.937793
 31
0.0
  0
LINE
  5
385
100
AcDbEntity
  8
SIZE
  6
CONTINUOUS
 62
    30
100
AcDbLine
 10
634.497826
 20
632.937793
 30
0.0
 11
322.277757
 21
632.937793
 31
0.0
  0
LINE
  5
386
100
AcDbEntity
  8
SIZE
  6
CONTINUOUS
 62
    30
100
AcDbLine
 10
667.297826
 20
804.937793
 30
0.0
 11
322.277757
 21
804.937793
 31
0.0
  0
LINE
  5
387
100
AcDbEntity
  8
SIZE
  6
CONTINUOUS
 62
    30
100
AcDbLine
 10
628.281174
 20
696.937793
 30
0.0
 11
422.476225
 21
696.937793
 31
0.0
  0
LINE
  5
388
100
AcDbEntity
  8
SIZE
  6
CONTINUOUS
 62
    30
100
AcDbLine
 10
667.297826
 20
804.937793
 30
0.0
 11
422.476225
 21
804.937793
 31
0.0
  0
LINE
  5
389
100
AcDbEntity
  8
SIZE
  6
CONTINUOUS
 62
    30
100
AcDbLine
 10
124.438642
 20
794.937793
 30
0.0
 11
124.438642
 21
549.937793
 31
0.0
  0
TEXT
  5
38A
100
AcDbEntity
  8
SIZE
  6
CONTINUOUS
 62
    30
100
AcDbText
 10
232.077667
 20
660.717256
 30
0.0
 40
55.0
  1
28
 50
90.0
 41
0.9
 72
     1
 11
232.077667
 21
700.788685
 31
0.0
100
AcDbText
  0
LINE
  5
38B
100
AcDbEntity
  8
SIZE
  6
CONTINUOUS
 62
    30
100
AcDbLine
 10
250.077667
 20
642.717257
 30
0.0
 11
250.077667
 21
758.860114
 31
0.0
  0
TEXT
  5
38C
100
AcDbEntity
  8
SIZE
  6
CONTINUOUS
 62
    30
100
AcDbText
 10
334.277757
 20
660.009222
 30
0.0
 40
55.0
  1
172
 50
90.0
 41
0.9
 72
     1
 11
334.277757
 21
718.937793
 31
0.0
100
AcDbText
  0
LINE
  5
38D
100
AcDbEntity
  8
SIZE
  6
CONTINUOUS
 62
    30
100
AcDbLine
 10
352.277757
 20
794.937793
 30
0.0
 11
352.277757
 21
642.937793
 31
0.0
  0
LINE
  5
38E
100
AcDbEntity
  8
SIZE
  6
CONTINUOUS
 62
    30
100
AcDbLine
 10
352.277757
 20
618.937793
 30
0.0
 11
250.077667
 21
642.717257
 31
0.0
  0
POINT
  5
38F
100
AcDbEntity
  8
DEFPOINTS
  6
CONTINUOUS
 62
     7
100
AcDbPoint
 10
124.438642
 20
539.937793
 30
0.0
  0
LINE
  5
390
100
AcDbEntity
  8
SIZE
  6
CONTINUOUS
 62
    30
100
AcDbLine
 10
124.438642
 20
544.937793
 30
0.0
 11
124.438642
 21
549.937793
 31
0.0
  0
CIRCLE
  5
391
100
AcDbEntity
  8
SIZE
  6
CONTINUOUS
 62
    30
100
AcDbCircle
 10
124.438642
 20
539.937793
 30
0.0
 40
5.0
  0
POINT
  5
392
100
AcDbEntity
  8
DEFPOINTS
  6
CONTINUOUS
 62
     7
100
AcDbPoint
 10
352.277757
 20
604.937793
 30
0.0
  0
LINE
  5
393
100
AcDbEntity
  8
SIZE
  6
CONTINUOUS
 62
    30
100
AcDbLine
 10
352.277757
 20
599.937793
 30
0.0
 11
352.277757
 21
594.937793
 31
0.0
  0
CIRCLE
  5
394
100
AcDbEntity
  8
SIZE
  6
CONTINUOUS
 62
    30
100
AcDbCircle
 10
352.277757
 20
604.937793
 30
0.0
 40
5.0
  0
LINE
  5
395
100
AcDbEntity
  8
SIZE
  6
CONTINUOUS
 62
    30
100
AcDbLine
 10
352.277757
 20
637.937793
 30
0.0
 11
352.277757
 21
642.937793
 31
0.0
  0
CIRCLE
  5
396
100
AcDbEntity
  8
SIZE
  6
CONTINUOUS
 62
    30
100
AcDbCircle
 10
352.277757
 20
632.937793
 30
0.0
 40
5.0
  0
LINE
  5
397
100
AcDbEntity
  8
SIZE
  6
CONTINUOUS
 62
    30
100
AcDbLine
 10
352.277757
 20
632.937793
 30
0.0
 11
352.277757
 21
604.937793
 31
0.0
  0
LINE
  5
398
100
AcDbEntity
  8
SIZE
  6
CONTINUOUS
 62
    30
100
AcDbLine
 10
352.277757
 20
632.937793
 30
0.0
 11
352.277757
 21
604.937793
 31
0.0
  0
LINE
  5
399
100
AcDbEntity
  8
SIZE
  6
CONTINUOUS
 62
    30
100
AcDbLine
 10
352.277757
 20
594.937793
 30
0.0
 11
352.277757
 21
584.937793
 31
0.0
  0
LINE
  5
39A
100
AcDbEntity
  8
SIZE
  6
CONTINUOUS
 62
    30
100
AcDbLine
 10
352.277757
 20
642.937793
 30
0.0
 11
352.277757
 21
652.937793
 31
0.0
  0
POINT
  5
39B
100
AcDbEntity
  8
DEFPOINTS
  6
CONTINUOUS
 62
     7
100
AcDbPoint
 10
352.277757
 20
632.937793
 30
0.0
  0
LINE
  5
39C
100
AcDbEntity
  8
SIZE
  6
CONTINUOUS
 62
    30
100
AcDbLine
 10
352.277757
 20
637.937793
 30
0.0
 11
352.277757
 21
642.937793
 31
0.0
  0
CIRCLE
  5
39D
100
AcDbEntity
  8
SIZE
  6
CONTINUOUS
 62
    30
100
AcDbCircle
 10
352.277757
 20
632.937793
 30
0.0
 40
5.0
  0
LINE
  5
39E
100
AcDbEntity
  8
SIZE
  6
CONTINUOUS
 62
    30
100
AcDbLine
 10
124.438642
 20
799.937793
 30
0.0
 11
124.438642
 21
794.937793
 31
0.0
  0
CIRCLE
  5
39F
100
AcDbEntity
  8
SIZE
  6
CONTINUOUS
 62
    30
100
AcDbCircle
 10
124.438642
 20
804.937793
 30
0.0
 40
5.0
  0
LINE
  5
3A0
100
AcDbEntity
  8
SIZE
  6
CONTINUOUS
 62
    30
100
AcDbLine
 10
452.476225
 20
804.937793
 30
0.0
 11
452.476225
 21
968.794936
 31
0.0
  0
LINE
  5
3A1
100
AcDbEntity
  8
SIZE
  6
CONTINUOUS
 62
    30
100
AcDbLine
 10
352.277757
 20
799.937793
 30
0.0
 11
352.277757
 21
794.937793
 31
0.0
  0
CIRCLE
  5
3A2
100
AcDbEntity
  8
SIZE
  6
CONTINUOUS
 62
    30
100
AcDbCircle
 10
352.277757
 20
804.937793
 30
0.0
 40
5.0
  0
POINT
  5
3A3
100
AcDbEntity
  8
DEFPOINTS
  6
CONTINUOUS
 62
     7
100
AcDbPoint
 10
452.476225
 20
696.937793
 30
0.0
  0
LINE
  5
3A4
100
AcDbEntity
  8
SIZE
  6
CONTINUOUS
 62
    30
100
AcDbLine
 10
452.476225
 20
799.937793
 30
0.0
 11
452.476225
 21
794.937793
 31
0.0
  0
CIRCLE
  5
3A5
100
AcDbEntity
  8
SIZE
  6
CONTINUOUS
 62
    30
100
AcDbCircle
 10
452.476225
 20
804.937793
 30
0.0
 40
5.0
  0
LINE
  5
3A6
100
AcDbEntity
  8
SIZE
  6
CONTINUOUS
 62
    30
100
AcDbLine
 10
452.476225
 20
701.937793
 30
0.0
 11
452.476225
 21
706.937793
 31
0.0
  0
CIRCLE
  5
3A7
100
AcDbEntity
  8
SIZE
  6
CONTINUOUS
 62
    30
100
AcDbCircle
 10
452.476225
 20
696.937793
 30
0.0
 40
5.0
  0
LINE
  5
3A8
100
AcDbEntity
  8
SIZE
  6
CONTINUOUS
 62
    30
100
AcDbLine
 10
452.476225
 20
706.937793
 30
0.0
 11
452.476225
 21
794.937793
 31
0.0
  0
TEXT
  5
3A9
100
AcDbEntity
  8
SIZE
  6
CONTINUOUS
 62
    30
100
AcDbText
 10
434.476225
 20
832.937793
 30
0.0
 40
55.0
  1
108
 50
90.0
 41
0.9
 72
     1
 11
434.476225
 21
891.866364
 31
0.0
100
AcDbText
  0
LINE
  5
3AA
100
AcDbEntity
  8
SIZE
  6
CONTINUOUS
 62
    30
100
AcDbLine
 10
682.997826
 20
879.937793
 30
0.0
 11
682.997826
 21
400.707302
 31
0.0
  0
LINE
  5
3AB
100
AcDbEntity
  8
OUTLINE
  6
CONTINUOUS
 62
     3
100
AcDbLine
 10
698.997826
 20
511.937793
 30
0.0
 11
698.997826
 21
804.937793
 31
0.0
  0
LINE
  5
3AC
100
AcDbEntity
  8
DETAIL
  6
CONTINUOUS
 62
     5
100
AcDbLine
 10
698.997826
 20
801.737793
 30
0.0
 11
698.997826
 21
594.137793
 31
0.0
  0
LINE
  5
3AD
100
AcDbEntity
  8
DETAIL
  6
CONTINUOUS
 62
     5
100
AcDbLine
 10
698.997826
 20
801.737793
 30
0.0
 11
698.997826
 21
594.137793
 31
0.0
  0
LINE
  5
3AE
100
AcDbEntity
  8
DETAIL
  6
CONTINUOUS
 62
     5
100
AcDbLine
 10
698.997826
 20
544.337793
 30
0.0
 11
698.997826
 21
688.337793
 31
0.0
  0
LINE
  5
3AF
100
AcDbEntity
  8
DETAIL
  6
CONTINUOUS
 62
     5
100
AcDbLine
 10
730.997826
 20
573.937793
 30
0.0
 11
730.997826
 21
769.937793
 31
0.0
  0
TEXT
  5
3B0
100
AcDbEntity
  8
SIZE
  6
CONTINUOUS
 62
    30
100
AcDbText
 10
720.997826
 20
448.707302
 30
0.0
 40
55.0
  1
4
 41
0.9
 72
     1
 11
738.676397
 21
448.707302
 31
0.0
100
AcDbText
  0
LINE
  5
3B1
100
AcDbEntity
  8
SIZE
  6
CONTINUOUS
 62
    30
100
AcDbLine
 10
692.997826
 20
430.707302
 30
0.0
 11
774.354969
 21
430.707302
 31
0.0
  0
LINE
  5
3B2
100
AcDbEntity
  8
NOTE
  6
CONTINUOUS
 62
     4
100
AcDbLine
 10
698.997826
 20
539.937793
 30
0.0
 11
687.963692
 21
507.370976
 31
0.0
  0
LINE
  5
3B3
100
AcDbEntity
  8
NOTE
  6
CONTINUOUS
 62
     4
100
AcDbLine
 10
698.997826
 20
539.937793
 30
0.0
 11
673.158577
 21
517.251169
 31
0.0
  0
LINE
  5
3B4
100
AcDbEntity
  8
DETAIL
  6
CONTINUOUS
 62
     5
100
AcDbLine
 10
698.997826
 20
594.137793
 30
0.0
 11
698.997826
 21
511.937793
 31
0.0
  0
LINE
  5
3B5
100
AcDbEntity
  8
DETAIL
  6
CONTINUOUS
 62
     5
100
AcDbLine
 10
698.997826
 20
594.137793
 30
0.0
 11
698.997826
 21
512.737793
 31
0.0
  0
LINE
  5
3B6
100
AcDbEntity
  8
DETAIL
  6
CONTINUOUS
 62
     5
100
AcDbLine
 10
698.997826
 20
512.237793
 30
0.0
 11
698.997826
 21
597.237793
 31
0.0
  0
LINE
  5
3B7
100
AcDbEntity
  8
DETAIL
  6
CONTINUOUS
 62
     5
100
AcDbLine
 10
713.997826
 20
523.937793
 30
0.0
 11
713.997826
 21
511.937793
 31
0.0
  0
LINE
  5
3B8
100
AcDbEntity
  8
DETAIL
  6
CONTINUOUS
 62
     5
100
AcDbLine
 10
713.997826
 20
523.937793
 30
0.0
 11
713.997826
 21
511.937793
 31
0.0
  0
LINE
  5
3B9
100
AcDbEntity
  8
NOTE
  6
CONTINUOUS
 62
     4
100
AcDbLine
 10
678.997826
 20
372.937793
 30
0.0
 11
577.690377
 21
372.937793
 31
0.0
  0
LINE
  5
3BA
100
AcDbEntity
  8
NOTE
  6
CONTINUOUS
 62
     4
100
AcDbLine
 10
678.997826
 20
392.937793
 30
0.0
 11
577.690377
 21
392.937793
 31
0.0
  0
LINE
  5
3BB
100
AcDbEntity
  8
NOTE
  6
CONTINUOUS
 62
     4
100
AcDbLine
 10
598.732818
 20
372.937793
 30
0.0
 11
618.732818
 21
392.937793
 31
0.0
  0
LINE
  5
3BC
100
AcDbEntity
  8
NOTE
  6
CONTINUOUS
 62
     4
100
AcDbLine
 10
588.732818
 20
372.937793
 30
0.0
 11
608.732818
 21
392.937793
 31
0.0
  0
LINE
  5
3BD
100
AcDbEntity
  8
NOTE
  6
CONTINUOUS
 62
     4
100
AcDbLine
 10
593.732818
 20
372.937793
 30
0.0
 11
613.732818
 21
392.937793
 31
0.0
  0
POINT
  5
3BE
100
AcDbEntity
  8
DEFPOINTS
  6
CONTINUOUS
 62
     7
100
AcDbPoint
 10
678.997826
 20
372.937793
 30
0.0
  0
POINT
  5
3BF
100
AcDbEntity
  8
DEFPOINTS
  6
CONTINUOUS
 62
     7
100
AcDbPoint
 10
678.997826
 20
372.937793
 30
0.0
  0
LINE
  5
3C0
100
AcDbEntity
  8
OUTLINE
  6
CONTINUOUS
 62
     3
100
AcDbLine
 10
698.997826
 20
371.937793
 30
0.0
 11
698.997826
 21
418.937793
 31
0.0
  0
LINE
  5
3C1
100
AcDbEntity
  8
OUTLINE
  6
CONTINUOUS
 62
     3
100
AcDbLine
 10
698.997826
 20
371.937793
 30
0.0
 11
693.997826
 21
371.937793
 31
0.0
  0
POINT
  5
3C2
100
AcDbEntity
  8
DEFPOINTS
  6
CONTINUOUS
 62
     7
100
AcDbPoint
 10
682.997826
 20
430.707302
 30
0.0
  0
POINT
  5
3C3
100
AcDbEntity
  8
DEFPOINTS
  6
CONTINUOUS
 62
     7
100
AcDbPoint
 10
678.997826
 20
392.937793
 30
0.0
  0
LINE
  5
3C4
100
AcDbEntity
  8
SIZE
  6
CONTINUOUS
 62
    30
100
AcDbLine
 10
687.997826
 20
430.707302
 30
0.0
 11
692.997826
 21
430.707302
 31
0.0
  0
CIRCLE
  5
3C5
100
AcDbEntity
  8
SIZE
  6
CONTINUOUS
 62
    30
100
AcDbCircle
 10
682.997826
 20
430.707302
 30
0.0
 40
5.0
  0
LINE
  5
3C6
100
AcDbEntity
  8
SIZE
  6
CONTINUOUS
 62
    30
100
AcDbLine
 10
673.997826
 20
430.707302
 30
0.0
 11
668.997826
 21
430.707302
 31
0.0
  0
CIRCLE
  5
3C7
100
AcDbEntity
  8
SIZE
  6
CONTINUOUS
 62
    30
100
AcDbCircle
 10
678.997826
 20
430.707302
 30
0.0
 40
5.0
  0
LINE
  5
3C8
100
AcDbEntity
  8
SIZE
  6
CONTINUOUS
 62
    30
100
AcDbLine
 10
678.997826
 20
430.707302
 30
0.0
 11
682.997826
 21
430.707302
 31
0.0
  0
LINE
  5
3C9
100
AcDbEntity
  8
SIZE
  6
CONTINUOUS
 62
    30
100
AcDbLine
 10
668.997826
 20
430.707302
 30
0.0
 11
658.997826
 21
430.707302
 31
0.0
  0
LINE
  5
3CA
100
AcDbEntity
  8
SIZE
  6
CONTINUOUS
 62
    30
100
AcDbLine
 10
678.997826
 20
412.937793
 30
0.0
 11
678.997826
 21
460.707302
 31
0.0
  0
LINE
  5
3CB
100
AcDbEntity
  8
NOTE
  6
CONTINUOUS
 62
     4
100
AcDbLine
 10
678.997826
 20
372.937793
 30
0.0
 11
678.997826
 21
392.937793
 31
0.0
  0
LINE
  5
3CC
100
AcDbEntity
  8
NOTE
  6
CONTINUOUS
 62
     4
100
AcDbLine
 10
628.732818
 20
372.937793
 30
0.0
 11
648.732818
 21
392.937793
 31
0.0
  0
LINE
  5
3CD
100
AcDbEntity
  8
NOTE
  6
CONTINUOUS
 62
     4
100
AcDbLine
 10
633.732818
 20
372.937793
 30
0.0
 11
653.732818
 21
392.937793
 31
0.0
  0
LINE
  5
3CE
100
AcDbEntity
  8
NOTE
  6
CONTINUOUS
 62
     4
100
AcDbLine
 10
638.732818
 20
372.937793
 30
0.0
 11
658.732818
 21
392.937793
 31
0.0
  0
LINE
  5
3CF
100
AcDbEntity
  8
DETAIL
  6
CONTINUOUS
 62
     5
100
AcDbLine
 10
698.997826
 20
371.937793
 30
0.0
 11
698.997826
 21
418.937793
 31
0.0
  0
LINE
  5
3D0
100
AcDbEntity
  8
DETAIL
  6
CONTINUOUS
 62
     5
100
AcDbLine
 10
698.997826
 20
371.937793
 30
0.0
 11
693.997826
 21
371.937793
 31
0.0
  0
POINT
  5
3D1
100
AcDbEntity
  8
DEFPOINTS
  6
CONTINUOUS
 62
     7
100
AcDbPoint
 10
662.997826
 20
616.187793
 30
0.0
  0
POINT
  5
3D2
100
AcDbEntity
  8
DEFPOINTS
  6
CONTINUOUS
 62
     7
100
AcDbPoint
 10
659.997826
 20
632.937793
 30
0.0
  0
LINE
  5
3D3
100
AcDbEntity
  8
NOTE
  6
CONTINUOUS
 62
     4
100
AcDbLine
 10
665.497826
 20
632.937793
 30
0.0
 11
654.497826
 21
632.937793
 31
0.0
  0
LINE
  5
3D4
100
AcDbEntity
  8
NOTE
  6
CONTINUOUS
 62
     4
100
AcDbLine
 10
659.997826
 20
638.437785
 30
0.0
 11
659.997826
 21
627.437801
 31
0.0
  0
LINE
  5
3D5
100
AcDbEntity
  8
NOTE
  6
CONTINUOUS
 62
     4
100
AcDbLine
 10
659.997826
 20
632.937793
 30
0.0
 11
636.982762
 21
658.484936
 31
0.0
  0
LINE
  5
3D6
100
AcDbEntity
  8
NOTE
  6
CONTINUOUS
 62
     4
100
AcDbLine
 10
659.997826
 20
632.937793
 30
0.0
 11
652.839768
 21
666.5698
 31
0.0
  0
LINE
  5
3D7
100
AcDbEntity
  8
DETAIL
  6
CONTINUOUS
 62
     5
100
AcDbLine
 10
678.988677
 20
627.437793
 30
0.0
 11
698.988677
 21
627.437793
 31
0.0
  0
LINE
  5
3D8
100
AcDbEntity
  8
DETAIL
  6
CONTINUOUS
 62
     5
100
AcDbLine
 10
679.988677
 20
623.437793
 30
0.0
 11
698.988677
 21
623.437793
 31
0.0
  0
LINE
  5
3D9
100
AcDbEntity
  8
DETAIL
  6
CONTINUOUS
 62
     5
100
AcDbLine
 10
679.988677
 20
642.437793
 30
0.0
 11
698.988677
 21
642.437793
 31
0.0
  0
LINE
  5
3DA
100
AcDbEntity
  8
DETAIL
  6
CONTINUOUS
 62
     5
100
AcDbLine
 10
678.988677
 20
638.437793
 30
0.0
 11
698.988677
 21
638.437793
 31
0.0
  0
LINE
  5
3DB
100
AcDbEntity
  8
DETAIL
  6
CONTINUOUS
 62
     5
100
AcDbLine
 10
662.988677
 20
622.437793
 30
0.0
 11
675.988677
 21
622.437793
 31
0.0
  0
LINE
  5
3DC
100
AcDbEntity
  8
DETAIL
  6
CONTINUOUS
 62
     5
100
AcDbLine
 10
663.988677
 20
627.437793
 30
0.0
 11
676.988677
 21
627.437793
 31
0.0
  0
LINE
  5
3DD
100
AcDbEntity
  8
DETAIL
  6
CONTINUOUS
 62
     5
100
AcDbLine
 10
676.988677
 20
623.437793
 30
0.0
 11
675.988677
 21
622.437793
 31
0.0
  0
LINE
  5
3DE
100
AcDbEntity
  8
DETAIL
  6
CONTINUOUS
 62
     5
100
AcDbLine
 10
678.988677
 20
624.437793
 30
0.0
 11
679.988677
 21
623.437793
 31
0.0
  0
LINE
  5
3DF
100
AcDbEntity
  8
DETAIL
  6
CONTINUOUS
 62
     5
100
AcDbLine
 10
663.988677
 20
627.437793
 30
0.0
 11
662.988677
 21
628.437793
 31
0.0
  0
LINE
  5
3E0
100
AcDbEntity
  8
DETAIL
  6
CONTINUOUS
 62
     5
100
AcDbLine
 10
663.988677
 20
627.437793
 30
0.0
 11
662.988677
 21
626.437793
 31
0.0
  0
LINE
  5
3E1
100
AcDbEntity
  8
DETAIL
  6
CONTINUOUS
 62
     5
100
AcDbLine
 10
676.988677
 20
628.187793
 30
0.0
 11
678.988677
 21
628.187793
 31
0.0
  0
LINE
  5
3E2
100
AcDbEntity
  8
DETAIL
  6
CONTINUOUS
 62
     5
100
AcDbLine
 10
678.988677
 20
624.437793
 30
0.0
 11
678.988677
 21
641.437793
 31
0.0
  0
LINE
  5
3E3
100
AcDbEntity
  8
DETAIL
  6
CONTINUOUS
 62
     5
100
AcDbLine
 10
676.988677
 20
623.437793
 30
0.0
 11
676.988677
 21
642.437793
 31
0.0
  0
LINE
  5
3E4
100
AcDbEntity
  8
DETAIL
  6
CONTINUOUS
 62
     5
100
AcDbLine
 10
662.988677
 20
643.437793
 30
0.0
 11
675.988677
 21
643.437793
 31
0.0
  0
LINE
  5
3E5
100
AcDbEntity
  8
DETAIL
  6
CONTINUOUS
 62
     5
100
AcDbLine
 10
662.988677
 20
622.437793
 30
0.0
 11
662.988677
 21
643.437793
 31
0.0
  0
LINE
  5
3E6
100
AcDbEntity
  8
DETAIL
  6
CONTINUOUS
 62
     5
100
AcDbLine
 10
663.988677
 20
638.437793
 30
0.0
 11
676.988677
 21
638.437793
 31
0.0
  0
LINE
  5
3E7
100
AcDbEntity
  8
DETAIL
  6
CONTINUOUS
 62
     5
100
AcDbLine
 10
675.988677
 20
643.437793
 30
0.0
 11
676.988677
 21
642.437793
 31
0.0
  0
LINE
  5
3E8
100
AcDbEntity
  8
DETAIL
  6
CONTINUOUS
 62
     5
100
AcDbLine
 10
678.988677
 20
641.437793
 30
0.0
 11
679.988677
 21
642.437793
 31
0.0
  0
LINE
  5
3E9
100
AcDbEntity
  8
DETAIL
  6
CONTINUOUS
 62
     5
100
AcDbLine
 10
663.988677
 20
638.437793
 30
0.0
 11
662.988677
 21
639.437793
 31
0.0
  0
LINE
  5
3EA
100
AcDbEntity
  8
DETAIL
  6
CONTINUOUS
 62
     5
100
AcDbLine
 10
663.988677
 20
638.437793
 30
0.0
 11
662.988677
 21
637.437793
 31
0.0
  0
LINE
  5
3EB
100
AcDbEntity
  8
DETAIL
  6
CONTINUOUS
 62
     5
100
AcDbLine
 10
676.988677
 20
637.687793
 30
0.0
 11
678.988677
 21
637.687793
 31
0.0
  0
LINE
  5
3EC
100
AcDbEntity
  8
DETAIL
  6
CONTINUOUS
 62
     5
100
AcDbLine
 10
678.988677
 20
638.437793
 30
0.0
 11
695.997826
 21
638.437793
 31
0.0
  0
LINE
  5
3ED
100
AcDbEntity
  8
DETAIL
  6
CONTINUOUS
 62
     5
100
AcDbLine
 10
679.988677
 20
642.437793
 30
0.0
 11
695.997826
 21
642.437793
 31
0.0
  0
LINE
  5
3EE
100
AcDbEntity
  8
DETAIL
  6
CONTINUOUS
 62
     5
100
AcDbLine
 10
679.988677
 20
623.437793
 30
0.0
 11
695.997826
 21
623.437793
 31
0.0
  0
LINE
  5
3EF
100
AcDbEntity
  8
DETAIL
  6
CONTINUOUS
 62
     5
100
AcDbLine
 10
662.988677
 20
622.437793
 30
0.0
 11
675.988677
 21
622.437793
 31
0.0
  0
LINE
  5
3F0
100
AcDbEntity
  8
DETAIL
  6
CONTINUOUS
 62
     5
100
AcDbLine
 10
678.988677
 20
627.437793
 30
0.0
 11
695.997826
 21
627.437793
 31
0.0
  0
LINE
  5
3F1
100
AcDbEntity
  8
DETAIL
  6
CONTINUOUS
 62
     5
100
AcDbLine
 10
663.988677
 20
627.437793
 30
0.0
 11
676.988677
 21
627.437793
 31
0.0
  0
LINE
  5
3F2
100
AcDbEntity
  8
DETAIL
  6
CONTINUOUS
 62
     5
100
AcDbLine
 10
659.997826
 20
627.437793
 30
0.0
 11
659.997826
 21
638.437793
 31
0.0
  0
LINE
  5
3F3
100
AcDbEntity
  8
DETAIL
  6
CONTINUOUS
 62
     5
100
AcDbLine
 10
659.997826
 20
627.437793
 30
0.0
 11
662.988677
 21
622.437793
 31
0.0
  0
LINE
  5
3F4
100
AcDbEntity
  8
DETAIL
  6
CONTINUOUS
 62
     5
100
AcDbLine
 10
676.988677
 20
623.437793
 30
0.0
 11
675.988677
 21
622.437793
 31
0.0
  0
LINE
  5
3F5
100
AcDbEntity
  8
DETAIL
  6
CONTINUOUS
 62
     5
100
AcDbLine
 10
678.988677
 20
624.437793
 30
0.0
 11
679.988677
 21
623.437793
 31
0.0
  0
LINE
  5
3F6
100
AcDbEntity
  8
DETAIL
  6
CONTINUOUS
 62
     5
100
AcDbLine
 10
663.988677
 20
627.437793
 30
0.0
 11
662.988677
 21
628.437793
 31
0.0
  0
LINE
  5
3F7
100
AcDbEntity
  8
DETAIL
  6
CONTINUOUS
 62
     5
100
AcDbLine
 10
663.988677
 20
627.437793
 30
0.0
 11
662.988677
 21
626.437793
 31
0.0
  0
LINE
  5
3F8
100
AcDbEntity
  8
DETAIL
  6
CONTINUOUS
 62
     5
100
AcDbLine
 10
676.988677
 20
628.187793
 30
0.0
 11
678.988677
 21
628.187793
 31
0.0
  0
LINE
  5
3F9
100
AcDbEntity
  8
DETAIL
  6
CONTINUOUS
 62
     5
100
AcDbLine
 10
678.988677
 20
624.437793
 30
0.0
 11
678.988677
 21
641.437793
 31
0.0
  0
LINE
  5
3FA
100
AcDbEntity
  8
DETAIL
  6
CONTINUOUS
 62
     5
100
AcDbLine
 10
676.988677
 20
623.437793
 30
0.0
 11
676.988677
 21
642.437793
 31
0.0
  0
LINE
  5
3FB
100
AcDbEntity
  8
DETAIL
  6
CONTINUOUS
 62
     5
100
AcDbLine
 10
662.988677
 20
643.437793
 30
0.0
 11
675.988677
 21
643.437793
 31
0.0
  0
LINE
  5
3FC
100
AcDbEntity
  8
DETAIL
  6
CONTINUOUS
 62
     5
100
AcDbLine
 10
662.988677
 20
622.437793
 30
0.0
 11
662.988677
 21
643.437793
 31
0.0
  0
LINE
  5
3FD
100
AcDbEntity
  8
DETAIL
  6
CONTINUOUS
 62
     5
100
AcDbLine
 10
663.988677
 20
638.437793
 30
0.0
 11
676.988677
 21
638.437793
 31
0.0
  0
LINE
  5
3FE
100
AcDbEntity
  8
DETAIL
  6
CONTINUOUS
 62
     5
100
AcDbLine
 10
659.997826
 20
638.437793
 30
0.0
 11
662.988677
 21
643.437793
 31
0.0
  0
LINE
  5
3FF
100
AcDbEntity
  8
DETAIL
  6
CONTINUOUS
 62
     5
100
AcDbLine
 10
675.988677
 20
643.437793
 30
0.0
 11
676.988677
 21
642.437793
 31
0.0
  0
LINE
  5
400
100
AcDbEntity
  8
DETAIL
  6
CONTINUOUS
 62
     5
100
AcDbLine
 10
678.988677
 20
641.437793
 30
0.0
 11
679.988677
 21
642.437793
 31
0.0
  0
LINE
  5
401
100
AcDbEntity
  8
DETAIL
  6
CONTINUOUS
 62
     5
100
AcDbLine
 10
663.988677
 20
638.437793
 30
0.0
 11
662.988677
 21
639.437793
 31
0.0
  0
LINE
  5
402
100
AcDbEntity
  8
DETAIL
  6
CONTINUOUS
 62
     5
100
AcDbLine
 10
663.988677
 20
638.437793
 30
0.0
 11
662.988677
 21
637.437793
 31
0.0
  0
LINE
  5
403
100
AcDbEntity
  8
DETAIL
  6
CONTINUOUS
 62
     5
100
AcDbLine
 10
676.988677
 20
637.687793
 30
0.0
 11
678.988677
 21
637.687793
 31
0.0
  0
POINT
  5
404
100
AcDbEntity
  8
DEFPOINTS
  6
CONTINUOUS
 62
     7
100
AcDbPoint
 10
693.506975
 20
539.937793
 30
0.0
  0
POINT
  5
405
100
AcDbEntity
  8
DEFPOINTS
  6
CONTINUOUS
 62
     7
100
AcDbPoint
 10
651.738677
 20
604.937793
 30
0.0
  0
POINT
  5
406
100
AcDbEntity
  8
DEFPOINTS
  6
CONTINUOUS
 62
     7
100
AcDbPoint
 10
654.497826
 20
632.937793
 30
0.0
  0
POINT
  5
407
100
AcDbEntity
  8
DEFPOINTS
  6
CONTINUOUS
 62
     7
100
AcDbPoint
 10
654.497826
 20
632.937793
 30
0.0
  0
LINE
  5
408
100
AcDbEntity
  8
NOTE
  6
CONTINUOUS
 62
     4
100
AcDbLine
 10
704.506975
 20
539.937793
 30
0.0
 11
693.506975
 21
539.937793
 31
0.0
  0
LINE
  5
409
100
AcDbEntity
  8
NOTE
  6
CONTINUOUS
 62
     4
100
AcDbLine
 10
698.997826
 20
545.437785
 30
0.0
 11
698.997826
 21
534.437801
 31
0.0
  0
LINE
  5
40A
100
AcDbEntity
  8
NOTE
  6
CONTINUOUS
 62
     4
100
AcDbLine
 10
674.238677
 20
604.937793
 30
0.0
 11
651.738677
 21
604.937793
 31
0.0
  0
LINE
  5
40B
100
AcDbEntity
  8
NOTE
  6
CONTINUOUS
 62
     4
100
AcDbLine
 10
662.997826
 20
616.187789
 30
0.0
 11
662.997826
 21
593.687797
 31
0.0
  0
LINE
  5
40C
100
AcDbEntity
  8
NOTE
  6
CONTINUOUS
 62
     4
100
AcDbLine
 10
662.997826
 20
604.937793
 30
0.0
 11
648.592205
 21
573.715561
 31
0.0
  0
LINE
  5
40D
100
AcDbEntity
  8
NOTE
  6
CONTINUOUS
 62
     4
100
AcDbLine
 10
662.997826
 20
604.937793
 30
0.0
 11
634.911076
 21
585.101358
 31
0.0
  0
LINE
  5
40E
100
AcDbEntity
  8
DETAIL
  6
CONTINUOUS
 62
     5
100
AcDbLine
 10
662.997826
 20
616.187793
 30
0.0
 11
662.997826
 21
593.687793
 31
0.0
  0
LINE
  5
40F
100
AcDbEntity
  8
DETAIL
  6
CONTINUOUS
 62
     5
100
AcDbLine
 10
698.997826
 20
593.437793
 30
0.0
 11
687.988677
 21
593.437793
 31
0.0
  0
LINE
  5
410
100
AcDbEntity
  8
DETAIL
  6
CONTINUOUS
 62
     5
100
AcDbLine
 10
698.988677
 20
616.437793
 30
0.0
 11
687.988677
 21
616.437793
 31
0.0
  0
LINE
  5
411
100
AcDbEntity
  8
DETAIL
  6
CONTINUOUS
 62
     5
100
AcDbLine
 10
667.988677
 20
597.937793
 30
0.0
 11
665.988677
 21
595.937793
 31
0.0
  0
LINE
  5
412
100
AcDbEntity
  8
DETAIL
  6
CONTINUOUS
 62
     5
100
AcDbLine
 10
667.988677
 20
597.937793
 30
0.0
 11
665.988677
 21
595.937793
 31
0.0
  0
LINE
  5
413
100
AcDbEntity
  8
DETAIL
  6
CONTINUOUS
 62
     5
100
AcDbLine
 10
667.988677
 20
597.937793
 30
0.0
 11
665.988677
 21
599.937793
 31
0.0
  0
LINE
  5
414
100
AcDbEntity
  8
DETAIL
  6
CONTINUOUS
 62
     5
100
AcDbLine
 10
667.988677
 20
597.937793
 30
0.0
 11
665.988677
 21
599.937793
 31
0.0
  0
LINE
  5
415
100
AcDbEntity
  8
DETAIL
  6
CONTINUOUS
 62
     5
100
AcDbLine
 10
667.988677
 20
611.937793
 30
0.0
 11
665.988677
 21
609.937793
 31
0.0
  0
LINE
  5
416
100
AcDbEntity
  8
DETAIL
  6
CONTINUOUS
 62
     5
100
AcDbLine
 10
667.988677
 20
611.937793
 30
0.0
 11
665.988677
 21
609.937793
 31
0.0
  0
LINE
  5
417
100
AcDbEntity
  8
DETAIL
  6
CONTINUOUS
 62
     5
100
AcDbLine
 10
667.988677
 20
611.937793
 30
0.0
 11
665.988677
 21
613.937793
 31
0.0
  0
LINE
  5
418
100
AcDbEntity
  8
DETAIL
  6
CONTINUOUS
 62
     5
100
AcDbLine
 10
667.988677
 20
611.937793
 30
0.0
 11
665.988677
 21
613.937793
 31
0.0
  0
LINE
  5
419
100
AcDbEntity
  8
DETAIL
  6
CONTINUOUS
 62
     5
100
AcDbLine
 10
679.988677
 20
611.937793
 30
0.0
 11
681.988677
 21
613.937793
 31
0.0
  0
LINE
  5
41A
100
AcDbEntity
  8
DETAIL
  6
CONTINUOUS
 62
     5
100
AcDbLine
 10
679.988677
 20
611.937793
 30
0.0
 11
681.988677
 21
613.937793
 31
0.0
  0
LINE
  5
41B
100
AcDbEntity
  8
DETAIL
  6
CONTINUOUS
 62
     5
100
AcDbLine
 10
679.988677
 20
611.937793
 30
0.0
 11
681.988677
 21
609.937793
 31
0.0
  0
LINE
  5
41C
100
AcDbEntity
  8
DETAIL
  6
CONTINUOUS
 62
     5
100
AcDbLine
 10
679.988677
 20
611.937793
 30
0.0
 11
681.988677
 21
609.937793
 31
0.0
  0
LINE
  5
41D
100
AcDbEntity
  8
DETAIL
  6
CONTINUOUS
 62
     5
100
AcDbLine
 10
679.988677
 20
597.937793
 30
0.0
 11
681.988677
 21
599.937793
 31
0.0
  0
LINE
  5
41E
100
AcDbEntity
  8
DETAIL
  6
CONTINUOUS
 62
     5
100
AcDbLine
 10
679.988677
 20
597.937793
 30
0.0
 11
681.988677
 21
599.937793
 31
0.0
  0
LINE
  5
41F
100
AcDbEntity
  8
DETAIL
  6
CONTINUOUS
 62
     5
100
AcDbLine
 10
679.988677
 20
597.937793
 30
0.0
 11
681.988677
 21
595.937793
 31
0.0
  0
LINE
  5
420
100
AcDbEntity
  8
DETAIL
  6
CONTINUOUS
 62
     5
100
AcDbLine
 10
679.988677
 20
597.937793
 30
0.0
 11
681.988677
 21
595.937793
 31
0.0
  0
LINE
  5
421
100
AcDbEntity
  8
DETAIL
  6
CONTINUOUS
 62
     5
100
AcDbLine
 10
679.988677
 20
597.937793
 30
0.0
 11
667.988677
 21
597.937793
 31
0.0
  0
LINE
  5
422
100
AcDbEntity
  8
DETAIL
  6
CONTINUOUS
 62
     5
100
AcDbLine
 10
679.988677
 20
597.937793
 30
0.0
 11
667.988677
 21
597.937793
 31
0.0
  0
LINE
  5
423
100
AcDbEntity
  8
DETAIL
  6
CONTINUOUS
 62
     5
100
AcDbLine
 10
679.988677
 20
611.937793
 30
0.0
 11
667.988677
 21
611.937793
 31
0.0
  0
LINE
  5
424
100
AcDbEntity
  8
DETAIL
  6
CONTINUOUS
 62
     5
100
AcDbLine
 10
679.988677
 20
611.937793
 30
0.0
 11
667.988677
 21
611.937793
 31
0.0
  0
LINE
  5
425
100
AcDbEntity
  8
DETAIL
  6
CONTINUOUS
 62
     5
100
AcDbLine
 10
681.988677
 20
593.937793
 30
0.0
 11
679.988677
 21
591.937793
 31
0.0
  0
LINE
  5
426
100
AcDbEntity
  8
DETAIL
  6
CONTINUOUS
 62
     5
100
AcDbLine
 10
681.988677
 20
593.937793
 30
0.0
 11
679.988677
 21
591.937793
 31
0.0
  0
LINE
  5
427
100
AcDbEntity
  8
DETAIL
  6
CONTINUOUS
 62
     5
100
AcDbLine
 10
681.988677
 20
615.937793
 30
0.0
 11
679.988677
 21
617.937793
 31
0.0
  0
LINE
  5
428
100
AcDbEntity
  8
DETAIL
  6
CONTINUOUS
 62
     5
100
AcDbLine
 10
681.988677
 20
615.937793
 30
0.0
 11
679.988677
 21
617.937793
 31
0.0
  0
LINE
  5
429
100
AcDbEntity
  8
DETAIL
  6
CONTINUOUS
 62
     5
100
AcDbLine
 10
662.997826
 20
593.687793
 30
0.0
 11
665.988677
 21
591.937793
 31
0.0
  0
LINE
  5
42A
100
AcDbEntity
  8
DETAIL
  6
CONTINUOUS
 62
     5
100
AcDbLine
 10
665.988677
 20
617.937793
 30
0.0
 11
662.997826
 21
616.187789
 31
0.0
  0
LINE
  5
42B
100
AcDbEntity
  8
DETAIL
  6
CONTINUOUS
 62
     5
100
AcDbLine
 10
665.988677
 20
617.937793
 30
0.0
 11
665.988677
 21
591.937793
 31
0.0
  0
LINE
  5
42C
100
AcDbEntity
  8
DETAIL
  6
CONTINUOUS
 62
     5
100
AcDbLine
 10
665.988677
 20
617.937793
 30
0.0
 11
665.988677
 21
591.937793
 31
0.0
  0
LINE
  5
42D
100
AcDbEntity
  8
DETAIL
  6
CONTINUOUS
 62
     5
100
AcDbLine
 10
681.988677
 20
615.937793
 30
0.0
 11
681.988677
 21
593.937793
 31
0.0
  0
LINE
  5
42E
100
AcDbEntity
  8
DETAIL
  6
CONTINUOUS
 62
     5
100
AcDbLine
 10
681.988677
 20
615.937793
 30
0.0
 11
681.988677
 21
593.937793
 31
0.0
  0
LINE
  5
42F
100
AcDbEntity
  8
DETAIL
  6
CONTINUOUS
 62
     5
100
AcDbLine
 10
679.988677
 20
591.937793
 30
0.0
 11
665.988677
 21
591.937793
 31
0.0
  0
LINE
  5
430
100
AcDbEntity
  8
DETAIL
  6
CONTINUOUS
 62
     5
100
AcDbLine
 10
679.988677
 20
591.937793
 30
0.0
 11
665.988677
 21
591.937793
 31
0.0
  0
LINE
  5
431
100
AcDbEntity
  8
DETAIL
  6
CONTINUOUS
 62
     5
100
AcDbLine
 10
679.988677
 20
617.937793
 30
0.0
 11
665.988677
 21
617.937793
 31
0.0
  0
LINE
  5
432
100
AcDbEntity
  8
DETAIL
  6
CONTINUOUS
 62
     5
100
AcDbLine
 10
679.988677
 20
617.937793
 30
0.0
 11
665.988677
 21
617.937793
 31
0.0
  0
LINE
  5
433
100
AcDbEntity
  8
DETAIL
  6
CONTINUOUS
 62
     5
100
AcDbLine
 10
681.988677
 20
612.937793
 30
0.0
 11
681.988677
 21
596.937793
 31
0.0
  0
LINE
  5
434
100
AcDbEntity
  8
DETAIL
  6
CONTINUOUS
 62
     5
100
AcDbLine
 10
681.988677
 20
596.937793
 30
0.0
 11
685.988677
 21
596.937793
 31
0.0
  0
LINE
  5
435
100
AcDbEntity
  8
DETAIL
  6
CONTINUOUS
 62
     5
100
AcDbLine
 10
681.988677
 20
612.937793
 30
0.0
 11
685.988677
 21
612.937793
 31
0.0
  0
LINE
  5
436
100
AcDbEntity
  8
DETAIL
  6
CONTINUOUS
 62
     5
100
AcDbLine
 10
685.988677
 20
614.437793
 30
0.0
 11
687.988677
 21
616.437793
 31
0.0
  0
LINE
  5
437
100
AcDbEntity
  8
DETAIL
  6
CONTINUOUS
 62
     5
100
AcDbLine
 10
685.988677
 20
595.437793
 30
0.0
 11
687.988677
 21
593.437793
 31
0.0
  0
LINE
  5
438
100
AcDbEntity
  8
DETAIL
  6
CONTINUOUS
 62
     5
100
AcDbLine
 10
685.988677
 20
614.437793
 30
0.0
 11
685.988677
 21
595.437793
 31
0.0
  0
LINE
  5
439
100
AcDbEntity
  8
DETAIL
  6
CONTINUOUS
 62
     5
100
AcDbLine
 10
667.988677
 20
597.937793
 30
0.0
 11
665.988677
 21
595.937793
 31
0.0
  0
LINE
  5
43A
100
AcDbEntity
  8
DETAIL
  6
CONTINUOUS
 62
     5
100
AcDbLine
 10
667.988677
 20
597.937793
 30
0.0
 11
665.988677
 21
595.937793
 31
0.0
  0
LINE
  5
43B
100
AcDbEntity
  8
DETAIL
  6
CONTINUOUS
 62
     5
100
AcDbLine
 10
667.988677
 20
597.937793
 30
0.0
 11
665.988677
 21
599.937793
 31
0.0
  0
LINE
  5
43C
100
AcDbEntity
  8
DETAIL
  6
CONTINUOUS
 62
     5
100
AcDbLine
 10
667.988677
 20
597.937793
 30
0.0
 11
665.988677
 21
599.937793
 31
0.0
  0
LINE
  5
43D
100
AcDbEntity
  8
DETAIL
  6
CONTINUOUS
 62
     5
100
AcDbLine
 10
667.988677
 20
611.937793
 30
0.0
 11
665.988677
 21
609.937793
 31
0.0
  0
LINE
  5
43E
100
AcDbEntity
  8
DETAIL
  6
CONTINUOUS
 62
     5
100
AcDbLine
 10
667.988677
 20
611.937793
 30
0.0
 11
665.988677
 21
609.937793
 31
0.0
  0
LINE
  5
43F
100
AcDbEntity
  8
DETAIL
  6
CONTINUOUS
 62
     5
100
AcDbLine
 10
667.988677
 20
611.937793
 30
0.0
 11
665.988677
 21
613.937793
 31
0.0
  0
LINE
  5
440
100
AcDbEntity
  8
DETAIL
  6
CONTINUOUS
 62
     5
100
AcDbLine
 10
667.988677
 20
611.937793
 30
0.0
 11
665.988677
 21
613.937793
 31
0.0
  0
LINE
  5
441
100
AcDbEntity
  8
DETAIL
  6
CONTINUOUS
 62
     5
100
AcDbLine
 10
679.988677
 20
611.937793
 30
0.0
 11
681.988677
 21
613.937793
 31
0.0
  0
LINE
  5
442
100
AcDbEntity
  8
DETAIL
  6
CONTINUOUS
 62
     5
100
AcDbLine
 10
679.988677
 20
611.937793
 30
0.0
 11
681.988677
 21
613.937793
 31
0.0
  0
LINE
  5
443
100
AcDbEntity
  8
DETAIL
  6
CONTINUOUS
 62
     5
100
AcDbLine
 10
679.988677
 20
611.937793
 30
0.0
 11
681.988677
 21
609.937793
 31
0.0
  0
LINE
  5
444
100
AcDbEntity
  8
DETAIL
  6
CONTINUOUS
 62
     5
100
AcDbLine
 10
679.988677
 20
611.937793
 30
0.0
 11
681.988677
 21
609.937793
 31
0.0
  0
LINE
  5
445
100
AcDbEntity
  8
DETAIL
  6
CONTINUOUS
 62
     5
100
AcDbLine
 10
679.988677
 20
597.937793
 30
0.0
 11
681.988677
 21
599.937793
 31
0.0
  0
LINE
  5
446
100
AcDbEntity
  8
DETAIL
  6
CONTINUOUS
 62
     5
100
AcDbLine
 10
679.988677
 20
597.937793
 30
0.0
 11
681.988677
 21
599.937793
 31
0.0
  0
LINE
  5
447
100
AcDbEntity
  8
DETAIL
  6
CONTINUOUS
 62
     5
100
AcDbLine
 10
679.988677
 20
597.937793
 30
0.0
 11
681.988677
 21
595.937793
 31
0.0
  0
LINE
  5
448
100
AcDbEntity
  8
DETAIL
  6
CONTINUOUS
 62
     5
100
AcDbLine
 10
679.988677
 20
597.937793
 30
0.0
 11
681.988677
 21
595.937793
 31
0.0
  0
LINE
  5
449
100
AcDbEntity
  8
DETAIL
  6
CONTINUOUS
 62
     5
100
AcDbLine
 10
679.988677
 20
597.937793
 30
0.0
 11
667.988677
 21
597.937793
 31
0.0
  0
LINE
  5
44A
100
AcDbEntity
  8
DETAIL
  6
CONTINUOUS
 62
     5
100
AcDbLine
 10
679.988677
 20
597.937793
 30
0.0
 11
667.988677
 21
597.937793
 31
0.0
  0
LINE
  5
44B
100
AcDbEntity
  8
DETAIL
  6
CONTINUOUS
 62
     5
100
AcDbLine
 10
679.988677
 20
611.937793
 30
0.0
 11
667.988677
 21
611.937793
 31
0.0
  0
LINE
  5
44C
100
AcDbEntity
  8
DETAIL
  6
CONTINUOUS
 62
     5
100
AcDbLine
 10
679.988677
 20
611.937793
 30
0.0
 11
667.988677
 21
611.937793
 31
0.0
  0
LINE
  5
44D
100
AcDbEntity
  8
DETAIL
  6
CONTINUOUS
 62
     5
100
AcDbLine
 10
681.988677
 20
593.937793
 30
0.0
 11
679.988677
 21
591.937793
 31
0.0
  0
LINE
  5
44E
100
AcDbEntity
  8
DETAIL
  6
CONTINUOUS
 62
     5
100
AcDbLine
 10
681.988677
 20
593.937793
 30
0.0
 11
679.988677
 21
591.937793
 31
0.0
  0
LINE
  5
44F
100
AcDbEntity
  8
DETAIL
  6
CONTINUOUS
 62
     5
100
AcDbLine
 10
681.988677
 20
615.937793
 30
0.0
 11
679.988677
 21
617.937793
 31
0.0
  0
LINE
  5
450
100
AcDbEntity
  8
DETAIL
  6
CONTINUOUS
 62
     5
100
AcDbLine
 10
681.988677
 20
615.937793
 30
0.0
 11
679.988677
 21
617.937793
 31
0.0
  0
LINE
  5
451
100
AcDbEntity
  8
DETAIL
  6
CONTINUOUS
 62
     5
100
AcDbLine
 10
665.988677
 20
617.937793
 30
0.0
 11
665.988677
 21
591.937793
 31
0.0
  0
LINE
  5
452
100
AcDbEntity
  8
DETAIL
  6
CONTINUOUS
 62
     5
100
AcDbLine
 10
665.988677
 20
617.937793
 30
0.0
 11
665.988677
 21
591.937793
 31
0.0
  0
LINE
  5
453
100
AcDbEntity
  8
DETAIL
  6
CONTINUOUS
 62
     5
100
AcDbLine
 10
681.988677
 20
615.937793
 30
0.0
 11
681.988677
 21
593.937793
 31
0.0
  0
LINE
  5
454
100
AcDbEntity
  8
DETAIL
  6
CONTINUOUS
 62
     5
100
AcDbLine
 10
681.988677
 20
615.937793
 30
0.0
 11
681.988677
 21
593.937793
 31
0.0
  0
LINE
  5
455
100
AcDbEntity
  8
DETAIL
  6
CONTINUOUS
 62
     5
100
AcDbLine
 10
679.988677
 20
591.937793
 30
0.0
 11
665.988677
 21
591.937793
 31
0.0
  0
LINE
  5
456
100
AcDbEntity
  8
DETAIL
  6
CONTINUOUS
 62
     5
100
AcDbLine
 10
679.988677
 20
591.937793
 30
0.0
 11
665.988677
 21
591.937793
 31
0.0
  0
LINE
  5
457
100
AcDbEntity
  8
DETAIL
  6
CONTINUOUS
 62
     5
100
AcDbLine
 10
679.988677
 20
617.937793
 30
0.0
 11
665.988677
 21
617.937793
 31
0.0
  0
LINE
  5
458
100
AcDbEntity
  8
DETAIL
  6
CONTINUOUS
 62
     5
100
AcDbLine
 10
679.988677
 20
617.937793
 30
0.0
 11
665.988677
 21
617.937793
 31
0.0
  0
LINE
  5
459
100
AcDbEntity
  8
DETAIL
  6
CONTINUOUS
 62
     5
100
AcDbLine
 10
681.988677
 20
612.937793
 30
0.0
 11
681.988677
 21
596.937793
 31
0.0
  0
LINE
  5
45A
100
AcDbEntity
  8
DETAIL
  6
CONTINUOUS
 62
     5
100
AcDbLine
 10
681.988677
 20
596.937793
 30
0.0
 11
685.988677
 21
596.937793
 31
0.0
  0
LINE
  5
45B
100
AcDbEntity
  8
DETAIL
  6
CONTINUOUS
 62
     5
100
AcDbLine
 10
681.988677
 20
612.937793
 30
0.0
 11
685.988677
 21
612.937793
 31
0.0
  0
LINE
  5
45C
100
AcDbEntity
  8
DETAIL
  6
CONTINUOUS
 62
     5
100
AcDbLine
 10
685.988677
 20
614.437793
 30
0.0
 11
687.988677
 21
616.437793
 31
0.0
  0
LINE
  5
45D
100
AcDbEntity
  8
DETAIL
  6
CONTINUOUS
 62
     5
100
AcDbLine
 10
685.988677
 20
595.437793
 30
0.0
 11
687.988677
 21
593.437793
 31
0.0
  0
LINE
  5
45E
100
AcDbEntity
  8
DETAIL
  6
CONTINUOUS
 62
     5
100
AcDbLine
 10
685.988677
 20
614.437793
 30
0.0
 11
685.988677
 21
595.437793
 31
0.0
  0
LINE
  5
45F
100
AcDbEntity
  8
DETAIL
  6
CONTINUOUS
 62
     5
100
AcDbLine
 10
698.988677
 20
616.437793
 30
0.0
 11
687.988677
 21
616.437793
 31
0.0
  0
LINE
  5
460
100
AcDbEntity
  8
DETAIL
  6
CONTINUOUS
 62
     5
100
AcDbLine
 10
698.988677
 20
593.437793
 30
0.0
 11
687.988677
 21
593.437793
 31
0.0
  0
ARC
  5
461
100
AcDbEntity
  8
DETAIL
  6
CONTINUOUS
 62
     5
100
AcDbCircle
 10
703.997826
 20
544.337793
 30
0.0
 40
5.0
100
AcDbArc
 50
180.0
 51
270.0
  0
LINE
  5
462
100
AcDbEntity
  8
DETAIL
  6
CONTINUOUS
 62
     5
100
AcDbLine
 10
716.997826
 20
526.937793
 30
0.0
 11
713.997826
 21
523.937793
 31
0.0
  0
LINE
  5
463
100
AcDbEntity
  8
DETAIL
  6
CONTINUOUS
 62
     5
100
AcDbLine
 10
716.997826
 20
526.937793
 30
0.0
 11
713.997826
 21
523.937793
 31
0.0
  0
LINE
  5
464
100
AcDbEntity
  8
DETAIL
  6
CONTINUOUS
 62
     5
100
AcDbLine
 10
730.997826
 20
600.337793
 30
0.0
 11
730.997826
 21
599.737793
 31
0.0
  0
ARC
  5
465
100
AcDbEntity
  8
DETAIL
  6
CONTINUOUS
 62
     5
100
AcDbCircle
 10
740.997826
 20
573.937793
 30
0.0
 40
10.0
100
AcDbArc
 50
180.0
 51
270.0
  0
LINE
  5
466
100
AcDbEntity
  8
SIZE
  6
CONTINUOUS
 62
    30
100
AcDbLine
 10
708.997826
 20
973.182878
 30
0.0
 11
832.78354
 21
973.182878
 31
0.0
  0
LINE
  5
467
100
AcDbEntity
  8
SIZE
  6
CONTINUOUS
 62
    30
100
AcDbLine
 10
708.997826
 20
887.582614
 30
0.0
 11
837.497826
 21
887.582614
 31
0.0
  0
LINE
  5
468
100
AcDbEntity
  8
DETAIL
  6
CONTINUOUS
 62
     5
100
AcDbLine
 10
701.997826
 20
775.537793
 30
0.0
 11
732.7129
 21
775.537793
 31
0.0
  0
LINE
  5
469
100
AcDbEntity
  8
SIZE
  6
CONTINUOUS
 62
    30
100
AcDbLine
 10
698.997826
 20
824.937793
 30
0.0
 11
698.997826
 21
917.582614
 31
0.0
  0
LINE
  5
46A
100
AcDbEntity
  8
SIZE
  6
CONTINUOUS
 62
    30
100
AcDbLine
 10
664.997826
 20
733.654445
 30
0.0
 11
664.997826
 21
917.582614
 31
0.0
  0
POINT
  5
46B
100
AcDbEntity
  8
DEFPOINTS
  6
CONTINUOUS
 62
     7
100
AcDbPoint
 10
698.997826
 20
804.937793
 30
0.0
  0
POINT
  5
46C
100
AcDbEntity
  8
DEFPOINTS
  6
CONTINUOUS
 62
     7
100
AcDbPoint
 10
705.997826
 20
819.932959
 30
0.0
  0
POINT
  5
46D
100
AcDbEntity
  8
DEFPOINTS
  6
CONTINUOUS
 62
     7
100
AcDbPoint
 10
705.997826
 20
819.932959
 30
0.0
  0
POINT
  5
46E
100
AcDbEntity
  8
DEFPOINTS
  6
CONTINUOUS
 62
     7
100
AcDbPoint
 10
682.997826
 20
800.637793
 30
0.0
  0
POINT
  5
46F
100
AcDbEntity
  8
DEFPOINTS
  6
CONTINUOUS
 62
     7
100
AcDbPoint
 10
698.997826
 20
804.937793
 30
0.0
  0
POINT
  5
470
100
AcDbEntity
  8
DEFPOINTS
  6
CONTINUOUS
 62
     7
100
AcDbPoint
 10
698.997826
 20
804.937793
 30
0.0
  0
POINT
  5
471
100
AcDbEntity
  8
DEFPOINTS
  6
CONTINUOUS
 62
     7
100
AcDbPoint
 10
682.997826
 20
800.637793
 30
0.0
  0
POINT
  5
472
100
AcDbEntity
  8
DEFPOINTS
  6
CONTINUOUS
 62
     7
100
AcDbPoint
 10
698.997826
 20
804.937793
 30
0.0
  0
POINT
  5
473
100
AcDbEntity
  8
DEFPOINTS
  6
CONTINUOUS
 62
     7
100
AcDbPoint
 10
698.997826
 20
804.937793
 30
0.0
  0
POINT
  5
474
100
AcDbEntity
  8
DEFPOINTS
  6
CONTINUOUS
 62
     7
100
AcDbPoint
 10
664.997826
 20
713.654445
 30
0.0
  0
POINT
  5
475
100
AcDbEntity
  8
DEFPOINTS
  6
CONTINUOUS
 62
     7
100
AcDbPoint
 10
687.297826
 20
804.937793
 30
0.0
  0
POINT
  5
476
100
AcDbEntity
  8
DEFPOINTS
  6
CONTINUOUS
 62
     7
100
AcDbPoint
 10
687.297826
 20
804.937793
 30
0.0
  0
POINT
  5
477
100
AcDbEntity
  8
DEFPOINTS
  6
CONTINUOUS
 62
     7
100
AcDbPoint
 10
648.281174
 20
696.937793
 30
0.0
  0
POINT
  5
478
100
AcDbEntity
  8
DEFPOINTS
  6
CONTINUOUS
 62
     7
100
AcDbPoint
 10
687.297826
 20
804.937793
 30
0.0
  0
LINE
  5
479
100
AcDbEntity
  8
NOTE
  6
CONTINUOUS
 62
     4
100
AcDbLine
 10
681.714478
 20
696.937793
 30
0.0
 11
648.281174
 21
696.937793
 31
0.0
  0
LINE
  5
47A
100
AcDbEntity
  8
NOTE
  6
CONTINUOUS
 62
     4
100
AcDbLine
 10
664.997826
 20
713.654445
 30
0.0
 11
664.997826
 21
680.221141
 31
0.0
  0
LINE
  5
47B
100
AcDbEntity
  8
NOTE
  6
CONTINUOUS
 62
     4
100
AcDbLine
 10
664.997826
 20
696.937793
 30
0.0
 11
641.982762
 21
722.484936
 31
0.0
  0
LINE
  5
47C
100
AcDbEntity
  8
NOTE
  6
CONTINUOUS
 62
     4
100
AcDbLine
 10
664.997826
 20
696.937793
 30
0.0
 11
657.839768
 21
730.5698
 31
0.0
  0
CIRCLE
  5
47D
100
AcDbEntity
  8
FIX
  6
CONTINUOUS
 62
    11
100
AcDbCircle
 10
705.997826
 20
804.937793
 30
0.0
 40
12.421498
  0
LINE
  5
47E
100
AcDbEntity
  8
NOTE
  6
CONTINUOUS
 62
     4
100
AcDbLine
 10
705.997826
 20
789.942627
 30
0.0
 11
705.997826
 21
819.932959
 31
0.0
  0
LINE
  5
47F
100
AcDbEntity
  8
NOTE
  6
CONTINUOUS
 62
     4
100
AcDbLine
 10
691.00266
 20
804.937793
 30
0.0
 11
720.992992
 21
804.937793
 31
0.0
  0
POINT
  5
480
100
AcDbEntity
  8
DEFPOINTS
  6
CONTINUOUS
 62
     7
100
AcDbPoint
 10
682.997826
 20
799.037793
 30
0.0
  0
LINE
  5
481
100
AcDbEntity
  8
DETAIL
  6
CONTINUOUS
 62
     5
100
AcDbLine
 10
698.997826
 20
778.537793
 30
0.0
 11
701.997826
 21
775.537793
 31
0.0
  0
LINE
  5
482
100
AcDbEntity
  8
DETAIL
  6
CONTINUOUS
 62
     5
100
AcDbLine
 10
698.997826
 20
778.537793
 30
0.0
 11
698.997826
 21
804.937793
 31
0.0
  0
LINE
  5
483
100
AcDbEntity
  8
DETAIL
  6
CONTINUOUS
 62
     5
100
AcDbLine
 10
698.997826
 20
778.537793
 30
0.0
 11
698.997826
 21
804.937793
 31
0.0
  0
LINE
  5
484
100
AcDbEntity
  8
DETAIL
  6
CONTINUOUS
 62
     5
100
AcDbLine
 10
698.997826
 20
802.637793
 30
0.0
 11
687.297826
 21
802.637793
 31
0.0
  0
LINE
  5
485
100
AcDbEntity
  8
DETAIL
  6
CONTINUOUS
 62
     5
100
AcDbLine
 10
698.997826
 20
804.937793
 30
0.0
 11
687.297826
 21
804.937793
 31
0.0
  0
LINE
  5
486
100
AcDbEntity
  8
DETAIL
  6
CONTINUOUS
 62
     5
100
AcDbLine
 10
698.997826
 20
803.337793
 30
0.0
 11
698.997826
 21
801.037793
 31
0.0
  0
LINE
  5
487
100
AcDbEntity
  8
DETAIL
  6
CONTINUOUS
 62
     5
100
AcDbLine
 10
685.297826
 20
792.937793
 30
0.0
 11
682.997826
 21
792.937793
 31
0.0
  0
LINE
  5
488
100
AcDbEntity
  8
DETAIL
  6
CONTINUOUS
 62
     5
100
AcDbLine
 10
685.297826
 20
800.637793
 30
0.0
 11
685.297826
 21
792.937793
 31
0.0
  0
ARC
  5
489
100
AcDbEntity
  8
DETAIL
  6
CONTINUOUS
 62
     5
100
AcDbCircle
 10
687.297826
 20
800.637793
 30
0.0
 40
2.0
100
AcDbArc
 50
90.0
 51
180.0
  0
LINE
  5
48A
100
AcDbEntity
  8
DETAIL
  6
CONTINUOUS
 62
     5
100
AcDbLine
 10
682.997826
 20
800.637793
 30
0.0
 11
682.997826
 21
792.937793
 31
0.0
  0
ARC
  5
48B
100
AcDbEntity
  8
DETAIL
  6
CONTINUOUS
 62
     5
100
AcDbCircle
 10
687.297826
 20
800.637793
 30
0.0
 40
4.3
100
AcDbArc
 50
90.0
 51
180.0
  0
LINE
  5
48C
100
AcDbEntity
  8
DETAIL
  6
CONTINUOUS
 62
     5
100
AcDbLine
 10
698.997826
 20
803.337793
 30
0.0
 11
698.997826
 21
801.037793
 31
0.0
  0
LINE
  5
48D
100
AcDbEntity
  8
DETAIL
  6
CONTINUOUS
 62
     5
100
AcDbLine
 10
685.297826
 20
792.937793
 30
0.0
 11
682.997826
 21
792.937793
 31
0.0
  0
LINE
  5
48E
100
AcDbEntity
  8
DETAIL
  6
CONTINUOUS
 62
     5
100
AcDbLine
 10
685.297826
 20
800.637793
 30
0.0
 11
685.297826
 21
792.937793
 31
0.0
  0
ARC
  5
48F
100
AcDbEntity
  8
DETAIL
  6
CONTINUOUS
 62
     5
100
AcDbCircle
 10
687.297826
 20
800.637793
 30
0.0
 40
2.0
100
AcDbArc
 50
90.0
 51
180.0
  0
LINE
  5
490
100
AcDbEntity
  8
DETAIL
  6
CONTINUOUS
 62
     5
100
AcDbLine
 10
698.997826
 20
802.637793
 30
0.0
 11
687.297826
 21
802.637793
 31
0.0
  0
LINE
  5
491
100
AcDbEntity
  8
DETAIL
  6
CONTINUOUS
 62
     5
100
AcDbLine
 10
698.997826
 20
804.937793
 30
0.0
 11
687.297826
 21
804.937793
 31
0.0
  0
LINE
  5
492
100
AcDbEntity
  8
DETAIL
  6
CONTINUOUS
 62
     5
100
AcDbLine
 10
682.997826
 20
800.637793
 30
0.0
 11
682.997826
 21
792.937793
 31
0.0
  0
ARC
  5
493
100
AcDbEntity
  8
DETAIL
  6
CONTINUOUS
 62
     5
100
AcDbCircle
 10
687.297826
 20
800.637793
 30
0.0
 40
4.3
100
AcDbArc
 50
90.0
 51
180.0
  0
LINE
  5
494
100
AcDbEntity
  8
DETAIL
  6
CONTINUOUS
 62
     5
100
AcDbLine
 10
698.997826
 20
698.337793
 30
0.0
 11
698.997826
 21
794.337793
 31
0.0
  0
LINE
  5
495
100
AcDbEntity
  8
DETAIL
  6
CONTINUOUS
 62
     5
100
AcDbLine
 10
689.997826
 20
713.137793
 30
0.0
 11
698.997826
 21
713.294889
 31
0.0
  0
ARC
  5
496
100
AcDbEntity
  8
DETAIL
  6
CONTINUOUS
 62
     5
100
AcDbCircle
 10
665.497826
 20
712.437793
 30
0.0
 40
0.5
100
AcDbArc
 50
90.0
 51
180.0
  0
LINE
  5
497
100
AcDbEntity
  8
DETAIL
  6
CONTINUOUS
 62
     5
100
AcDbLine
 10
689.997826
 20
712.937793
 30
0.0
 11
665.497826
 21
712.937793
 31
0.0
  0
LINE
  5
498
100
AcDbEntity
  8
DETAIL
  6
CONTINUOUS
 62
     5
100
AcDbLine
 10
689.997826
 20
680.737793
 30
0.0
 11
698.997826
 21
680.580697
 31
0.0
  0
ARC
  5
499
100
AcDbEntity
  8
DETAIL
  6
CONTINUOUS
 62
     5
100
AcDbCircle
 10
665.497826
 20
681.437793
 30
0.0
 40
0.5
100
AcDbArc
 50
180.0
 51
270.0
  0
LINE
  5
49A
100
AcDbEntity
  8
DETAIL
  6
CONTINUOUS
 62
     5
100
AcDbLine
 10
689.997826
 20
680.937793
 30
0.0
 11
665.497826
 21
680.937793
 31
0.0
  0
LINE
  5
49B
100
AcDbEntity
  8
DETAIL
  6
CONTINUOUS
 62
     5
100
AcDbLine
 10
689.997826
 20
713.137793
 30
0.0
 11
689.997826
 21
680.737793
 31
0.0
  0
LINE
  5
49C
100
AcDbEntity
  8
DETAIL
  6
CONTINUOUS
 62
     5
100
AcDbLine
 10
664.997826
 20
712.437793
 30
0.0
 11
664.997826
 21
681.437793
 31
0.0
  0
LINE
  5
49D
100
AcDbEntity
  8
DETAIL
  6
CONTINUOUS
 62
     5
100
AcDbLine
 10
689.997826
 20
713.137793
 30
0.0
 11
698.997826
 21
713.294889
 31
0.0
  0
LINE
  5
49E
100
AcDbEntity
  8
DETAIL
  6
CONTINUOUS
 62
     5
100
AcDbLine
 10
689.997826
 20
680.737793
 30
0.0
 11
698.997826
 21
680.580697
 31
0.0
  0
ARC
  5
49F
100
AcDbEntity
  8
DETAIL
  6
CONTINUOUS
 62
     5
100
AcDbCircle
 10
665.497826
 20
681.437793
 30
0.0
 40
0.5
100
AcDbArc
 50
180.0
 51
270.0
  0
ARC
  5
4A0
100
AcDbEntity
  8
DETAIL
  6
CONTINUOUS
 62
     5
100
AcDbCircle
 10
665.497826
 20
712.437793
 30
0.0
 40
0.5
100
AcDbArc
 50
90.0
 51
180.0
  0
LINE
  5
4A1
100
AcDbEntity
  8
DETAIL
  6
CONTINUOUS
 62
     5
100
AcDbLine
 10
689.997826
 20
713.137793
 30
0.0
 11
689.997826
 21
680.737793
 31
0.0
  0
LINE
  5
4A2
100
AcDbEntity
  8
DETAIL
  6
CONTINUOUS
 62
     5
100
AcDbLine
 10
689.997826
 20
680.937793
 30
0.0
 11
665.497826
 21
680.937793
 31
0.0
  0
LINE
  5
4A3
100
AcDbEntity
  8
DETAIL
  6
CONTINUOUS
 62
     5
100
AcDbLine
 10
689.997826
 20
712.937793
 30
0.0
 11
665.497826
 21
712.937793
 31
0.0
  0
LINE
  5
4A4
100
AcDbEntity
  8
DETAIL
  6
CONTINUOUS
 62
     5
100
AcDbLine
 10
664.997826
 20
712.437793
 30
0.0
 11
664.997826
 21
681.437793
 31
0.0
  0
LINE
  5
4A5
100
AcDbEntity
  8
DETAIL
  6
CONTINUOUS
 62
     5
100
AcDbLine
 10
698.997826
 20
804.937793
 30
0.0
 11
698.997826
 21
775.637793
 31
0.0
  0
POINT
  5
4A6
100
AcDbEntity
  8
DEFPOINTS
  6
CONTINUOUS
 62
     7
100
AcDbPoint
 10
698.997826
 20
973.182878
 30
0.0
  0
LINE
  5
4A7
100
AcDbEntity
  8
SIZE
  6
CONTINUOUS
 62
    30
100
AcDbLine
 10
703.997826
 20
973.182878
 30
0.0
 11
708.997826
 21
973.182878
 31
0.0
  0
CIRCLE
  5
4A8
100
AcDbEntity
  8
SIZE
  6
CONTINUOUS
 62
    30
100
AcDbCircle
 10
698.997826
 20
973.182878
 30
0.0
 40
5.0
  0
LINE
  5
4A9
100
AcDbEntity
  8
SIZE
  6
CONTINUOUS
 62
    30
100
AcDbLine
 10
657.997826
 20
973.182878
 30
0.0
 11
652.997826
 21
973.182878
 31
0.0
  0
CIRCLE
  5
4AA
100
AcDbEntity
  8
SIZE
  6
CONTINUOUS
 62
    30
100
AcDbCircle
 10
662.997826
 20
973.182878
 30
0.0
 40
5.0
  0
LINE
  5
4AB
100
AcDbEntity
  8
SIZE
  6
CONTINUOUS
 62
    30
100
AcDbLine
 10
662.997826
 20
973.182878
 30
0.0
 11
698.997826
 21
973.182878
 31
0.0
  0
LINE
  5
4AC
100
AcDbEntity
  8
SIZE
  6
CONTINUOUS
 62
    30
100
AcDbLine
 10
652.997826
 20
973.182878
 30
0.0
 11
642.997826
 21
973.182878
 31
0.0
  0
POINT
  5
4AD
100
AcDbEntity
  8
DEFPOINTS
  6
CONTINUOUS
 62
     7
100
AcDbPoint
 10
698.997826
 20
887.582614
 30
0.0
  0
LINE
  5
4AE
100
AcDbEntity
  8
SIZE
  6
CONTINUOUS
 62
    30
100
AcDbLine
 10
703.997826
 20
887.582614
 30
0.0
 11
708.997826
 21
887.582614
 31
0.0
  0
CIRCLE
  5
4AF
100
AcDbEntity
  8
SIZE
  6
CONTINUOUS
 62
    30
100
AcDbCircle
 10
698.997826
 20
887.582614
 30
0.0
 40
5.0
  0
LINE
  5
4B0
100
AcDbEntity
  8
SIZE
  6
CONTINUOUS
 62
    30
100
AcDbLine
 10
659.997826
 20
887.582614
 30
0.0
 11
654.997826
 21
887.582614
 31
0.0
  0
CIRCLE
  5
4B1
100
AcDbEntity
  8
SIZE
  6
CONTINUOUS
 62
    30
100
AcDbCircle
 10
664.997826
 20
887.582614
 30
0.0
 40
5.0
  0
LINE
  5
4B2
100
AcDbEntity
  8
SIZE
  6
CONTINUOUS
 62
    30
100
AcDbLine
 10
664.997826
 20
887.582614
 30
0.0
 11
698.997826
 21
887.582614
 31
0.0
  0
LINE
  5
4B3
100
AcDbEntity
  8
SIZE
  6
CONTINUOUS
 62
    30
100
AcDbLine
 10
654.997826
 20
887.582614
 30
0.0
 11
644.997826
 21
887.582614
 31
0.0
  0
POINT
  5
4B4
100
AcDbEntity
  8
DEFPOINTS
  6
CONTINUOUS
 62
     7
100
AcDbPoint
 10
682.997826
 20
899.937793
 30
0.0
  0
ARC
  5
4B5
100
AcDbEntity
  8
DETAIL
  6
CONTINUOUS
 62
     5
100
AcDbCircle
 10
740.997826
 20
769.937793
 30
0.0
 40
10.0
100
AcDbArc
 50
90.0
 51
180.0
  0
TEXT
  5
4B6
100
AcDbEntity
  8
SIZE
  6
CONTINUOUS
 62
    30
100
AcDbText
 10
736.997826
 20
905.582614
 30
0.0
 40
55.0
  1
34
 41
0.9
 72
     1
 11
778.247826
 21
905.582614
 31
0.0
100
AcDbText
  0
LINE
  5
4B7
100
AcDbEntity
  8
NOTE
  6
CONTINUOUS
 62
     4
100
AcDbLine
 10
449.085845
 20
1003.890623
 30
0.0
 11
105.372263
 21
1003.890623
 31
0.0
  0
TEXT
  5
4B8
100
AcDbEntity
  8
NOTE
  6
CONTINUOUS
 62
     4
100
AcDbText
 10
127.047535
 20
1019.717154
 30
0.0
 40
60.0
  1
RL %%C9.52
 50
0.000003
 41
0.7
  7
STANDARD1
100
AcDbText
  0
LINE
  5
4B9
100
AcDbEntity
  8
NOTE
  6
CONTINUOUS
 62
     4
100
AcDbLine
 10
448.55667
 20
1125.335282
 30
0.0
 11
101.742809
 21
1125.335282
 31
0.0
  0
TEXT
  5
4BA
100
AcDbEntity
  8
NOTE
  6
CONTINUOUS
 62
     4
100
AcDbText
 10
123.41808
 20
1141.161813
 30
0.0
 40
60.0
  1
D1 VP-25
 50
0.000003
 41
0.7
  7
STANDARD1
100
AcDbText
  0
CIRCLE
  5
4BB
100
AcDbEntity
  8
SIZE
  6
CONTINUOUS
 62
    30
100
AcDbCircle
 10
705.997826
 20
1289.100215
 30
0.0
 40
5.0
  0
CIRCLE
  5
4BC
100
AcDbEntity
  8
SIZE
  6
CONTINUOUS
 62
    30
100
AcDbCircle
 10
682.997826
 20
1289.100215
 30
0.0
 40
5.0
  0
CIRCLE
  5
4BD
100
AcDbEntity
  8
SIZE
  6
CONTINUOUS
 62
    30
100
AcDbCircle
 10
705.997826
 20
1289.100215
 30
0.0
 40
5.0
  0
LINE
  5
4BE
100
AcDbEntity
  8
SIZE
  6
CONTINUOUS
 62
    30
100
AcDbLine
 10
708.997826
 20
1074.292025
 30
0.0
 11
832.78354
 21
1074.292025
 31
0.0
  0
POINT
  5
4BF
100
AcDbEntity
  8
DEFPOINTS
  6
CONTINUOUS
 62
     7
100
AcDbPoint
 10
659.988677
 20
1074.292025
 30
0.0
  0
LINE
  5
4C0
100
AcDbEntity
  8
SIZE
  6
CONTINUOUS
 62
    30
100
AcDbLine
 10
703.997826
 20
1074.292025
 30
0.0
 11
708.997826
 21
1074.292025
 31
0.0
  0
CIRCLE
  5
4C1
100
AcDbEntity
  8
SIZE
  6
CONTINUOUS
 62
    30
100
AcDbCircle
 10
698.997826
 20
1074.292025
 30
0.0
 40
5.0
  0
LINE
  5
4C2
100
AcDbEntity
  8
SIZE
  6
CONTINUOUS
 62
    30
100
AcDbLine
 10
654.988677
 20
1074.292025
 30
0.0
 11
649.988677
 21
1074.292025
 31
0.0
  0
CIRCLE
  5
4C3
100
AcDbEntity
  8
SIZE
  6
CONTINUOUS
 62
    30
100
AcDbCircle
 10
659.988677
 20
1074.292025
 30
0.0
 40
5.0
  0
LINE
  5
4C4
100
AcDbEntity
  8
SIZE
  6
CONTINUOUS
 62
    30
100
AcDbLine
 10
659.988677
 20
1074.292025
 30
0.0
 11
698.997826
 21
1074.292025
 31
0.0
  0
LINE
  5
4C5
100
AcDbEntity
  8
SIZE
  6
CONTINUOUS
 62
    30
100
AcDbLine
 10
649.988677
 20
1074.292025
 30
0.0
 11
639.988677
 21
1074.292025
 31
0.0
  0
TEXT
  5
4C6
100
AcDbEntity
  8
SIZE
  6
CONTINUOUS
 62
    30
100
AcDbText
 10
576.640684
 20
1190.04099
 30
0.0
 40
55.0
  1
16
 41
0.9
 72
     1
 11
610.819255
 21
1190.04099
 31
0.0
100
AcDbText
  0
LINE
  5
4C7
100
AcDbEntity
  8
SIZE
  6
CONTINUOUS
 62
    30
100
AcDbLine
 10
672.997826
 20
1172.04099
 30
0.0
 11
558.640683
 21
1172.04099
 31
0.0
  0
LINE
  5
4C8
100
AcDbEntity
  8
SIZE
  6
CONTINUOUS
 62
    30
100
AcDbLine
 10
703.997826
 20
1172.04099
 30
0.0
 11
708.997826
 21
1172.04099
 31
0.0
  0
CIRCLE
  5
4C9
100
AcDbEntity
  8
SIZE
  6
CONTINUOUS
 62
    30
100
AcDbCircle
 10
698.997826
 20
1172.04099
 30
0.0
 40
5.0
  0
POINT
  5
4CA
100
AcDbEntity
  8
DEFPOINTS
  6
CONTINUOUS
 62
     7
100
AcDbPoint
 10
698.997826
 20
1172.04099
 30
0.0
  0
LINE
  5
4CB
100
AcDbEntity
  8
SIZE
  6
CONTINUOUS
 62
    30
100
AcDbLine
 10
677.997826
 20
1172.04099
 30
0.0
 11
672.997826
 21
1172.04099
 31
0.0
  0
CIRCLE
  5
4CC
100
AcDbEntity
  8
SIZE
  6
CONTINUOUS
 62
    30
100
AcDbCircle
 10
682.997826
 20
1172.04099
 30
0.0
 40
5.0
  0
LINE
  5
4CD
100
AcDbEntity
  8
SIZE
  6
CONTINUOUS
 62
    30
100
AcDbLine
 10
703.997826
 20
1172.04099
 30
0.0
 11
708.997826
 21
1172.04099
 31
0.0
  0
CIRCLE
  5
4CE
100
AcDbEntity
  8
SIZE
  6
CONTINUOUS
 62
    30
100
AcDbCircle
 10
698.997826
 20
1172.04099
 30
0.0
 40
5.0
  0
LINE
  5
4CF
100
AcDbEntity
  8
SIZE
  6
CONTINUOUS
 62
    30
100
AcDbLine
 10
698.997826
 20
1172.04099
 30
0.0
 11
682.997826
 21
1172.04099
 31
0.0
  0
LINE
  5
4D0
100
AcDbEntity
  8
SIZE
  6
CONTINUOUS
 62
    30
100
AcDbLine
 10
708.997826
 20
1172.04099
 30
0.0
 11
718.997826
 21
1172.04099
 31
0.0
  0
TEXT
  5
4D1
100
AcDbEntity
  8
SIZE
  6
CONTINUOUS
 62
    30
100
AcDbText
 10
736.997826
 20
1092.292025
 30
0.0
 40
55.0
  1
39
 41
0.9
 72
     1
 11
775.890683
 21
1092.292025
 31
0.0
100
AcDbText
  0
TEXT
  5
4D2
100
AcDbEntity
  8
SIZE
  6
CONTINUOUS
 62
    30
100
AcDbText
 10
736.997826
 20
991.182878
 30
0.0
 40
55.0
  1
36
 41
0.9
 72
     1
 11
775.890683
 21
991.182878
 31
0.0
100
AcDbText
  0
TEXT
  5
4D3
100
AcDbEntity
  8
SIZE
  6
CONTINUOUS
 62
    30
100
AcDbText
 10
564.854968
 20
1307.100215
 30
0.0
 40
55.0
  1
23
 41
0.9
 72
     1
 11
604.926397
 21
1307.100215
 31
0.0
100
AcDbText
  0
LINE
  5
4D4
100
AcDbEntity
  8
SIZE
  6
CONTINUOUS
 62
    30
100
AcDbLine
 10
672.997826
 20
1289.100215
 30
0.0
 11
546.854969
 21
1289.100215
 31
0.0
  0
LINE
  5
4D5
100
AcDbEntity
  8
SIZE
  6
CONTINUOUS
 62
    30
100
AcDbLine
 10
710.997826
 20
1289.100215
 30
0.0
 11
715.997826
 21
1289.100215
 31
0.0
  0
POINT
  5
4D6
100
AcDbEntity
  8
DEFPOINTS
  6
CONTINUOUS
 62
     7
100
AcDbPoint
 10
705.997826
 20
1289.100215
 30
0.0
  0
LINE
  5
4D7
100
AcDbEntity
  8
SIZE
  6
CONTINUOUS
 62
    30
100
AcDbLine
 10
677.997826
 20
1289.100215
 30
0.0
 11
672.997826
 21
1289.100215
 31
0.0
  0
LINE
  5
4D8
100
AcDbEntity
  8
SIZE
  6
CONTINUOUS
 62
    30
100
AcDbLine
 10
710.997826
 20
1289.100215
 30
0.0
 11
715.997826
 21
1289.100215
 31
0.0
  0
LINE
  5
4D9
100
AcDbEntity
  8
SIZE
  6
CONTINUOUS
 62
    30
100
AcDbLine
 10
705.997826
 20
1289.100215
 30
0.0
 11
682.997826
 21
1289.100215
 31
0.0
  0
LINE
  5
4DA
100
AcDbEntity
  8
SIZE
  6
CONTINUOUS
 62
    30
100
AcDbLine
 10
715.997826
 20
1289.100215
 30
0.0
 11
725.997826
 21
1289.100215
 31
0.0
  0
LINE
  5
4DB
100
AcDbEntity
  8
SIZE
  6
CONTINUOUS
 62
    30
100
AcDbLine
 10
687.997826
 20
1401.087567
 30
0.0
 11
692.997826
 21
1401.087567
 31
0.0
  0
CIRCLE
  5
4DC
100
AcDbEntity
  8
SIZE
  6
CONTINUOUS
 62
    30
100
AcDbCircle
 10
682.997826
 20
1401.087567
 30
0.0
 40
5.0
  0
LINE
  5
4DD
100
AcDbEntity
  8
BASIS
  6
DASHDOT
 62
     6
100
AcDbLine
 10
1278.997826
 20
840.509506
 30
0.0
 11
1278.997826
 21
318.051622
 31
0.0
  0
CIRCLE
  5
4DE
100
AcDbEntity
  8
ARRANGE
  6
CONTINUOUS
 62
     1
100
AcDbCircle
 10
1278.997826
 20
371.937793
 30
0.0
 40
50.0
  0
CIRCLE
  5
4DF
100
AcDbEntity
  8
SIZE
  6
CONTINUOUS
 62
    30
100
AcDbCircle
 10
2345.154004
 20
371.937793
 30
0.0
 40
5.0
  0
LINE
  5
4E0
100
AcDbEntity
  8
SIZE
  6
CONTINUOUS
 62
    30
100
AcDbLine
 10
2345.154004
 20
371.937793
 30
0.0
 11
2345.154004
 21
7.252079
 31
0.0
  0
CIRCLE
  5
4E1
100
AcDbEntity
  8
SIZE
  6
CONTINUOUS
 62
    30
100
AcDbCircle
 10
2120.642204
 20
371.937793
 30
0.0
 40
5.0
  0
LINE
  5
4E2
100
AcDbEntity
  8
SIZE
  6
CONTINUOUS
 62
    30
100
AcDbLine
 10
2120.642204
 20
395.437793
 30
0.0
 11
2221.665466
 21
354.41875
 31
0.0
  0
CIRCLE
  5
4E3
100
AcDbEntity
  8
SIZE
  6
CONTINUOUS
 62
    30
100
AcDbCircle
 10
2120.642204
 20
371.937793
 30
0.0
 40
5.0
  0
LINE
  5
4E4
100
AcDbEntity
  8
SIZE
  6
CONTINUOUS
 62
    30
100
AcDbLine
 10
2120.642204
 20
371.937793
 30
0.0
 11
2120.642204
 21
363.937793
 31
0.0
  0
LINE
  5
4E5
100
AcDbEntity
  8
OUTLINE
  6
CONTINUOUS
 62
     3
100
AcDbLine
 10
1898.997826
 20
367.931285
 30
0.0
 11
1898.997826
 21
371.937793
 31
0.0
  0
LINE
  5
4E6
100
AcDbEntity
  8
ARRANGE
  6
CONTINUOUS
 62
     1
100
AcDbLine
 10
1328.961589
 20
421.534388
 30
0.0
 11
1229.034063
 21
322.341198
 31
0.0
  0
LINE
  5
4E7
100
AcDbEntity
  8
ARRANGE
  6
CONTINUOUS
 62
     1
100
AcDbLine
 10
1329.035176
 20
322.41544
 30
0.0
 11
1228.960476
 21
421.460146
 31
0.0
  0
TEXT
  5
4E8
100
AcDbEntity
  8
SIZE
  6
CONTINUOUS
 62
    30
100
AcDbText
 10
2459.937414
 20
40.283177
 30
0.0
 40
55.0
  1
パネル直付時
 50
90.0
 41
0.9
 72
     1
 11
2459.937414
 21
211.883177
 31
0.0
100
AcDbText
  0
LINE
  5
4E9
100
AcDbEntity
  8
DETAIL
  6
CONTINUOUS
 62
     5
100
AcDbLine
 10
1898.997826
 20
367.931285
 30
0.0
 11
1898.997826
 21
371.937793
 31
0.0
  0
LINE
  5
4EA
100
AcDbEntity
  8
OUTLINE
  6
CONTINUOUS
 62
     3
100
AcDbLine
 10
1845.527826
 20
363.937793
 30
0.0
 11
1898.997826
 21
367.931285
 31
0.0
  0
LINE
  5
4EB
100
AcDbEntity
  8
DETAIL
  6
CONTINUOUS
 62
     5
100
AcDbLine
 10
1845.527826
 20
363.937793
 30
0.0
 11
1898.997826
 21
367.931285
 31
0.0
  0
TEXT
  5
4EC
100
AcDbEntity
  8
SIZE
  6
CONTINUOUS
 62
    30
100
AcDbText
 10
971.626397
 20
211.127904
 30
0.0
 40
55.0
  1
1200（天井開口寸法）
 41
0.9
 72
     1
 11
1278.997826
 21
211.127904
 31
0.0
100
AcDbText
  0
TEXT
  5
4ED
100
AcDbEntity
  8
SIZE
  6
CONTINUOUS
 62
    30
100
AcDbText
 10
1191.92818
 20
64.870331
 30
0.0
 40
55.0
  1
1240
 41
0.9
 72
     1
 11
1274.42818
 21
64.870331
 31
0.0
100
AcDbText
  0
POINT
  5
4EE
100
AcDbEntity
  8
DEFPOINTS
  6
CONTINUOUS
 62
     7
100
AcDbPoint
 10
1845.527826
 20
363.937793
 30
0.0
  0
TEXT
  5
4EF
100
AcDbEntity
  8
SIZE
  6
CONTINUOUS
 62
    30
100
AcDbText
 10
2327.154004
 20
25.252079
 30
0.0
 40
55.0
  1
140～300
 50
90.0
 41
0.9
 72
     1
 11
2327.154004
 21
184.594936
 31
0.0
100
AcDbText
  0
LINE
  5
4F0
100
AcDbEntity
  8
SIZE
  6
CONTINUOUS
 62
    30
100
AcDbLine
 10
1898.997826
 20
347.931285
 30
0.0
 11
1898.997826
 21
16.870331
 31
0.0
  0
POINT
  5
4F1
100
AcDbEntity
  8
DEFPOINTS
  6
CONTINUOUS
 62
     7
100
AcDbPoint
 10
1898.997826
 20
46.870331
 30
0.0
  0
LINE
  5
4F2
100
AcDbEntity
  8
SIZE
  6
CONTINUOUS
 62
    30
100
AcDbLine
 10
1893.997826
 20
46.870331
 30
0.0
 11
1888.997826
 21
46.870331
 31
0.0
  0
CIRCLE
  5
4F3
100
AcDbEntity
  8
SIZE
  6
CONTINUOUS
 62
    30
100
AcDbCircle
 10
1898.997826
 20
46.870331
 30
0.0
 40
5.0
  0
TEXT
  5
4F4
100
AcDbEntity
  8
SIZE
  6
CONTINUOUS
 62
    30
100
AcDbText
 10
2102.642204
 20
292.937793
 30
0.0
 40
55.0
  1
8
 50
90.0
 41
0.9
 72
     1
 11
2102.642204
 21
309.437793
 31
0.0
100
AcDbText
  0
LINE
  5
4F5
100
AcDbEntity
  8
SIZE
  6
CONTINUOUS
 62
    30
100
AcDbLine
 10
1865.527826
 20
363.937793
 30
0.0
 11
2150.642204
 21
363.937793
 31
0.0
  0
TEXT
  5
4F6
100
AcDbEntity
  8
SIZE
  6
CONTINUOUS
 62
    30
100
AcDbText
 10
1969.470357
 20
211.127904
 30
0.0
 40
55.0
  1
20
 41
0.9
 72
     1
 11
2009.541786
 21
211.127904
 31
0.0
100
AcDbText
  0
LINE
  5
4F7
100
AcDbEntity
  8
SIZE
  6
CONTINUOUS
 62
    30
100
AcDbLine
 10
1898.997826
 20
347.931285
 30
0.0
 11
1898.997826
 21
163.127904
 31
0.0
  0
LINE
  5
4F8
100
AcDbEntity
  8
SIZE
  6
CONTINUOUS
 62
    30
100
AcDbLine
 10
1878.997826
 20
352.937793
 30
0.0
 11
1878.997826
 21
163.127904
 31
0.0
  0
LINE
  5
4F9
100
AcDbEntity
  8
SIZE
  6
CONTINUOUS
 62
    30
100
AcDbLine
 10
1878.997826
 20
352.937793
 30
0.0
 11
1878.997826
 21
163.127904
 31
0.0
  0
LINE
  5
4FA
100
AcDbEntity
  8
SIZE
  6
CONTINUOUS
 62
    30
100
AcDbLine
 10
2067.613214
 20
193.127904
 30
0.0
 11
1898.997826
 21
193.127904
 31
0.0
  0
POINT
  5
4FB
100
AcDbEntity
  8
DEFPOINTS
  6
CONTINUOUS
 62
     7
100
AcDbPoint
 10
1898.997826
 20
193.127904
 30
0.0
  0
LINE
  5
4FC
100
AcDbEntity
  8
SIZE
  6
CONTINUOUS
 62
    30
100
AcDbLine
 10
1903.997826
 20
193.127904
 30
0.0
 11
1908.997826
 21
193.127904
 31
0.0
  0
CIRCLE
  5
4FD
100
AcDbEntity
  8
SIZE
  6
CONTINUOUS
 62
    30
100
AcDbCircle
 10
1898.997826
 20
193.127904
 30
0.0
 40
5.0
  0
LINE
  5
4FE
100
AcDbEntity
  8
SIZE
  6
CONTINUOUS
 62
    30
100
AcDbLine
 10
1873.997826
 20
193.127904
 30
0.0
 11
1868.997826
 21
193.127904
 31
0.0
  0
CIRCLE
  5
4FF
100
AcDbEntity
  8
SIZE
  6
CONTINUOUS
 62
    30
100
AcDbCircle
 10
1878.997826
 20
193.127904
 30
0.0
 40
5.0
  0
LINE
  5
500
100
AcDbEntity
  8
SIZE
  6
CONTINUOUS
 62
    30
100
AcDbLine
 10
1878.997826
 20
193.127904
 30
0.0
 11
1898.997826
 21
193.127904
 31
0.0
  0
LINE
  5
501
100
AcDbEntity
  8
SIZE
  6
CONTINUOUS
 62
    30
100
AcDbLine
 10
1878.997826
 20
193.127904
 30
0.0
 11
1898.997826
 21
193.127904
 31
0.0
  0
LINE
  5
502
100
AcDbEntity
  8
SIZE
  6
CONTINUOUS
 62
    30
100
AcDbLine
 10
1908.997826
 20
193.127904
 30
0.0
 11
1918.997826
 21
193.127904
 31
0.0
  0
LINE
  5
503
100
AcDbEntity
  8
SIZE
  6
CONTINUOUS
 62
    30
100
AcDbLine
 10
1868.997826
 20
193.127904
 30
0.0
 11
1858.997826
 21
193.127904
 31
0.0
  0
POINT
  5
504
100
AcDbEntity
  8
DEFPOINTS
  6
CONTINUOUS
 62
     7
100
AcDbPoint
 10
1878.997826
 20
193.127904
 30
0.0
  0
LINE
  5
505
100
AcDbEntity
  8
SIZE
  6
CONTINUOUS
 62
    30
100
AcDbLine
 10
1873.997826
 20
193.127904
 30
0.0
 11
1868.997826
 21
193.127904
 31
0.0
  0
CIRCLE
  5
506
100
AcDbEntity
  8
SIZE
  6
CONTINUOUS
 62
    30
100
AcDbCircle
 10
1878.997826
 20
193.127904
 30
0.0
 40
5.0
  0
POINT
  5
507
100
AcDbEntity
  8
DEFPOINTS
  6
CONTINUOUS
 62
     7
100
AcDbPoint
 10
1898.997826
 20
367.931285
 30
0.0
  0
POINT
  5
508
100
AcDbEntity
  8
DEFPOINTS
  6
CONTINUOUS
 62
     7
100
AcDbPoint
 10
1898.997826
 20
367.931285
 30
0.0
  0
TEXT
  5
509
100
AcDbEntity
  8
SIZE
  6
CONTINUOUS
 62
    30
100
AcDbText
 10
2203.665466
 20
256.275892
 30
0.0
 40
55.0
  1
47
 50
90.0
 41
0.9
 72
     1
 11
2203.665466
 21
296.347321
 31
0.0
100
AcDbText
  0
LINE
  5
50A
100
AcDbEntity
  8
SIZE
  6
CONTINUOUS
 62
    30
100
AcDbLine
 10
2120.642204
 20
366.937793
 30
0.0
 11
2120.642204
 21
361.937793
 31
0.0
  0
LINE
  5
50B
100
AcDbEntity
  8
SIZE
  6
CONTINUOUS
 62
    30
100
AcDbLine
 10
2120.642204
 20
361.937793
 30
0.0
 11
2120.642204
 21
351.937793
 31
0.0
  0
LINE
  5
50C
100
AcDbEntity
  8
SIZE
  6
CONTINUOUS
 62
    30
100
AcDbLine
 10
2120.642204
 20
358.937793
 30
0.0
 11
2120.642204
 21
353.937793
 31
0.0
  0
CIRCLE
  5
50D
100
AcDbEntity
  8
SIZE
  6
CONTINUOUS
 62
    30
100
AcDbCircle
 10
2120.642204
 20
363.937793
 30
0.0
 40
5.0
  0
LINE
  5
50E
100
AcDbEntity
  8
SIZE
  6
CONTINUOUS
 62
    30
100
AcDbLine
 10
2120.642204
 20
353.937793
 30
0.0
 11
2120.642204
 21
274.937793
 31
0.0
  0
LINE
  5
50F
100
AcDbEntity
  8
SIZE
  6
CONTINUOUS
 62
    30
100
AcDbLine
 10
2221.665466
 20
354.41875
 30
0.0
 11
2221.665466
 21
238.275893
 31
0.0
  0
POLYLINE
  5
510
100
AcDbEntity
  8
SIZE
  6
CONTINUOUS
 62
    30
100
AcDb2dPolyline
 66
     1
 10
0.0
 20
0.0
 30
0.0
  0
VERTEX
  5
511
100
AcDbEntity
  8
SIZE
  6
CONTINUOUS
 62
    30
100
AcDbVertex
100
AcDb2dVertex
 10
2383.744949
 20
46.844482
 30
0.0
 42
0.186174
  0
VERTEX
  5
512
100
AcDbEntity
  8
SIZE
  6
CONTINUOUS
 62
    30
100
AcDbVertex
100
AcDb2dVertex
 10
2392.594798
 20
25.894994
 30
0.0
 42
0.082105
  0
VERTEX
  5
513
100
AcDbEntity
  8
SIZE
  6
CONTINUOUS
 62
    30
100
AcDbVertex
100
AcDb2dVertex
 10
2408.2973
 20
13.720433
 30
0.0
 42
0.058826
  0
VERTEX
  5
514
100
AcDbEntity
  8
SIZE
  6
CONTINUOUS
 62
    30
100
AcDbVertex
100
AcDb2dVertex
 10
2430.083358
 20
4.945506
 30
0.0
 42
0.067494
  0
VERTEX
  5
515
100
AcDbEntity
  8
SIZE
  6
CONTINUOUS
 62
    30
100
AcDbVertex
100
AcDb2dVertex
 10
2467.571918
 20
0.000003
 30
0.0
 42
0.067494
  0
VERTEX
  5
516
100
AcDbEntity
  8
SIZE
  6
CONTINUOUS
 62
    30
100
AcDbVertex
100
AcDb2dVertex
 10
2505.060477
 20
4.945506
 30
0.0
 42
0.058826
  0
VERTEX
  5
517
100
AcDbEntity
  8
SIZE
  6
CONTINUOUS
 62
    30
100
AcDbVertex
100
AcDb2dVertex
 10
2526.846535
 20
13.720433
 30
0.0
 42
0.082105
  0
VERTEX
  5
518
100
AcDbEntity
  8
SIZE
  6
CONTINUOUS
 62
    30
100
AcDbVertex
100
AcDb2dVertex
 10
2542.549037
 20
25.894994
 30
0.0
 42
0.186174
  0
VERTEX
  5
519
100
AcDbEntity
  8
SIZE
  6
CONTINUOUS
 62
    30
100
AcDbVertex
100
AcDb2dVertex
 10
2551.398886
 20
46.844482
 30
0.0
 42
0.186174
  0
VERTEX
  5
51A
100
AcDbEntity
  8
SIZE
  6
CONTINUOUS
 62
    30
100
AcDbVertex
100
AcDb2dVertex
 10
2551.398886
 20
46.844482
 30
0.0
 42
0.186174
  0
SEQEND
  5
51B
100
AcDbEntity
  8
SIZE
  6
CONTINUOUS
 62
    30
  0
TEXT
  5
51C
100
AcDbEntity
  8
SIZE
  6
CONTINUOUS
 62
    30
100
AcDbText
 10
2543.687192
 20
97.141827
 30
0.0
 40
55.0
  1
50～60
 50
90.0
 41
0.9
 72
     1
 11
2543.687192
 21
214.056113
 31
0.0
100
AcDbText
  0
LINE
  5
51D
100
AcDbEntity
  8
SIZE
  6
CONTINUOUS
 62
    30
100
AcDbLine
 10
1864.997826
 20
430.707302
 30
0.0
 11
1783.640683
 21
430.707302
 31
0.0
  0
LINE
  5
51E
100
AcDbEntity
  8
SIZE
  6
CONTINUOUS
 62
    30
100
AcDbLine
 10
1846.997826
 20
1289.100215
 30
0.0
 11
1841.997826
 21
1289.100215
 31
0.0
  0
LINE
  5
51F
100
AcDbEntity
  8
SIZE
  6
CONTINUOUS
 62
    30
100
AcDbLine
 10
1846.997826
 20
1289.100215
 30
0.0
 11
1841.997826
 21
1289.100215
 31
0.0
  0
LINE
  5
520
100
AcDbEntity
  8
SIZE
  6
CONTINUOUS
 62
    30
100
AcDbLine
 10
1848.997826
 20
1172.04099
 30
0.0
 11
1838.997826
 21
1172.04099
 31
0.0
  0
LINE
  5
521
100
AcDbEntity
  8
SIZE
  6
CONTINUOUS
 62
    30
100
AcDbLine
 10
1768.997826
 20
668.937793
 30
0.0
 11
2209.881664
 21
668.937793
 31
0.0
  0
LINE
  5
522
100
AcDbEntity
  8
NOTE
  6
CONTINUOUS
 62
     4
100
AcDbLine
 10
1993.600296
 20
827.622933
 30
0.0
 11
1628.997826
 21
668.937793
 31
0.0
  0
CIRCLE
  5
523
100
AcDbEntity
  8
FIX
  6
CONTINUOUS
 62
    11
100
AcDbCircle
 10
1851.997826
 20
804.937793
 30
0.0
 40
12.421498
  0
LINE
  5
524
100
AcDbEntity
  8
NOTE
  6
CONTINUOUS
 62
     4
100
AcDbLine
 10
1866.992992
 20
804.937793
 30
0.0
 11
1837.00266
 21
804.937793
 31
0.0
  0
LINE
  5
525
100
AcDbEntity
  8
DETAIL
  6
CONTINUOUS
 62
     5
100
AcDbLine
 10
1825.282752
 20
775.537793
 30
0.0
 11
1855.997826
 21
775.537793
 31
0.0
  0
LINE
  5
526
100
AcDbEntity
  8
SIZE
  6
CONTINUOUS
 62
    30
100
AcDbLine
 10
1638.99782
 20
882.51364
 30
0.0
 11
1848.99782
 21
882.51364
 31
0.0
  0
CIRCLE
  5
527
100
AcDbEntity
  8
DETAIL
  6
CONTINUOUS
 62
     5
100
AcDbCircle
 10
1308.997826
 20
668.937793
 30
0.0
 40
100.0
  0
LINE
  5
528
100
AcDbEntity
  8
NOTE
  6
CONTINUOUS
 62
     4
100
AcDbLine
 10
1428.997826
 20
668.937793
 30
0.0
 11
1188.997826
 21
668.937793
 31
0.0
  0
LINE
  5
529
100
AcDbEntity
  8
SIZE
  6
CONTINUOUS
 62
    30
100
AcDbLine
 10
1318.997827
 20
882.513671
 30
0.0
 11
1618.99782
 21
882.513671
 31
0.0
  0
LINE
  5
52A
100
AcDbEntity
  8
NOTE
  6
CONTINUOUS
 62
     4
100
AcDbLine
 10
988.997826
 20
788.937793
 30
0.0
 11
988.997826
 21
548.937793
 31
0.0
  0
CIRCLE
  5
52B
100
AcDbEntity
  8
DETAIL
  6
CONTINUOUS
 62
     5
100
AcDbCircle
 10
1308.997826
 20
668.937793
 30
0.0
 40
85.5
  0
LINE
  5
52C
100
AcDbEntity
  8
NOTE
  6
CONTINUOUS
 62
     4
100
AcDbLine
 10
1308.997826
 20
788.937793
 30
0.0
 11
1308.997826
 21
548.937793
 31
0.0
  0
TEXT
  5
52D
100
AcDbEntity
  8
SIZE
  6
CONTINUOUS
 62
    30
100
AcDbText
 10
1085.35497
 20
900.51364
 30
0.0
 40
55.0
  1
320
 41
0.9
 72
     1
 11
1148.997827
 21
900.51364
 31
0.0
100
AcDbText
  0
LINE
  5
52E
100
AcDbEntity
  8
SIZE
  6
CONTINUOUS
 62
    30
100
AcDbLine
 10
998.99782
 20
882.51364
 30
0.0
 11
1298.997827
 21
882.51364
 31
0.0
  0
LINE
  5
52F
100
AcDbEntity
  8
SIZE
  6
CONTINUOUS
 62
    30
100
AcDbLine
 10
988.99782
 20
808.937792
 30
0.0
 11
988.99782
 21
912.51364
 31
0.0
  0
POINT
  5
530
100
AcDbEntity
  8
DEFPOINTS
  6
CONTINUOUS
 62
     7
100
AcDbPoint
 10
988.99782
 20
788.937792
 30
0.0
  0
LINE
  5
531
100
AcDbEntity
  8
SIZE
  6
CONTINUOUS
 62
    30
100
AcDbLine
 10
993.99782
 20
882.51364
 30
0.0
 11
998.99782
 21
882.51364
 31
0.0
  0
CIRCLE
  5
532
100
AcDbEntity
  8
SIZE
  6
CONTINUOUS
 62
    30
100
AcDbCircle
 10
988.99782
 20
882.51364
 30
0.0
 40
5.0
  0
LINE
  5
533
100
AcDbEntity
  8
SIZE
  6
CONTINUOUS
 62
    30
100
AcDbLine
 10
1308.997827
 20
808.937792
 30
0.0
 11
1308.997827
 21
912.51364
 31
0.0
  0
LINE
  5
534
100
AcDbEntity
  8
SIZE
  6
CONTINUOUS
 62
    30
100
AcDbLine
 10
1308.997827
 20
808.937792
 30
0.0
 11
1308.997827
 21
912.513671
 31
0.0
  0
POINT
  5
535
100
AcDbEntity
  8
DEFPOINTS
  6
CONTINUOUS
 62
     7
100
AcDbPoint
 10
1308.997827
 20
788.937792
 30
0.0
  0
POINT
  5
536
100
AcDbEntity
  8
DEFPOINTS
  6
CONTINUOUS
 62
     7
100
AcDbPoint
 10
1308.997827
 20
788.937792
 30
0.0
  0
POINT
  5
537
100
AcDbEntity
  8
DEFPOINTS
  6
CONTINUOUS
 62
     7
100
AcDbPoint
 10
1308.997827
 20
882.51364
 30
0.0
  0
LINE
  5
538
100
AcDbEntity
  8
SIZE
  6
CONTINUOUS
 62
    30
100
AcDbLine
 10
1303.997827
 20
882.51364
 30
0.0
 11
1298.997827
 21
882.51364
 31
0.0
  0
CIRCLE
  5
539
100
AcDbEntity
  8
SIZE
  6
CONTINUOUS
 62
    30
100
AcDbCircle
 10
1308.997827
 20
882.51364
 30
0.0
 40
5.0
  0
LINE
  5
53A
100
AcDbEntity
  8
SIZE
  6
CONTINUOUS
 62
    30
100
AcDbLine
 10
1313.997827
 20
882.513671
 30
0.0
 11
1318.997827
 21
882.513671
 31
0.0
  0
CIRCLE
  5
53B
100
AcDbEntity
  8
SIZE
  6
CONTINUOUS
 62
    30
100
AcDbCircle
 10
1308.997827
 20
882.513671
 30
0.0
 40
5.0
  0
LINE
  5
53C
100
AcDbEntity
  8
NOTE
  6
CONTINUOUS
 62
     4
100
AcDbLine
 10
1628.997826
 20
668.937793
 30
0.0
 11
1656.846029
 21
689.107753
 31
0.0
  0
CIRCLE
  5
53D
100
AcDbEntity
  8
DETAIL
  6
CONTINUOUS
 62
     5
100
AcDbCircle
 10
1628.997826
 20
668.937793
 30
0.0
 40
100.0
  0
CIRCLE
  5
53E
100
AcDbEntity
  8
DETAIL
  6
CONTINUOUS
 62
     5
100
AcDbCircle
 10
1628.997826
 20
668.937793
 30
0.0
 40
85.5
  0
LINE
  5
53F
100
AcDbEntity
  8
NOTE
  6
CONTINUOUS
 62
     4
100
AcDbLine
 10
1628.997826
 20
788.937793
 30
0.0
 11
1628.997826
 21
548.937793
 31
0.0
  0
LINE
  5
540
100
AcDbEntity
  8
DETAIL
  6
CONTINUOUS
 62
     5
100
AcDbLine
 10
1826.997826
 20
573.937793
 30
0.0
 11
1826.997826
 21
769.937793
 31
0.0
  0
LINE
  5
541
100
AcDbEntity
  8
NOTE
  6
CONTINUOUS
 62
     4
100
AcDbLine
 10
1748.997826
 20
668.937793
 30
0.0
 11
1508.997826
 21
668.937793
 31
0.0
  0
LINE
  5
542
100
AcDbEntity
  8
DETAIL
  6
CONTINUOUS
 62
     5
100
AcDbLine
 10
1843.997826
 20
523.937793
 30
0.0
 11
1843.997826
 21
511.937793
 31
0.0
  0
LINE
  5
543
100
AcDbEntity
  8
DETAIL
  6
CONTINUOUS
 62
     5
100
AcDbLine
 10
1843.997826
 20
523.937793
 30
0.0
 11
1843.997826
 21
511.937793
 31
0.0
  0
TEXT
  5
544
100
AcDbEntity
  8
SIZE
  6
CONTINUOUS
 62
    30
100
AcDbText
 10
1801.640684
 20
448.707302
 30
0.0
 40
55.0
  1
4
 41
0.9
 72
     1
 11
1819.319255
 21
448.707302
 31
0.0
100
AcDbText
  0
LINE
  5
545
100
AcDbEntity
  8
NOTE
  6
CONTINUOUS
 62
     4
100
AcDbLine
 10
1628.997826
 20
668.937793
 30
0.0
 11
1663.200057
 21
672.481388
 31
0.0
  0
POINT
  5
546
100
AcDbEntity
  8
DEFPOINTS
  6
CONTINUOUS
 62
     7
100
AcDbPoint
 10
1748.997826
 20
668.937793
 30
0.0
  0
LINE
  5
547
100
AcDbEntity
  8
DETAIL
  6
CONTINUOUS
 62
     5
100
AcDbLine
 10
1826.997826
 20
600.337793
 30
0.0
 11
1826.997826
 21
599.737793
 31
0.0
  0
ARC
  5
548
100
AcDbEntity
  8
DETAIL
  6
CONTINUOUS
 62
     5
100
AcDbCircle
 10
1816.997826
 20
573.937793
 30
0.0
 40
10.0
100
AcDbArc
 50
270.0
 51
0.0
  0
LINE
  5
549
100
AcDbEntity
  8
DETAIL
  6
CONTINUOUS
 62
     5
100
AcDbLine
 10
1843.997826
 20
523.937793
 30
0.0
 11
1840.997826
 21
526.937793
 31
0.0
  0
LINE
  5
54A
100
AcDbEntity
  8
DETAIL
  6
CONTINUOUS
 62
     5
100
AcDbLine
 10
1843.997826
 20
523.937793
 30
0.0
 11
1840.997826
 21
526.937793
 31
0.0
  0
LINE
  5
54B
100
AcDbEntity
  8
SIZE
  6
CONTINUOUS
 62
    30
100
AcDbLine
 10
1623.99782
 20
882.513671
 30
0.0
 11
1618.99782
 21
882.513671
 31
0.0
  0
TEXT
  5
54C
100
AcDbEntity
  8
SIZE
  6
CONTINUOUS
 62
    30
100
AcDbText
 10
1405.354962
 20
900.513671
 30
0.0
 40
55.0
  1
320
 41
0.9
 72
     1
 11
1468.997819
 21
900.513671
 31
0.0
100
AcDbText
  0
LINE
  5
54D
100
AcDbEntity
  8
SIZE
  6
CONTINUOUS
 62
    30
100
AcDbLine
 10
1628.99782
 20
808.937792
 30
0.0
 11
1628.99782
 21
912.513671
 31
0.0
  0
LINE
  5
54E
100
AcDbEntity
  8
SIZE
  6
CONTINUOUS
 62
    30
100
AcDbLine
 10
1628.99782
 20
808.937792
 30
0.0
 11
1628.99782
 21
912.51364
 31
0.0
  0
POINT
  5
54F
100
AcDbEntity
  8
DEFPOINTS
  6
CONTINUOUS
 62
     7
100
AcDbPoint
 10
1628.99782
 20
788.937792
 30
0.0
  0
POINT
  5
550
100
AcDbEntity
  8
DEFPOINTS
  6
CONTINUOUS
 62
     7
100
AcDbPoint
 10
1628.99782
 20
788.937792
 30
0.0
  0
ARC
  5
551
100
AcDbEntity
  8
DETAIL
  6
CONTINUOUS
 62
     5
100
AcDbCircle
 10
1816.997826
 20
769.937793
 30
0.0
 40
10.0
100
AcDbArc
 50
0.0
 51
90.0
  0
TEXT
  5
552
100
AcDbEntity
  8
SIZE
  6
CONTINUOUS
 62
    30
100
AcDbText
 10
1680.354962
 20
900.51364
 30
0.0
 40
55.0
  1
230
 41
0.9
 72
     1
 11
1743.997819
 21
900.51364
 31
0.0
100
AcDbText
  0
POINT
  5
553
100
AcDbEntity
  8
DEFPOINTS
  6
CONTINUOUS
 62
     7
100
AcDbPoint
 10
1628.99782
 20
882.513671
 30
0.0
  0
CIRCLE
  5
554
100
AcDbEntity
  8
SIZE
  6
CONTINUOUS
 62
    30
100
AcDbCircle
 10
1628.99782
 20
882.513671
 30
0.0
 40
5.0
  0
LINE
  5
555
100
AcDbEntity
  8
SIZE
  6
CONTINUOUS
 62
    30
100
AcDbLine
 10
1633.99782
 20
882.51364
 30
0.0
 11
1638.99782
 21
882.51364
 31
0.0
  0
CIRCLE
  5
556
100
AcDbEntity
  8
SIZE
  6
CONTINUOUS
 62
    30
100
AcDbCircle
 10
1628.99782
 20
882.51364
 30
0.0
 40
5.0
  0
TEXT
  5
557
100
AcDbEntity
  8
SIZE
  6
CONTINUOUS
 62
    30
100
AcDbText
 10
1201.212112
 20
1190.04099
 30
0.0
 40
55.0
  1
1160
 41
0.9
 72
     1
 11
1278.997826
 21
1190.04099
 31
0.0
100
AcDbText
  0
TEXT
  5
558
100
AcDbEntity
  8
SIZE
  6
CONTINUOUS
 62
    30
100
AcDbText
 10
1199.061647
 20
1419.087567
 30
0.0
 40
55.0
  1
1192
 41
0.9
 72
     1
 11
1276.847361
 21
1419.087567
 31
0.0
100
AcDbText
  0
LINE
  5
559
100
AcDbEntity
  8
SIZE
  6
CONTINUOUS
 62
    30
100
AcDbLine
 10
1841.997826
 20
1289.100215
 30
0.0
 11
1831.997826
 21
1289.100215
 31
0.0
  0
LINE
  5
55A
100
AcDbEntity
  8
SIZE
  6
CONTINUOUS
 62
    30
100
AcDbLine
 10
1874.997826
 20
820.637793
 30
0.0
 11
1874.997826
 21
1319.100215
 31
0.0
  0
LINE
  5
55B
100
AcDbEntity
  8
SIZE
  6
CONTINUOUS
 62
    30
100
AcDbLine
 10
1851.997826
 20
839.932959
 30
0.0
 11
1851.997826
 21
1319.100215
 31
0.0
  0
LINE
  5
55C
100
AcDbEntity
  8
SIZE
  6
CONTINUOUS
 62
    30
100
AcDbLine
 10
1851.997826
 20
839.932959
 30
0.0
 11
1851.997826
 21
1319.100215
 31
0.0
  0
LINE
  5
55D
100
AcDbEntity
  8
SIZE
  6
CONTINUOUS
 62
    30
100
AcDbLine
 10
1874.997826
 20
820.637793
 30
0.0
 11
1874.997826
 21
1202.04099
 31
0.0
  0
LINE
  5
55E
100
AcDbEntity
  8
SIZE
  6
CONTINUOUS
 62
    30
100
AcDbLine
 10
1858.997826
 20
824.937793
 30
0.0
 11
1858.997826
 21
1202.04099
 31
0.0
  0
LINE
  5
55F
100
AcDbEntity
  8
SIZE
  6
CONTINUOUS
 62
    30
100
AcDbLine
 10
1858.997826
 20
824.937793
 30
0.0
 11
1858.997826
 21
1202.04099
 31
0.0
  0
LINE
  5
560
100
AcDbEntity
  8
NOTE
  6
CONTINUOUS
 62
     4
100
AcDbLine
 10
1962.901451
 20
994.615862
 30
0.0
 11
1851.997872
 21
804.937763
 31
0.0
  0
LINE
  5
561
100
AcDbEntity
  8
SIZE
  6
CONTINUOUS
 62
    30
100
AcDbLine
 10
1874.997826
 20
819.037793
 30
0.0
 11
1874.997826
 21
1431.087567
 31
0.0
  0
LINE
  5
562
100
AcDbEntity
  8
SIZE
  6
CONTINUOUS
 62
    30
100
AcDbLine
 10
1918.756512
 20
371.937793
 30
0.0
 11
2375.154004
 21
371.937793
 31
0.0
  0
LINE
  5
563
100
AcDbEntity
  8
SIZE
  6
CONTINUOUS
 62
    30
100
AcDbLine
 10
1878.756512
 20
511.937793
 30
0.0
 11
2375.154004
 21
511.937793
 31
0.0
  0
TEXT
  5
564
100
AcDbEntity
  8
NOTE
  6
CONTINUOUS
 62
     4
100
AcDbText
 10
2011.516188
 20
842.4186
 30
0.0
 40
60.0
  1
%%C200 吹出円形フランジ
 50
0.000003
 41
0.7
  7
STANDARD1
100
AcDbText
  0
LINE
  5
565
100
AcDbEntity
  8
NOTE
  6
CONTINUOUS
 62
     4
100
AcDbLine
 10
2589.45988
 20
827.622933
 30
0.0
 11
1993.600296
 21
827.622933
 31
0.0
  0
TEXT
  5
566
100
AcDbEntity
  8
SIZE
  6
CONTINUOUS
 62
    30
100
AcDbText
 10
2327.154004
 20
594.794936
 30
0.0
 40
55.0
  1
293
 50
90.0
 41
0.9
 72
     1
 11
2327.154004
 21
658.437793
 31
0.0
100
AcDbText
  0
LINE
  5
567
100
AcDbEntity
  8
SIZE
  6
CONTINUOUS
 62
    30
100
AcDbLine
 10
1890.697826
 20
804.937793
 30
0.0
 11
2375.154004
 21
804.937793
 31
0.0
  0
LINE
  5
568
100
AcDbEntity
  8
SIZE
  6
CONTINUOUS
 62
    30
100
AcDbLine
 10
1878.997826
 20
511.937793
 30
0.0
 11
2375.154004
 21
511.937793
 31
0.0
  0
LINE
  5
569
100
AcDbEntity
  8
SIZE
  6
CONTINUOUS
 62
    30
100
AcDbLine
 10
1874.997826
 20
879.937793
 30
0.0
 11
1874.997826
 21
400.707302
 31
0.0
  0
LINE
  5
56A
100
AcDbEntity
  8
SIZE
  6
CONTINUOUS
 62
    30
100
AcDbLine
 10
2179.881664
 20
804.937793
 30
0.0
 11
2179.881664
 21
668.937793
 31
0.0
  0
LINE
  5
56B
100
AcDbEntity
  8
OUTLINE
  6
CONTINUOUS
 62
     3
100
AcDbLine
 10
1858.997826
 20
804.937793
 30
0.0
 11
1858.997826
 21
511.937793
 31
0.0
  0
LINE
  5
56C
100
AcDbEntity
  8
DETAIL
  6
CONTINUOUS
 62
     5
100
AcDbLine
 10
1858.997826
 20
544.337793
 30
0.0
 11
1858.997826
 21
802.337793
 31
0.0
  0
LINE
  5
56D
100
AcDbEntity
  8
SIZE
  6
CONTINUOUS
 62
    30
100
AcDbLine
 10
1878.997826
 20
418.937793
 30
0.0
 11
2150.642204
 21
418.937793
 31
0.0
  0
LINE
  5
56E
100
AcDbEntity
  8
SIZE
  6
CONTINUOUS
 62
    30
100
AcDbLine
 10
1918.997826
 20
371.937793
 30
0.0
 11
2150.642204
 21
371.937793
 31
0.0
  0
LINE
  5
56F
100
AcDbEntity
  8
SIZE
  6
CONTINUOUS
 62
    30
100
AcDbLine
 10
1918.997826
 20
371.937793
 30
0.0
 11
2150.642204
 21
371.937793
 31
0.0
  0
LINE
  5
570
100
AcDbEntity
  8
DETAIL
  6
CONTINUOUS
 62
     5
100
AcDbLine
 10
1858.997826
 20
594.137793
 30
0.0
 11
1858.997826
 21
511.937793
 31
0.0
  0
LINE
  5
571
100
AcDbEntity
  8
DETAIL
  6
CONTINUOUS
 62
     5
100
AcDbLine
 10
1858.997826
 20
594.137793
 30
0.0
 11
1858.997826
 21
512.737793
 31
0.0
  0
LINE
  5
572
100
AcDbEntity
  8
DETAIL
  6
CONTINUOUS
 62
     5
100
AcDbLine
 10
1858.997826
 20
594.137793
 30
0.0
 11
1858.997826
 21
512.737793
 31
0.0
  0
LINE
  5
573
100
AcDbEntity
  8
NOTE
  6
CONTINUOUS
 62
     4
100
AcDbLine
 10
1940.040266
 20
372.937793
 30
0.0
 11
1960.040266
 21
392.937793
 31
0.0
  0
LINE
  5
574
100
AcDbEntity
  8
NOTE
  6
CONTINUOUS
 62
     4
100
AcDbLine
 10
1878.997826
 20
372.937793
 30
0.0
 11
1980.305275
 21
372.937793
 31
0.0
  0
LINE
  5
575
100
AcDbEntity
  8
NOTE
  6
CONTINUOUS
 62
     4
100
AcDbLine
 10
1878.997826
 20
392.937793
 30
0.0
 11
1980.305275
 21
392.937793
 31
0.0
  0
POINT
  5
576
100
AcDbEntity
  8
DEFPOINTS
  6
CONTINUOUS
 62
     7
100
AcDbPoint
 10
1898.756512
 20
371.937793
 30
0.0
  0
POINT
  5
577
100
AcDbEntity
  8
DEFPOINTS
  6
CONTINUOUS
 62
     7
100
AcDbPoint
 10
1858.756512
 20
511.937793
 30
0.0
  0
POINT
  5
578
100
AcDbEntity
  8
DEFPOINTS
  6
CONTINUOUS
 62
     7
100
AcDbPoint
 10
1858.997826
 20
418.937793
 30
0.0
  0
POINT
  5
579
100
AcDbEntity
  8
DEFPOINTS
  6
CONTINUOUS
 62
     7
100
AcDbPoint
 10
1898.997826
 20
371.937793
 30
0.0
  0
POINT
  5
57A
100
AcDbEntity
  8
DEFPOINTS
  6
CONTINUOUS
 62
     7
100
AcDbPoint
 10
1898.997826
 20
371.937793
 30
0.0
  0
POINT
  5
57B
100
AcDbEntity
  8
DEFPOINTS
  6
CONTINUOUS
 62
     7
100
AcDbPoint
 10
1874.997826
 20
430.707302
 30
0.0
  0
POINT
  5
57C
100
AcDbEntity
  8
DEFPOINTS
  6
CONTINUOUS
 62
     7
100
AcDbPoint
 10
1878.997826
 20
392.937793
 30
0.0
  0
LINE
  5
57D
100
AcDbEntity
  8
SIZE
  6
CONTINUOUS
 62
    30
100
AcDbLine
 10
1869.997826
 20
430.707302
 30
0.0
 11
1864.997826
 21
430.707302
 31
0.0
  0
CIRCLE
  5
57E
100
AcDbEntity
  8
SIZE
  6
CONTINUOUS
 62
    30
100
AcDbCircle
 10
1874.997826
 20
430.707302
 30
0.0
 40
5.0
  0
LINE
  5
57F
100
AcDbEntity
  8
SIZE
  6
CONTINUOUS
 62
    30
100
AcDbLine
 10
1883.997826
 20
430.707302
 30
0.0
 11
1888.997826
 21
430.707302
 31
0.0
  0
CIRCLE
  5
580
100
AcDbEntity
  8
SIZE
  6
CONTINUOUS
 62
    30
100
AcDbCircle
 10
1878.997826
 20
430.707302
 30
0.0
 40
5.0
  0
LINE
  5
581
100
AcDbEntity
  8
SIZE
  6
CONTINUOUS
 62
    30
100
AcDbLine
 10
1878.997826
 20
430.707302
 30
0.0
 11
1874.997826
 21
430.707302
 31
0.0
  0
LINE
  5
582
100
AcDbEntity
  8
SIZE
  6
CONTINUOUS
 62
    30
100
AcDbLine
 10
1888.997826
 20
430.707302
 30
0.0
 11
1898.997826
 21
430.707302
 31
0.0
  0
LINE
  5
583
100
AcDbEntity
  8
SIZE
  6
CONTINUOUS
 62
    30
100
AcDbLine
 10
1878.997826
 20
412.937793
 30
0.0
 11
1878.997826
 21
460.707302
 31
0.0
  0
POINT
  5
584
100
AcDbEntity
  8
DEFPOINTS
  6
CONTINUOUS
 62
     7
100
AcDbPoint
 10
1878.997826
 20
372.937793
 30
0.0
  0
POINT
  5
585
100
AcDbEntity
  8
DEFPOINTS
  6
CONTINUOUS
 62
     7
100
AcDbPoint
 10
1878.997826
 20
372.937793
 30
0.0
  0
LINE
  5
586
100
AcDbEntity
  8
OUTLINE
  6
CONTINUOUS
 62
     3
100
AcDbLine
 10
1858.997826
 20
371.937793
 30
0.0
 11
1898.997826
 21
371.937793
 31
0.0
  0
LINE
  5
587
100
AcDbEntity
  8
OUTLINE
  6
CONTINUOUS
 62
     3
100
AcDbLine
 10
1858.997826
 20
371.937793
 30
0.0
 11
1863.997826
 21
371.937793
 31
0.0
  0
LINE
  5
588
100
AcDbEntity
  8
OUTLINE
  6
CONTINUOUS
 62
     3
100
AcDbLine
 10
1858.997826
 20
371.937793
 30
0.0
 11
1858.997826
 21
418.937793
 31
0.0
  0
POINT
  5
589
100
AcDbEntity
  8
DEFPOINTS
  6
CONTINUOUS
 62
     7
100
AcDbPoint
 10
1858.997826
 20
511.937793
 30
0.0
  0
LINE
  5
58A
100
AcDbEntity
  8
NOTE
  6
CONTINUOUS
 62
     4
100
AcDbLine
 10
1890.040266
 20
372.937793
 30
0.0
 11
1910.040266
 21
392.937793
 31
0.0
  0
LINE
  5
58B
100
AcDbEntity
  8
NOTE
  6
CONTINUOUS
 62
     4
100
AcDbLine
 10
1930.040266
 20
372.937793
 30
0.0
 11
1950.040266
 21
392.937793
 31
0.0
  0
LINE
  5
58C
100
AcDbEntity
  8
NOTE
  6
CONTINUOUS
 62
     4
100
AcDbLine
 10
1895.040266
 20
372.937793
 30
0.0
 11
1915.040266
 21
392.937793
 31
0.0
  0
LINE
  5
58D
100
AcDbEntity
  8
NOTE
  6
CONTINUOUS
 62
     4
100
AcDbLine
 10
1935.040266
 20
372.937793
 30
0.0
 11
1955.040266
 21
392.937793
 31
0.0
  0
LINE
  5
58E
100
AcDbEntity
  8
NOTE
  6
CONTINUOUS
 62
     4
100
AcDbLine
 10
1900.040266
 20
372.937793
 30
0.0
 11
1920.040266
 21
392.937793
 31
0.0
  0
LINE
  5
58F
100
AcDbEntity
  8
NOTE
  6
CONTINUOUS
 62
     4
100
AcDbLine
 10
1878.997826
 20
372.937793
 30
0.0
 11
1878.997826
 21
392.937793
 31
0.0
  0
LINE
  5
590
100
AcDbEntity
  8
DETAIL
  6
CONTINUOUS
 62
     5
100
AcDbLine
 10
1858.997826
 20
371.937793
 30
0.0
 11
1898.997826
 21
371.937793
 31
0.0
  0
LINE
  5
591
100
AcDbEntity
  8
DETAIL
  6
CONTINUOUS
 62
     5
100
AcDbLine
 10
1858.997826
 20
371.937793
 30
0.0
 11
1863.997826
 21
371.937793
 31
0.0
  0
LINE
  5
592
100
AcDbEntity
  8
DETAIL
  6
CONTINUOUS
 62
     5
100
AcDbLine
 10
1858.997826
 20
371.937793
 30
0.0
 11
1858.997826
 21
418.937793
 31
0.0
  0
ARC
  5
593
100
AcDbEntity
  8
DETAIL
  6
CONTINUOUS
 62
     5
100
AcDbCircle
 10
1853.997826
 20
544.337793
 30
0.0
 40
5.0
100
AcDbArc
 50
270.0
 51
0.0
  0
POINT
  5
594
100
AcDbEntity
  8
DEFPOINTS
  6
CONTINUOUS
 62
     7
100
AcDbPoint
 10
2120.642204
 20
418.937793
 30
0.0
  0
LINE
  5
595
100
AcDbEntity
  8
SIZE
  6
CONTINUOUS
 62
    30
100
AcDbLine
 10
2120.642204
 20
423.937793
 30
0.0
 11
2120.642204
 21
428.937793
 31
0.0
  0
CIRCLE
  5
596
100
AcDbEntity
  8
SIZE
  6
CONTINUOUS
 62
    30
100
AcDbCircle
 10
2120.642204
 20
418.937793
 30
0.0
 40
5.0
  0
LINE
  5
597
100
AcDbEntity
  8
SIZE
  6
CONTINUOUS
 62
    30
100
AcDbLine
 10
2120.642204
 20
371.937793
 30
0.0
 11
2120.642204
 21
418.937793
 31
0.0
  0
LINE
  5
598
100
AcDbEntity
  8
SIZE
  6
CONTINUOUS
 62
    30
100
AcDbLine
 10
2120.642204
 20
371.937793
 30
0.0
 11
2120.642204
 21
418.937793
 31
0.0
  0
LINE
  5
599
100
AcDbEntity
  8
SIZE
  6
CONTINUOUS
 62
    30
100
AcDbLine
 10
2120.642204
 20
428.937793
 30
0.0
 11
2120.642204
 21
438.937793
 31
0.0
  0
POINT
  5
59A
100
AcDbEntity
  8
DEFPOINTS
  6
CONTINUOUS
 62
     7
100
AcDbPoint
 10
2120.642204
 20
371.937793
 30
0.0
  0
LINE
  5
59B
100
AcDbEntity
  8
SIZE
  6
CONTINUOUS
 62
    30
100
AcDbLine
 10
2120.642204
 20
376.937793
 30
0.0
 11
2120.642204
 21
381.937793
 31
0.0
  0
LINE
  5
59C
100
AcDbEntity
  8
SIZE
  6
CONTINUOUS
 62
    30
100
AcDbLine
 10
2120.642204
 20
381.937793
 30
0.0
 11
2120.642204
 21
391.937793
 31
0.0
  0
CIRCLE
  5
59D
100
AcDbEntity
  8
SIZE
  6
CONTINUOUS
 62
    30
100
AcDbCircle
 10
2179.881664
 20
668.937793
 30
0.0
 40
5.0
  0
POINT
  5
59E
100
AcDbEntity
  8
DEFPOINTS
  6
CONTINUOUS
 62
     7
100
AcDbPoint
 10
2179.881664
 20
668.937793
 30
0.0
  0
LINE
  5
59F
100
AcDbEntity
  8
SIZE
  6
CONTINUOUS
 62
    30
100
AcDbLine
 10
2179.881664
 20
663.937793
 30
0.0
 11
2179.881664
 21
658.937793
 31
0.0
  0
LINE
  5
5A0
100
AcDbEntity
  8
SIZE
  6
CONTINUOUS
 62
    30
100
AcDbLine
 10
2179.881664
 20
658.937793
 30
0.0
 11
2179.881664
 21
648.937793
 31
0.0
  0
LINE
  5
5A1
100
AcDbEntity
  8
SIZE
  6
CONTINUOUS
 62
    30
100
AcDbLine
 10
1890.697826
 20
804.937793
 30
0.0
 11
2209.881664
 21
804.937793
 31
0.0
  0
LINE
  5
5A2
100
AcDbEntity
  8
NOTE
  6
CONTINUOUS
 62
     4
100
AcDbLine
 10
1851.998187
 20
804.938262
 30
0.0
 11
1861.009093
 21
838.121891
 31
0.0
  0
LINE
  5
5A3
100
AcDbEntity
  8
NOTE
  6
CONTINUOUS
 62
     4
100
AcDbLine
 10
1851.998187
 20
804.938262
 30
0.0
 11
1876.393676
 21
829.170675
 31
0.0
  0
LINE
  5
5A4
100
AcDbEntity
  8
SIZE
  6
CONTINUOUS
 62
    30
100
AcDbLine
 10
1858.99782
 20
821.937792
 30
0.0
 11
1858.99782
 21
912.51364
 31
0.0
  0
POINT
  5
5A5
100
AcDbEntity
  8
DEFPOINTS
  6
CONTINUOUS
 62
     7
100
AcDbPoint
 10
1874.997826
 20
800.637793
 30
0.0
  0
POINT
  5
5A6
100
AcDbEntity
  8
DEFPOINTS
  6
CONTINUOUS
 62
     7
100
AcDbPoint
 10
1851.997826
 20
819.932959
 30
0.0
  0
POINT
  5
5A7
100
AcDbEntity
  8
DEFPOINTS
  6
CONTINUOUS
 62
     7
100
AcDbPoint
 10
1851.997826
 20
819.932959
 30
0.0
  0
POINT
  5
5A8
100
AcDbEntity
  8
DEFPOINTS
  6
CONTINUOUS
 62
     7
100
AcDbPoint
 10
1874.997826
 20
800.637793
 30
0.0
  0
POINT
  5
5A9
100
AcDbEntity
  8
DEFPOINTS
  6
CONTINUOUS
 62
     7
100
AcDbPoint
 10
1858.997826
 20
804.937793
 30
0.0
  0
POINT
  5
5AA
100
AcDbEntity
  8
DEFPOINTS
  6
CONTINUOUS
 62
     7
100
AcDbPoint
 10
1858.997826
 20
804.937793
 30
0.0
  0
POINT
  5
5AB
100
AcDbEntity
  8
DEFPOINTS
  6
CONTINUOUS
 62
     7
100
AcDbPoint
 10
1870.697826
 20
804.937793
 30
0.0
  0
POINT
  5
5AC
100
AcDbEntity
  8
DEFPOINTS
  6
CONTINUOUS
 62
     7
100
AcDbPoint
 10
1870.697826
 20
804.937793
 30
0.0
  0
LINE
  5
5AD
100
AcDbEntity
  8
NOTE
  6
CONTINUOUS
 62
     4
100
AcDbLine
 10
1851.997826
 20
789.942627
 30
0.0
 11
1851.997826
 21
819.932959
 31
0.0
  0
POINT
  5
5AE
100
AcDbEntity
  8
DEFPOINTS
  6
CONTINUOUS
 62
     7
100
AcDbPoint
 10
1874.997826
 20
799.037793
 30
0.0
  0
LINE
  5
5AF
100
AcDbEntity
  8
DETAIL
  6
CONTINUOUS
 62
     5
100
AcDbLine
 10
1858.997826
 20
802.637793
 30
0.0
 11
1870.697826
 21
802.637793
 31
0.0
  0
LINE
  5
5B0
100
AcDbEntity
  8
DETAIL
  6
CONTINUOUS
 62
     5
100
AcDbLine
 10
1858.997826
 20
804.937793
 30
0.0
 11
1870.697826
 21
804.937793
 31
0.0
  0
LINE
  5
5B1
100
AcDbEntity
  8
DETAIL
  6
CONTINUOUS
 62
     5
100
AcDbLine
 10
1872.697826
 20
792.937793
 30
0.0
 11
1874.997826
 21
792.937793
 31
0.0
  0
LINE
  5
5B2
100
AcDbEntity
  8
DETAIL
  6
CONTINUOUS
 62
     5
100
AcDbLine
 10
1872.697826
 20
800.637793
 30
0.0
 11
1872.697826
 21
792.937793
 31
0.0
  0
ARC
  5
5B3
100
AcDbEntity
  8
DETAIL
  6
CONTINUOUS
 62
     5
100
AcDbCircle
 10
1870.697826
 20
800.637793
 30
0.0
 40
2.0
100
AcDbArc
 50
0.0
 51
90.0
  0
LINE
  5
5B4
100
AcDbEntity
  8
DETAIL
  6
CONTINUOUS
 62
     5
100
AcDbLine
 10
1874.997826
 20
800.637793
 30
0.0
 11
1874.997826
 21
792.937793
 31
0.0
  0
ARC
  5
5B5
100
AcDbEntity
  8
DETAIL
  6
CONTINUOUS
 62
     5
100
AcDbCircle
 10
1870.697826
 20
800.637793
 30
0.0
 40
4.3
100
AcDbArc
 50
0.0
 51
90.0
  0
LINE
  5
5B6
100
AcDbEntity
  8
DETAIL
  6
CONTINUOUS
 62
     5
100
AcDbLine
 10
1872.697826
 20
792.937793
 30
0.0
 11
1874.997826
 21
792.937793
 31
0.0
  0
LINE
  5
5B7
100
AcDbEntity
  8
DETAIL
  6
CONTINUOUS
 62
     5
100
AcDbLine
 10
1872.697826
 20
800.637793
 30
0.0
 11
1872.697826
 21
792.937793
 31
0.0
  0
ARC
  5
5B8
100
AcDbEntity
  8
DETAIL
  6
CONTINUOUS
 62
     5
100
AcDbCircle
 10
1870.697826
 20
800.637793
 30
0.0
 40
2.0
100
AcDbArc
 50
0.0
 51
90.0
  0
LINE
  5
5B9
100
AcDbEntity
  8
DETAIL
  6
CONTINUOUS
 62
     5
100
AcDbLine
 10
1858.997826
 20
802.637793
 30
0.0
 11
1870.697826
 21
802.637793
 31
0.0
  0
LINE
  5
5BA
100
AcDbEntity
  8
DETAIL
  6
CONTINUOUS
 62
     5
100
AcDbLine
 10
1858.997826
 20
804.937793
 30
0.0
 11
1870.697826
 21
804.937793
 31
0.0
  0
LINE
  5
5BB
100
AcDbEntity
  8
DETAIL
  6
CONTINUOUS
 62
     5
100
AcDbLine
 10
1874.997826
 20
800.637793
 30
0.0
 11
1874.997826
 21
792.937793
 31
0.0
  0
ARC
  5
5BC
100
AcDbEntity
  8
DETAIL
  6
CONTINUOUS
 62
     5
100
AcDbCircle
 10
1870.697826
 20
800.637793
 30
0.0
 40
4.3
100
AcDbArc
 50
0.0
 51
90.0
  0
LINE
  5
5BD
100
AcDbEntity
  8
DETAIL
  6
CONTINUOUS
 62
     5
100
AcDbLine
 10
1855.997826
 20
775.537793
 30
0.0
 11
1858.997826
 21
778.537793
 31
0.0
  0
LINE
  5
5BE
100
AcDbEntity
  8
DETAIL
  6
CONTINUOUS
 62
     5
100
AcDbLine
 10
1858.997826
 20
804.937793
 30
0.0
 11
1858.997826
 21
778.537793
 31
0.0
  0
LINE
  5
5BF
100
AcDbEntity
  8
DETAIL
  6
CONTINUOUS
 62
     5
100
AcDbLine
 10
1858.997826
 20
804.937793
 30
0.0
 11
1858.997826
 21
778.537793
 31
0.0
  0
POINT
  5
5C0
100
AcDbEntity
  8
DEFPOINTS
  6
CONTINUOUS
 62
     7
100
AcDbPoint
 10
1858.99782
 20
801.937792
 30
0.0
  0
POINT
  5
5C1
100
AcDbEntity
  8
DEFPOINTS
  6
CONTINUOUS
 62
     7
100
AcDbPoint
 10
1874.997826
 20
899.937793
 30
0.0
  0
POINT
  5
5C2
100
AcDbEntity
  8
DEFPOINTS
  6
CONTINUOUS
 62
     7
100
AcDbPoint
 10
1858.99782
 20
882.51364
 30
0.0
  0
LINE
  5
5C3
100
AcDbEntity
  8
SIZE
  6
CONTINUOUS
 62
    30
100
AcDbLine
 10
1853.99782
 20
882.51364
 30
0.0
 11
1848.99782
 21
882.51364
 31
0.0
  0
CIRCLE
  5
5C4
100
AcDbEntity
  8
SIZE
  6
CONTINUOUS
 62
    30
100
AcDbCircle
 10
1858.99782
 20
882.51364
 30
0.0
 40
5.0
  0
CIRCLE
  5
5C5
100
AcDbEntity
  8
SIZE
  6
CONTINUOUS
 62
    30
100
AcDbCircle
 10
2179.881664
 20
804.937793
 30
0.0
 40
5.0
  0
TEXT
  5
5C6
100
AcDbEntity
  8
SIZE
  6
CONTINUOUS
 62
    30
100
AcDbText
 10
2161.881664
 20
679.187793
 30
0.0
 40
55.0
  1
136
 50
90.0
 41
0.9
 72
     1
 11
2161.881664
 21
736.937793
 31
0.0
100
AcDbText
  0
LINE
  5
5C7
100
AcDbEntity
  8
SIZE
  6
CONTINUOUS
 62
    30
100
AcDbLine
 10
2179.881664
 20
809.937793
 30
0.0
 11
2179.881664
 21
814.937793
 31
0.0
  0
LINE
  5
5C8
100
AcDbEntity
  8
SIZE
  6
CONTINUOUS
 62
    30
100
AcDbLine
 10
2179.881664
 20
814.937793
 30
0.0
 11
2179.881664
 21
824.937793
 31
0.0
  0
LINE
  5
5C9
100
AcDbEntity
  8
SIZE
  6
CONTINUOUS
 62
    30
100
AcDbLine
 10
2345.154004
 20
521.937793
 30
0.0
 11
2345.154004
 21
794.937793
 31
0.0
  0
POLYLINE
  5
5CA
100
AcDbEntity
  8
SIZE
  6
CONTINUOUS
 62
    30
100
AcDb2dPolyline
 66
     1
 10
0.0
 20
0.0
 30
0.0
  0
VERTEX
  5
5CB
100
AcDbEntity
  8
SIZE
  6
CONTINUOUS
 62
    30
100
AcDbVertex
100
AcDb2dVertex
 10
2551.398886
 20
374.590108
 30
0.0
 42
0.186174
  0
VERTEX
  5
5CC
100
AcDbEntity
  8
SIZE
  6
CONTINUOUS
 62
    30
100
AcDbVertex
100
AcDb2dVertex
 10
2542.549037
 20
395.539596
 30
0.0
 42
0.082105
  0
VERTEX
  5
5CD
100
AcDbEntity
  8
SIZE
  6
CONTINUOUS
 62
    30
100
AcDbVertex
100
AcDb2dVertex
 10
2526.846535
 20
407.714157
 30
0.0
 42
0.058826
  0
VERTEX
  5
5CE
100
AcDbEntity
  8
SIZE
  6
CONTINUOUS
 62
    30
100
AcDbVertex
100
AcDb2dVertex
 10
2505.060477
 20
416.489084
 30
0.0
 42
0.067494
  0
VERTEX
  5
5CF
100
AcDbEntity
  8
SIZE
  6
CONTINUOUS
 62
    30
100
AcDbVertex
100
AcDb2dVertex
 10
2467.571918
 20
421.434588
 30
0.0
 42
0.067494
  0
VERTEX
  5
5D0
100
AcDbEntity
  8
SIZE
  6
CONTINUOUS
 62
    30
100
AcDbVertex
100
AcDb2dVertex
 10
2430.083358
 20
416.489084
 30
0.0
 42
0.058826
  0
VERTEX
  5
5D1
100
AcDbEntity
  8
SIZE
  6
CONTINUOUS
 62
    30
100
AcDbVertex
100
AcDb2dVertex
 10
2408.2973
 20
407.714157
 30
0.0
 42
0.082105
  0
VERTEX
  5
5D2
100
AcDbEntity
  8
SIZE
  6
CONTINUOUS
 62
    30
100
AcDbVertex
100
AcDb2dVertex
 10
2392.594798
 20
395.539596
 30
0.0
 42
0.186174
  0
VERTEX
  5
5D3
100
AcDbEntity
  8
SIZE
  6
CONTINUOUS
 62
    30
100
AcDbVertex
100
AcDb2dVertex
 10
2383.744949
 20
374.590108
 30
0.0
 42
0.186174
  0
SEQEND
  5
5D4
100
AcDbEntity
  8
SIZE
  6
CONTINUOUS
 62
    30
  0
POINT
  5
5D5
100
AcDbEntity
  8
DEFPOINTS
  6
CONTINUOUS
 62
     7
100
AcDbPoint
 10
2345.154004
 20
371.937793
 30
0.0
  0
LINE
  5
5D6
100
AcDbEntity
  8
SIZE
  6
CONTINUOUS
 62
    30
100
AcDbLine
 10
2345.154004
 20
376.937793
 30
0.0
 11
2345.154004
 21
381.937793
 31
0.0
  0
LINE
  5
5D7
100
AcDbEntity
  8
SIZE
  6
CONTINUOUS
 62
    30
100
AcDbLine
 10
2345.154004
 20
506.937793
 30
0.0
 11
2345.154004
 21
501.937793
 31
0.0
  0
CIRCLE
  5
5D8
100
AcDbEntity
  8
SIZE
  6
CONTINUOUS
 62
    30
100
AcDbCircle
 10
2345.154004
 20
511.937793
 30
0.0
 40
5.0
  0
LINE
  5
5D9
100
AcDbEntity
  8
SIZE
  6
CONTINUOUS
 62
    30
100
AcDbLine
 10
2345.154004
 20
501.937793
 30
0.0
 11
2345.154004
 21
381.937793
 31
0.0
  0
LINE
  5
5DA
100
AcDbEntity
  8
SIZE
  6
CONTINUOUS
 62
    30
100
AcDbLine
 10
2345.154004
 20
516.937793
 30
0.0
 11
2345.154004
 21
521.937793
 31
0.0
  0
CIRCLE
  5
5DB
100
AcDbEntity
  8
SIZE
  6
CONTINUOUS
 62
    30
100
AcDbCircle
 10
2345.154004
 20
511.937793
 30
0.0
 40
5.0
  0
POINT
  5
5DC
100
AcDbEntity
  8
DEFPOINTS
  6
CONTINUOUS
 62
     7
100
AcDbPoint
 10
2345.154004
 20
804.937793
 30
0.0
  0
LINE
  5
5DD
100
AcDbEntity
  8
SIZE
  6
CONTINUOUS
 62
    30
100
AcDbLine
 10
2345.154004
 20
799.937793
 30
0.0
 11
2345.154004
 21
794.937793
 31
0.0
  0
CIRCLE
  5
5DE
100
AcDbEntity
  8
SIZE
  6
CONTINUOUS
 62
    30
100
AcDbCircle
 10
2345.154004
 20
804.937793
 30
0.0
 40
5.0
  0
LINE
  5
5DF
100
AcDbEntity
  8
NOTE
  6
CONTINUOUS
 62
     4
100
AcDbLine
 10
2675.91606
 20
994.615862
 30
0.0
 11
1962.901451
 21
994.615862
 31
0.0
  0
TEXT
  5
5E0
100
AcDbEntity
  8
NOTE
  6
CONTINUOUS
 62
     4
100
AcDbText
 10
1984.576722
 20
1010.442393
 30
0.0
 40
60.0
  1
AH 4-14×30長穴(M10)
 50
0.000003
 41
0.7
  7
STANDARD1
100
AcDbText
  0
CIRCLE
  5
5E1
100
AcDbEntity
  8
SIZE
  6
CONTINUOUS
 62
    30
100
AcDbCircle
 10
1874.997826
 20
1289.100215
 30
0.0
 40
5.0
  0
CIRCLE
  5
5E2
100
AcDbEntity
  8
SIZE
  6
CONTINUOUS
 62
    30
100
AcDbCircle
 10
1851.997826
 20
1289.100215
 30
0.0
 40
5.0
  0
CIRCLE
  5
5E3
100
AcDbEntity
  8
SIZE
  6
CONTINUOUS
 62
    30
100
AcDbCircle
 10
1851.997826
 20
1289.100215
 30
0.0
 40
5.0
  0
TEXT
  5
5E4
100
AcDbEntity
  8
SIZE
  6
CONTINUOUS
 62
    30
100
AcDbText
 10
1907.055714
 20
1185.76503
 30
0.0
 40
55.0
  1
16
 41
0.9
 72
     1
 11
1941.234285
 21
1185.76503
 31
0.0
100
AcDbText
  0
POINT
  5
5E5
100
AcDbEntity
  8
DEFPOINTS
  6
CONTINUOUS
 62
     7
100
AcDbPoint
 10
1874.997826
 20
1172.04099
 30
0.0
  0
LINE
  5
5E6
100
AcDbEntity
  8
SIZE
  6
CONTINUOUS
 62
    30
100
AcDbLine
 10
1879.997826
 20
1172.04099
 30
0.0
 11
1884.997826
 21
1172.04099
 31
0.0
  0
CIRCLE
  5
5E7
100
AcDbEntity
  8
SIZE
  6
CONTINUOUS
 62
    30
100
AcDbCircle
 10
1874.997826
 20
1172.04099
 30
0.0
 40
5.0
  0
LINE
  5
5E8
100
AcDbEntity
  8
SIZE
  6
CONTINUOUS
 62
    30
100
AcDbLine
 10
1853.997826
 20
1172.04099
 30
0.0
 11
1848.997826
 21
1172.04099
 31
0.0
  0
CIRCLE
  5
5E9
100
AcDbEntity
  8
SIZE
  6
CONTINUOUS
 62
    30
100
AcDbCircle
 10
1858.997826
 20
1172.04099
 30
0.0
 40
5.0
  0
LINE
  5
5EA
100
AcDbEntity
  8
SIZE
  6
CONTINUOUS
 62
    30
100
AcDbLine
 10
1858.997826
 20
1172.04099
 30
0.0
 11
1874.997826
 21
1172.04099
 31
0.0
  0
LINE
  5
5EB
100
AcDbEntity
  8
SIZE
  6
CONTINUOUS
 62
    30
100
AcDbLine
 10
1884.997826
 20
1172.04099
 30
0.0
 11
1894.997826
 21
1172.04099
 31
0.0
  0
POINT
  5
5EC
100
AcDbEntity
  8
DEFPOINTS
  6
CONTINUOUS
 62
     7
100
AcDbPoint
 10
1858.997826
 20
1172.04099
 30
0.0
  0
LINE
  5
5ED
100
AcDbEntity
  8
SIZE
  6
CONTINUOUS
 62
    30
100
AcDbLine
 10
1853.997826
 20
1172.04099
 30
0.0
 11
1848.997826
 21
1172.04099
 31
0.0
  0
CIRCLE
  5
5EE
100
AcDbEntity
  8
SIZE
  6
CONTINUOUS
 62
    30
100
AcDbCircle
 10
1858.997826
 20
1172.04099
 30
0.0
 40
5.0
  0
TEXT
  5
5EF
100
AcDbEntity
  8
SIZE
  6
CONTINUOUS
 62
    30
100
AcDbText
 10
1917.511127
 20
1307.100215
 30
0.0
 40
55.0
  1
23
 41
0.9
 72
     1
 11
1957.582556
 21
1307.100215
 31
0.0
100
AcDbText
  0
LINE
  5
5F0
100
AcDbEntity
  8
SIZE
  6
CONTINUOUS
 62
    30
100
AcDbLine
 10
2015.653985
 20
1289.100215
 30
0.0
 11
1874.997826
 21
1289.100215
 31
0.0
  0
POINT
  5
5F1
100
AcDbEntity
  8
DEFPOINTS
  6
CONTINUOUS
 62
     7
100
AcDbPoint
 10
1874.997826
 20
1289.100215
 30
0.0
  0
LINE
  5
5F2
100
AcDbEntity
  8
SIZE
  6
CONTINUOUS
 62
    30
100
AcDbLine
 10
1879.997826
 20
1289.100215
 30
0.0
 11
1884.997826
 21
1289.100215
 31
0.0
  0
LINE
  5
5F3
100
AcDbEntity
  8
SIZE
  6
CONTINUOUS
 62
    30
100
AcDbLine
 10
1851.997826
 20
1289.100215
 30
0.0
 11
1874.997826
 21
1289.100215
 31
0.0
  0
LINE
  5
5F4
100
AcDbEntity
  8
SIZE
  6
CONTINUOUS
 62
    30
100
AcDbLine
 10
1851.997826
 20
1289.100215
 30
0.0
 11
1874.997826
 21
1289.100215
 31
0.0
  0
LINE
  5
5F5
100
AcDbEntity
  8
SIZE
  6
CONTINUOUS
 62
    30
100
AcDbLine
 10
1884.997826
 20
1289.100215
 30
0.0
 11
1894.997826
 21
1289.100215
 31
0.0
  0
POINT
  5
5F6
100
AcDbEntity
  8
DEFPOINTS
  6
CONTINUOUS
 62
     7
100
AcDbPoint
 10
1851.997826
 20
1289.100215
 30
0.0
  0
POINT
  5
5F7
100
AcDbEntity
  8
DEFPOINTS
  6
CONTINUOUS
 62
     7
100
AcDbPoint
 10
1874.997826
 20
1401.087567
 30
0.0
  0
LINE
  5
5F8
100
AcDbEntity
  8
SIZE
  6
CONTINUOUS
 62
    30
100
AcDbLine
 10
1869.997826
 20
1401.087567
 30
0.0
 11
1864.997826
 21
1401.087567
 31
0.0
  0
CIRCLE
  5
5F9
100
AcDbEntity
  8
SIZE
  6
CONTINUOUS
 62
    30
100
AcDbCircle
 10
1874.997826
 20
1401.087567
 30
0.0
 40
5.0
  0
ENDBLK
  5
5FB
100
AcDbEntity
  8
0
 62
     7
100
AcDbBlockEnd
  0
ENDSEC
  0
SECTION
  2
ENTITIES
  0
LINE
  5
5FD
100
AcDbEntity
  8
OUTLINE
  6
CONTINUOUS
 62
     3
100
AcDbLine
 10
580.0
 20
0.0
 30
0.0
 11
-620.0
 21
0.0
 31
0.0
  0
TEXT
  5
5FE
100
AcDbEntity
  8
ETC
  6
CONTINUOUS
 62
    61
100
AcDbText
 10
254.375278
 20
1130.453342
 30
0.0
 40
80.0
  1
PDFY-P71_90M-E2_2
 50
0.000003
 41
0.8
100
AcDbText
  0
LINE
  5
5FF
100
AcDbEntity
  8
SIZE
  6
CONTINUOUS
 62
    30
100
AcDbLine
 10
-590.0
 20
-178.809889
 30
0.0
 11
590.0
 21
-178.809889
 31
0.0
  0
TEXT
  5
600
100
AcDbEntity
  8
SIZE
  6
CONTINUOUS
 62
    30
100
AcDbText
 10
-347.207143
 20
933.567184
 30
0.0
 40
55.0
  1
1146(吊りボルトピッチ)
 41
0.9
 72
     1
 11
0.0
 21
933.567184
 31
0.0
100
AcDbText
  0
LINE
  5
601
100
AcDbEntity
  8
SIZE
  6
CONTINUOUS
 62
    30
100
AcDbLine
 10
-563.0
 20
917.162422
 30
0.0
 11
563.0
 21
917.162422
 31
0.0
  0
LINE
  5
602
100
AcDbEntity
  8
SIZE
  6
CONTINUOUS
 62
    30
100
AcDbLine
 10
-570.0
 20
800.103197
 30
0.0
 11
570.0
 21
800.103197
 31
0.0
  0
LINE
  5
603
100
AcDbEntity
  8
OUTLINE
  6
CONTINUOUS
 62
     3
100
AcDbLine
 10
580.0
 20
47.0
 30
0.0
 11
-580.0
 21
47.0
 31
0.0
  0
LINE
  5
604
100
AcDbEntity
  8
OUTLINE
  6
CONTINUOUS
 62
     3
100
AcDbLine
 10
566.53
 20
-8.0
 30
0.0
 11
-566.53
 21
-8.0
 31
0.0
  0
LINE
  5
605
100
AcDbEntity
  8
SIZE
  6
CONTINUOUS
 62
    30
100
AcDbLine
 10
-610.0
 20
-325.067462
 30
0.0
 11
610.0
 21
-325.067462
 31
0.0
  0
LINE
  5
606
100
AcDbEntity
  8
OUTLINE
  6
CONTINUOUS
 62
     3
100
AcDbLine
 10
580.0
 20
140.0
 30
0.0
 11
-580.0
 21
140.0
 31
0.0
  0
LINE
  5
607
100
AcDbEntity
  8
OUTLINE
  6
CONTINUOUS
 62
     3
100
AcDbLine
 10
-580.0
 20
433.0
 30
0.0
 11
580.0
 21
433.0
 31
0.0
  0
LINE
  5
608
100
AcDbEntity
  8
DETAIL
  6
CONTINUOUS
 62
     5
100
AcDbLine
 10
-580.0
 20
140.0
 30
0.0
 11
580.0
 21
140.0
 31
0.0
  0
LINE
  5
609
100
AcDbEntity
  8
SIZE
  6
CONTINUOUS
 62
    30
100
AcDbLine
 10
-586.0
 20
1029.149774
 30
0.0
 11
586.0
 21
1029.149774
 31
0.0
  0
LINE
  5
60A
100
AcDbEntity
  8
DETAIL
  6
CONTINUOUS
 62
     5
100
AcDbLine
 10
-580.0
 20
433.0
 30
0.0
 11
580.0
 21
433.0
 31
0.0
  0
LINE
  5
60B
100
AcDbEntity
  8
DETAIL
  6
CONTINUOUS
 62
     5
100
AcDbLine
 10
-580.0
 20
433.0
 30
0.0
 11
580.0
 21
433.0
 31
0.0
  0
LINE
  5
60C
100
AcDbEntity
  8
DETAIL
  6
CONTINUOUS
 62
     5
100
AcDbLine
 10
575.0
 20
167.4
 30
0.0
 11
-575.0
 21
167.4
 31
0.0
  0
LINE
  5
60D
100
AcDbEntity
  8
DETAIL
  6
CONTINUOUS
 62
     5
100
AcDbLine
 10
575.0
 20
167.4
 30
0.0
 11
-575.0
 21
167.4
 31
0.0
  0
LINE
  5
60E
100
AcDbEntity
  8
NOTE
  6
CONTINUOUS
 62
     4
100
AcDbLine
 10
-170.0
 20
297.0
 30
0.0
 11
-410.0
 21
297.0
 31
0.0
  0
CIRCLE
  5
60F
100
AcDbEntity
  8
DETAIL
  6
CONTINUOUS
 62
     5
100
AcDbCircle
 10
-290.0
 20
297.0
 30
0.0
 40
100.0
  0
CIRCLE
  5
610
100
AcDbEntity
  8
DETAIL
  6
CONTINUOUS
 62
     5
100
AcDbCircle
 10
-290.0
 20
297.0
 30
0.0
 40
85.5
  0
LINE
  5
611
100
AcDbEntity
  8
DETAIL
  6
CONTINUOUS
 62
     5
100
AcDbLine
 10
538.0
 20
408.0
 30
0.0
 11
-538.0
 21
408.0
 31
0.0
  0
LINE
  5
612
100
AcDbEntity
  8
DETAIL
  6
CONTINUOUS
 62
     5
100
AcDbLine
 10
538.0
 20
192.0
 30
0.0
 11
-538.0
 21
192.0
 31
0.0
  0
LINE
  5
613
100
AcDbEntity
  8
DETAIL
  6
CONTINUOUS
 62
     5
100
AcDbLine
 10
-562.0
 20
155.0
 30
0.0
 11
562.0
 21
155.0
 31
0.0
  0
LINE
  5
615
100
AcDbEntity
  8
DETAIL
  6
CONTINUOUS
 62
     5
100
AcDbLine
 10
-562.0
 20
155.0
 30
0.0
 11
562.0
 21
155.0
 31
0.0
  0
LINE
  5
617
100
AcDbEntity
  8
DETAIL
  6
CONTINUOUS
 62
     5
100
AcDbLine
 10
580.0
 20
47.0
 30
0.0
 11
-580.0
 21
47.0
 31
0.0
  0
LINE
  5
618
100
AcDbEntity
  8
DETAIL
  6
CONTINUOUS
 62
     5
100
AcDbLine
 10
566.53
 20
-8.0
 30
0.0
 11
-566.53
 21
-8.0
 31
0.0
  0
LINE
  5
619
100
AcDbEntity
  8
DETAIL
  6
CONTINUOUS
 62
     5
100
AcDbLine
 10
620.0
 20
0.0
 30
0.0
 11
-620.0
 21
0.0
 31
0.0
  0
LINE
  5
61A
100
AcDbEntity
  8
OUTLINE
  6
CONTINUOUS
 62
     3
100
AcDbLine
 10
-620.0
 20
-4.006508
 30
0.0
 11
-620.0
 21
0.0
 31
0.0
  0
LINE
  5
61B
100
AcDbEntity
  8
NOTE
  6
CONTINUOUS
 62
     4
100
AcDbLine
 10
-817.485898
 20
-225.493928
 30
0.0
 11
-580.0
 21
168.0
 31
0.0
  0
LINE
  5
61C
100
AcDbEntity
  8
NOTE
  6
CONTINUOUS
 62
     4
100
AcDbLine
 10
-855.372861
 20
-78.824821
 30
0.0
 11
-619.0
 21
233.000004
 31
0.0
  0
LINE
  5
61D
100
AcDbEntity
  8
DETAIL
  6
CONTINUOUS
 62
     5
100
AcDbLine
 10
-620.0
 20
-4.006508
 30
0.0
 11
-620.0
 21
0.0
 31
0.0
  0
LINE
  5
61E
100
AcDbEntity
  8
NOTE
  6
CONTINUOUS
 62
     4
100
AcDbLine
 10
-817.485898
 20
-225.493928
 30
0.0
 11
-1252.416697
 21
-225.493928
 31
0.0
  0
TEXT
  5
61F
100
AcDbEntity
  8
NOTE
  6
CONTINUOUS
 62
     4
100
AcDbText
 10
-1230.741426
 20
-209.667398
 30
0.0
 40
60.0
  1
D2（自然排水口）
 50
0.000003
 41
0.7
  7
STANDARD1
100
AcDbText
  0
LINE
  5
620
100
AcDbEntity
  8
NOTE
  6
CONTINUOUS
 62
     4
100
AcDbLine
 10
-852.377878
 20
-78.831444
 30
0.0
 11
-1224.671123
 21
-78.831444
 31
0.0
  0
TEXT
  5
621
100
AcDbEntity
  8
NOTE
  6
CONTINUOUS
 62
     4
100
AcDbText
 10
-1202.995851
 20
-63.004913
 30
0.0
 40
60.0
  1
RG %%C15.88
 50
0.000003
 41
0.7
  7
STANDARD1
100
AcDbText
  0
LINE
  5
622
100
AcDbEntity
  8
SIZE
  6
CONTINUOUS
 62
    30
100
AcDbLine
 10
-620.0
 20
-24.006508
 30
0.0
 11
-620.0
 21
-355.067462
 31
0.0
  0
LINE
  5
623
100
AcDbEntity
  8
SIZE
  6
CONTINUOUS
 62
    30
100
AcDbLine
 10
-615.0
 20
-325.067462
 30
0.0
 11
-610.0
 21
-325.067462
 31
0.0
  0
CIRCLE
  5
624
100
AcDbEntity
  8
SIZE
  6
CONTINUOUS
 62
    30
100
AcDbCircle
 10
-620.0
 20
-325.067462
 30
0.0
 40
5.0
  0
LINE
  5
625
100
AcDbEntity
  8
SIZE
  6
CONTINUOUS
 62
    30
100
AcDbLine
 10
-600.0
 20
-19.0
 30
0.0
 11
-600.0
 21
-208.809889
 31
0.0
  0
TEXT
  5
626
100
AcDbEntity
  8
SIZE
  6
CONTINUOUS
 62
    30
100
AcDbText
 10
-738.142858
 20
-160.809889
 30
0.0
 40
55.0
  1
20
 41
0.9
 72
     1
 11
-698.071429
 21
-160.809889
 31
0.0
100
AcDbText
  0
LINE
  5
627
100
AcDbEntity
  8
SIZE
  6
CONTINUOUS
 62
    30
100
AcDbLine
 10
-600.0
 20
-19.0
 30
0.0
 11
-600.0
 21
-208.809889
 31
0.0
  0
LINE
  5
628
100
AcDbEntity
  8
SIZE
  6
CONTINUOUS
 62
    30
100
AcDbLine
 10
-620.0
 20
-24.006508
 30
0.0
 11
-620.0
 21
-208.809889
 31
0.0
  0
LINE
  5
629
100
AcDbEntity
  8
SIZE
  6
CONTINUOUS
 62
    30
100
AcDbLine
 10
-630.0
 20
-178.809889
 30
0.0
 11
-756.142857
 21
-178.809889
 31
0.0
  0
LINE
  5
62A
100
AcDbEntity
  8
SIZE
  6
CONTINUOUS
 62
    30
100
AcDbLine
 10
-595.0
 20
-178.809889
 30
0.0
 11
-590.0
 21
-178.809889
 31
0.0
  0
CIRCLE
  5
62B
100
AcDbEntity
  8
SIZE
  6
CONTINUOUS
 62
    30
100
AcDbCircle
 10
-600.0
 20
-178.809889
 30
0.0
 40
5.0
  0
POINT
  5
62C
100
AcDbEntity
  8
DEFPOINTS
  6
CONTINUOUS
 62
     7
100
AcDbPoint
 10
-600.0
 20
-178.809889
 30
0.0
  0
LINE
  5
62D
100
AcDbEntity
  8
SIZE
  6
CONTINUOUS
 62
    30
100
AcDbLine
 10
-625.0
 20
-178.809889
 30
0.0
 11
-630.0
 21
-178.809889
 31
0.0
  0
CIRCLE
  5
62E
100
AcDbEntity
  8
SIZE
  6
CONTINUOUS
 62
    30
100
AcDbCircle
 10
-620.0
 20
-178.809889
 30
0.0
 40
5.0
  0
LINE
  5
62F
100
AcDbEntity
  8
SIZE
  6
CONTINUOUS
 62
    30
100
AcDbLine
 10
-595.0
 20
-178.809889
 30
0.0
 11
-590.0
 21
-178.809889
 31
0.0
  0
CIRCLE
  5
630
100
AcDbEntity
  8
SIZE
  6
CONTINUOUS
 62
    30
100
AcDbCircle
 10
-600.0
 20
-178.809889
 30
0.0
 40
5.0
  0
LINE
  5
631
100
AcDbEntity
  8
SIZE
  6
CONTINUOUS
 62
    30
100
AcDbLine
 10
-600.0
 20
-178.809889
 30
0.0
 11
-620.0
 21
-178.809889
 31
0.0
  0
LINE
  5
632
100
AcDbEntity
  8
SIZE
  6
CONTINUOUS
 62
    30
100
AcDbLine
 10
-590.0
 20
-178.809889
 30
0.0
 11
-580.0
 21
-178.809889
 31
0.0
  0
POINT
  5
633
100
AcDbEntity
  8
DEFPOINTS
  6
CONTINUOUS
 62
     7
100
AcDbPoint
 10
-620.0
 20
-4.006508
 30
0.0
  0
LINE
  5
634
100
AcDbEntity
  8
OUTLINE
  6
CONTINUOUS
 62
     3
100
AcDbLine
 10
-620.0
 20
-4.006508
 30
0.0
 11
-566.53
 21
-8.0
 31
0.0
  0
POINT
  5
635
100
AcDbEntity
  8
DEFPOINTS
  6
CONTINUOUS
 62
     7
100
AcDbPoint
 10
-620.0
 20
-4.006508
 30
0.0
  0
LINE
  5
636
100
AcDbEntity
  8
DETAIL
  6
CONTINUOUS
 62
     5
100
AcDbLine
 10
-620.0
 20
-4.006508
 30
0.0
 11
-566.53
 21
-8.0
 31
0.0
  0
TEXT
  5
637
100
AcDbEntity
  8
SIZE
  6
CONTINUOUS
 62
    30
100
AcDbText
 10
-1172.559184
 20
232.27158
 30
0.0
 40
55.0
  1
265
 50
90.0
 41
0.9
 72
     1
 11
-1172.559184
 21
295.914437
 31
0.0
100
AcDbText
  0
LINE
  5
638
100
AcDbEntity
  8
SIZE
  6
CONTINUOUS
 62
    30
100
AcDbLine
 10
-580.0
 20
453.0
 30
0.0
 11
-580.0
 21
631.245085
 31
0.0
  0
LINE
  5
639
100
AcDbEntity
  8
SIZE
  6
CONTINUOUS
 62
    30
100
AcDbLine
 10
-616.0
 20
264.25
 30
0.0
 11
-616.0
 21
631.245085
 31
0.0
  0
LINE
  5
63A
100
AcDbEntity
  8
SIZE
  6
CONTINUOUS
 62
    30
100
AcDbLine
 10
-573.0
 20
467.995166
 30
0.0
 11
-573.0
 21
947.162422
 31
0.0
  0
LINE
  5
63B
100
AcDbEntity
  8
SIZE
  6
CONTINUOUS
 62
    30
100
AcDbLine
 10
-573.0
 20
467.995166
 30
0.0
 11
-573.0
 21
947.162422
 31
0.0
  0
LINE
  5
63C
100
AcDbEntity
  8
SIZE
  6
CONTINUOUS
 62
    30
100
AcDbLine
 10
-596.0
 20
448.7
 30
0.0
 11
-596.0
 21
947.162422
 31
0.0
  0
LINE
  5
63D
100
AcDbEntity
  8
SIZE
  6
CONTINUOUS
 62
    30
100
AcDbLine
 10
-580.0
 20
453.0
 30
0.0
 11
-580.0
 21
830.103197
 31
0.0
  0
LINE
  5
63E
100
AcDbEntity
  8
SIZE
  6
CONTINUOUS
 62
    30
100
AcDbLine
 10
-580.0
 20
453.0
 30
0.0
 11
-580.0
 21
830.103197
 31
0.0
  0
LINE
  5
63F
100
AcDbEntity
  8
SIZE
  6
CONTINUOUS
 62
    30
100
AcDbLine
 10
-596.0
 20
448.7
 30
0.0
 11
-596.0
 21
830.103197
 31
0.0
  0
LINE
  5
640
100
AcDbEntity
  8
SIZE
  6
CONTINUOUS
 62
    30
100
AcDbLine
 10
-619.0
 20
244.25
 30
0.0
 11
-619.009149
 21
732.354232
 31
0.0
  0
LINE
  5
641
100
AcDbEntity
  8
SIZE
  6
CONTINUOUS
 62
    30
100
AcDbLine
 10
-580.0
 20
453.0
 30
0.0
 11
-580.0
 21
732.354232
 31
0.0
  0
LINE
  5
642
100
AcDbEntity
  8
NOTE
  6
CONTINUOUS
 62
     4
100
AcDbLine
 10
-829.911981
 20
631.95283
 30
0.0
 11
-616.0
 21
261.0
 31
0.0
  0
LINE
  5
643
100
AcDbEntity
  8
NOTE
  6
CONTINUOUS
 62
     4
100
AcDbLine
 10
-830.441156
 20
753.397489
 30
0.0
 11
-614.0
 21
325.0
 31
0.0
  0
LINE
  5
644
100
AcDbEntity
  8
SIZE
  6
CONTINUOUS
 62
    30
100
AcDbLine
 10
-596.0
 20
447.1
 30
0.0
 11
-596.0
 21
1059.149774
 31
0.0
  0
LINE
  5
645
100
AcDbEntity
  8
SIZE
  6
CONTINUOUS
 62
    30
100
AcDbLine
 10
-605.490851
 20
168.0
 30
0.0
 11
-1184.559184
 21
168.0
 31
0.0
  0
LINE
  5
646
100
AcDbEntity
  8
SIZE
  6
CONTINUOUS
 62
    30
100
AcDbLine
 10
-611.7
 20
433.0
 30
0.0
 11
-1184.559184
 21
433.0
 31
0.0
  0
LINE
  5
647
100
AcDbEntity
  8
SIZE
  6
CONTINUOUS
 62
    30
100
AcDbLine
 10
-647.259149
 20
233.0
 30
0.0
 11
-956.720069
 21
233.0
 31
0.0
  0
LINE
  5
648
100
AcDbEntity
  8
SIZE
  6
CONTINUOUS
 62
    30
100
AcDbLine
 10
-644.5
 20
261.0
 30
0.0
 11
-956.720069
 21
261.0
 31
0.0
  0
LINE
  5
649
100
AcDbEntity
  8
SIZE
  6
CONTINUOUS
 62
    30
100
AcDbLine
 10
-644.5
 20
261.0
 30
0.0
 11
-956.720069
 21
261.0
 31
0.0
  0
LINE
  5
64A
100
AcDbEntity
  8
SIZE
  6
CONTINUOUS
 62
    30
100
AcDbLine
 10
-611.7
 20
433.0
 30
0.0
 11
-956.720069
 21
433.0
 31
0.0
  0
LINE
  5
64B
100
AcDbEntity
  8
SIZE
  6
CONTINUOUS
 62
    30
100
AcDbLine
 10
-650.716652
 20
325.0
 30
0.0
 11
-856.521601
 21
325.0
 31
0.0
  0
LINE
  5
64C
100
AcDbEntity
  8
SIZE
  6
CONTINUOUS
 62
    30
100
AcDbLine
 10
-611.7
 20
433.0
 30
0.0
 11
-856.521601
 21
433.0
 31
0.0
  0
LINE
  5
64D
100
AcDbEntity
  8
SIZE
  6
CONTINUOUS
 62
    30
100
AcDbLine
 10
-1154.559184
 20
423.0
 30
0.0
 11
-1154.559184
 21
178.0
 31
0.0
  0
TEXT
  5
64E
100
AcDbEntity
  8
SIZE
  6
CONTINUOUS
 62
    30
100
AcDbText
 10
-1046.920159
 20
288.779463
 30
0.0
 40
55.0
  1
28
 50
90.0
 41
0.9
 72
     1
 11
-1046.920159
 21
328.850892
 31
0.0
100
AcDbText
  0
LINE
  5
64F
100
AcDbEntity
  8
SIZE
  6
CONTINUOUS
 62
    30
100
AcDbLine
 10
-1028.920159
 20
270.779464
 30
0.0
 11
-1028.920159
 21
386.922321
 31
0.0
  0
TEXT
  5
650
100
AcDbEntity
  8
SIZE
  6
CONTINUOUS
 62
    30
100
AcDbText
 10
-944.720069
 20
288.071429
 30
0.0
 40
55.0
  1
172
 50
90.0
 41
0.9
 72
     1
 11
-944.720069
 21
347.0
 31
0.0
100
AcDbText
  0
LINE
  5
651
100
AcDbEntity
  8
SIZE
  6
CONTINUOUS
 62
    30
100
AcDbLine
 10
-926.720069
 20
423.0
 30
0.0
 11
-926.720069
 21
271.0
 31
0.0
  0
LINE
  5
652
100
AcDbEntity
  8
SIZE
  6
CONTINUOUS
 62
    30
100
AcDbLine
 10
-926.720069
 20
247.0
 30
0.0
 11
-1028.920159
 21
270.779464
 31
0.0
  0
POINT
  5
653
100
AcDbEntity
  8
DEFPOINTS
  6
CONTINUOUS
 62
     7
100
AcDbPoint
 10
-1154.559184
 20
168.0
 30
0.0
  0
LINE
  5
654
100
AcDbEntity
  8
SIZE
  6
CONTINUOUS
 62
    30
100
AcDbLine
 10
-1154.559184
 20
173.0
 30
0.0
 11
-1154.559184
 21
178.0
 31
0.0
  0
CIRCLE
  5
655
100
AcDbEntity
  8
SIZE
  6
CONTINUOUS
 62
    30
100
AcDbCircle
 10
-1154.559184
 20
168.0
 30
0.0
 40
5.0
  0
POINT
  5
656
100
AcDbEntity
  8
DEFPOINTS
  6
CONTINUOUS
 62
     7
100
AcDbPoint
 10
-926.720069
 20
233.0
 30
0.0
  0
LINE
  5
657
100
AcDbEntity
  8
SIZE
  6
CONTINUOUS
 62
    30
100
AcDbLine
 10
-926.720069
 20
228.0
 30
0.0
 11
-926.720069
 21
223.0
 31
0.0
  0
CIRCLE
  5
658
100
AcDbEntity
  8
SIZE
  6
CONTINUOUS
 62
    30
100
AcDbCircle
 10
-926.720069
 20
233.0
 30
0.0
 40
5.0
  0
LINE
  5
659
100
AcDbEntity
  8
SIZE
  6
CONTINUOUS
 62
    30
100
AcDbLine
 10
-926.720069
 20
266.0
 30
0.0
 11
-926.720069
 21
271.0
 31
0.0
  0
CIRCLE
  5
65A
100
AcDbEntity
  8
SIZE
  6
CONTINUOUS
 62
    30
100
AcDbCircle
 10
-926.720069
 20
261.0
 30
0.0
 40
5.0
  0
LINE
  5
65B
100
AcDbEntity
  8
SIZE
  6
CONTINUOUS
 62
    30
100
AcDbLine
 10
-926.720069
 20
261.0
 30
0.0
 11
-926.720069
 21
233.0
 31
0.0
  0
LINE
  5
65C
100
AcDbEntity
  8
SIZE
  6
CONTINUOUS
 62
    30
100
AcDbLine
 10
-926.720069
 20
261.0
 30
0.0
 11
-926.720069
 21
233.0
 31
0.0
  0
LINE
  5
65D
100
AcDbEntity
  8
SIZE
  6
CONTINUOUS
 62
    30
100
AcDbLine
 10
-926.720069
 20
223.0
 30
0.0
 11
-926.720069
 21
213.0
 31
0.0
  0
LINE
  5
65E
100
AcDbEntity
  8
SIZE
  6
CONTINUOUS
 62
    30
100
AcDbLine
 10
-926.720069
 20
271.0
 30
0.0
 11
-926.720069
 21
281.0
 31
0.0
  0
POINT
  5
65F
100
AcDbEntity
  8
DEFPOINTS
  6
CONTINUOUS
 62
     7
100
AcDbPoint
 10
-926.720069
 20
261.0
 30
0.0
  0
LINE
  5
660
100
AcDbEntity
  8
SIZE
  6
CONTINUOUS
 62
    30
100
AcDbLine
 10
-926.720069
 20
266.0
 30
0.0
 11
-926.720069
 21
271.0
 31
0.0
  0
CIRCLE
  5
661
100
AcDbEntity
  8
SIZE
  6
CONTINUOUS
 62
    30
100
AcDbCircle
 10
-926.720069
 20
261.0
 30
0.0
 40
5.0
  0
LINE
  5
662
100
AcDbEntity
  8
SIZE
  6
CONTINUOUS
 62
    30
100
AcDbLine
 10
-1154.559184
 20
428.0
 30
0.0
 11
-1154.559184
 21
423.0
 31
0.0
  0
CIRCLE
  5
663
100
AcDbEntity
  8
SIZE
  6
CONTINUOUS
 62
    30
100
AcDbCircle
 10
-1154.559184
 20
433.0
 30
0.0
 40
5.0
  0
LINE
  5
664
100
AcDbEntity
  8
SIZE
  6
CONTINUOUS
 62
    30
100
AcDbLine
 10
-826.521601
 20
433.0
 30
0.0
 11
-826.521601
 21
596.857143
 31
0.0
  0
LINE
  5
665
100
AcDbEntity
  8
SIZE
  6
CONTINUOUS
 62
    30
100
AcDbLine
 10
-926.720069
 20
428.0
 30
0.0
 11
-926.720069
 21
423.0
 31
0.0
  0
CIRCLE
  5
666
100
AcDbEntity
  8
SIZE
  6
CONTINUOUS
 62
    30
100
AcDbCircle
 10
-926.720069
 20
433.0
 30
0.0
 40
5.0
  0
POINT
  5
667
100
AcDbEntity
  8
DEFPOINTS
  6
CONTINUOUS
 62
     7
100
AcDbPoint
 10
-826.521601
 20
325.0
 30
0.0
  0
LINE
  5
668
100
AcDbEntity
  8
SIZE
  6
CONTINUOUS
 62
    30
100
AcDbLine
 10
-826.521601
 20
428.0
 30
0.0
 11
-826.521601
 21
423.0
 31
0.0
  0
CIRCLE
  5
669
100
AcDbEntity
  8
SIZE
  6
CONTINUOUS
 62
    30
100
AcDbCircle
 10
-826.521601
 20
433.0
 30
0.0
 40
5.0
  0
LINE
  5
66A
100
AcDbEntity
  8
SIZE
  6
CONTINUOUS
 62
    30
100
AcDbLine
 10
-826.521601
 20
330.0
 30
0.0
 11
-826.521601
 21
335.0
 31
0.0
  0
CIRCLE
  5
66B
100
AcDbEntity
  8
SIZE
  6
CONTINUOUS
 62
    30
100
AcDbCircle
 10
-826.521601
 20
325.0
 30
0.0
 40
5.0
  0
LINE
  5
66C
100
AcDbEntity
  8
SIZE
  6
CONTINUOUS
 62
    30
100
AcDbLine
 10
-826.521601
 20
335.0
 30
0.0
 11
-826.521601
 21
423.0
 31
0.0
  0
TEXT
  5
66D
100
AcDbEntity
  8
SIZE
  6
CONTINUOUS
 62
    30
100
AcDbText
 10
-844.521601
 20
461.0
 30
0.0
 40
55.0
  1
108
 50
90.0
 41
0.9
 72
     1
 11
-844.521601
 21
519.928571
 31
0.0
100
AcDbText
  0
LINE
  5
66E
100
AcDbEntity
  8
SIZE
  6
CONTINUOUS
 62
    30
100
AcDbLine
 10
-596.0
 20
508.0
 30
0.0
 11
-596.0
 21
28.769509
 31
0.0
  0
LINE
  5
66F
100
AcDbEntity
  8
OUTLINE
  6
CONTINUOUS
 62
     3
100
AcDbLine
 10
-580.0
 20
140.0
 30
0.0
 11
-580.0
 21
433.0
 31
0.0
  0
LINE
  5
673
100
AcDbEntity
  8
DETAIL
  6
CONTINUOUS
 62
     5
100
AcDbLine
 10
-548.0
 20
202.0
 30
0.0
 11
-548.0
 21
398.0
 31
0.0
  0
TEXT
  5
674
100
AcDbEntity
  8
SIZE
  6
CONTINUOUS
 62
    30
100
AcDbText
 10
-558.0
 20
76.769509
 30
0.0
 40
55.0
  1
4
 41
0.9
 72
     1
 11
-540.321429
 21
76.769509
 31
0.0
100
AcDbText
  0
LINE
  5
675
100
AcDbEntity
  8
SIZE
  6
CONTINUOUS
 62
    30
100
AcDbLine
 10
-586.0
 20
58.769509
 30
0.0
 11
-504.642857
 21
58.769509
 31
0.0
  0
LINE
  5
676
100
AcDbEntity
  8
NOTE
  6
CONTINUOUS
 62
     4
100
AcDbLine
 10
-580.0
 20
168.0
 30
0.0
 11
-591.034134
 21
135.433183
 31
0.0
  0
LINE
  5
677
100
AcDbEntity
  8
NOTE
  6
CONTINUOUS
 62
     4
100
AcDbLine
 10
-580.0
 20
168.0
 30
0.0
 11
-605.839249
 21
145.313376
 31
0.0
  0
LINE
  5
67A
100
AcDbEntity
  8
DETAIL
  6
CONTINUOUS
 62
     5
100
AcDbLine
 10
-580.0
 20
140.0
 30
0.0
 11
-580.0
 21
433.0
 31
0.0
  0
LINE
  5
67B
100
AcDbEntity
  8
DETAIL
  6
CONTINUOUS
 62
     5
100
AcDbLine
 10
-565.0
 20
152.0
 30
0.0
 11
-565.0
 21
140.0
 31
0.0
  0
LINE
  5
67C
100
AcDbEntity
  8
DETAIL
  6
CONTINUOUS
 62
     5
100
AcDbLine
 10
-565.0
 20
152.0
 30
0.0
 11
-565.0
 21
140.0
 31
0.0
  0
LINE
  5
67D
100
AcDbEntity
  8
NOTE
  6
CONTINUOUS
 62
     4
100
AcDbLine
 10
-600.0
 20
1.0
 30
0.0
 11
-701.307449
 21
1.0
 31
0.0
  0
LINE
  5
67E
100
AcDbEntity
  8
NOTE
  6
CONTINUOUS
 62
     4
100
AcDbLine
 10
-600.0
 20
21.0
 30
0.0
 11
-701.307449
 21
21.0
 31
0.0
  0
LINE
  5
67F
100
AcDbEntity
  8
NOTE
  6
CONTINUOUS
 62
     4
100
AcDbLine
 10
-680.265008
 20
1.0
 30
0.0
 11
-660.265008
 21
21.0
 31
0.0
  0
LINE
  5
680
100
AcDbEntity
  8
NOTE
  6
CONTINUOUS
 62
     4
100
AcDbLine
 10
-690.265008
 20
1.0
 30
0.0
 11
-670.265008
 21
21.0
 31
0.0
  0
LINE
  5
681
100
AcDbEntity
  8
NOTE
  6
CONTINUOUS
 62
     4
100
AcDbLine
 10
-685.265008
 20
1.0
 30
0.0
 11
-665.265008
 21
21.0
 31
0.0
  0
POINT
  5
682
100
AcDbEntity
  8
DEFPOINTS
  6
CONTINUOUS
 62
     7
100
AcDbPoint
 10
-600.0
 20
1.0
 30
0.0
  0
POINT
  5
683
100
AcDbEntity
  8
DEFPOINTS
  6
CONTINUOUS
 62
     7
100
AcDbPoint
 10
-600.0
 20
1.0
 30
0.0
  0
LINE
  5
684
100
AcDbEntity
  8
OUTLINE
  6
CONTINUOUS
 62
     3
100
AcDbLine
 10
-580.0
 20
0.0
 30
0.0
 11
-580.0
 21
47.0
 31
0.0
  0
LINE
  5
685
100
AcDbEntity
  8
OUTLINE
  6
CONTINUOUS
 62
     3
100
AcDbLine
 10
-580.0
 20
0.0
 30
0.0
 11
-585.0
 21
0.0
 31
0.0
  0
POINT
  5
686
100
AcDbEntity
  8
DEFPOINTS
  6
CONTINUOUS
 62
     7
100
AcDbPoint
 10
-596.0
 20
58.769509
 30
0.0
  0
POINT
  5
687
100
AcDbEntity
  8
DEFPOINTS
  6
CONTINUOUS
 62
     7
100
AcDbPoint
 10
-600.0
 20
21.0
 30
0.0
  0
LINE
  5
688
100
AcDbEntity
  8
SIZE
  6
CONTINUOUS
 62
    30
100
AcDbLine
 10
-591.0
 20
58.769509
 30
0.0
 11
-586.0
 21
58.769509
 31
0.0
  0
CIRCLE
  5
689
100
AcDbEntity
  8
SIZE
  6
CONTINUOUS
 62
    30
100
AcDbCircle
 10
-596.0
 20
58.769509
 30
0.0
 40
5.0
  0
LINE
  5
68A
100
AcDbEntity
  8
SIZE
  6
CONTINUOUS
 62
    30
100
AcDbLine
 10
-605.0
 20
58.769509
 30
0.0
 11
-610.0
 21
58.769509
 31
0.0
  0
CIRCLE
  5
68B
100
AcDbEntity
  8
SIZE
  6
CONTINUOUS
 62
    30
100
AcDbCircle
 10
-600.0
 20
58.769509
 30
0.0
 40
5.0
  0
LINE
  5
68C
100
AcDbEntity
  8
SIZE
  6
CONTINUOUS
 62
    30
100
AcDbLine
 10
-600.0
 20
58.769509
 30
0.0
 11
-596.0
 21
58.769509
 31
0.0
  0
LINE
  5
68D
100
AcDbEntity
  8
SIZE
  6
CONTINUOUS
 62
    30
100
AcDbLine
 10
-610.0
 20
58.769509
 30
0.0
 11
-620.0
 21
58.769509
 31
0.0
  0
LINE
  5
68E
100
AcDbEntity
  8
SIZE
  6
CONTINUOUS
 62
    30
100
AcDbLine
 10
-600.0
 20
41.0
 30
0.0
 11
-600.0
 21
88.769509
 31
0.0
  0
LINE
  5
68F
100
AcDbEntity
  8
NOTE
  6
CONTINUOUS
 62
     4
100
AcDbLine
 10
-600.0
 20
1.0
 30
0.0
 11
-600.0
 21
21.0
 31
0.0
  0
LINE
  5
690
100
AcDbEntity
  8
NOTE
  6
CONTINUOUS
 62
     4
100
AcDbLine
 10
-650.265008
 20
1.0
 30
0.0
 11
-630.265008
 21
21.0
 31
0.0
  0
LINE
  5
691
100
AcDbEntity
  8
NOTE
  6
CONTINUOUS
 62
     4
100
AcDbLine
 10
-645.265008
 20
1.0
 30
0.0
 11
-625.265008
 21
21.0
 31
0.0
  0
LINE
  5
692
100
AcDbEntity
  8
NOTE
  6
CONTINUOUS
 62
     4
100
AcDbLine
 10
-640.265008
 20
1.0
 30
0.0
 11
-620.265008
 21
21.0
 31
0.0
  0
LINE
  5
693
100
AcDbEntity
  8
DETAIL
  6
CONTINUOUS
 62
     5
100
AcDbLine
 10
-580.0
 20
0.0
 30
0.0
 11
-580.0
 21
47.0
 31
0.0
  0
POINT
  5
695
100
AcDbEntity
  8
DEFPOINTS
  6
CONTINUOUS
 62
     7
100
AcDbPoint
 10
-619.0
 20
244.250004
 30
0.0
  0
LINE
  5
697
100
AcDbEntity
  8
NOTE
  6
CONTINUOUS
 62
     4
100
AcDbLine
 10
-610.509149
 20
261.015866
 30
0.0
 11
-621.509149
 21
261.015866
 31
0.0
  0
LINE
  5
698
100
AcDbEntity
  8
NOTE
  6
CONTINUOUS
 62
     4
100
AcDbLine
 10
-616.009149
 20
266.515858
 30
0.0
 11
-616.009149
 21
255.515874
 31
0.0
  0
LINE
  5
699
100
AcDbEntity
  8
NOTE
  6
CONTINUOUS
 62
     4
100
AcDbLine
 10
-616.009149
 20
261.015866
 30
0.0
 11
-639.024213
 21
286.563009
 31
0.0
  0
LINE
  5
69A
100
AcDbEntity
  8
NOTE
  6
CONTINUOUS
 62
     4
100
AcDbLine
 10
-616.009149
 20
261.015866
 30
0.0
 11
-623.167207
 21
294.647873
 31
0.0
  0
LINE
  5
6B0
100
AcDbEntity
  8
DETAIL
  6
CONTINUOUS
 62
     5
100
AcDbLine
 10
-597.018298
 20
266.515866
 30
0.0
 11
-580.0
 21
266.515866
 31
0.0
  0
LINE
  5
6B1
100
AcDbEntity
  8
DETAIL
  6
CONTINUOUS
 62
     5
100
AcDbLine
 10
-596.018298
 20
270.515866
 30
0.0
 11
-580.0
 21
270.490856
 31
0.0
  0
LINE
  5
6B2
100
AcDbEntity
  8
DETAIL
  6
CONTINUOUS
 62
     5
100
AcDbLine
 10
-596.018298
 20
251.515866
 30
0.0
 11
-580.0
 21
251.515866
 31
0.0
  0
LINE
  5
6B3
100
AcDbEntity
  8
DETAIL
  6
CONTINUOUS
 62
     5
100
AcDbLine
 10
-613.018298
 20
250.515866
 30
0.0
 11
-600.018298
 21
250.515866
 31
0.0
  0
LINE
  5
6B4
100
AcDbEntity
  8
DETAIL
  6
CONTINUOUS
 62
     5
100
AcDbLine
 10
-597.018298
 20
255.515866
 30
0.0
 11
-580.0
 21
255.515866
 31
0.0
  0
LINE
  5
6B5
100
AcDbEntity
  8
DETAIL
  6
CONTINUOUS
 62
     5
100
AcDbLine
 10
-612.018298
 20
255.515866
 30
0.0
 11
-599.018298
 21
255.515866
 31
0.0
  0
LINE
  5
6B6
100
AcDbEntity
  8
DETAIL
  6
CONTINUOUS
 62
     5
100
AcDbLine
 10
-616.009149
 20
255.515866
 30
0.0
 11
-616.009149
 21
266.515866
 31
0.0
  0
LINE
  5
6B7
100
AcDbEntity
  8
DETAIL
  6
CONTINUOUS
 62
     5
100
AcDbLine
 10
-616.009149
 20
255.515866
 30
0.0
 11
-613.018298
 21
250.515866
 31
0.0
  0
LINE
  5
6B8
100
AcDbEntity
  8
DETAIL
  6
CONTINUOUS
 62
     5
100
AcDbLine
 10
-599.018298
 20
251.515866
 30
0.0
 11
-600.018298
 21
250.515866
 31
0.0
  0
LINE
  5
6B9
100
AcDbEntity
  8
DETAIL
  6
CONTINUOUS
 62
     5
100
AcDbLine
 10
-597.018298
 20
252.515866
 30
0.0
 11
-596.018298
 21
251.515866
 31
0.0
  0
LINE
  5
6BA
100
AcDbEntity
  8
DETAIL
  6
CONTINUOUS
 62
     5
100
AcDbLine
 10
-612.018298
 20
255.515866
 30
0.0
 11
-613.018298
 21
256.515866
 31
0.0
  0
LINE
  5
6BB
100
AcDbEntity
  8
DETAIL
  6
CONTINUOUS
 62
     5
100
AcDbLine
 10
-612.018298
 20
255.515866
 30
0.0
 11
-613.018298
 21
254.515866
 31
0.0
  0
LINE
  5
6BC
100
AcDbEntity
  8
DETAIL
  6
CONTINUOUS
 62
     5
100
AcDbLine
 10
-599.018298
 20
256.265866
 30
0.0
 11
-597.018298
 21
256.265866
 31
0.0
  0
LINE
  5
6BD
100
AcDbEntity
  8
DETAIL
  6
CONTINUOUS
 62
     5
100
AcDbLine
 10
-597.018298
 20
252.515866
 30
0.0
 11
-597.018298
 21
269.515866
 31
0.0
  0
LINE
  5
6BE
100
AcDbEntity
  8
DETAIL
  6
CONTINUOUS
 62
     5
100
AcDbLine
 10
-599.018298
 20
251.515866
 30
0.0
 11
-599.018298
 21
270.515866
 31
0.0
  0
LINE
  5
6BF
100
AcDbEntity
  8
DETAIL
  6
CONTINUOUS
 62
     5
100
AcDbLine
 10
-613.018298
 20
271.515866
 30
0.0
 11
-600.018298
 21
271.515866
 31
0.0
  0
LINE
  5
6C0
100
AcDbEntity
  8
DETAIL
  6
CONTINUOUS
 62
     5
100
AcDbLine
 10
-613.018298
 20
250.515866
 30
0.0
 11
-613.018298
 21
271.515866
 31
0.0
  0
LINE
  5
6C1
100
AcDbEntity
  8
DETAIL
  6
CONTINUOUS
 62
     5
100
AcDbLine
 10
-612.018298
 20
266.515866
 30
0.0
 11
-599.018298
 21
266.515866
 31
0.0
  0
LINE
  5
6C2
100
AcDbEntity
  8
DETAIL
  6
CONTINUOUS
 62
     5
100
AcDbLine
 10
-616.009149
 20
266.515866
 30
0.0
 11
-613.018298
 21
271.515866
 31
0.0
  0
LINE
  5
6C3
100
AcDbEntity
  8
DETAIL
  6
CONTINUOUS
 62
     5
100
AcDbLine
 10
-600.018298
 20
271.515866
 30
0.0
 11
-599.018298
 21
270.515866
 31
0.0
  0
LINE
  5
6C4
100
AcDbEntity
  8
DETAIL
  6
CONTINUOUS
 62
     5
100
AcDbLine
 10
-597.018298
 20
269.515866
 30
0.0
 11
-596.018298
 21
270.515866
 31
0.0
  0
LINE
  5
6C5
100
AcDbEntity
  8
DETAIL
  6
CONTINUOUS
 62
     5
100
AcDbLine
 10
-612.018298
 20
266.515866
 30
0.0
 11
-613.018298
 21
267.515866
 31
0.0
  0
LINE
  5
6C6
100
AcDbEntity
  8
DETAIL
  6
CONTINUOUS
 62
     5
100
AcDbLine
 10
-612.018298
 20
266.515866
 30
0.0
 11
-613.018298
 21
265.515866
 31
0.0
  0
LINE
  5
6C7
100
AcDbEntity
  8
DETAIL
  6
CONTINUOUS
 62
     5
100
AcDbLine
 10
-599.018298
 20
265.765866
 30
0.0
 11
-597.018298
 21
265.765866
 31
0.0
  0
POINT
  5
6C8
100
AcDbEntity
  8
DEFPOINTS
  6
CONTINUOUS
 62
     7
100
AcDbPoint
 10
-585.490851
 20
168.0
 30
0.0
  0
POINT
  5
6C9
100
AcDbEntity
  8
DEFPOINTS
  6
CONTINUOUS
 62
     7
100
AcDbPoint
 10
-630.259149
 20
233.000004
 30
0.0
  0
POINT
  5
6CA
100
AcDbEntity
  8
DEFPOINTS
  6
CONTINUOUS
 62
     7
100
AcDbPoint
 10
-621.509149
 20
261.015866
 30
0.0
  0
POINT
  5
6CB
100
AcDbEntity
  8
DEFPOINTS
  6
CONTINUOUS
 62
     7
100
AcDbPoint
 10
-621.509149
 20
261.015866
 30
0.0
  0
LINE
  5
6CC
100
AcDbEntity
  8
NOTE
  6
CONTINUOUS
 62
     4
100
AcDbLine
 10
-574.490851
 20
168.0
 30
0.0
 11
-585.490851
 21
168.0
 31
0.0
  0
LINE
  5
6CD
100
AcDbEntity
  8
NOTE
  6
CONTINUOUS
 62
     4
100
AcDbLine
 10
-580.0
 20
173.499992
 30
0.0
 11
-580.0
 21
162.500008
 31
0.0
  0
LINE
  5
6CE
100
AcDbEntity
  8
NOTE
  6
CONTINUOUS
 62
     4
100
AcDbLine
 10
-607.759149
 20
233.000004
 30
0.0
 11
-630.259149
 21
233.000004
 31
0.0
  0
LINE
  5
6CF
100
AcDbEntity
  8
NOTE
  6
CONTINUOUS
 62
     4
100
AcDbLine
 10
-619.0
 20
244.25
 30
0.0
 11
-619.0
 21
221.750008
 31
0.0
  0
LINE
  5
6D0
100
AcDbEntity
  8
NOTE
  6
CONTINUOUS
 62
     4
100
AcDbLine
 10
-619.0
 20
233.000004
 30
0.0
 11
-633.405621
 21
201.777772
 31
0.0
  0
LINE
  5
6D1
100
AcDbEntity
  8
NOTE
  6
CONTINUOUS
 62
     4
100
AcDbLine
 10
-619.0
 20
233.000004
 30
0.0
 11
-647.08675
 21
213.163569
 31
0.0
  0
LINE
  5
6D2
100
AcDbEntity
  8
DETAIL
  6
CONTINUOUS
 62
     5
100
AcDbLine
 10
-619.0
 20
244.25
 30
0.0
 11
-619.0
 21
221.75
 31
0.0
  0
LINE
  5
6D3
100
AcDbEntity
  8
DETAIL
  6
CONTINUOUS
 62
     5
100
AcDbLine
 10
-580.0
 20
221.5
 30
0.0
 11
-594.009149
 21
221.500004
 31
0.0
  0
LINE
  5
6D4
100
AcDbEntity
  8
DETAIL
  6
CONTINUOUS
 62
     5
100
AcDbLine
 10
-580.0
 20
244.508603
 30
0.0
 11
-594.009149
 21
244.500004
 31
0.0
  0
LINE
  5
6ED
100
AcDbEntity
  8
DETAIL
  6
CONTINUOUS
 62
     5
100
AcDbLine
 10
-619.0
 20
221.750004
 30
0.0
 11
-616.009149
 21
220.000004
 31
0.0
  0
LINE
  5
6EE
100
AcDbEntity
  8
DETAIL
  6
CONTINUOUS
 62
     5
100
AcDbLine
 10
-616.009149
 20
246.000004
 30
0.0
 11
-619.0
 21
244.25
 31
0.0
  0
LINE
  5
6FE
100
AcDbEntity
  8
DETAIL
  6
CONTINUOUS
 62
     5
100
AcDbLine
 10
-614.009149
 20
226.000004
 30
0.0
 11
-616.009149
 21
224.000004
 31
0.0
  0
LINE
  5
700
100
AcDbEntity
  8
DETAIL
  6
CONTINUOUS
 62
     5
100
AcDbLine
 10
-614.009149
 20
226.000004
 30
0.0
 11
-616.009149
 21
228.000004
 31
0.0
  0
LINE
  5
702
100
AcDbEntity
  8
DETAIL
  6
CONTINUOUS
 62
     5
100
AcDbLine
 10
-614.009149
 20
240.000004
 30
0.0
 11
-616.009149
 21
238.000004
 31
0.0
  0
LINE
  5
704
100
AcDbEntity
  8
DETAIL
  6
CONTINUOUS
 62
     5
100
AcDbLine
 10
-614.009149
 20
240.000004
 30
0.0
 11
-616.009149
 21
242.000004
 31
0.0
  0
LINE
  5
706
100
AcDbEntity
  8
DETAIL
  6
CONTINUOUS
 62
     5
100
AcDbLine
 10
-602.009149
 20
240.000004
 30
0.0
 11
-600.009149
 21
242.000004
 31
0.0
  0
LINE
  5
708
100
AcDbEntity
  8
DETAIL
  6
CONTINUOUS
 62
     5
100
AcDbLine
 10
-602.009149
 20
240.000004
 30
0.0
 11
-600.009149
 21
238.000004
 31
0.0
  0
LINE
  5
70A
100
AcDbEntity
  8
DETAIL
  6
CONTINUOUS
 62
     5
100
AcDbLine
 10
-602.009149
 20
226.000004
 30
0.0
 11
-600.009149
 21
228.000004
 31
0.0
  0
LINE
  5
70C
100
AcDbEntity
  8
DETAIL
  6
CONTINUOUS
 62
     5
100
AcDbLine
 10
-602.009149
 20
226.000004
 30
0.0
 11
-600.009149
 21
224.000004
 31
0.0
  0
LINE
  5
70E
100
AcDbEntity
  8
DETAIL
  6
CONTINUOUS
 62
     5
100
AcDbLine
 10
-602.009149
 20
226.000004
 30
0.0
 11
-614.009149
 21
226.000004
 31
0.0
  0
LINE
  5
710
100
AcDbEntity
  8
DETAIL
  6
CONTINUOUS
 62
     5
100
AcDbLine
 10
-602.009149
 20
240.000004
 30
0.0
 11
-614.009149
 21
240.000004
 31
0.0
  0
LINE
  5
712
100
AcDbEntity
  8
DETAIL
  6
CONTINUOUS
 62
     5
100
AcDbLine
 10
-600.009149
 20
222.000004
 30
0.0
 11
-602.009149
 21
220.000004
 31
0.0
  0
LINE
  5
714
100
AcDbEntity
  8
DETAIL
  6
CONTINUOUS
 62
     5
100
AcDbLine
 10
-600.009149
 20
244.000004
 30
0.0
 11
-602.009149
 21
246.000004
 31
0.0
  0
LINE
  5
716
100
AcDbEntity
  8
DETAIL
  6
CONTINUOUS
 62
     5
100
AcDbLine
 10
-616.009149
 20
246.000004
 30
0.0
 11
-616.009149
 21
220.000004
 31
0.0
  0
LINE
  5
718
100
AcDbEntity
  8
DETAIL
  6
CONTINUOUS
 62
     5
100
AcDbLine
 10
-600.009149
 20
244.000004
 30
0.0
 11
-600.009149
 21
222.000004
 31
0.0
  0
LINE
  5
71A
100
AcDbEntity
  8
DETAIL
  6
CONTINUOUS
 62
     5
100
AcDbLine
 10
-602.009149
 20
220.000004
 30
0.0
 11
-616.009149
 21
220.000004
 31
0.0
  0
LINE
  5
71C
100
AcDbEntity
  8
DETAIL
  6
CONTINUOUS
 62
     5
100
AcDbLine
 10
-602.009149
 20
246.000004
 30
0.0
 11
-616.009149
 21
246.000004
 31
0.0
  0
LINE
  5
71E
100
AcDbEntity
  8
DETAIL
  6
CONTINUOUS
 62
     5
100
AcDbLine
 10
-600.009149
 20
225.06
 30
0.0
 11
-596.009149
 21
225.06
 31
0.0
  0
LINE
  5
71F
100
AcDbEntity
  8
DETAIL
  6
CONTINUOUS
 62
     5
100
AcDbLine
 10
-600.009149
 20
240.94
 30
0.0
 11
-596.009149
 21
240.94
 31
0.0
  0
LINE
  5
720
100
AcDbEntity
  8
DETAIL
  6
CONTINUOUS
 62
     5
100
AcDbLine
 10
-596.009149
 20
242.500004
 30
0.0
 11
-594.009149
 21
244.500004
 31
0.0
  0
LINE
  5
721
100
AcDbEntity
  8
DETAIL
  6
CONTINUOUS
 62
     5
100
AcDbLine
 10
-596.009149
 20
223.500004
 30
0.0
 11
-594.009149
 21
221.500004
 31
0.0
  0
LINE
  5
722
100
AcDbEntity
  8
DETAIL
  6
CONTINUOUS
 62
     5
100
AcDbLine
 10
-596.009149
 20
242.500004
 30
0.0
 11
-596.009149
 21
223.500004
 31
0.0
  0
ARC
  5
725
100
AcDbEntity
  8
DETAIL
  6
CONTINUOUS
 62
     5
100
AcDbCircle
 10
-575.0
 20
172.4
 30
0.0
 40
5.0
100
AcDbArc
 50
180.0
 51
270.0
  0
LINE
  5
726
100
AcDbEntity
  8
DETAIL
  6
CONTINUOUS
 62
     5
100
AcDbLine
 10
-562.0
 20
155.0
 30
0.0
 11
-565.0
 21
152.0
 31
0.0
  0
LINE
  5
727
100
AcDbEntity
  8
DETAIL
  6
CONTINUOUS
 62
     5
100
AcDbLine
 10
-562.0
 20
155.0
 30
0.0
 11
-565.0
 21
152.0
 31
0.0
  0
ARC
  5
729
100
AcDbEntity
  8
DETAIL
  6
CONTINUOUS
 62
     5
100
AcDbCircle
 10
-538.0
 20
202.0
 30
0.0
 40
10.0
100
AcDbArc
 50
180.0
 51
270.0
  0
LINE
  5
72A
100
AcDbEntity
  8
SIZE
  6
CONTINUOUS
 62
    30
100
AcDbLine
 10
-570.0
 20
601.245085
 30
0.0
 11
-446.214286
 21
601.245085
 31
0.0
  0
LINE
  5
72B
100
AcDbEntity
  8
SIZE
  6
CONTINUOUS
 62
    30
100
AcDbLine
 10
-570.0
 20
515.644821
 30
0.0
 11
-441.5
 21
515.644821
 31
0.0
  0
LINE
  5
72C
100
AcDbEntity
  8
DETAIL
  6
CONTINUOUS
 62
     5
100
AcDbLine
 10
-577.0
 20
403.6
 30
0.0
 11
-546.284926
 21
403.6
 31
0.0
  0
LINE
  5
72D
100
AcDbEntity
  8
SIZE
  6
CONTINUOUS
 62
    30
100
AcDbLine
 10
-580.0
 20
453.0
 30
0.0
 11
-580.0
 21
545.644821
 31
0.0
  0
LINE
  5
72E
100
AcDbEntity
  8
SIZE
  6
CONTINUOUS
 62
    30
100
AcDbLine
 10
-614.0
 20
361.716652
 30
0.0
 11
-614.0
 21
545.644821
 31
0.0
  0
POINT
  5
72F
100
AcDbEntity
  8
DEFPOINTS
  6
CONTINUOUS
 62
     7
100
AcDbPoint
 10
-580.0
 20
433.0
 30
0.0
  0
POINT
  5
730
100
AcDbEntity
  8
DEFPOINTS
  6
CONTINUOUS
 62
     7
100
AcDbPoint
 10
-573.0
 20
447.995166
 30
0.0
  0
POINT
  5
731
100
AcDbEntity
  8
DEFPOINTS
  6
CONTINUOUS
 62
     7
100
AcDbPoint
 10
-573.0
 20
447.995166
 30
0.0
  0
POINT
  5
732
100
AcDbEntity
  8
DEFPOINTS
  6
CONTINUOUS
 62
     7
100
AcDbPoint
 10
-596.0
 20
428.7
 30
0.0
  0
POINT
  5
733
100
AcDbEntity
  8
DEFPOINTS
  6
CONTINUOUS
 62
     7
100
AcDbPoint
 10
-580.0
 20
433.0
 30
0.0
  0
POINT
  5
734
100
AcDbEntity
  8
DEFPOINTS
  6
CONTINUOUS
 62
     7
100
AcDbPoint
 10
-580.0
 20
433.0
 30
0.0
  0
POINT
  5
735
100
AcDbEntity
  8
DEFPOINTS
  6
CONTINUOUS
 62
     7
100
AcDbPoint
 10
-596.0
 20
428.7
 30
0.0
  0
POINT
  5
736
100
AcDbEntity
  8
DEFPOINTS
  6
CONTINUOUS
 62
     7
100
AcDbPoint
 10
-580.0
 20
433.0
 30
0.0
  0
POINT
  5
737
100
AcDbEntity
  8
DEFPOINTS
  6
CONTINUOUS
 62
     7
100
AcDbPoint
 10
-580.0
 20
433.0
 30
0.0
  0
POINT
  5
738
100
AcDbEntity
  8
DEFPOINTS
  6
CONTINUOUS
 62
     7
100
AcDbPoint
 10
-614.0
 20
341.716652
 30
0.0
  0
POINT
  5
739
100
AcDbEntity
  8
DEFPOINTS
  6
CONTINUOUS
 62
     7
100
AcDbPoint
 10
-591.7
 20
433.0
 30
0.0
  0
POINT
  5
73A
100
AcDbEntity
  8
DEFPOINTS
  6
CONTINUOUS
 62
     7
100
AcDbPoint
 10
-591.7
 20
433.0
 30
0.0
  0
POINT
  5
73B
100
AcDbEntity
  8
DEFPOINTS
  6
CONTINUOUS
 62
     7
100
AcDbPoint
 10
-630.716652
 20
325.0
 30
0.0
  0
POINT
  5
73C
100
AcDbEntity
  8
DEFPOINTS
  6
CONTINUOUS
 62
     7
100
AcDbPoint
 10
-591.7
 20
433.0
 30
0.0
  0
LINE
  5
73D
100
AcDbEntity
  8
NOTE
  6
CONTINUOUS
 62
     4
100
AcDbLine
 10
-597.283348
 20
325.0
 30
0.0
 11
-630.716652
 21
325.0
 31
0.0
  0
LINE
  5
73E
100
AcDbEntity
  8
NOTE
  6
CONTINUOUS
 62
     4
100
AcDbLine
 10
-614.0
 20
341.716652
 30
0.0
 11
-614.0
 21
308.283348
 31
0.0
  0
LINE
  5
73F
100
AcDbEntity
  8
NOTE
  6
CONTINUOUS
 62
     4
100
AcDbLine
 10
-614.0
 20
325.0
 30
0.0
 11
-637.015064
 21
350.547143
 31
0.0
  0
LINE
  5
740
100
AcDbEntity
  8
NOTE
  6
CONTINUOUS
 62
     4
100
AcDbLine
 10
-614.0
 20
325.0
 30
0.0
 11
-621.158058
 21
358.632007
 31
0.0
  0
CIRCLE
  5
741
100
AcDbEntity
  8
FIX
  6
CONTINUOUS
 62
    11
100
AcDbCircle
 10
-573.0
 20
433.0
 30
0.0
 40
12.421498
  0
LINE
  5
742
100
AcDbEntity
  8
NOTE
  6
CONTINUOUS
 62
     4
100
AcDbLine
 10
-573.0
 20
418.004834
 30
0.0
 11
-573.0
 21
447.995166
 31
0.0
  0
LINE
  5
743
100
AcDbEntity
  8
NOTE
  6
CONTINUOUS
 62
     4
100
AcDbLine
 10
-587.995166
 20
433.0
 30
0.0
 11
-558.004834
 21
433.0
 31
0.0
  0
POINT
  5
744
100
AcDbEntity
  8
DEFPOINTS
  6
CONTINUOUS
 62
     7
100
AcDbPoint
 10
-596.0
 20
427.1
 30
0.0
  0
LINE
  5
745
100
AcDbEntity
  8
DETAIL
  6
CONTINUOUS
 62
     5
100
AcDbLine
 10
-580.0
 20
406.6
 30
0.0
 11
-577.0
 21
403.6
 31
0.0
  0
LINE
  5
748
100
AcDbEntity
  8
DETAIL
  6
CONTINUOUS
 62
     5
100
AcDbLine
 10
-580.0
 20
430.7
 30
0.0
 11
-591.7
 21
430.7
 31
0.0
  0
LINE
  5
749
100
AcDbEntity
  8
DETAIL
  6
CONTINUOUS
 62
     5
100
AcDbLine
 10
-580.0
 20
433.0
 30
0.0
 11
-591.7
 21
433.0
 31
0.0
  0
LINE
  5
74B
100
AcDbEntity
  8
DETAIL
  6
CONTINUOUS
 62
     5
100
AcDbLine
 10
-593.7
 20
421.0
 30
0.0
 11
-596.0
 21
421.0
 31
0.0
  0
LINE
  5
74C
100
AcDbEntity
  8
DETAIL
  6
CONTINUOUS
 62
     5
100
AcDbLine
 10
-593.7
 20
428.7
 30
0.0
 11
-593.7
 21
421.0
 31
0.0
  0
ARC
  5
74D
100
AcDbEntity
  8
DETAIL
  6
CONTINUOUS
 62
     5
100
AcDbCircle
 10
-591.7
 20
428.7
 30
0.0
 40
2.0
100
AcDbArc
 50
90.0
 51
180.0
  0
LINE
  5
74E
100
AcDbEntity
  8
DETAIL
  6
CONTINUOUS
 62
     5
100
AcDbLine
 10
-596.0
 20
428.7
 30
0.0
 11
-596.0
 21
421.0
 31
0.0
  0
ARC
  5
74F
100
AcDbEntity
  8
DETAIL
  6
CONTINUOUS
 62
     5
100
AcDbCircle
 10
-591.7
 20
428.7
 30
0.0
 40
4.3
100
AcDbArc
 50
90.0
 51
180.0
  0
LINE
  5
759
100
AcDbEntity
  8
DETAIL
  6
CONTINUOUS
 62
     5
100
AcDbLine
 10
-589.0
 20
341.2
 30
0.0
 11
-580.0
 21
341.357096
 31
0.0
  0
ARC
  5
75A
100
AcDbEntity
  8
DETAIL
  6
CONTINUOUS
 62
     5
100
AcDbCircle
 10
-613.5
 20
340.5
 30
0.0
 40
0.5
100
AcDbArc
 50
90.0
 51
180.0
  0
LINE
  5
75B
100
AcDbEntity
  8
DETAIL
  6
CONTINUOUS
 62
     5
100
AcDbLine
 10
-589.0
 20
341.0
 30
0.0
 11
-613.5
 21
341.0
 31
0.0
  0
LINE
  5
75C
100
AcDbEntity
  8
DETAIL
  6
CONTINUOUS
 62
     5
100
AcDbLine
 10
-589.0
 20
308.8
 30
0.0
 11
-580.0
 21
308.642904
 31
0.0
  0
ARC
  5
75D
100
AcDbEntity
  8
DETAIL
  6
CONTINUOUS
 62
     5
100
AcDbCircle
 10
-613.5
 20
309.5
 30
0.0
 40
0.5
100
AcDbArc
 50
180.0
 51
270.0
  0
LINE
  5
75E
100
AcDbEntity
  8
DETAIL
  6
CONTINUOUS
 62
     5
100
AcDbLine
 10
-589.0
 20
309.0
 30
0.0
 11
-613.5
 21
309.0
 31
0.0
  0
LINE
  5
75F
100
AcDbEntity
  8
DETAIL
  6
CONTINUOUS
 62
     5
100
AcDbLine
 10
-589.0
 20
341.2
 30
0.0
 11
-589.0
 21
308.8
 31
0.0
  0
LINE
  5
760
100
AcDbEntity
  8
DETAIL
  6
CONTINUOUS
 62
     5
100
AcDbLine
 10
-614.0
 20
340.5
 30
0.0
 11
-614.0
 21
309.5
 31
0.0
  0
LINE
  5
761
100
AcDbEntity
  8
DETAIL
  6
CONTINUOUS
 62
     5
100
AcDbLine
 10
-589.0
 20
341.2
 30
0.0
 11
-580.0
 21
341.357096
 31
0.0
  0
LINE
  5
762
100
AcDbEntity
  8
DETAIL
  6
CONTINUOUS
 62
     5
100
AcDbLine
 10
-589.0
 20
308.8
 30
0.0
 11
-580.0
 21
308.642904
 31
0.0
  0
ARC
  5
763
100
AcDbEntity
  8
DETAIL
  6
CONTINUOUS
 62
     5
100
AcDbCircle
 10
-613.5
 20
309.5
 30
0.0
 40
0.5
100
AcDbArc
 50
180.0
 51
270.0
  0
ARC
  5
764
100
AcDbEntity
  8
DETAIL
  6
CONTINUOUS
 62
     5
100
AcDbCircle
 10
-613.5
 20
340.5
 30
0.0
 40
0.5
100
AcDbArc
 50
90.0
 51
180.0
  0
LINE
  5
765
100
AcDbEntity
  8
DETAIL
  6
CONTINUOUS
 62
     5
100
AcDbLine
 10
-589.0
 20
341.2
 30
0.0
 11
-589.0
 21
308.8
 31
0.0
  0
LINE
  5
766
100
AcDbEntity
  8
DETAIL
  6
CONTINUOUS
 62
     5
100
AcDbLine
 10
-589.0
 20
309.0
 30
0.0
 11
-613.5
 21
309.0
 31
0.0
  0
LINE
  5
767
100
AcDbEntity
  8
DETAIL
  6
CONTINUOUS
 62
     5
100
AcDbLine
 10
-589.0
 20
341.0
 30
0.0
 11
-613.5
 21
341.0
 31
0.0
  0
LINE
  5
768
100
AcDbEntity
  8
DETAIL
  6
CONTINUOUS
 62
     5
100
AcDbLine
 10
-614.0
 20
340.5
 30
0.0
 11
-614.0
 21
309.5
 31
0.0
  0
POINT
  5
76A
100
AcDbEntity
  8
DEFPOINTS
  6
CONTINUOUS
 62
     7
100
AcDbPoint
 10
-580.0
 20
601.245085
 30
0.0
  0
LINE
  5
76B
100
AcDbEntity
  8
SIZE
  6
CONTINUOUS
 62
    30
100
AcDbLine
 10
-575.0
 20
601.245085
 30
0.0
 11
-570.0
 21
601.245085
 31
0.0
  0
CIRCLE
  5
76C
100
AcDbEntity
  8
SIZE
  6
CONTINUOUS
 62
    30
100
AcDbCircle
 10
-580.0
 20
601.245085
 30
0.0
 40
5.0
  0
LINE
  5
76D
100
AcDbEntity
  8
SIZE
  6
CONTINUOUS
 62
    30
100
AcDbLine
 10
-621.0
 20
601.245085
 30
0.0
 11
-626.0
 21
601.245085
 31
0.0
  0
CIRCLE
  5
76E
100
AcDbEntity
  8
SIZE
  6
CONTINUOUS
 62
    30
100
AcDbCircle
 10
-616.0
 20
601.245085
 30
0.0
 40
5.0
  0
LINE
  5
76F
100
AcDbEntity
  8
SIZE
  6
CONTINUOUS
 62
    30
100
AcDbLine
 10
-616.0
 20
601.245085
 30
0.0
 11
-580.0
 21
601.245085
 31
0.0
  0
LINE
  5
770
100
AcDbEntity
  8
SIZE
  6
CONTINUOUS
 62
    30
100
AcDbLine
 10
-626.0
 20
601.245085
 30
0.0
 11
-636.0
 21
601.245085
 31
0.0
  0
POINT
  5
771
100
AcDbEntity
  8
DEFPOINTS
  6
CONTINUOUS
 62
     7
100
AcDbPoint
 10
-580.0
 20
515.644821
 30
0.0
  0
LINE
  5
772
100
AcDbEntity
  8
SIZE
  6
CONTINUOUS
 62
    30
100
AcDbLine
 10
-575.0
 20
515.644821
 30
0.0
 11
-570.0
 21
515.644821
 31
0.0
  0
CIRCLE
  5
773
100
AcDbEntity
  8
SIZE
  6
CONTINUOUS
 62
    30
100
AcDbCircle
 10
-580.0
 20
515.644821
 30
0.0
 40
5.0
  0
LINE
  5
774
100
AcDbEntity
  8
SIZE
  6
CONTINUOUS
 62
    30
100
AcDbLine
 10
-619.0
 20
515.644821
 30
0.0
 11
-624.0
 21
515.644821
 31
0.0
  0
CIRCLE
  5
775
100
AcDbEntity
  8
SIZE
  6
CONTINUOUS
 62
    30
100
AcDbCircle
 10
-614.0
 20
515.644821
 30
0.0
 40
5.0
  0
LINE
  5
776
100
AcDbEntity
  8
SIZE
  6
CONTINUOUS
 62
    30
100
AcDbLine
 10
-614.0
 20
515.644821
 30
0.0
 11
-580.0
 21
515.644821
 31
0.0
  0
LINE
  5
777
100
AcDbEntity
  8
SIZE
  6
CONTINUOUS
 62
    30
100
AcDbLine
 10
-624.0
 20
515.644821
 30
0.0
 11
-634.0
 21
515.644821
 31
0.0
  0
POINT
  5
778
100
AcDbEntity
  8
DEFPOINTS
  6
CONTINUOUS
 62
     7
100
AcDbPoint
 10
-596.0
 20
528.0
 30
0.0
  0
ARC
  5
779
100
AcDbEntity
  8
DETAIL
  6
CONTINUOUS
 62
     5
100
AcDbCircle
 10
-538.0
 20
398.0
 30
0.0
 40
10.0
100
AcDbArc
 50
90.0
 51
180.0
  0
TEXT
  5
77A
100
AcDbEntity
  8
SIZE
  6
CONTINUOUS
 62
    30
100
AcDbText
 10
-542.0
 20
533.644821
 30
0.0
 40
55.0
  1
34
 41
0.9
 72
     1
 11
-500.75
 21
533.644821
 31
0.0
100
AcDbText
  0
LINE
  5
77B
100
AcDbEntity
  8
NOTE
  6
CONTINUOUS
 62
     4
100
AcDbLine
 10
-829.911981
 20
631.95283
 30
0.0
 11
-1173.625563
 21
631.95283
 31
0.0
  0
TEXT
  5
77C
100
AcDbEntity
  8
NOTE
  6
CONTINUOUS
 62
     4
100
AcDbText
 10
-1151.950291
 20
647.779361
 30
0.0
 40
60.0
  1
RL %%C9.52
 50
0.000003
 41
0.7
  7
STANDARD1
100
AcDbText
  0
LINE
  5
77D
100
AcDbEntity
  8
NOTE
  6
CONTINUOUS
 62
     4
100
AcDbLine
 10
-830.441156
 20
753.397489
 30
0.0
 11
-1177.255017
 21
753.397489
 31
0.0
  0
TEXT
  5
77E
100
AcDbEntity
  8
NOTE
  6
CONTINUOUS
 62
     4
100
AcDbText
 10
-1155.579746
 20
769.22402
 30
0.0
 40
60.0
  1
D1 VP-25
 50
0.000003
 41
0.7
  7
STANDARD1
100
AcDbText
  0
CIRCLE
  5
77F
100
AcDbEntity
  8
SIZE
  6
CONTINUOUS
 62
    30
100
AcDbCircle
 10
-573.0
 20
917.162422
 30
0.0
 40
5.0
  0
CIRCLE
  5
780
100
AcDbEntity
  8
SIZE
  6
CONTINUOUS
 62
    30
100
AcDbCircle
 10
-596.0
 20
917.162422
 30
0.0
 40
5.0
  0
CIRCLE
  5
781
100
AcDbEntity
  8
SIZE
  6
CONTINUOUS
 62
    30
100
AcDbCircle
 10
-573.0
 20
917.162422
 30
0.0
 40
5.0
  0
LINE
  5
782
100
AcDbEntity
  8
SIZE
  6
CONTINUOUS
 62
    30
100
AcDbLine
 10
-570.0
 20
702.354232
 30
0.0
 11
-446.214286
 21
702.354232
 31
0.0
  0
POINT
  5
783
100
AcDbEntity
  8
DEFPOINTS
  6
CONTINUOUS
 62
     7
100
AcDbPoint
 10
-619.009149
 20
702.354232
 30
0.0
  0
LINE
  5
784
100
AcDbEntity
  8
SIZE
  6
CONTINUOUS
 62
    30
100
AcDbLine
 10
-575.0
 20
702.354232
 30
0.0
 11
-570.0
 21
702.354232
 31
0.0
  0
CIRCLE
  5
785
100
AcDbEntity
  8
SIZE
  6
CONTINUOUS
 62
    30
100
AcDbCircle
 10
-580.0
 20
702.354232
 30
0.0
 40
5.0
  0
LINE
  5
786
100
AcDbEntity
  8
SIZE
  6
CONTINUOUS
 62
    30
100
AcDbLine
 10
-624.009149
 20
702.354232
 30
0.0
 11
-629.009149
 21
702.354232
 31
0.0
  0
CIRCLE
  5
787
100
AcDbEntity
  8
SIZE
  6
CONTINUOUS
 62
    30
100
AcDbCircle
 10
-619.009149
 20
702.354232
 30
0.0
 40
5.0
  0
LINE
  5
788
100
AcDbEntity
  8
SIZE
  6
CONTINUOUS
 62
    30
100
AcDbLine
 10
-619.009149
 20
702.354232
 30
0.0
 11
-580.0
 21
702.354232
 31
0.0
  0
LINE
  5
789
100
AcDbEntity
  8
SIZE
  6
CONTINUOUS
 62
    30
100
AcDbLine
 10
-629.009149
 20
702.354232
 30
0.0
 11
-639.009149
 21
702.354232
 31
0.0
  0
TEXT
  5
78A
100
AcDbEntity
  8
SIZE
  6
CONTINUOUS
 62
    30
100
AcDbText
 10
-702.357142
 20
818.103197
 30
0.0
 40
55.0
  1
16
 41
0.9
 72
     1
 11
-668.178571
 21
818.103197
 31
0.0
100
AcDbText
  0
LINE
  5
78B
100
AcDbEntity
  8
SIZE
  6
CONTINUOUS
 62
    30
100
AcDbLine
 10
-606.0
 20
800.103197
 30
0.0
 11
-720.357143
 21
800.103197
 31
0.0
  0
LINE
  5
78C
100
AcDbEntity
  8
SIZE
  6
CONTINUOUS
 62
    30
100
AcDbLine
 10
-575.0
 20
800.103197
 30
0.0
 11
-570.0
 21
800.103197
 31
0.0
  0
CIRCLE
  5
78D
100
AcDbEntity
  8
SIZE
  6
CONTINUOUS
 62
    30
100
AcDbCircle
 10
-580.0
 20
800.103197
 30
0.0
 40
5.0
  0
POINT
  5
78E
100
AcDbEntity
  8
DEFPOINTS
  6
CONTINUOUS
 62
     7
100
AcDbPoint
 10
-580.0
 20
800.103197
 30
0.0
  0
LINE
  5
78F
100
AcDbEntity
  8
SIZE
  6
CONTINUOUS
 62
    30
100
AcDbLine
 10
-601.0
 20
800.103197
 30
0.0
 11
-606.0
 21
800.103197
 31
0.0
  0
CIRCLE
  5
790
100
AcDbEntity
  8
SIZE
  6
CONTINUOUS
 62
    30
100
AcDbCircle
 10
-596.0
 20
800.103197
 30
0.0
 40
5.0
  0
LINE
  5
791
100
AcDbEntity
  8
SIZE
  6
CONTINUOUS
 62
    30
100
AcDbLine
 10
-575.0
 20
800.103197
 30
0.0
 11
-570.0
 21
800.103197
 31
0.0
  0
CIRCLE
  5
792
100
AcDbEntity
  8
SIZE
  6
CONTINUOUS
 62
    30
100
AcDbCircle
 10
-580.0
 20
800.103197
 30
0.0
 40
5.0
  0
LINE
  5
793
100
AcDbEntity
  8
SIZE
  6
CONTINUOUS
 62
    30
100
AcDbLine
 10
-580.0
 20
800.103197
 30
0.0
 11
-596.0
 21
800.103197
 31
0.0
  0
LINE
  5
794
100
AcDbEntity
  8
SIZE
  6
CONTINUOUS
 62
    30
100
AcDbLine
 10
-570.0
 20
800.103197
 30
0.0
 11
-560.0
 21
800.103197
 31
0.0
  0
TEXT
  5
795
100
AcDbEntity
  8
SIZE
  6
CONTINUOUS
 62
    30
100
AcDbText
 10
-542.0
 20
720.354232
 30
0.0
 40
55.0
  1
39
 41
0.9
 72
     1
 11
-503.107143
 21
720.354232
 31
0.0
100
AcDbText
  0
TEXT
  5
796
100
AcDbEntity
  8
SIZE
  6
CONTINUOUS
 62
    30
100
AcDbText
 10
-542.0
 20
619.245085
 30
0.0
 40
55.0
  1
36
 41
0.9
 72
     1
 11
-503.107143
 21
619.245085
 31
0.0
100
AcDbText
  0
TEXT
  5
797
100
AcDbEntity
  8
SIZE
  6
CONTINUOUS
 62
    30
100
AcDbText
 10
-714.142858
 20
935.162422
 30
0.0
 40
55.0
  1
23
 41
0.9
 72
     1
 11
-674.071429
 21
935.162422
 31
0.0
100
AcDbText
  0
LINE
  5
798
100
AcDbEntity
  8
SIZE
  6
CONTINUOUS
 62
    30
100
AcDbLine
 10
-606.0
 20
917.162422
 30
0.0
 11
-732.142857
 21
917.162422
 31
0.0
  0
LINE
  5
799
100
AcDbEntity
  8
SIZE
  6
CONTINUOUS
 62
    30
100
AcDbLine
 10
-568.0
 20
917.162422
 30
0.0
 11
-563.0
 21
917.162422
 31
0.0
  0
POINT
  5
79A
100
AcDbEntity
  8
DEFPOINTS
  6
CONTINUOUS
 62
     7
100
AcDbPoint
 10
-573.0
 20
917.162422
 30
0.0
  0
LINE
  5
79B
100
AcDbEntity
  8
SIZE
  6
CONTINUOUS
 62
    30
100
AcDbLine
 10
-601.0
 20
917.162422
 30
0.0
 11
-606.0
 21
917.162422
 31
0.0
  0
LINE
  5
79C
100
AcDbEntity
  8
SIZE
  6
CONTINUOUS
 62
    30
100
AcDbLine
 10
-568.0
 20
917.162422
 30
0.0
 11
-563.0
 21
917.162422
 31
0.0
  0
LINE
  5
79D
100
AcDbEntity
  8
SIZE
  6
CONTINUOUS
 62
    30
100
AcDbLine
 10
-573.0
 20
917.162422
 30
0.0
 11
-596.0
 21
917.162422
 31
0.0
  0
LINE
  5
79E
100
AcDbEntity
  8
SIZE
  6
CONTINUOUS
 62
    30
100
AcDbLine
 10
-563.0
 20
917.162422
 30
0.0
 11
-553.0
 21
917.162422
 31
0.0
  0
LINE
  5
79F
100
AcDbEntity
  8
SIZE
  6
CONTINUOUS
 62
    30
100
AcDbLine
 10
-591.0
 20
1029.149774
 30
0.0
 11
-586.0
 21
1029.149774
 31
0.0
  0
CIRCLE
  5
7A0
100
AcDbEntity
  8
SIZE
  6
CONTINUOUS
 62
    30
100
AcDbCircle
 10
-596.0
 20
1029.149774
 30
0.0
 40
5.0
  0
LINE
  5
7A1
100
AcDbEntity
  8
BASIS
  6
DASHDOT
 62
     6
100
AcDbLine
 10
0.0
 20
468.571713
 30
0.0
 11
0.0
 21
-53.886171
 31
0.0
  0
CIRCLE
  5
7A2
100
AcDbEntity
  8
ARRANGE
  6
CONTINUOUS
 62
     1
100
AcDbCircle
 10
0.0
 20
0.0
 30
0.0
 40
50.0
  0
CIRCLE
  5
7A3
100
AcDbEntity
  8
SIZE
  6
CONTINUOUS
 62
    30
100
AcDbCircle
 10
1066.156178
 20
0.0
 30
0.0
 40
5.0
  0
LINE
  5
7A4
100
AcDbEntity
  8
SIZE
  6
CONTINUOUS
 62
    30
100
AcDbLine
 10
1066.156178
 20
0.0
 30
0.0
 11
1066.156178
 21
-364.685714
 31
0.0
  0
CIRCLE
  5
7A5
100
AcDbEntity
  8
SIZE
  6
CONTINUOUS
 62
    30
100
AcDbCircle
 10
841.644378
 20
0.0
 30
0.0
 40
5.0
  0
LINE
  5
7A6
100
AcDbEntity
  8
SIZE
  6
CONTINUOUS
 62
    30
100
AcDbLine
 10
841.644378
 20
23.5
 30
0.0
 11
942.66764
 21
-17.519043
 31
0.0
  0
CIRCLE
  5
7A7
100
AcDbEntity
  8
SIZE
  6
CONTINUOUS
 62
    30
100
AcDbCircle
 10
841.644378
 20
0.0
 30
0.0
 40
5.0
  0
LINE
  5
7A8
100
AcDbEntity
  8
SIZE
  6
CONTINUOUS
 62
    30
100
AcDbLine
 10
841.644378
 20
0.0
 30
0.0
 11
841.644378
 21
-8.0
 31
0.0
  0
LINE
  5
7A9
100
AcDbEntity
  8
OUTLINE
  6
CONTINUOUS
 62
     3
100
AcDbLine
 10
620.0
 20
-4.006508
 30
0.0
 11
620.0
 21
0.0
 31
0.0
  0
LINE
  5
7AA
100
AcDbEntity
  8
ARRANGE
  6
CONTINUOUS
 62
     1
100
AcDbLine
 10
49.963763
 20
49.596595
 30
0.0
 11
-49.963763
 21
-49.596595
 31
0.0
  0
LINE
  5
7AB
100
AcDbEntity
  8
ARRANGE
  6
CONTINUOUS
 62
     1
100
AcDbLine
 10
50.03735
 20
-49.522353
 30
0.0
 11
-50.03735
 21
49.522353
 31
0.0
  0
TEXT
  5
7AC
100
AcDbEntity
  8
SIZE
  6
CONTINUOUS
 62
    30
100
AcDbText
 10
1180.939588
 20
-331.654616
 30
0.0
 40
55.0
  1
パネル直付時
 50
90.0
 41
0.9
 72
     1
 11
1180.939588
 21
-160.054616
 31
0.0
100
AcDbText
  0
LINE
  5
7AD
100
AcDbEntity
  8
DETAIL
  6
CONTINUOUS
 62
     5
100
AcDbLine
 10
620.0
 20
-4.006508
 30
0.0
 11
620.0
 21
0.0
 31
0.0
  0
LINE
  5
7AE
100
AcDbEntity
  8
OUTLINE
  6
CONTINUOUS
 62
     3
100
AcDbLine
 10
566.53
 20
-8.0
 30
0.0
 11
620.0
 21
-4.006508
 31
0.0
  0
LINE
  5
7AF
100
AcDbEntity
  8
DETAIL
  6
CONTINUOUS
 62
     5
100
AcDbLine
 10
566.53
 20
-8.0
 30
0.0
 11
620.0
 21
-4.006508
 31
0.0
  0
TEXT
  5
7B0
100
AcDbEntity
  8
SIZE
  6
CONTINUOUS
 62
    30
100
AcDbText
 10
-307.371429
 20
-160.809889
 30
0.0
 40
55.0
  1
1200（天井開口寸法）
 41
0.9
 72
     1
 11
0.0
 21
-160.809889
 31
0.0
100
AcDbText
  0
TEXT
  5
7B1
100
AcDbEntity
  8
SIZE
  6
CONTINUOUS
 62
    30
100
AcDbText
 10
-87.069646
 20
-307.067462
 30
0.0
 40
55.0
  1
1240
 41
0.9
 72
     1
 11
-4.569646
 21
-307.067462
 31
0.0
100
AcDbText
  0
POINT
  5
7B2
100
AcDbEntity
  8
DEFPOINTS
  6
CONTINUOUS
 62
     7
100
AcDbPoint
 10
566.53
 20
-8.0
 30
0.0
  0
TEXT
  5
7B3
100
AcDbEntity
  8
SIZE
  6
CONTINUOUS
 62
    30
100
AcDbText
 10
1048.156178
 20
-346.685714
 30
0.0
 40
55.0
  1
140～300
 50
90.0
 41
0.9
 72
     1
 11
1048.156178
 21
-187.342857
 31
0.0
100
AcDbText
  0
LINE
  5
7B4
100
AcDbEntity
  8
SIZE
  6
CONTINUOUS
 62
    30
100
AcDbLine
 10
620.0
 20
-24.006508
 30
0.0
 11
620.0
 21
-355.067462
 31
0.0
  0
POINT
  5
7B5
100
AcDbEntity
  8
DEFPOINTS
  6
CONTINUOUS
 62
     7
100
AcDbPoint
 10
620.0
 20
-325.067462
 30
0.0
  0
LINE
  5
7B6
100
AcDbEntity
  8
SIZE
  6
CONTINUOUS
 62
    30
100
AcDbLine
 10
615.0
 20
-325.067462
 30
0.0
 11
610.0
 21
-325.067462
 31
0.0
  0
CIRCLE
  5
7B7
100
AcDbEntity
  8
SIZE
  6
CONTINUOUS
 62
    30
100
AcDbCircle
 10
620.0
 20
-325.067462
 30
0.0
 40
5.0
  0
TEXT
  5
7B8
100
AcDbEntity
  8
SIZE
  6
CONTINUOUS
 62
    30
100
AcDbText
 10
823.644378
 20
-79.0
 30
0.0
 40
55.0
  1
8
 50
90.0
 41
0.9
 72
     1
 11
823.644378
 21
-62.5
 31
0.0
100
AcDbText
  0
LINE
  5
7B9
100
AcDbEntity
  8
SIZE
  6
CONTINUOUS
 62
    30
100
AcDbLine
 10
586.53
 20
-8.0
 30
0.0
 11
871.644378
 21
-8.0
 31
0.0
  0
TEXT
  5
7BA
100
AcDbEntity
  8
SIZE
  6
CONTINUOUS
 62
    30
100
AcDbText
 10
690.472531
 20
-160.809889
 30
0.0
 40
55.0
  1
20
 41
0.9
 72
     1
 11
730.54396
 21
-160.809889
 31
0.0
100
AcDbText
  0
LINE
  5
7BB
100
AcDbEntity
  8
SIZE
  6
CONTINUOUS
 62
    30
100
AcDbLine
 10
620.0
 20
-24.006508
 30
0.0
 11
620.0
 21
-208.809889
 31
0.0
  0
LINE
  5
7BC
100
AcDbEntity
  8
SIZE
  6
CONTINUOUS
 62
    30
100
AcDbLine
 10
600.0
 20
-19.0
 30
0.0
 11
600.0
 21
-208.809889
 31
0.0
  0
LINE
  5
7BD
100
AcDbEntity
  8
SIZE
  6
CONTINUOUS
 62
    30
100
AcDbLine
 10
600.0
 20
-19.0
 30
0.0
 11
600.0
 21
-208.809889
 31
0.0
  0
LINE
  5
7BE
100
AcDbEntity
  8
SIZE
  6
CONTINUOUS
 62
    30
100
AcDbLine
 10
788.615388
 20
-178.809889
 30
0.0
 11
620.0
 21
-178.809889
 31
0.0
  0
POINT
  5
7BF
100
AcDbEntity
  8
DEFPOINTS
  6
CONTINUOUS
 62
     7
100
AcDbPoint
 10
620.0
 20
-178.809889
 30
0.0
  0
LINE
  5
7C0
100
AcDbEntity
  8
SIZE
  6
CONTINUOUS
 62
    30
100
AcDbLine
 10
625.0
 20
-178.809889
 30
0.0
 11
630.0
 21
-178.809889
 31
0.0
  0
CIRCLE
  5
7C1
100
AcDbEntity
  8
SIZE
  6
CONTINUOUS
 62
    30
100
AcDbCircle
 10
620.0
 20
-178.809889
 30
0.0
 40
5.0
  0
LINE
  5
7C2
100
AcDbEntity
  8
SIZE
  6
CONTINUOUS
 62
    30
100
AcDbLine
 10
595.0
 20
-178.809889
 30
0.0
 11
590.0
 21
-178.809889
 31
0.0
  0
CIRCLE
  5
7C3
100
AcDbEntity
  8
SIZE
  6
CONTINUOUS
 62
    30
100
AcDbCircle
 10
600.0
 20
-178.809889
 30
0.0
 40
5.0
  0
LINE
  5
7C4
100
AcDbEntity
  8
SIZE
  6
CONTINUOUS
 62
    30
100
AcDbLine
 10
600.0
 20
-178.809889
 30
0.0
 11
620.0
 21
-178.809889
 31
0.0
  0
LINE
  5
7C5
100
AcDbEntity
  8
SIZE
  6
CONTINUOUS
 62
    30
100
AcDbLine
 10
600.0
 20
-178.809889
 30
0.0
 11
620.0
 21
-178.809889
 31
0.0
  0
LINE
  5
7C6
100
AcDbEntity
  8
SIZE
  6
CONTINUOUS
 62
    30
100
AcDbLine
 10
630.0
 20
-178.809889
 30
0.0
 11
640.0
 21
-178.809889
 31
0.0
  0
LINE
  5
7C7
100
AcDbEntity
  8
SIZE
  6
CONTINUOUS
 62
    30
100
AcDbLine
 10
590.0
 20
-178.809889
 30
0.0
 11
580.0
 21
-178.809889
 31
0.0
  0
POINT
  5
7C8
100
AcDbEntity
  8
DEFPOINTS
  6
CONTINUOUS
 62
     7
100
AcDbPoint
 10
600.0
 20
-178.809889
 30
0.0
  0
LINE
  5
7C9
100
AcDbEntity
  8
SIZE
  6
CONTINUOUS
 62
    30
100
AcDbLine
 10
595.0
 20
-178.809889
 30
0.0
 11
590.0
 21
-178.809889
 31
0.0
  0
CIRCLE
  5
7CA
100
AcDbEntity
  8
SIZE
  6
CONTINUOUS
 62
    30
100
AcDbCircle
 10
600.0
 20
-178.809889
 30
0.0
 40
5.0
  0
POINT
  5
7CB
100
AcDbEntity
  8
DEFPOINTS
  6
CONTINUOUS
 62
     7
100
AcDbPoint
 10
620.0
 20
-4.006508
 30
0.0
  0
POINT
  5
7CC
100
AcDbEntity
  8
DEFPOINTS
  6
CONTINUOUS
 62
     7
100
AcDbPoint
 10
620.0
 20
-4.006508
 30
0.0
  0
TEXT
  5
7CD
100
AcDbEntity
  8
SIZE
  6
CONTINUOUS
 62
    30
100
AcDbText
 10
924.66764
 20
-115.661901
 30
0.0
 40
55.0
  1
47
 50
90.0
 41
0.9
 72
     1
 11
924.66764
 21
-75.590472
 31
0.0
100
AcDbText
  0
LINE
  5
7CE
100
AcDbEntity
  8
SIZE
  6
CONTINUOUS
 62
    30
100
AcDbLine
 10
841.644378
 20
-5.0
 30
0.0
 11
841.644378
 21
-10.0
 31
0.0
  0
LINE
  5
7CF
100
AcDbEntity
  8
SIZE
  6
CONTINUOUS
 62
    30
100
AcDbLine
 10
841.644378
 20
-10.0
 30
0.0
 11
841.644378
 21
-20.0
 31
0.0
  0
LINE
  5
7D0
100
AcDbEntity
  8
SIZE
  6
CONTINUOUS
 62
    30
100
AcDbLine
 10
841.644378
 20
-13.0
 30
0.0
 11
841.644378
 21
-18.0
 31
0.0
  0
CIRCLE
  5
7D1
100
AcDbEntity
  8
SIZE
  6
CONTINUOUS
 62
    30
100
AcDbCircle
 10
841.644378
 20
-8.0
 30
0.0
 40
5.0
  0
LINE
  5
7D2
100
AcDbEntity
  8
SIZE
  6
CONTINUOUS
 62
    30
100
AcDbLine
 10
841.644378
 20
-18.0
 30
0.0
 11
841.644378
 21
-97.0
 31
0.0
  0
LINE
  5
7D3
100
AcDbEntity
  8
SIZE
  6
CONTINUOUS
 62
    30
100
AcDbLine
 10
942.66764
 20
-17.519043
 30
0.0
 11
942.66764
 21
-133.6619
 31
0.0
  0
POLYLINE
  5
7D4
100
AcDbEntity
  8
SIZE
  6
CONTINUOUS
 62
    30
100
AcDb2dPolyline
 66
     1
 10
0.0
 20
0.0
 30
0.0
  0
VERTEX
  5
7D5
100
AcDbEntity
  8
SIZE
  6
CONTINUOUS
 62
    30
100
AcDbVertex
100
AcDb2dVertex
 10
1104.747123
 20
-325.093311
 30
0.0
 42
0.186174
  0
VERTEX
  5
7D6
100
AcDbEntity
  8
SIZE
  6
CONTINUOUS
 62
    30
100
AcDbVertex
100
AcDb2dVertex
 10
1113.596972
 20
-346.042799
 30
0.0
 42
0.082105
  0
VERTEX
  5
7D7
100
AcDbEntity
  8
SIZE
  6
CONTINUOUS
 62
    30
100
AcDbVertex
100
AcDb2dVertex
 10
1129.299474
 20
-358.21736
 30
0.0
 42
0.058826
  0
VERTEX
  5
7D8
100
AcDbEntity
  8
SIZE
  6
CONTINUOUS
 62
    30
100
AcDbVertex
100
AcDb2dVertex
 10
1151.085532
 20
-366.992287
 30
0.0
 42
0.067494
  0
VERTEX
  5
7D9
100
AcDbEntity
  8
SIZE
  6
CONTINUOUS
 62
    30
100
AcDbVertex
100
AcDb2dVertex
 10
1188.574092
 20
-371.93779
 30
0.0
 42
0.067494
  0
VERTEX
  5
7DA
100
AcDbEntity
  8
SIZE
  6
CONTINUOUS
 62
    30
100
AcDbVertex
100
AcDb2dVertex
 10
1226.062651
 20
-366.992287
 30
0.0
 42
0.058826
  0
VERTEX
  5
7DB
100
AcDbEntity
  8
SIZE
  6
CONTINUOUS
 62
    30
100
AcDbVertex
100
AcDb2dVertex
 10
1247.848709
 20
-358.21736
 30
0.0
 42
0.082105
  0
VERTEX
  5
7DC
100
AcDbEntity
  8
SIZE
  6
CONTINUOUS
 62
    30
100
AcDbVertex
100
AcDb2dVertex
 10
1263.551211
 20
-346.042799
 30
0.0
 42
0.186174
  0
VERTEX
  5
7DD
100
AcDbEntity
  8
SIZE
  6
CONTINUOUS
 62
    30
100
AcDbVertex
100
AcDb2dVertex
 10
1272.40106
 20
-325.093311
 30
0.0
 42
0.186174
  0
VERTEX
  5
7DE
100
AcDbEntity
  8
SIZE
  6
CONTINUOUS
 62
    30
100
AcDbVertex
100
AcDb2dVertex
 10
1272.40106
 20
-325.093311
 30
0.0
 42
0.186174
  0
SEQEND
  5
7DF
100
AcDbEntity
  8
SIZE
  6
CONTINUOUS
 62
    30
  0
TEXT
  5
7E0
100
AcDbEntity
  8
SIZE
  6
CONTINUOUS
 62
    30
100
AcDbText
 10
1264.689366
 20
-274.795966
 30
0.0
 40
55.0
  1
50～60
 50
90.0
 41
0.9
 72
     1
 11
1264.689366
 21
-157.88168
 31
0.0
100
AcDbText
  0
LINE
  5
7E1
100
AcDbEntity
  8
SIZE
  6
CONTINUOUS
 62
    30
100
AcDbLine
 10
586.0
 20
58.769509
 30
0.0
 11
504.642857
 21
58.769509
 31
0.0
  0
LINE
  5
7E2
100
AcDbEntity
  8
SIZE
  6
CONTINUOUS
 62
    30
100
AcDbLine
 10
568.0
 20
917.162422
 30
0.0
 11
563.0
 21
917.162422
 31
0.0
  0
LINE
  5
7E3
100
AcDbEntity
  8
SIZE
  6
CONTINUOUS
 62
    30
100
AcDbLine
 10
568.0
 20
917.162422
 30
0.0
 11
563.0
 21
917.162422
 31
0.0
  0
LINE
  5
7E4
100
AcDbEntity
  8
SIZE
  6
CONTINUOUS
 62
    30
100
AcDbLine
 10
570.0
 20
800.103197
 30
0.0
 11
560.0
 21
800.103197
 31
0.0
  0
LINE
  5
7E5
100
AcDbEntity
  8
SIZE
  6
CONTINUOUS
 62
    30
100
AcDbLine
 10
490.0
 20
297.0
 30
0.0
 11
930.883838
 21
297.0
 31
0.0
  0
LINE
  5
7E6
100
AcDbEntity
  8
NOTE
  6
CONTINUOUS
 62
     4
100
AcDbLine
 10
714.60247
 20
455.68514
 30
0.0
 11
350.0
 21
297.0
 31
0.0
  0
CIRCLE
  5
7E7
100
AcDbEntity
  8
FIX
  6
CONTINUOUS
 62
    11
100
AcDbCircle
 10
573.0
 20
433.0
 30
0.0
 40
12.421498
  0
LINE
  5
7E8
100
AcDbEntity
  8
NOTE
  6
CONTINUOUS
 62
     4
100
AcDbLine
 10
587.995166
 20
433.0
 30
0.0
 11
558.004834
 21
433.0
 31
0.0
  0
LINE
  5
7E9
100
AcDbEntity
  8
DETAIL
  6
CONTINUOUS
 62
     5
100
AcDbLine
 10
546.284926
 20
403.6
 30
0.0
 11
577.0
 21
403.6
 31
0.0
  0
LINE
  5
7EA
100
AcDbEntity
  8
SIZE
  6
CONTINUOUS
 62
    30
100
AcDbLine
 10
359.999994
 20
510.575847
 30
0.0
 11
569.999994
 21
510.575847
 31
0.0
  0
CIRCLE
  5
7EB
100
AcDbEntity
  8
DETAIL
  6
CONTINUOUS
 62
     5
100
AcDbCircle
 10
30.0
 20
297.0
 30
0.0
 40
100.0
  0
LINE
  5
7EC
100
AcDbEntity
  8
NOTE
  6
CONTINUOUS
 62
     4
100
AcDbLine
 10
150.0
 20
297.0
 30
0.0
 11
-90.0
 21
297.0
 31
0.0
  0
LINE
  5
7ED
100
AcDbEntity
  8
SIZE
  6
CONTINUOUS
 62
    30
100
AcDbLine
 10
40.000001
 20
510.575878
 30
0.0
 11
339.999994
 21
510.575878
 31
0.0
  0
LINE
  5
7EE
100
AcDbEntity
  8
NOTE
  6
CONTINUOUS
 62
     4
100
AcDbLine
 10
-290.0
 20
417.0
 30
0.0
 11
-290.0
 21
177.0
 31
0.0
  0
CIRCLE
  5
7EF
100
AcDbEntity
  8
DETAIL
  6
CONTINUOUS
 62
     5
100
AcDbCircle
 10
30.0
 20
297.0
 30
0.0
 40
85.5
  0
LINE
  5
7F0
100
AcDbEntity
  8
NOTE
  6
CONTINUOUS
 62
     4
100
AcDbLine
 10
30.0
 20
417.0
 30
0.0
 11
30.0
 21
177.0
 31
0.0
  0
TEXT
  5
7F1
100
AcDbEntity
  8
SIZE
  6
CONTINUOUS
 62
    30
100
AcDbText
 10
-193.642856
 20
528.575847
 30
0.0
 40
55.0
  1
320
 41
0.9
 72
     1
 11
-129.999999
 21
528.575847
 31
0.0
100
AcDbText
  0
LINE
  5
7F2
100
AcDbEntity
  8
SIZE
  6
CONTINUOUS
 62
    30
100
AcDbLine
 10
-280.000006
 20
510.575847
 30
0.0
 11
20.000001
 21
510.575847
 31
0.0
  0
LINE
  5
7F3
100
AcDbEntity
  8
SIZE
  6
CONTINUOUS
 62
    30
100
AcDbLine
 10
-290.000006
 20
436.999999
 30
0.0
 11
-290.000006
 21
540.575847
 31
0.0
  0
POINT
  5
7F4
100
AcDbEntity
  8
DEFPOINTS
  6
CONTINUOUS
 62
     7
100
AcDbPoint
 10
-290.000006
 20
416.999999
 30
0.0
  0
LINE
  5
7F5
100
AcDbEntity
  8
SIZE
  6
CONTINUOUS
 62
    30
100
AcDbLine
 10
-285.000006
 20
510.575847
 30
0.0
 11
-280.000006
 21
510.575847
 31
0.0
  0
CIRCLE
  5
7F6
100
AcDbEntity
  8
SIZE
  6
CONTINUOUS
 62
    30
100
AcDbCircle
 10
-290.000006
 20
510.575847
 30
0.0
 40
5.0
  0
LINE
  5
7F7
100
AcDbEntity
  8
SIZE
  6
CONTINUOUS
 62
    30
100
AcDbLine
 10
30.000001
 20
436.999999
 30
0.0
 11
30.000001
 21
540.575847
 31
0.0
  0
LINE
  5
7F8
100
AcDbEntity
  8
SIZE
  6
CONTINUOUS
 62
    30
100
AcDbLine
 10
30.000001
 20
436.999999
 30
0.0
 11
30.000001
 21
540.575878
 31
0.0
  0
POINT
  5
7F9
100
AcDbEntity
  8
DEFPOINTS
  6
CONTINUOUS
 62
     7
100
AcDbPoint
 10
30.000001
 20
416.999999
 30
0.0
  0
POINT
  5
7FA
100
AcDbEntity
  8
DEFPOINTS
  6
CONTINUOUS
 62
     7
100
AcDbPoint
 10
30.000001
 20
416.999999
 30
0.0
  0
POINT
  5
7FB
100
AcDbEntity
  8
DEFPOINTS
  6
CONTINUOUS
 62
     7
100
AcDbPoint
 10
30.000001
 20
510.575847
 30
0.0
  0
LINE
  5
7FC
100
AcDbEntity
  8
SIZE
  6
CONTINUOUS
 62
    30
100
AcDbLine
 10
25.000001
 20
510.575847
 30
0.0
 11
20.000001
 21
510.575847
 31
0.0
  0
CIRCLE
  5
7FD
100
AcDbEntity
  8
SIZE
  6
CONTINUOUS
 62
    30
100
AcDbCircle
 10
30.000001
 20
510.575847
 30
0.0
 40
5.0
  0
LINE
  5
7FE
100
AcDbEntity
  8
SIZE
  6
CONTINUOUS
 62
    30
100
AcDbLine
 10
35.000001
 20
510.575878
 30
0.0
 11
40.000001
 21
510.575878
 31
0.0
  0
CIRCLE
  5
7FF
100
AcDbEntity
  8
SIZE
  6
CONTINUOUS
 62
    30
100
AcDbCircle
 10
30.000001
 20
510.575878
 30
0.0
 40
5.0
  0
LINE
  5
800
100
AcDbEntity
  8
NOTE
  6
CONTINUOUS
 62
     4
100
AcDbLine
 10
350.0
 20
297.0
 30
0.0
 11
377.848203
 21
317.16996
 31
0.0
  0
CIRCLE
  5
801
100
AcDbEntity
  8
DETAIL
  6
CONTINUOUS
 62
     5
100
AcDbCircle
 10
350.0
 20
297.0
 30
0.0
 40
100.0
  0
CIRCLE
  5
802
100
AcDbEntity
  8
DETAIL
  6
CONTINUOUS
 62
     5
100
AcDbCircle
 10
350.0
 20
297.0
 30
0.0
 40
85.5
  0
LINE
  5
803
100
AcDbEntity
  8
NOTE
  6
CONTINUOUS
 62
     4
100
AcDbLine
 10
350.0
 20
417.0
 30
0.0
 11
350.0
 21
177.0
 31
0.0
  0
LINE
  5
804
100
AcDbEntity
  8
DETAIL
  6
CONTINUOUS
 62
     5
100
AcDbLine
 10
548.0
 20
202.0
 30
0.0
 11
548.0
 21
398.0
 31
0.0
  0
LINE
  5
805
100
AcDbEntity
  8
NOTE
  6
CONTINUOUS
 62
     4
100
AcDbLine
 10
470.0
 20
297.0
 30
0.0
 11
230.0
 21
297.0
 31
0.0
  0
LINE
  5
806
100
AcDbEntity
  8
DETAIL
  6
CONTINUOUS
 62
     5
100
AcDbLine
 10
565.0
 20
152.0
 30
0.0
 11
565.0
 21
140.0
 31
0.0
  0
LINE
  5
807
100
AcDbEntity
  8
DETAIL
  6
CONTINUOUS
 62
     5
100
AcDbLine
 10
565.0
 20
152.0
 30
0.0
 11
565.0
 21
140.0
 31
0.0
  0
TEXT
  5
808
100
AcDbEntity
  8
SIZE
  6
CONTINUOUS
 62
    30
100
AcDbText
 10
522.642858
 20
76.769509
 30
0.0
 40
55.0
  1
4
 41
0.9
 72
     1
 11
540.321429
 21
76.769509
 31
0.0
100
AcDbText
  0
LINE
  5
809
100
AcDbEntity
  8
NOTE
  6
CONTINUOUS
 62
     4
100
AcDbLine
 10
350.0
 20
297.0
 30
0.0
 11
384.202231
 21
300.543595
 31
0.0
  0
POINT
  5
80A
100
AcDbEntity
  8
DEFPOINTS
  6
CONTINUOUS
 62
     7
100
AcDbPoint
 10
470.0
 20
297.0
 30
0.0
  0
ARC
  5
80C
100
AcDbEntity
  8
DETAIL
  6
CONTINUOUS
 62
     5
100
AcDbCircle
 10
538.0
 20
202.0
 30
0.0
 40
10.0
100
AcDbArc
 50
270.0
 51
0.0
  0
LINE
  5
80D
100
AcDbEntity
  8
DETAIL
  6
CONTINUOUS
 62
     5
100
AcDbLine
 10
565.0
 20
152.0
 30
0.0
 11
562.0
 21
155.0
 31
0.0
  0
LINE
  5
80E
100
AcDbEntity
  8
DETAIL
  6
CONTINUOUS
 62
     5
100
AcDbLine
 10
565.0
 20
152.0
 30
0.0
 11
562.0
 21
155.0
 31
0.0
  0
LINE
  5
80F
100
AcDbEntity
  8
SIZE
  6
CONTINUOUS
 62
    30
100
AcDbLine
 10
344.999994
 20
510.575878
 30
0.0
 11
339.999994
 21
510.575878
 31
0.0
  0
TEXT
  5
810
100
AcDbEntity
  8
SIZE
  6
CONTINUOUS
 62
    30
100
AcDbText
 10
126.357136
 20
528.575878
 30
0.0
 40
55.0
  1
320
 41
0.9
 72
     1
 11
189.999993
 21
528.575878
 31
0.0
100
AcDbText
  0
LINE
  5
811
100
AcDbEntity
  8
SIZE
  6
CONTINUOUS
 62
    30
100
AcDbLine
 10
349.999994
 20
436.999999
 30
0.0
 11
349.999994
 21
540.575878
 31
0.0
  0
LINE
  5
812
100
AcDbEntity
  8
SIZE
  6
CONTINUOUS
 62
    30
100
AcDbLine
 10
349.999994
 20
436.999999
 30
0.0
 11
349.999994
 21
540.575847
 31
0.0
  0
POINT
  5
813
100
AcDbEntity
  8
DEFPOINTS
  6
CONTINUOUS
 62
     7
100
AcDbPoint
 10
349.999994
 20
416.999999
 30
0.0
  0
POINT
  5
814
100
AcDbEntity
  8
DEFPOINTS
  6
CONTINUOUS
 62
     7
100
AcDbPoint
 10
349.999994
 20
416.999999
 30
0.0
  0
ARC
  5
815
100
AcDbEntity
  8
DETAIL
  6
CONTINUOUS
 62
     5
100
AcDbCircle
 10
538.0
 20
398.0
 30
0.0
 40
10.0
100
AcDbArc
 50
0.0
 51
90.0
  0
TEXT
  5
816
100
AcDbEntity
  8
SIZE
  6
CONTINUOUS
 62
    30
100
AcDbText
 10
401.357136
 20
528.575847
 30
0.0
 40
55.0
  1
230
 41
0.9
 72
     1
 11
464.999993
 21
528.575847
 31
0.0
100
AcDbText
  0
POINT
  5
817
100
AcDbEntity
  8
DEFPOINTS
  6
CONTINUOUS
 62
     7
100
AcDbPoint
 10
349.999994
 20
510.575878
 30
0.0
  0
CIRCLE
  5
818
100
AcDbEntity
  8
SIZE
  6
CONTINUOUS
 62
    30
100
AcDbCircle
 10
349.999994
 20
510.575878
 30
0.0
 40
5.0
  0
LINE
  5
819
100
AcDbEntity
  8
SIZE
  6
CONTINUOUS
 62
    30
100
AcDbLine
 10
354.999994
 20
510.575847
 30
0.0
 11
359.999994
 21
510.575847
 31
0.0
  0
CIRCLE
  5
81A
100
AcDbEntity
  8
SIZE
  6
CONTINUOUS
 62
    30
100
AcDbCircle
 10
349.999994
 20
510.575847
 30
0.0
 40
5.0
  0
TEXT
  5
81B
100
AcDbEntity
  8
SIZE
  6
CONTINUOUS
 62
    30
100
AcDbText
 10
-77.785714
 20
818.103197
 30
0.0
 40
55.0
  1
1160
 41
0.9
 72
     1
 11
0.0
 21
818.103197
 31
0.0
100
AcDbText
  0
TEXT
  5
81C
100
AcDbEntity
  8
SIZE
  6
CONTINUOUS
 62
    30
100
AcDbText
 10
-79.936179
 20
1047.149774
 30
0.0
 40
55.0
  1
1192
 41
0.9
 72
     1
 11
-2.150465
 21
1047.149774
 31
0.0
100
AcDbText
  0
LINE
  5
81D
100
AcDbEntity
  8
SIZE
  6
CONTINUOUS
 62
    30
100
AcDbLine
 10
563.0
 20
917.162422
 30
0.0
 11
553.0
 21
917.162422
 31
0.0
  0
LINE
  5
81E
100
AcDbEntity
  8
SIZE
  6
CONTINUOUS
 62
    30
100
AcDbLine
 10
596.0
 20
448.7
 30
0.0
 11
596.0
 21
947.162422
 31
0.0
  0
LINE
  5
81F
100
AcDbEntity
  8
SIZE
  6
CONTINUOUS
 62
    30
100
AcDbLine
 10
573.0
 20
467.995166
 30
0.0
 11
573.0
 21
947.162422
 31
0.0
  0
LINE
  5
820
100
AcDbEntity
  8
SIZE
  6
CONTINUOUS
 62
    30
100
AcDbLine
 10
573.0
 20
467.995166
 30
0.0
 11
573.0
 21
947.162422
 31
0.0
  0
LINE
  5
821
100
AcDbEntity
  8
SIZE
  6
CONTINUOUS
 62
    30
100
AcDbLine
 10
596.0
 20
448.7
 30
0.0
 11
596.0
 21
830.103197
 31
0.0
  0
LINE
  5
822
100
AcDbEntity
  8
SIZE
  6
CONTINUOUS
 62
    30
100
AcDbLine
 10
580.0
 20
453.0
 30
0.0
 11
580.0
 21
830.103197
 31
0.0
  0
LINE
  5
823
100
AcDbEntity
  8
SIZE
  6
CONTINUOUS
 62
    30
100
AcDbLine
 10
580.0
 20
453.0
 30
0.0
 11
580.0
 21
830.103197
 31
0.0
  0
LINE
  5
824
100
AcDbEntity
  8
NOTE
  6
CONTINUOUS
 62
     4
100
AcDbLine
 10
627.226839
 20
624.591377
 30
0.0
 11
573.000046
 21
432.99997
 31
0.0
  0
LINE
  5
825
100
AcDbEntity
  8
SIZE
  6
CONTINUOUS
 62
    30
100
AcDbLine
 10
596.0
 20
447.1
 30
0.0
 11
596.0
 21
1059.149774
 31
0.0
  0
LINE
  5
826
100
AcDbEntity
  8
SIZE
  6
CONTINUOUS
 62
    30
100
AcDbLine
 10
639.758686
 20
0.0
 30
0.0
 11
1096.156178
 21
0.0
 31
0.0
  0
LINE
  5
827
100
AcDbEntity
  8
SIZE
  6
CONTINUOUS
 62
    30
100
AcDbLine
 10
599.758686
 20
140.0
 30
0.0
 11
1096.156178
 21
140.0
 31
0.0
  0
TEXT
  5
828
100
AcDbEntity
  8
NOTE
  6
CONTINUOUS
 62
     4
100
AcDbText
 10
732.518362
 20
470.480807
 30
0.0
 40
60.0
  1
%%C200 吹出円形フランジ
 50
0.000003
 41
0.7
  7
STANDARD1
100
AcDbText
  0
LINE
  5
829
100
AcDbEntity
  8
NOTE
  6
CONTINUOUS
 62
     4
100
AcDbLine
 10
1310.462054
 20
455.68514
 30
0.0
 11
714.60247
 21
455.68514
 31
0.0
  0
TEXT
  5
82A
100
AcDbEntity
  8
SIZE
  6
CONTINUOUS
 62
    30
100
AcDbText
 10
1048.156178
 20
222.857143
 30
0.0
 40
55.0
  1
293
 50
90.0
 41
0.9
 72
     1
 11
1048.156178
 21
286.5
 31
0.0
100
AcDbText
  0
LINE
  5
82B
100
AcDbEntity
  8
SIZE
  6
CONTINUOUS
 62
    30
100
AcDbLine
 10
611.7
 20
433.0
 30
0.0
 11
1096.156178
 21
433.0
 31
0.0
  0
LINE
  5
82C
100
AcDbEntity
  8
SIZE
  6
CONTINUOUS
 62
    30
100
AcDbLine
 10
600.0
 20
140.0
 30
0.0
 11
1096.156178
 21
140.0
 31
0.0
  0
LINE
  5
82D
100
AcDbEntity
  8
SIZE
  6
CONTINUOUS
 62
    30
100
AcDbLine
 10
596.0
 20
508.0
 30
0.0
 11
596.0
 21
28.769509
 31
0.0
  0
LINE
  5
82E
100
AcDbEntity
  8
SIZE
  6
CONTINUOUS
 62
    30
100
AcDbLine
 10
900.883838
 20
433.0
 30
0.0
 11
900.883838
 21
297.0
 31
0.0
  0
LINE
  5
82F
100
AcDbEntity
  8
OUTLINE
  6
CONTINUOUS
 62
     3
100
AcDbLine
 10
580.0
 20
433.0
 30
0.0
 11
580.0
 21
140.0
 31
0.0
  0
LINE
  5
831
100
AcDbEntity
  8
SIZE
  6
CONTINUOUS
 62
    30
100
AcDbLine
 10
600.0
 20
47.0
 30
0.0
 11
871.644378
 21
47.0
 31
0.0
  0
LINE
  5
832
100
AcDbEntity
  8
SIZE
  6
CONTINUOUS
 62
    30
100
AcDbLine
 10
640.0
 20
0.0
 30
0.0
 11
871.644378
 21
0.0
 31
0.0
  0
LINE
  5
833
100
AcDbEntity
  8
SIZE
  6
CONTINUOUS
 62
    30
100
AcDbLine
 10
640.0
 20
0.0
 30
0.0
 11
871.644378
 21
0.0
 31
0.0
  0
LINE
  5
834
100
AcDbEntity
  8
DETAIL
  6
CONTINUOUS
 62
     5
100
AcDbLine
 10
580.0
 20
433.0
 30
0.0
 11
580.0
 21
140.0
 31
0.0
  0
LINE
  5
837
100
AcDbEntity
  8
NOTE
  6
CONTINUOUS
 62
     4
100
AcDbLine
 10
661.04244
 20
1.0
 30
0.0
 11
681.04244
 21
21.0
 31
0.0
  0
LINE
  5
838
100
AcDbEntity
  8
NOTE
  6
CONTINUOUS
 62
     4
100
AcDbLine
 10
600.0
 20
1.0
 30
0.0
 11
701.307449
 21
1.0
 31
0.0
  0
LINE
  5
839
100
AcDbEntity
  8
NOTE
  6
CONTINUOUS
 62
     4
100
AcDbLine
 10
600.0
 20
21.0
 30
0.0
 11
701.307449
 21
21.0
 31
0.0
  0
POINT
  5
83B
100
AcDbEntity
  8
DEFPOINTS
  6
CONTINUOUS
 62
     7
100
AcDbPoint
 10
579.758686
 20
140.0
 30
0.0
  0
POINT
  5
83C
100
AcDbEntity
  8
DEFPOINTS
  6
CONTINUOUS
 62
     7
100
AcDbPoint
 10
580.0
 20
47.0
 30
0.0
  0
POINT
  5
83F
100
AcDbEntity
  8
DEFPOINTS
  6
CONTINUOUS
 62
     7
100
AcDbPoint
 10
596.0
 20
58.769509
 30
0.0
  0
POINT
  5
840
100
AcDbEntity
  8
DEFPOINTS
  6
CONTINUOUS
 62
     7
100
AcDbPoint
 10
600.0
 20
21.0
 30
0.0
  0
LINE
  5
841
100
AcDbEntity
  8
SIZE
  6
CONTINUOUS
 62
    30
100
AcDbLine
 10
591.0
 20
58.769509
 30
0.0
 11
586.0
 21
58.769509
 31
0.0
  0
CIRCLE
  5
842
100
AcDbEntity
  8
SIZE
  6
CONTINUOUS
 62
    30
100
AcDbCircle
 10
596.0
 20
58.769509
 30
0.0
 40
5.0
  0
LINE
  5
843
100
AcDbEntity
  8
SIZE
  6
CONTINUOUS
 62
    30
100
AcDbLine
 10
605.0
 20
58.769509
 30
0.0
 11
610.0
 21
58.769509
 31
0.0
  0
CIRCLE
  5
844
100
AcDbEntity
  8
SIZE
  6
CONTINUOUS
 62
    30
100
AcDbCircle
 10
600.0
 20
58.769509
 30
0.0
 40
5.0
  0
LINE
  5
845
100
AcDbEntity
  8
SIZE
  6
CONTINUOUS
 62
    30
100
AcDbLine
 10
600.0
 20
58.769509
 30
0.0
 11
596.0
 21
58.769509
 31
0.0
  0
LINE
  5
846
100
AcDbEntity
  8
SIZE
  6
CONTINUOUS
 62
    30
100
AcDbLine
 10
610.0
 20
58.769509
 30
0.0
 11
620.0
 21
58.769509
 31
0.0
  0
LINE
  5
847
100
AcDbEntity
  8
SIZE
  6
CONTINUOUS
 62
    30
100
AcDbLine
 10
600.0
 20
41.0
 30
0.0
 11
600.0
 21
88.769509
 31
0.0
  0
POINT
  5
848
100
AcDbEntity
  8
DEFPOINTS
  6
CONTINUOUS
 62
     7
100
AcDbPoint
 10
600.0
 20
1.0
 30
0.0
  0
POINT
  5
849
100
AcDbEntity
  8
DEFPOINTS
  6
CONTINUOUS
 62
     7
100
AcDbPoint
 10
600.0
 20
1.0
 30
0.0
  0
LINE
  5
84A
100
AcDbEntity
  8
OUTLINE
  6
CONTINUOUS
 62
     3
100
AcDbLine
 10
580.0
 20
0.0
 30
0.0
 11
620.0
 21
0.0
 31
0.0
  0
LINE
  5
84B
100
AcDbEntity
  8
OUTLINE
  6
CONTINUOUS
 62
     3
100
AcDbLine
 10
580.0
 20
0.0
 30
0.0
 11
585.0
 21
0.0
 31
0.0
  0
LINE
  5
84C
100
AcDbEntity
  8
OUTLINE
  6
CONTINUOUS
 62
     3
100
AcDbLine
 10
580.0
 20
0.0
 30
0.0
 11
580.0
 21
47.0
 31
0.0
  0
POINT
  5
84D
100
AcDbEntity
  8
DEFPOINTS
  6
CONTINUOUS
 62
     7
100
AcDbPoint
 10
580.0
 20
140.0
 30
0.0
  0
LINE
  5
84E
100
AcDbEntity
  8
NOTE
  6
CONTINUOUS
 62
     4
100
AcDbLine
 10
611.04244
 20
1.0
 30
0.0
 11
631.04244
 21
21.0
 31
0.0
  0
LINE
  5
84F
100
AcDbEntity
  8
NOTE
  6
CONTINUOUS
 62
     4
100
AcDbLine
 10
651.04244
 20
1.0
 30
0.0
 11
671.04244
 21
21.0
 31
0.0
  0
LINE
  5
850
100
AcDbEntity
  8
NOTE
  6
CONTINUOUS
 62
     4
100
AcDbLine
 10
616.04244
 20
1.0
 30
0.0
 11
636.04244
 21
21.0
 31
0.0
  0
LINE
  5
851
100
AcDbEntity
  8
NOTE
  6
CONTINUOUS
 62
     4
100
AcDbLine
 10
656.04244
 20
1.0
 30
0.0
 11
676.04244
 21
21.0
 31
0.0
  0
LINE
  5
852
100
AcDbEntity
  8
NOTE
  6
CONTINUOUS
 62
     4
100
AcDbLine
 10
621.04244
 20
1.0
 30
0.0
 11
641.04244
 21
21.0
 31
0.0
  0
LINE
  5
853
100
AcDbEntity
  8
NOTE
  6
CONTINUOUS
 62
     4
100
AcDbLine
 10
600.0
 20
1.0
 30
0.0
 11
600.0
 21
21.0
 31
0.0
  0
LINE
  5
856
100
AcDbEntity
  8
DETAIL
  6
CONTINUOUS
 62
     5
100
AcDbLine
 10
580.0
 20
0.0
 30
0.0
 11
580.0
 21
47.0
 31
0.0
  0
ARC
  5
857
100
AcDbEntity
  8
DETAIL
  6
CONTINUOUS
 62
     5
100
AcDbCircle
 10
575.0
 20
172.4
 30
0.0
 40
5.0
100
AcDbArc
 50
270.0
 51
0.0
  0
POINT
  5
858
100
AcDbEntity
  8
DEFPOINTS
  6
CONTINUOUS
 62
     7
100
AcDbPoint
 10
841.644378
 20
47.0
 30
0.0
  0
LINE
  5
859
100
AcDbEntity
  8
SIZE
  6
CONTINUOUS
 62
    30
100
AcDbLine
 10
841.644378
 20
52.0
 30
0.0
 11
841.644378
 21
57.0
 31
0.0
  0
CIRCLE
  5
85A
100
AcDbEntity
  8
SIZE
  6
CONTINUOUS
 62
    30
100
AcDbCircle
 10
841.644378
 20
47.0
 30
0.0
 40
5.0
  0
LINE
  5
85B
100
AcDbEntity
  8
SIZE
  6
CONTINUOUS
 62
    30
100
AcDbLine
 10
841.644378
 20
0.0
 30
0.0
 11
841.644378
 21
47.0
 31
0.0
  0
LINE
  5
85C
100
AcDbEntity
  8
SIZE
  6
CONTINUOUS
 62
    30
100
AcDbLine
 10
841.644378
 20
0.0
 30
0.0
 11
841.644378
 21
47.0
 31
0.0
  0
LINE
  5
85D
100
AcDbEntity
  8
SIZE
  6
CONTINUOUS
 62
    30
100
AcDbLine
 10
841.644378
 20
57.0
 30
0.0
 11
841.644378
 21
67.0
 31
0.0
  0
POINT
  5
85E
100
AcDbEntity
  8
DEFPOINTS
  6
CONTINUOUS
 62
     7
100
AcDbPoint
 10
841.644378
 20
0.0
 30
0.0
  0
LINE
  5
85F
100
AcDbEntity
  8
SIZE
  6
CONTINUOUS
 62
    30
100
AcDbLine
 10
841.644378
 20
5.0
 30
0.0
 11
841.644378
 21
10.0
 31
0.0
  0
LINE
  5
860
100
AcDbEntity
  8
SIZE
  6
CONTINUOUS
 62
    30
100
AcDbLine
 10
841.644378
 20
10.0
 30
0.0
 11
841.644378
 21
20.0
 31
0.0
  0
CIRCLE
  5
861
100
AcDbEntity
  8
SIZE
  6
CONTINUOUS
 62
    30
100
AcDbCircle
 10
900.883838
 20
297.0
 30
0.0
 40
5.0
  0
POINT
  5
862
100
AcDbEntity
  8
DEFPOINTS
  6
CONTINUOUS
 62
     7
100
AcDbPoint
 10
900.883838
 20
297.0
 30
0.0
  0
LINE
  5
863
100
AcDbEntity
  8
SIZE
  6
CONTINUOUS
 62
    30
100
AcDbLine
 10
900.883838
 20
292.0
 30
0.0
 11
900.883838
 21
287.0
 31
0.0
  0
LINE
  5
864
100
AcDbEntity
  8
SIZE
  6
CONTINUOUS
 62
    30
100
AcDbLine
 10
900.883838
 20
287.0
 30
0.0
 11
900.883838
 21
277.0
 31
0.0
  0
LINE
  5
865
100
AcDbEntity
  8
SIZE
  6
CONTINUOUS
 62
    30
100
AcDbLine
 10
611.7
 20
433.0
 30
0.0
 11
930.883838
 21
433.0
 31
0.0
  0
LINE
  5
866
100
AcDbEntity
  8
NOTE
  6
CONTINUOUS
 62
     4
100
AcDbLine
 10
573.00403
 20
432.999927
 30
0.0
 11
573.966183
 21
467.371775
 31
0.0
  0
LINE
  5
867
100
AcDbEntity
  8
NOTE
  6
CONTINUOUS
 62
     4
100
AcDbLine
 10
573.00403
 20
432.999927
 30
0.0
 11
591.023204
 21
462.285745
 31
0.0
  0
LINE
  5
868
100
AcDbEntity
  8
SIZE
  6
CONTINUOUS
 62
    30
100
AcDbLine
 10
579.999994
 20
449.999999
 30
0.0
 11
579.999994
 21
540.575847
 31
0.0
  0
POINT
  5
869
100
AcDbEntity
  8
DEFPOINTS
  6
CONTINUOUS
 62
     7
100
AcDbPoint
 10
596.0
 20
428.7
 30
0.0
  0
POINT
  5
86A
100
AcDbEntity
  8
DEFPOINTS
  6
CONTINUOUS
 62
     7
100
AcDbPoint
 10
573.0
 20
447.995166
 30
0.0
  0
POINT
  5
86B
100
AcDbEntity
  8
DEFPOINTS
  6
CONTINUOUS
 62
     7
100
AcDbPoint
 10
573.0
 20
447.995166
 30
0.0
  0
POINT
  5
86C
100
AcDbEntity
  8
DEFPOINTS
  6
CONTINUOUS
 62
     7
100
AcDbPoint
 10
596.0
 20
428.7
 30
0.0
  0
POINT
  5
86D
100
AcDbEntity
  8
DEFPOINTS
  6
CONTINUOUS
 62
     7
100
AcDbPoint
 10
580.0
 20
433.0
 30
0.0
  0
POINT
  5
86E
100
AcDbEntity
  8
DEFPOINTS
  6
CONTINUOUS
 62
     7
100
AcDbPoint
 10
580.0
 20
433.0
 30
0.0
  0
POINT
  5
86F
100
AcDbEntity
  8
DEFPOINTS
  6
CONTINUOUS
 62
     7
100
AcDbPoint
 10
591.7
 20
433.0
 30
0.0
  0
POINT
  5
870
100
AcDbEntity
  8
DEFPOINTS
  6
CONTINUOUS
 62
     7
100
AcDbPoint
 10
591.7
 20
433.0
 30
0.0
  0
LINE
  5
871
100
AcDbEntity
  8
NOTE
  6
CONTINUOUS
 62
     4
100
AcDbLine
 10
573.0
 20
418.004834
 30
0.0
 11
573.0
 21
447.995166
 31
0.0
  0
POINT
  5
872
100
AcDbEntity
  8
DEFPOINTS
  6
CONTINUOUS
 62
     7
100
AcDbPoint
 10
596.0
 20
427.1
 30
0.0
  0
LINE
  5
873
100
AcDbEntity
  8
DETAIL
  6
CONTINUOUS
 62
     5
100
AcDbLine
 10
580.0
 20
430.7
 30
0.0
 11
591.7
 21
430.7
 31
0.0
  0
LINE
  5
874
100
AcDbEntity
  8
DETAIL
  6
CONTINUOUS
 62
     5
100
AcDbLine
 10
580.0
 20
433.0
 30
0.0
 11
591.7
 21
433.0
 31
0.0
  0
LINE
  5
875
100
AcDbEntity
  8
DETAIL
  6
CONTINUOUS
 62
     5
100
AcDbLine
 10
593.7
 20
421.0
 30
0.0
 11
596.0
 21
421.0
 31
0.0
  0
LINE
  5
876
100
AcDbEntity
  8
DETAIL
  6
CONTINUOUS
 62
     5
100
AcDbLine
 10
593.7
 20
428.7
 30
0.0
 11
593.7
 21
421.0
 31
0.0
  0
ARC
  5
877
100
AcDbEntity
  8
DETAIL
  6
CONTINUOUS
 62
     5
100
AcDbCircle
 10
591.7
 20
428.7
 30
0.0
 40
2.0
100
AcDbArc
 50
0.0
 51
90.0
  0
LINE
  5
878
100
AcDbEntity
  8
DETAIL
  6
CONTINUOUS
 62
     5
100
AcDbLine
 10
596.0
 20
428.7
 30
0.0
 11
596.0
 21
421.0
 31
0.0
  0
ARC
  5
879
100
AcDbEntity
  8
DETAIL
  6
CONTINUOUS
 62
     5
100
AcDbCircle
 10
591.7
 20
428.7
 30
0.0
 40
4.3
100
AcDbArc
 50
0.0
 51
90.0
  0
LINE
  5
881
100
AcDbEntity
  8
DETAIL
  6
CONTINUOUS
 62
     5
100
AcDbLine
 10
577.0
 20
403.6
 30
0.0
 11
580.0
 21
406.6
 31
0.0
  0
POINT
  5
885
100
AcDbEntity
  8
DEFPOINTS
  6
CONTINUOUS
 62
     7
100
AcDbPoint
 10
596.0
 20
528.0
 30
0.0
  0
POINT
  5
886
100
AcDbEntity
  8
DEFPOINTS
  6
CONTINUOUS
 62
     7
100
AcDbPoint
 10
579.999994
 20
510.575847
 30
0.0
  0
LINE
  5
887
100
AcDbEntity
  8
SIZE
  6
CONTINUOUS
 62
    30
100
AcDbLine
 10
574.999994
 20
510.575847
 30
0.0
 11
569.999994
 21
510.575847
 31
0.0
  0
CIRCLE
  5
888
100
AcDbEntity
  8
SIZE
  6
CONTINUOUS
 62
    30
100
AcDbCircle
 10
579.999994
 20
510.575847
 30
0.0
 40
5.0
  0
CIRCLE
  5
889
100
AcDbEntity
  8
SIZE
  6
CONTINUOUS
 62
    30
100
AcDbCircle
 10
900.883838
 20
433.0
 30
0.0
 40
5.0
  0
TEXT
  5
88A
100
AcDbEntity
  8
SIZE
  6
CONTINUOUS
 62
    30
100
AcDbText
 10
882.883838
 20
307.25
 30
0.0
 40
55.0
  1
136
 50
90.0
 41
0.9
 72
     1
 11
882.883838
 21
365.0
 31
0.0
100
AcDbText
  0
LINE
  5
88B
100
AcDbEntity
  8
SIZE
  6
CONTINUOUS
 62
    30
100
AcDbLine
 10
900.883838
 20
438.0
 30
0.0
 11
900.883838
 21
443.0
 31
0.0
  0
LINE
  5
88C
100
AcDbEntity
  8
SIZE
  6
CONTINUOUS
 62
    30
100
AcDbLine
 10
900.883838
 20
443.0
 30
0.0
 11
900.883838
 21
453.0
 31
0.0
  0
LINE
  5
88D
100
AcDbEntity
  8
SIZE
  6
CONTINUOUS
 62
    30
100
AcDbLine
 10
1066.156178
 20
150.0
 30
0.0
 11
1066.156178
 21
423.0
 31
0.0
  0
POLYLINE
  5
88E
100
AcDbEntity
  8
SIZE
  6
CONTINUOUS
 62
    30
100
AcDb2dPolyline
 66
     1
 10
0.0
 20
0.0
 30
0.0
  0
VERTEX
  5
88F
100
AcDbEntity
  8
SIZE
  6
CONTINUOUS
 62
    30
100
AcDbVertex
100
AcDb2dVertex
 10
1272.40106
 20
2.652315
 30
0.0
 42
0.186174
  0
VERTEX
  5
890
100
AcDbEntity
  8
SIZE
  6
CONTINUOUS
 62
    30
100
AcDbVertex
100
AcDb2dVertex
 10
1263.551211
 20
23.601803
 30
0.0
 42
0.082105
  0
VERTEX
  5
891
100
AcDbEntity
  8
SIZE
  6
CONTINUOUS
 62
    30
100
AcDbVertex
100
AcDb2dVertex
 10
1247.848709
 20
35.776364
 30
0.0
 42
0.058826
  0
VERTEX
  5
892
100
AcDbEntity
  8
SIZE
  6
CONTINUOUS
 62
    30
100
AcDbVertex
100
AcDb2dVertex
 10
1226.062651
 20
44.551291
 30
0.0
 42
0.067494
  0
VERTEX
  5
893
100
AcDbEntity
  8
SIZE
  6
CONTINUOUS
 62
    30
100
AcDbVertex
100
AcDb2dVertex
 10
1188.574092
 20
49.496795
 30
0.0
 42
0.067494
  0
VERTEX
  5
894
100
AcDbEntity
  8
SIZE
  6
CONTINUOUS
 62
    30
100
AcDbVertex
100
AcDb2dVertex
 10
1151.085532
 20
44.551291
 30
0.0
 42
0.058826
  0
VERTEX
  5
895
100
AcDbEntity
  8
SIZE
  6
CONTINUOUS
 62
    30
100
AcDbVertex
100
AcDb2dVertex
 10
1129.299474
 20
35.776364
 30
0.0
 42
0.082105
  0
VERTEX
  5
896
100
AcDbEntity
  8
SIZE
  6
CONTINUOUS
 62
    30
100
AcDbVertex
100
AcDb2dVertex
 10
1113.596972
 20
23.601803
 30
0.0
 42
0.186174
  0
VERTEX
  5
897
100
AcDbEntity
  8
SIZE
  6
CONTINUOUS
 62
    30
100
AcDbVertex
100
AcDb2dVertex
 10
1104.747123
 20
2.652315
 30
0.0
 42
0.186174
  0
SEQEND
  5
898
100
AcDbEntity
  8
SIZE
  6
CONTINUOUS
 62
    30
  0
POINT
  5
899
100
AcDbEntity
  8
DEFPOINTS
  6
CONTINUOUS
 62
     7
100
AcDbPoint
 10
1066.156178
 20
0.0
 30
0.0
  0
LINE
  5
89A
100
AcDbEntity
  8
SIZE
  6
CONTINUOUS
 62
    30
100
AcDbLine
 10
1066.156178
 20
5.0
 30
0.0
 11
1066.156178
 21
10.0
 31
0.0
  0
LINE
  5
89B
100
AcDbEntity
  8
SIZE
  6
CONTINUOUS
 62
    30
100
AcDbLine
 10
1066.156178
 20
135.0
 30
0.0
 11
1066.156178
 21
130.0
 31
0.0
  0
CIRCLE
  5
89C
100
AcDbEntity
  8
SIZE
  6
CONTINUOUS
 62
    30
100
AcDbCircle
 10
1066.156178
 20
140.0
 30
0.0
 40
5.0
  0
LINE
  5
89D
100
AcDbEntity
  8
SIZE
  6
CONTINUOUS
 62
    30
100
AcDbLine
 10
1066.156178
 20
130.0
 30
0.0
 11
1066.156178
 21
10.0
 31
0.0
  0
LINE
  5
89E
100
AcDbEntity
  8
SIZE
  6
CONTINUOUS
 62
    30
100
AcDbLine
 10
1066.156178
 20
145.0
 30
0.0
 11
1066.156178
 21
150.0
 31
0.0
  0
CIRCLE
  5
89F
100
AcDbEntity
  8
SIZE
  6
CONTINUOUS
 62
    30
100
AcDbCircle
 10
1066.156178
 20
140.0
 30
0.0
 40
5.0
  0
POINT
  5
8A0
100
AcDbEntity
  8
DEFPOINTS
  6
CONTINUOUS
 62
     7
100
AcDbPoint
 10
1066.156178
 20
433.0
 30
0.0
  0
LINE
  5
8A1
100
AcDbEntity
  8
SIZE
  6
CONTINUOUS
 62
    30
100
AcDbLine
 10
1066.156178
 20
428.0
 30
0.0
 11
1066.156178
 21
423.0
 31
0.0
  0
CIRCLE
  5
8A2
100
AcDbEntity
  8
SIZE
  6
CONTINUOUS
 62
    30
100
AcDbCircle
 10
1066.156178
 20
433.0
 30
0.0
 40
5.0
  0
LINE
  5
8A3
100
AcDbEntity
  8
NOTE
  6
CONTINUOUS
 62
     4
100
AcDbLine
 10
1340.241448
 20
624.591377
 30
0.0
 11
627.226839
 21
624.591377
 31
0.0
  0
TEXT
  5
8A4
100
AcDbEntity
  8
NOTE
  6
CONTINUOUS
 62
     4
100
AcDbText
 10
648.90211
 20
640.417908
 30
0.0
 40
60.0
  1
AH 4-14×30長穴(M10)
 50
0.000003
 41
0.7
  7
STANDARD1
100
AcDbText
  0
CIRCLE
  5
8A5
100
AcDbEntity
  8
SIZE
  6
CONTINUOUS
 62
    30
100
AcDbCircle
 10
596.0
 20
917.162422
 30
0.0
 40
5.0
  0
CIRCLE
  5
8A6
100
AcDbEntity
  8
SIZE
  6
CONTINUOUS
 62
    30
100
AcDbCircle
 10
573.0
 20
917.162422
 30
0.0
 40
5.0
  0
CIRCLE
  5
8A7
100
AcDbEntity
  8
SIZE
  6
CONTINUOUS
 62
    30
100
AcDbCircle
 10
573.0
 20
917.162422
 30
0.0
 40
5.0
  0
TEXT
  5
8A8
100
AcDbEntity
  8
SIZE
  6
CONTINUOUS
 62
    30
100
AcDbText
 10
628.057888
 20
813.827237
 30
0.0
 40
55.0
  1
16
 41
0.9
 72
     1
 11
662.236459
 21
813.827237
 31
0.0
100
AcDbText
  0
POINT
  5
8A9
100
AcDbEntity
  8
DEFPOINTS
  6
CONTINUOUS
 62
     7
100
AcDbPoint
 10
596.0
 20
800.103197
 30
0.0
  0
LINE
  5
8AA
100
AcDbEntity
  8
SIZE
  6
CONTINUOUS
 62
    30
100
AcDbLine
 10
601.0
 20
800.103197
 30
0.0
 11
606.0
 21
800.103197
 31
0.0
  0
CIRCLE
  5
8AB
100
AcDbEntity
  8
SIZE
  6
CONTINUOUS
 62
    30
100
AcDbCircle
 10
596.0
 20
800.103197
 30
0.0
 40
5.0
  0
LINE
  5
8AC
100
AcDbEntity
  8
SIZE
  6
CONTINUOUS
 62
    30
100
AcDbLine
 10
575.0
 20
800.103197
 30
0.0
 11
570.0
 21
800.103197
 31
0.0
  0
CIRCLE
  5
8AD
100
AcDbEntity
  8
SIZE
  6
CONTINUOUS
 62
    30
100
AcDbCircle
 10
580.0
 20
800.103197
 30
0.0
 40
5.0
  0
LINE
  5
8AE
100
AcDbEntity
  8
SIZE
  6
CONTINUOUS
 62
    30
100
AcDbLine
 10
580.0
 20
800.103197
 30
0.0
 11
596.0
 21
800.103197
 31
0.0
  0
LINE
  5
8AF
100
AcDbEntity
  8
SIZE
  6
CONTINUOUS
 62
    30
100
AcDbLine
 10
606.0
 20
800.103197
 30
0.0
 11
616.0
 21
800.103197
 31
0.0
  0
POINT
  5
8B0
100
AcDbEntity
  8
DEFPOINTS
  6
CONTINUOUS
 62
     7
100
AcDbPoint
 10
580.0
 20
800.103197
 30
0.0
  0
LINE
  5
8B1
100
AcDbEntity
  8
SIZE
  6
CONTINUOUS
 62
    30
100
AcDbLine
 10
575.0
 20
800.103197
 30
0.0
 11
570.0
 21
800.103197
 31
0.0
  0
CIRCLE
  5
8B2
100
AcDbEntity
  8
SIZE
  6
CONTINUOUS
 62
    30
100
AcDbCircle
 10
580.0
 20
800.103197
 30
0.0
 40
5.0
  0
TEXT
  5
8B3
100
AcDbEntity
  8
SIZE
  6
CONTINUOUS
 62
    30
100
AcDbText
 10
638.513301
 20
935.162422
 30
0.0
 40
55.0
  1
23
 41
0.9
 72
     1
 11
678.58473
 21
935.162422
 31
0.0
100
AcDbText
  0
LINE
  5
8B4
100
AcDbEntity
  8
SIZE
  6
CONTINUOUS
 62
    30
100
AcDbLine
 10
736.656159
 20
917.162422
 30
0.0
 11
596.0
 21
917.162422
 31
0.0
  0
POINT
  5
8B5
100
AcDbEntity
  8
DEFPOINTS
  6
CONTINUOUS
 62
     7
100
AcDbPoint
 10
596.0
 20
917.162422
 30
0.0
  0
LINE
  5
8B6
100
AcDbEntity
  8
SIZE
  6
CONTINUOUS
 62
    30
100
AcDbLine
 10
601.0
 20
917.162422
 30
0.0
 11
606.0
 21
917.162422
 31
0.0
  0
LINE
  5
8B7
100
AcDbEntity
  8
SIZE
  6
CONTINUOUS
 62
    30
100
AcDbLine
 10
573.0
 20
917.162422
 30
0.0
 11
596.0
 21
917.162422
 31
0.0
  0
LINE
  5
8B8
100
AcDbEntity
  8
SIZE
  6
CONTINUOUS
 62
    30
100
AcDbLine
 10
573.0
 20
917.162422
 30
0.0
 11
596.0
 21
917.162422
 31
0.0
  0
LINE
  5
8B9
100
AcDbEntity
  8
SIZE
  6
CONTINUOUS
 62
    30
100
AcDbLine
 10
606.0
 20
917.162422
 30
0.0
 11
616.0
 21
917.162422
 31
0.0
  0
POINT
  5
8BA
100
AcDbEntity
  8
DEFPOINTS
  6
CONTINUOUS
 62
     7
100
AcDbPoint
 10
573.0
 20
917.162422
 30
0.0
  0
POINT
  5
8BB
100
AcDbEntity
  8
DEFPOINTS
  6
CONTINUOUS
 62
     7
100
AcDbPoint
 10
596.0
 20
1029.149774
 30
0.0
  0
LINE
  5
8BC
100
AcDbEntity
  8
SIZE
  6
CONTINUOUS
 62
    30
100
AcDbLine
 10
591.0
 20
1029.149774
 30
0.0
 11
586.0
 21
1029.149774
 31
0.0
  0
CIRCLE
  5
8BD
100
AcDbEntity
  8
SIZE
  6
CONTINUOUS
 62
    30
100
AcDbCircle
 10
596.0
 20
1029.149774
 30
0.0
 40
5.0
  0
ENDSEC
  0
SECTION
  2
OBJECTS
  0
DICTIONARY
  5
8CA
100
AcDbDictionary
  3
ACAD_GROUP
350
8CB
  3
ACAD_MLINESTYLE
350
8D9
  0
DICTIONARY
  5
8CB
102
{ACAD_REACTORS
330
8CA
102
}
100
AcDbDictionary
  0
DICTIONARY
  5
8D9
102
{ACAD_REACTORS
330
8CA
102
}
100
AcDbDictionary
  3
STANDARD
350
8DA
  0
MLINESTYLE
  5
8DA
102
{ACAD_REACTORS
330
8D9
102
}
100
AcDbMlineStyle
  2
STANDARD
 70
     0
  3

 62
   256
 51
90.0
 52
90.0
 71
     2
 49
0.5
 62
   256
  6
BYLAYER
 49
-0.5
 62
   256
  6
BYLAYER
  0
ENDSEC
  0
EOF
