  0
SECTION
  2
HEADER
  9
$ACADVER
  1
AC1014
  9
$ACADMAINTVER
 70
     0
  9
$DWGCODEPAGE
  3
ANSI_932
  9
$INSBASE
 10
0.0
 20
0.0
 30
0.0
  9
$EXTMIN
 10
-1340.793821
 20
-364.978277
 30
-0.001526
  9
$EXTMAX
 10
1194.2878
 20
1314.01997
 30
0.0
  9
$LIMMIN
 10
-4267.152221
 20
-2696.08321
  9
$LIMMAX
 10
7190.717423
 20
5141.155364
  9
$ORTHOMODE
 70
     0
  9
$REGENMODE
 70
     1
  9
$FILLMODE
 70
     1
  9
$QTEXTMODE
 70
     0
  9
$MIRRTEXT
 70
     0
  9
$DRAGMODE
 70
     2
  9
$LTSCALE
 40
20.0
  9
$OSMODE
 70
    37
  9
$ATTMODE
 70
     1
  9
$TEXTSIZE
 40
64.0
  9
$TRACEWID
 40
0.05
  9
$TEXTSTYLE
  7
STANDARD
  9
$CLAYER
  8
SIZE
  9
$CELTYPE
  6
CONTINUOUS
  9
$CECOLOR
 62
     7
  9
$CELTSCALE
 40
1.0
  9
$DELOBJ
 70
     1
  9
$DISPSILH
 70
     0
  9
$DIMSCALE
 40
1.0
  9
$DIMASZ
 40
10.0
  9
$DIMEXO
 40
20.0
  9
$DIMDLI
 40
200.0
  9
$DIMRND
 40
0.0
  9
$DIMDLE
 40
0.0
  9
$DIMEXE
 40
30.0
  9
$DIMTP
 40
0.0
  9
$DIMTM
 40
0.0
  9
$DIMTXT
 40
55.0
  9
$DIMCEN
 40
0.0
  9
$DIMTSZ
 40
0.0
  9
$DIMTOL
 70
     0
  9
$DIMLIM
 70
     0
  9
$DIMTIH
 70
     0
  9
$DIMTOH
 70
     0
  9
$DIMSE1
 70
     0
  9
$DIMSE2
 70
     0
  9
$DIMTAD
 70
     1
  9
$DIMZIN
 70
     8
  9
$DIMBLK
  1

  9
$DIMASO
 70
     1
  9
$DIMSHO
 70
     0
  9
$DIMPOST
  1

  9
$DIMAPOST
  1

  9
$DIMALT
 70
     0
  9
$DIMALTD
 70
     2
  9
$DIMALTF
 40
25.4
  9
$DIMLFAC
 40
1.0
  9
$DIMTOFL
 70
     1
  9
$DIMTVP
 40
0.0
  9
$DIMTIX
 70
     1
  9
$DIMSOXD
 70
     0
  9
$DIMSAH
 70
     1
  9
$DIMBLK1
  1
_DOTBLANK
  9
$DIMBLK2
  1
_DOTBLANK
  9
$DIMSTYLE
  2
STANDARD
  9
$DIMCLRD
 70
     0
  9
$DIMCLRE
 70
     0
  9
$DIMCLRT
 70
     0
  9
$DIMTFAC
 40
1.0
  9
$DIMGAP
 40
0.09
  9
$DIMJUST
 70
     0
  9
$DIMSD1
 70
     0
  9
$DIMSD2
 70
     0
  9
$DIMTOLJ
 70
     1
  9
$DIMTZIN
 70
     0
  9
$DIMALTZ
 70
     0
  9
$DIMALTTZ
 70
     0
  9
$DIMFIT
 70
     3
  9
$DIMUPT
 70
     0
  9
$DIMUNIT
 70
     2
  9
$DIMDEC
 70
     4
  9
$DIMTDEC
 70
     4
  9
$DIMALTU
 70
     2
  9
$DIMALTTD
 70
     2
  9
$DIMTXSTY
  7
STANDARD
  9
$DIMAUNIT
 70
     0
  9
$LUNITS
 70
     2
  9
$LUPREC
 70
     4
  9
$SKETCHINC
 40
0.1
  9
$FILLETRAD
 40
30.0
  9
$AUNITS
 70
     1
  9
$AUPREC
 70
     3
  9
$MENU
  1
ACAD
  9
$ELEVATION
 40
0.0
  9
$PELEVATION
 40
0.0
  9
$THICKNESS
 40
0.0
  9
$LIMCHECK
 70
     0
  9
$BLIPMODE
 70
     0
  9
$CHAMFERA
 40
0.0
  9
$CHAMFERB
 40
0.0
  9
$CHAMFERC
 40
0.0
  9
$CHAMFERD
 40
0.0
  9
$SKPOLY
 70
     0
  9
$TDCREATE
 40
2450330.439930995
  9
$TDUPDATE
 40
2454503.613232997
  9
$TDINDWG
 40
3.5084779977
  9
$TDUSRTIMER
 40
3.5084779977
  9
$USRTIMER
 70
     1
  9
$ANGBASE
 50
0.0
  9
$ANGDIR
 70
     0
  9
$PDMODE
 70
     3
  9
$PDSIZE
 40
-2.0
  9
$PLINEWID
 40
0.0
  9
$COORDS
 70
     1
  9
$SPLFRAME
 70
     0
  9
$SPLINETYPE
 70
     6
  9
$SPLINESEGS
 70
     8
  9
$ATTDIA
 70
     0
  9
$ATTREQ
 70
     1
  9
$HANDLING
 70
     1
  9
$HANDSEED
  5
81A
  9
$SURFTAB1
 70
     6
  9
$SURFTAB2
 70
     6
  9
$SURFTYPE
 70
     6
  9
$SURFU
 70
     6
  9
$SURFV
 70
     6
  9
$UCSNAME
  2

  9
$UCSORG
 10
0.0
 20
0.0
 30
0.0
  9
$UCSXDIR
 10
1.0
 20
0.0
 30
0.0
  9
$UCSYDIR
 10
0.0
 20
1.0
 30
0.0
  9
$PUCSNAME
  2

  9
$PUCSORG
 10
0.0
 20
0.0
 30
0.0
  9
$PUCSXDIR
 10
1.0
 20
0.0
 30
0.0
  9
$PUCSYDIR
 10
0.0
 20
1.0
 30
0.0
  9
$USERI1
 70
     0
  9
$USERI2
 70
     0
  9
$USERI3
 70
     0
  9
$USERI4
 70
     0
  9
$USERI5
 70
     0
  9
$USERR1
 40
20.0
  9
$USERR2
 40
0.0
  9
$USERR3
 40
0.0
  9
$USERR4
 40
0.0
  9
$USERR5
 40
0.0
  9
$WORLDVIEW
 70
     1
  9
$SHADEDGE
 70
     3
  9
$SHADEDIF
 70
    70
  9
$TILEMODE
 70
     1
  9
$MAXACTVP
 70
    48
  9
$PINSBASE
 10
0.0
 20
0.0
 30
0.0
  9
$PLIMCHECK
 70
     0
  9
$PEXTMIN
 10
1.000000E+20
 20
1.000000E+20
 30
1.000000E+20
  9
$PEXTMAX
 10
-1.000000E+20
 20
-1.000000E+20
 30
-1.000000E+20
  9
$PLIMMIN
 10
0.0
 20
0.0
  9
$PLIMMAX
 10
12.0
 20
9.0
  9
$UNITMODE
 70
     0
  9
$VISRETAIN
 70
     1
  9
$PLINEGEN
 70
     0
  9
$PSLTSCALE
 70
     1
  9
$TREEDEPTH
 70
  3020
  9
$PICKSTYLE
 70
     1
  9
$CMLSTYLE
  2
STANDARD
  9
$CMLJUST
 70
     0
  9
$CMLSCALE
 40
1.0
  9
$PROXYGRAPHICS
 70
     1
  9
$MEASUREMENT
 70
     0
  0
ENDSEC
  0
SECTION
  2
CLASSES
  0
ENDSEC
  0
SECTION
  2
TABLES
  0
TABLE
  2
VPORT
  5
7D9
100
AcDbSymbolTable
 70
     2
  0
VPORT
  5
819
100
AcDbSymbolTableRecord
100
AcDbViewportTableRecord
  2
*ACTIVE
 70
     0
 10
0.0
 20
0.0
 11
1.0
 21
1.0
 12
1645.853864
 22
1222.536077
 13
0.0
 23
0.0
 14
50.0
 24
50.0
 15
100.0
 25
100.0
 16
0.0
 26
0.0
 36
1.0
 17
0.0
 27
0.0
 37
0.0
 40
7837.238574
 41
1.508951
 42
50.0
 43
0.0
 44
0.0
 50
0.0
 51
0.0
 71
     0
 72
  1000
 73
     1
 74
     0
 75
     0
 76
     0
 77
     0
 78
     0
  0
ENDTAB
  0
TABLE
  2
LTYPE
  5
7D6
100
AcDbSymbolTable
 70
     2
  0
LTYPE
  5
7E3
100
AcDbSymbolTableRecord
100
AcDbLinetypeTableRecord
  2
BYBLOCK
 70
     0
  3

 72
    65
 73
     0
 40
0.0
  0
LTYPE
  5
7E4
100
AcDbSymbolTableRecord
100
AcDbLinetypeTableRecord
  2
BYLAYER
 70
     0
  3

 72
    65
 73
     0
 40
0.0
  0
LTYPE
  5
7E5
100
AcDbSymbolTableRecord
100
AcDbLinetypeTableRecord
  2
CONTINUOUS
 70
     0
  3
実線
 72
    65
 73
     0
 40
0.0
  0
LTYPE
  5
7F1
100
AcDbSymbolTableRecord
100
AcDbLinetypeTableRecord
  2
DASHDOT
 70
     0
  3
____ _ ____ _ ____ _ ____ _ ____ _ ____ _ ____
 72
    65
 73
     4
 40
5.5
 49
4.0
 74
     0
 49
-0.6
 74
     0
 49
0.3
 74
     0
 49
-0.6
 74
     0
  0
ENDTAB
  0
TABLE
  2
LAYER
  5
7D3
100
AcDbSymbolTable
 70
    12
  0
LAYER
  5
7DF
100
AcDbSymbolTableRecord
100
AcDbLayerTableRecord
  2
0
 70
     0
 62
     7
  6
CONTINUOUS
  0
LAYER
  5
7F0
100
AcDbSymbolTableRecord
100
AcDbLayerTableRecord
  2
SIZE
 70
     0
 62
    30
  6
CONTINUOUS
  0
LAYER
  5
7F2
100
AcDbSymbolTableRecord
100
AcDbLayerTableRecord
  2
OUTLINE
 70
     0
 62
     3
  6
CONTINUOUS
  0
LAYER
  5
7F3
100
AcDbSymbolTableRecord
100
AcDbLayerTableRecord
  2
DETAIL
 70
     0
 62
     5
  6
CONTINUOUS
  0
LAYER
  5
7F4
100
AcDbSymbolTableRecord
100
AcDbLayerTableRecord
  2
BASIS
 70
     0
 62
     6
  6
DASHDOT
  0
LAYER
  5
7F5
100
AcDbSymbolTableRecord
100
AcDbLayerTableRecord
  2
NOTE
 70
     0
 62
     4
  6
CONTINUOUS
  0
LAYER
  5
7F6
100
AcDbSymbolTableRecord
100
AcDbLayerTableRecord
  2
ARRANGE
 70
     0
 62
     1
  6
CONTINUOUS
  0
LAYER
  5
7F7
100
AcDbSymbolTableRecord
100
AcDbLayerTableRecord
  2
FIX
 70
     0
 62
    11
  6
CONTINUOUS
  0
LAYER
  5
7F8
100
AcDbSymbolTableRecord
100
AcDbLayerTableRecord
  2
SERVICESPACE
 70
     0
 62
     2
  6
DASHDOT
  0
LAYER
  5
7F9
100
AcDbSymbolTableRecord
100
AcDbLayerTableRecord
  2
ETC
 70
     0
 62
    61
  6
CONTINUOUS
  0
LAYER
  5
7FA
100
AcDbSymbolTableRecord
100
AcDbLayerTableRecord
  2
SYMBOLLINE
 70
     0
 62
    15
  6
CONTINUOUS
  0
LAYER
  5
7FB
100
AcDbSymbolTableRecord
100
AcDbLayerTableRecord
  2
DEFPOINTS
 70
     0
 62
     7
  6
CONTINUOUS
  0
ENDTAB
  0
TABLE
  2
STYLE
  5
7D4
100
AcDbSymbolTable
 70
     2
  0
STYLE
  5
7E0
100
AcDbSymbolTableRecord
100
AcDbTextStyleTableRecord
  2
STANDARD
 70
     0
 40
0.0
 41
0.9
 50
0.0
 71
     0
 42
64.0
  3
SIMPLEX
  4
BIGFONT
  0
STYLE
  5
7FC
100
AcDbSymbolTableRecord
100
AcDbTextStyleTableRecord
  2
STANDARD1
 70
     0
 40
0.0
 41
1.0
 50
0.0
 71
     0
 42
64.0
  3
MONOTXT
  4
BIGFONT
  0
ENDTAB
  0
TABLE
  2
VIEW
  5
7D7
100
AcDbSymbolTable
 70
     1
  0
VIEW
  5
7FD
100
AcDbSymbolTableRecord
100
AcDbViewTableRecord
  2
ALL
 70
     0
 40
9000.0
 10
241.506647
 20
0.0
 41
12483.01
 11
0.0
 21
0.0
 31
1.0
 12
0.0
 22
0.0
 32
0.0
 42
50.0
 43
0.0
 44
0.0
 50
0.0
 71
     0
  0
ENDTAB
  0
TABLE
  2
UCS
  5
7D8
100
AcDbSymbolTable
 70
     0
  0
ENDTAB
  0
TABLE
  2
APPID
  5
7DA
100
AcDbSymbolTable
 70
     1
  0
APPID
  5
7E1
100
AcDbSymbolTableRecord
100
AcDbRegAppTableRecord
  2
ACAD
 70
     0
  0
ENDTAB
  0
TABLE
  2
DIMSTYLE
  5
7DB
100
AcDbSymbolTable
 70
     1
  0
DIMSTYLE
105
7FE
100
AcDbSymbolTableRecord
100
AcDbDimStyleTableRecord
  2
STANDARD
 70
     0
  3

  4

  5

  6

  7

 40
1.0
 41
0.18
 42
0.0625
 43
0.38
 44
0.18
 45
0.0
 46
0.0
 47
0.0
 48
0.0
140
0.18
141
0.09
142
0.0
143
25.4
144
1.0
145
0.0
146
1.0
147
0.09
 71
     0
 72
     0
 73
     1
 74
     1
 75
     0
 76
     0
 77
     0
 78
     0
170
     0
171
     2
172
     0
173
     0
174
     0
175
     0
176
     0
177
     0
178
     0
270
     2
271
     4
272
     4
273
     2
274
     2
340
7E0
275
     0
280
     0
281
     0
282
     0
283
     1
284
     0
285
     0
286
     0
287
     3
288
     0
  0
ENDTAB
  0
TABLE
  2
BLOCK_RECORD
  5
7D2
100
AcDbSymbolTable
 70
     4
  0
BLOCK_RECORD
  5
7E9
100
AcDbSymbolTableRecord
100
AcDbBlockTableRecord
  2
*MODEL_SPACE
  0
BLOCK_RECORD
  5
7E6
100
AcDbSymbolTableRecord
100
AcDbBlockTableRecord
  2
*PAPER_SPACE
  0
BLOCK_RECORD
  5
802
100
AcDbSymbolTableRecord
100
AcDbBlockTableRecord
  2
$MODEL_SPACE
  0
BLOCK_RECORD
  5
804
100
AcDbSymbolTableRecord
100
AcDbBlockTableRecord
  2
$PAPER_SPACE
  0
BLOCK_RECORD
  5
806
100
AcDbSymbolTableRecord
100
AcDbBlockTableRecord
  2
_DOTBLANK
  0
BLOCK_RECORD
  5
808
100
AcDbSymbolTableRecord
100
AcDbBlockTableRecord
  2
A$C186E10C4
  0
ENDTAB
  0
ENDSEC
  0
SECTION
  2
BLOCKS
  0
BLOCK
  5
7EA
100
AcDbEntity
  8
0
100
AcDbBlockBegin
  2
*MODEL_SPACE
 70
     0
 10
0.0
 20
0.0
 30
0.0
  3
*MODEL_SPACE
  1

  0
ENDBLK
  5
7EB
100
AcDbEntity
  8
0
100
AcDbBlockEnd
  0
BLOCK
  5
7E7
100
AcDbEntity
 67
     1
  8
0
100
AcDbBlockBegin
  2
*PAPER_SPACE
 70
     0
 10
0.0
 20
0.0
 30
0.0
  3
*PAPER_SPACE
  1

  0
ENDBLK
  5
7E8
100
AcDbEntity
 67
     1
  8
0
100
AcDbBlockEnd
  0
BLOCK
  5
803
100
AcDbEntity
  8
0
100
AcDbBlockBegin
  2
$MODEL_SPACE
 70
     0
 10
0.0
 20
0.0
 30
0.0
  3
$MODEL_SPACE
  1

  0
ENDBLK
  5
2C9
100
AcDbEntity
  8
0
100
AcDbBlockEnd
  0
BLOCK
  5
805
100
AcDbEntity
  8
0
100
AcDbBlockBegin
  2
$PAPER_SPACE
 70
     0
 10
0.0
 20
0.0
 30
0.0
  3
$PAPER_SPACE
  1

  0
ENDBLK
  5
2C6
100
AcDbEntity
  8
0
100
AcDbBlockEnd
  0
BLOCK
  5
807
100
AcDbEntity
  8
0
100
AcDbBlockBegin
  2
_DOTBLANK
 70
     0
 10
0.0
 20
0.0
 30
0.0
  3
_DOTBLANK
  1

  0
CIRCLE
  5
32
100
AcDbEntity
  8
0
  6
CONTINUOUS
 62
     7
100
AcDbCircle
 10
0.0
 20
0.0
 30
0.0
 40
0.5
  0
LINE
  5
33
100
AcDbEntity
  8
0
  6
CONTINUOUS
 62
     7
100
AcDbLine
 10
-0.5
 20
0.0
 30
0.0
 11
-1.0
 21
0.0
 31
0.0
  0
ENDBLK
  5
34
100
AcDbEntity
  8
0
100
AcDbBlockEnd
  0
BLOCK
  5
809
100
AcDbEntity
  8
0
 62
     7
100
AcDbBlockBegin
  2
A$C186E10C4
 70
     0
 10
0.0
 20
0.0
 30
0.0
  3
A$C186E10C4
  1

  0
LINE
  5
2E8
100
AcDbEntity
  8
OUTLINE
  6
CONTINUOUS
 62
     3
100
AcDbLine
 10
1260.2607
 20
364.68571
 30
0.0
 11
2460.2607
 21
364.68571
 31
0.0
  0
LINE
  5
2E9
100
AcDbEntity
  8
SIZE
  6
CONTINUOUS
 62
    30
100
AcDbLine
 10
2430.2607
 20
185.875821
 30
0.0
 11
1250.2607
 21
185.875821
 31
0.0
  0
TEXT
  5
2EA
100
AcDbEntity
  8
SIZE
  6
CONTINUOUS
 62
    30
100
AcDbText
 10
1493.053557
 20
1298.252894
 30
0.0
 40
55.0
  1
1146(吊りボルトピッチ)
 41
0.9
 72
     1
 11
1840.2607
 21
1298.252894
 31
0.0
100
AcDbText
  0
LINE
  5
2EB
100
AcDbEntity
  8
SIZE
  6
CONTINUOUS
 62
    30
100
AcDbLine
 10
2403.2607
 20
1281.848132
 30
0.0
 11
1277.2607
 21
1281.848132
 31
0.0
  0
LINE
  5
2EC
100
AcDbEntity
  8
SIZE
  6
CONTINUOUS
 62
    30
100
AcDbLine
 10
2410.2607
 20
1164.788907
 30
0.0
 11
1270.2607
 21
1164.788907
 31
0.0
  0
LINE
  5
2ED
100
AcDbEntity
  8
OUTLINE
  6
CONTINUOUS
 62
     3
100
AcDbLine
 10
1260.2607
 20
411.68571
 30
0.0
 11
2420.2607
 21
411.68571
 31
0.0
  0
LINE
  5
2EE
100
AcDbEntity
  8
OUTLINE
  6
CONTINUOUS
 62
     3
100
AcDbLine
 10
1273.7307
 20
356.68571
 30
0.0
 11
2406.7907
 21
356.68571
 31
0.0
  0
LINE
  5
2EF
100
AcDbEntity
  8
SIZE
  6
CONTINUOUS
 62
    30
100
AcDbLine
 10
2450.2607
 20
39.618248
 30
0.0
 11
1230.2607
 21
39.618248
 31
0.0
  0
LINE
  5
2F0
100
AcDbEntity
  8
OUTLINE
  6
CONTINUOUS
 62
     3
100
AcDbLine
 10
1260.2607
 20
504.68571
 30
0.0
 11
2420.2607
 21
504.68571
 31
0.0
  0
LINE
  5
2F1
100
AcDbEntity
  8
OUTLINE
  6
CONTINUOUS
 62
     3
100
AcDbLine
 10
2420.2607
 20
797.68571
 30
0.0
 11
1260.2607
 21
797.68571
 31
0.0
  0
LINE
  5
2F2
100
AcDbEntity
  8
DETAIL
  6
CONTINUOUS
 62
     5
100
AcDbLine
 10
2420.2607
 20
504.68571
 30
0.0
 11
1260.2607
 21
504.68571
 31
0.0
  0
LINE
  5
2F3
100
AcDbEntity
  8
SIZE
  6
CONTINUOUS
 62
    30
100
AcDbLine
 10
2426.2607
 20
1393.835484
 30
0.0
 11
1254.2607
 21
1393.835484
 31
0.0
  0
LINE
  5
2F4
100
AcDbEntity
  8
DETAIL
  6
CONTINUOUS
 62
     5
100
AcDbLine
 10
2420.2607
 20
797.68571
 30
0.0
 11
1260.2607
 21
797.68571
 31
0.0
  0
LINE
  5
2F5
100
AcDbEntity
  8
DETAIL
  6
CONTINUOUS
 62
     5
100
AcDbLine
 10
2420.2607
 20
797.68571
 30
0.0
 11
1260.2607
 21
797.68571
 31
0.0
  0
LINE
  5
2F6
100
AcDbEntity
  8
DETAIL
  6
CONTINUOUS
 62
     5
100
AcDbLine
 10
2402.2607
 20
519.68571
 30
0.0
 11
1278.2607
 21
519.68571
 31
0.0
  0
LINE
  5
2F7
100
AcDbEntity
  8
DETAIL
  6
CONTINUOUS
 62
     5
100
AcDbLine
 10
2405.2607
 20
504.68571
 30
0.0
 11
1275.2607
 21
504.68571
 31
0.0
  0
LINE
  5
2F8
100
AcDbEntity
  8
DETAIL
  6
CONTINUOUS
 62
     5
100
AcDbLine
 10
2402.2607
 20
519.68571
 30
0.0
 11
1278.2607
 21
519.68571
 31
0.0
  0
LINE
  5
2F9
100
AcDbEntity
  8
DETAIL
  6
CONTINUOUS
 62
     5
100
AcDbLine
 10
2405.2607
 20
504.68571
 30
0.0
 11
1275.2607
 21
504.68571
 31
0.0
  0
LINE
  5
2FA
100
AcDbEntity
  8
DETAIL
  6
CONTINUOUS
 62
     5
100
AcDbLine
 10
1260.2607
 20
411.68571
 30
0.0
 11
2420.2607
 21
411.68571
 31
0.0
  0
LINE
  5
2FB
100
AcDbEntity
  8
DETAIL
  6
CONTINUOUS
 62
     5
100
AcDbLine
 10
1273.7307
 20
356.68571
 30
0.0
 11
2406.7907
 21
356.68571
 31
0.0
  0
LINE
  5
2FC
100
AcDbEntity
  8
DETAIL
  6
CONTINUOUS
 62
     5
100
AcDbLine
 10
1260.2607
 20
364.68571
 30
0.0
 11
2460.2607
 21
364.68571
 31
0.0
  0
CIRCLE
  5
2FD
100
AcDbEntity
  8
SIZE
  6
CONTINUOUS
 62
    30
100
AcDbCircle
 10
774.104522
 20
364.68571
 30
0.0
 40
5.0
  0
LINE
  5
2FE
100
AcDbEntity
  8
SIZE
  6
CONTINUOUS
 62
    30
100
AcDbLine
 10
774.104522
 20
364.68571
 30
0.0
 11
774.104522
 21
-0.000004
 31
0.0
  0
CIRCLE
  5
2FF
100
AcDbEntity
  8
SIZE
  6
CONTINUOUS
 62
    30
100
AcDbCircle
 10
998.616322
 20
364.68571
 30
0.0
 40
5.0
  0
LINE
  5
300
100
AcDbEntity
  8
SIZE
  6
CONTINUOUS
 62
    30
100
AcDbLine
 10
998.616322
 20
388.18571
 30
0.0
 11
897.59306
 21
347.166667
 31
0.0
  0
CIRCLE
  5
301
100
AcDbEntity
  8
SIZE
  6
CONTINUOUS
 62
    30
100
AcDbCircle
 10
998.616322
 20
364.68571
 30
0.0
 40
5.0
  0
LINE
  5
302
100
AcDbEntity
  8
SIZE
  6
CONTINUOUS
 62
    30
100
AcDbLine
 10
998.616322
 20
364.68571
 30
0.0
 11
998.616322
 21
356.68571
 31
0.0
  0
TEXT
  5
303
100
AcDbEntity
  8
SIZE
  6
CONTINUOUS
 62
    30
100
AcDbText
 10
584.627884
 20
46.124446
 30
0.0
 40
55.0
  1
パネル直付時
 50
90.0
 41
0.9
 72
     1
 11
584.627884
 21
217.724446
 31
0.0
100
AcDbText
  0
LINE
  5
304
100
AcDbEntity
  8
OUTLINE
  6
CONTINUOUS
 62
     3
100
AcDbLine
 10
1220.2607
 20
360.679202
 30
0.0
 11
1220.2607
 21
364.68571
 31
0.0
  0
LINE
  5
305
100
AcDbEntity
  8
DETAIL
  6
CONTINUOUS
 62
     5
100
AcDbLine
 10
1220.2607
 20
360.679202
 30
0.0
 11
1220.2607
 21
364.68571
 31
0.0
  0
POLYLINE
  5
306
100
AcDbEntity
  8
SIZE
  6
CONTINUOUS
 62
    30
100
AcDb2dPolyline
 66
     1
 10
0.0
 20
0.0
 30
0.0
  0
VERTEX
  5
307
100
AcDbEntity
  8
SIZE
  6
CONTINUOUS
 62
    30
100
AcDbVertex
100
AcDb2dVertex
 10
508.43542
 20
52.685752
 30
0.0
 42
0.186174
  0
VERTEX
  5
308
100
AcDbEntity
  8
SIZE
  6
CONTINUOUS
 62
    30
100
AcDbVertex
100
AcDb2dVertex
 10
517.285268
 20
31.736264
 30
0.0
 42
0.082105
  0
VERTEX
  5
309
100
AcDbEntity
  8
SIZE
  6
CONTINUOUS
 62
    30
100
AcDbVertex
100
AcDb2dVertex
 10
532.98777
 20
19.561703
 30
0.0
 42
0.058826
  0
VERTEX
  5
30A
100
AcDbEntity
  8
SIZE
  6
CONTINUOUS
 62
    30
100
AcDbVertex
100
AcDb2dVertex
 10
554.773828
 20
10.786776
 30
0.0
 42
0.067494
  0
VERTEX
  5
30B
100
AcDbEntity
  8
SIZE
  6
CONTINUOUS
 62
    30
100
AcDbVertex
100
AcDb2dVertex
 10
592.262388
 20
5.841272
 30
0.0
 42
0.067494
  0
VERTEX
  5
30C
100
AcDbEntity
  8
SIZE
  6
CONTINUOUS
 62
    30
100
AcDbVertex
100
AcDb2dVertex
 10
629.750948
 20
10.786776
 30
0.0
 42
0.058826
  0
VERTEX
  5
30D
100
AcDbEntity
  8
SIZE
  6
CONTINUOUS
 62
    30
100
AcDbVertex
100
AcDb2dVertex
 10
651.537006
 20
19.561703
 30
0.0
 42
0.082105
  0
VERTEX
  5
30E
100
AcDbEntity
  8
SIZE
  6
CONTINUOUS
 62
    30
100
AcDbVertex
100
AcDb2dVertex
 10
667.239508
 20
31.736264
 30
0.0
 42
0.186174
  0
VERTEX
  5
30F
100
AcDbEntity
  8
SIZE
  6
CONTINUOUS
 62
    30
100
AcDbVertex
100
AcDb2dVertex
 10
676.089356
 20
52.685752
 30
0.0
 42
0.186174
  0
VERTEX
  5
310
100
AcDbEntity
  8
SIZE
  6
CONTINUOUS
 62
    30
100
AcDbVertex
100
AcDb2dVertex
 10
676.089356
 20
52.685752
 30
0.0
 42
0.186174
  0
SEQEND
  5
311
100
AcDbEntity
  8
SIZE
  6
CONTINUOUS
 62
    30
  0
TEXT
  5
312
100
AcDbEntity
  8
SIZE
  6
CONTINUOUS
 62
    30
100
AcDbText
 10
668.377663
 20
102.983097
 30
0.0
 40
55.0
  1
50～60
 50
90.0
 41
0.9
 72
     1
 11
668.377663
 21
219.897383
 31
0.0
100
AcDbText
  0
LINE
  5
313
100
AcDbEntity
  8
SIZE
  6
CONTINUOUS
 62
    30
100
AcDbLine
 10
1253.7307
 20
356.68571
 30
0.0
 11
968.616322
 21
356.68571
 31
0.0
  0
LINE
  5
314
100
AcDbEntity
  8
SIZE
  6
CONTINUOUS
 62
    30
100
AcDbLine
 10
1051.645312
 20
185.875821
 30
0.0
 11
1220.2607
 21
185.875821
 31
0.0
  0
TEXT
  5
315
100
AcDbEntity
  8
SIZE
  6
CONTINUOUS
 62
    30
100
AcDbText
 10
756.104522
 20
17.999996
 30
0.0
 40
55.0
  1
140～300
 50
90.0
 41
0.9
 72
     1
 11
756.104522
 21
177.342853
 31
0.0
100
AcDbText
  0
TEXT
  5
316
100
AcDbEntity
  8
SIZE
  6
CONTINUOUS
 62
    30
100
AcDbText
 10
879.59306
 20
249.023809
 30
0.0
 40
55.0
  1
47
 50
90.0
 41
0.9
 72
     1
 11
879.59306
 21
289.095238
 31
0.0
100
AcDbText
  0
TEXT
  5
317
100
AcDbEntity
  8
SIZE
  6
CONTINUOUS
 62
    30
100
AcDbText
 10
980.616322
 20
285.68571
 30
0.0
 40
55.0
  1
8
 50
90.0
 41
0.9
 72
     1
 11
980.616322
 21
302.18571
 31
0.0
100
AcDbText
  0
LINE
  5
318
100
AcDbEntity
  8
SIZE
  6
CONTINUOUS
 62
    30
100
AcDbLine
 10
897.59306
 20
347.166667
 30
0.0
 11
897.59306
 21
231.02381
 31
0.0
  0
LINE
  5
319
100
AcDbEntity
  8
SIZE
  6
CONTINUOUS
 62
    30
100
AcDbLine
 10
998.616322
 20
359.68571
 30
0.0
 11
998.616322
 21
354.68571
 31
0.0
  0
LINE
  5
31A
100
AcDbEntity
  8
SIZE
  6
CONTINUOUS
 62
    30
100
AcDbLine
 10
998.616322
 20
354.68571
 30
0.0
 11
998.616322
 21
344.68571
 31
0.0
  0
LINE
  5
31B
100
AcDbEntity
  8
SIZE
  6
CONTINUOUS
 62
    30
100
AcDbLine
 10
998.616322
 20
351.68571
 30
0.0
 11
998.616322
 21
346.68571
 31
0.0
  0
CIRCLE
  5
31C
100
AcDbEntity
  8
SIZE
  6
CONTINUOUS
 62
    30
100
AcDbCircle
 10
998.616322
 20
356.68571
 30
0.0
 40
5.0
  0
LINE
  5
31D
100
AcDbEntity
  8
SIZE
  6
CONTINUOUS
 62
    30
100
AcDbLine
 10
998.616322
 20
346.68571
 30
0.0
 11
998.616322
 21
267.68571
 31
0.0
  0
LINE
  5
31E
100
AcDbEntity
  8
SIZE
  6
CONTINUOUS
 62
    30
100
AcDbLine
 10
1220.2607
 20
340.679202
 30
0.0
 11
1220.2607
 21
9.618248
 31
0.0
  0
POINT
  5
31F
100
AcDbEntity
  8
DEFPOINTS
  6
CONTINUOUS
 62
     7
100
AcDbPoint
 10
1220.2607
 20
39.618248
 30
0.0
  0
LINE
  5
320
100
AcDbEntity
  8
SIZE
  6
CONTINUOUS
 62
    30
100
AcDbLine
 10
1225.2607
 20
39.618248
 30
0.0
 11
1230.2607
 21
39.618248
 31
0.0
  0
CIRCLE
  5
321
100
AcDbEntity
  8
SIZE
  6
CONTINUOUS
 62
    30
100
AcDbCircle
 10
1220.2607
 20
39.618248
 30
0.0
 40
5.0
  0
TEXT
  5
322
100
AcDbEntity
  8
SIZE
  6
CONTINUOUS
 62
    30
100
AcDbText
 10
1069.645311
 20
203.875821
 30
0.0
 40
55.0
  1
20
 41
0.9
 72
     1
 11
1109.71674
 21
203.875821
 31
0.0
100
AcDbText
  0
LINE
  5
323
100
AcDbEntity
  8
SIZE
  6
CONTINUOUS
 62
    30
100
AcDbLine
 10
1220.2607
 20
340.679202
 30
0.0
 11
1220.2607
 21
155.875821
 31
0.0
  0
LINE
  5
324
100
AcDbEntity
  8
SIZE
  6
CONTINUOUS
 62
    30
100
AcDbLine
 10
1240.2607
 20
345.68571
 30
0.0
 11
1240.2607
 21
155.875821
 31
0.0
  0
LINE
  5
325
100
AcDbEntity
  8
SIZE
  6
CONTINUOUS
 62
    30
100
AcDbLine
 10
1240.2607
 20
345.68571
 30
0.0
 11
1240.2607
 21
155.875821
 31
0.0
  0
POINT
  5
326
100
AcDbEntity
  8
DEFPOINTS
  6
CONTINUOUS
 62
     7
100
AcDbPoint
 10
1220.2607
 20
185.875821
 30
0.0
  0
LINE
  5
327
100
AcDbEntity
  8
SIZE
  6
CONTINUOUS
 62
    30
100
AcDbLine
 10
1215.2607
 20
185.875821
 30
0.0
 11
1210.2607
 21
185.875821
 31
0.0
  0
CIRCLE
  5
328
100
AcDbEntity
  8
SIZE
  6
CONTINUOUS
 62
    30
100
AcDbCircle
 10
1220.2607
 20
185.875821
 30
0.0
 40
5.0
  0
LINE
  5
329
100
AcDbEntity
  8
SIZE
  6
CONTINUOUS
 62
    30
100
AcDbLine
 10
1245.2607
 20
185.875821
 30
0.0
 11
1250.2607
 21
185.875821
 31
0.0
  0
CIRCLE
  5
32A
100
AcDbEntity
  8
SIZE
  6
CONTINUOUS
 62
    30
100
AcDbCircle
 10
1240.2607
 20
185.875821
 30
0.0
 40
5.0
  0
LINE
  5
32B
100
AcDbEntity
  8
SIZE
  6
CONTINUOUS
 62
    30
100
AcDbLine
 10
1240.2607
 20
185.875821
 30
0.0
 11
1220.2607
 21
185.875821
 31
0.0
  0
LINE
  5
32C
100
AcDbEntity
  8
SIZE
  6
CONTINUOUS
 62
    30
100
AcDbLine
 10
1240.2607
 20
185.875821
 30
0.0
 11
1220.2607
 21
185.875821
 31
0.0
  0
LINE
  5
32D
100
AcDbEntity
  8
SIZE
  6
CONTINUOUS
 62
    30
100
AcDbLine
 10
1210.2607
 20
185.875821
 30
0.0
 11
1200.2607
 21
185.875821
 31
0.0
  0
LINE
  5
32E
100
AcDbEntity
  8
SIZE
  6
CONTINUOUS
 62
    30
100
AcDbLine
 10
1250.2607
 20
185.875821
 30
0.0
 11
1260.2607
 21
185.875821
 31
0.0
  0
POINT
  5
32F
100
AcDbEntity
  8
DEFPOINTS
  6
CONTINUOUS
 62
     7
100
AcDbPoint
 10
1240.2607
 20
185.875821
 30
0.0
  0
LINE
  5
330
100
AcDbEntity
  8
SIZE
  6
CONTINUOUS
 62
    30
100
AcDbLine
 10
1245.2607
 20
185.875821
 30
0.0
 11
1250.2607
 21
185.875821
 31
0.0
  0
CIRCLE
  5
331
100
AcDbEntity
  8
SIZE
  6
CONTINUOUS
 62
    30
100
AcDbCircle
 10
1240.2607
 20
185.875821
 30
0.0
 40
5.0
  0
POINT
  5
332
100
AcDbEntity
  8
DEFPOINTS
  6
CONTINUOUS
 62
     7
100
AcDbPoint
 10
1273.7307
 20
356.68571
 30
0.0
  0
POINT
  5
333
100
AcDbEntity
  8
DEFPOINTS
  6
CONTINUOUS
 62
     7
100
AcDbPoint
 10
1220.2607
 20
360.679202
 30
0.0
  0
LINE
  5
334
100
AcDbEntity
  8
OUTLINE
  6
CONTINUOUS
 62
     3
100
AcDbLine
 10
1273.7307
 20
356.68571
 30
0.0
 11
1220.2607
 21
360.679202
 31
0.0
  0
POINT
  5
335
100
AcDbEntity
  8
DEFPOINTS
  6
CONTINUOUS
 62
     7
100
AcDbPoint
 10
1220.2607
 20
360.679202
 30
0.0
  0
LINE
  5
336
100
AcDbEntity
  8
DETAIL
  6
CONTINUOUS
 62
     5
100
AcDbLine
 10
1273.7307
 20
356.68571
 30
0.0
 11
1220.2607
 21
360.679202
 31
0.0
  0
POLYLINE
  5
337
100
AcDbEntity
  8
SIZE
  6
CONTINUOUS
 62
    30
100
AcDb2dPolyline
 66
     1
 10
0.0
 20
0.0
 30
0.0
  0
VERTEX
  5
338
100
AcDbEntity
  8
SIZE
  6
CONTINUOUS
 62
    30
100
AcDbVertex
100
AcDb2dVertex
 10
676.089356
 20
380.431378
 30
0.0
 42
0.186174
  0
VERTEX
  5
339
100
AcDbEntity
  8
SIZE
  6
CONTINUOUS
 62
    30
100
AcDbVertex
100
AcDb2dVertex
 10
667.239508
 20
401.380866
 30
0.0
 42
0.082105
  0
VERTEX
  5
33A
100
AcDbEntity
  8
SIZE
  6
CONTINUOUS
 62
    30
100
AcDbVertex
100
AcDb2dVertex
 10
651.537006
 20
413.555427
 30
0.0
 42
0.058826
  0
VERTEX
  5
33B
100
AcDbEntity
  8
SIZE
  6
CONTINUOUS
 62
    30
100
AcDbVertex
100
AcDb2dVertex
 10
629.750948
 20
422.330354
 30
0.0
 42
0.067494
  0
VERTEX
  5
33C
100
AcDbEntity
  8
SIZE
  6
CONTINUOUS
 62
    30
100
AcDbVertex
100
AcDb2dVertex
 10
592.262388
 20
427.275857
 30
0.0
 42
0.067494
  0
VERTEX
  5
33D
100
AcDbEntity
  8
SIZE
  6
CONTINUOUS
 62
    30
100
AcDbVertex
100
AcDb2dVertex
 10
554.773828
 20
422.330354
 30
0.0
 42
0.058826
  0
VERTEX
  5
33E
100
AcDbEntity
  8
SIZE
  6
CONTINUOUS
 62
    30
100
AcDbVertex
100
AcDb2dVertex
 10
532.98777
 20
413.555427
 30
0.0
 42
0.082105
  0
VERTEX
  5
33F
100
AcDbEntity
  8
SIZE
  6
CONTINUOUS
 62
    30
100
AcDbVertex
100
AcDb2dVertex
 10
517.285268
 20
401.380866
 30
0.0
 42
0.186174
  0
VERTEX
  5
340
100
AcDbEntity
  8
SIZE
  6
CONTINUOUS
 62
    30
100
AcDbVertex
100
AcDb2dVertex
 10
508.43542
 20
380.431378
 30
0.0
 42
0.186174
  0
SEQEND
  5
341
100
AcDbEntity
  8
SIZE
  6
CONTINUOUS
 62
    30
  0
TEXT
  5
342
100
AcDbEntity
  8
ETC
  6
CONTINUOUS
 62
    61
100
AcDbText
 10
-0.000005
 20
1264.790492
 30
0.0
 40
80.0
  1
MPD-RP71_80FA3_3
 50
359.999997
 41
0.8
100
AcDbText
  0
LINE
  5
343
100
AcDbEntity
  8
NOTE
  6
CONTINUOUS
 62
     4
100
AcDbLine
 10
443.342466
 20
987.363779
 30
0.0
 11
1156.357075
 21
987.363779
 31
0.0
  0
TEXT
  5
344
100
AcDbEntity
  8
NOTE
  6
CONTINUOUS
 62
     4
100
AcDbText
 10
440.281804
 20
1003.19034
 30
0.0
 40
60.0
  1
AH 4-14×30長穴(M10)
 50
359.999997
 41
0.7
  7
STANDARD1
100
AcDbText
  0
LINE
  5
345
100
AcDbEntity
  8
SIZE
  6
CONTINUOUS
 62
    30
100
AcDbLine
 10
1244.2607
 20
813.38571
 30
0.0
 11
1244.2607
 21
1311.848132
 31
0.0
  0
LINE
  5
346
100
AcDbEntity
  8
SIZE
  6
CONTINUOUS
 62
    30
100
AcDbLine
 10
1267.2607
 20
832.680876
 30
0.0
 11
1267.2607
 21
1311.848132
 31
0.0
  0
LINE
  5
347
100
AcDbEntity
  8
SIZE
  6
CONTINUOUS
 62
    30
100
AcDbLine
 10
1267.2607
 20
832.680876
 30
0.0
 11
1267.2607
 21
1311.848132
 31
0.0
  0
LINE
  5
348
100
AcDbEntity
  8
SIZE
  6
CONTINUOUS
 62
    30
100
AcDbLine
 10
1244.2607
 20
813.38571
 30
0.0
 11
1244.2607
 21
1194.788907
 31
0.0
  0
LINE
  5
349
100
AcDbEntity
  8
SIZE
  6
CONTINUOUS
 62
    30
100
AcDbLine
 10
1260.2607
 20
817.68571
 30
0.0
 11
1260.2607
 21
1194.788907
 31
0.0
  0
LINE
  5
34A
100
AcDbEntity
  8
SIZE
  6
CONTINUOUS
 62
    30
100
AcDbLine
 10
1260.2607
 20
817.68571
 30
0.0
 11
1260.2607
 21
1194.788907
 31
0.0
  0
LINE
  5
34B
100
AcDbEntity
  8
NOTE
  6
CONTINUOUS
 62
     4
100
AcDbLine
 10
1156.357075
 20
987.363779
 30
0.0
 11
1267.260654
 21
797.68568
 31
0.0
  0
LINE
  5
34C
100
AcDbEntity
  8
SIZE
  6
CONTINUOUS
 62
    30
100
AcDbLine
 10
1244.2607
 20
811.78571
 30
0.0
 11
1244.2607
 21
1423.835484
 31
0.0
  0
LINE
  5
34D
100
AcDbEntity
  8
SIZE
  6
CONTINUOUS
 62
    30
100
AcDbLine
 10
1200.502014
 20
364.68571
 30
0.0
 11
744.104522
 21
364.68571
 31
0.0
  0
LINE
  5
34E
100
AcDbEntity
  8
SIZE
  6
CONTINUOUS
 62
    30
100
AcDbLine
 10
1240.502014
 20
504.68571
 30
0.0
 11
744.104522
 21
504.68571
 31
0.0
  0
LINE
  5
34F
100
AcDbEntity
  8
SIZE
  6
CONTINUOUS
 62
    30
100
AcDbLine
 10
1240.2607
 20
411.68571
 30
0.0
 11
968.616322
 21
411.68571
 31
0.0
  0
LINE
  5
350
100
AcDbEntity
  8
SIZE
  6
CONTINUOUS
 62
    30
100
AcDbLine
 10
1200.2607
 20
364.68571
 30
0.0
 11
968.616322
 21
364.68571
 31
0.0
  0
LINE
  5
351
100
AcDbEntity
  8
SIZE
  6
CONTINUOUS
 62
    30
100
AcDbLine
 10
1200.2607
 20
364.68571
 30
0.0
 11
968.616322
 21
364.68571
 31
0.0
  0
LINE
  5
352
100
AcDbEntity
  8
SIZE
  6
CONTINUOUS
 62
    30
100
AcDbLine
 10
1228.5607
 20
797.68571
 30
0.0
 11
744.104522
 21
797.68571
 31
0.0
  0
LINE
  5
353
100
AcDbEntity
  8
SIZE
  6
CONTINUOUS
 62
    30
100
AcDbLine
 10
1240.2607
 20
504.68571
 30
0.0
 11
744.104522
 21
504.68571
 31
0.0
  0
TEXT
  5
354
100
AcDbEntity
  8
SIZE
  6
CONTINUOUS
 62
    30
100
AcDbText
 10
756.104522
 20
587.542853
 30
0.0
 40
55.0
  1
293
 50
90.0
 41
0.9
 72
     1
 11
756.104522
 21
651.18571
 31
0.0
100
AcDbText
  0
LINE
  5
355
100
AcDbEntity
  8
SIZE
  6
CONTINUOUS
 62
    30
100
AcDbLine
 10
774.104522
 20
514.68571
 30
0.0
 11
774.104522
 21
787.68571
 31
0.0
  0
POINT
  5
356
100
AcDbEntity
  8
DEFPOINTS
  6
CONTINUOUS
 62
     7
100
AcDbPoint
 10
774.104522
 20
364.68571
 30
0.0
  0
LINE
  5
357
100
AcDbEntity
  8
SIZE
  6
CONTINUOUS
 62
    30
100
AcDbLine
 10
774.104522
 20
369.68571
 30
0.0
 11
774.104522
 21
374.68571
 31
0.0
  0
LINE
  5
358
100
AcDbEntity
  8
SIZE
  6
CONTINUOUS
 62
    30
100
AcDbLine
 10
774.104522
 20
499.68571
 30
0.0
 11
774.104522
 21
494.68571
 31
0.0
  0
CIRCLE
  5
359
100
AcDbEntity
  8
SIZE
  6
CONTINUOUS
 62
    30
100
AcDbCircle
 10
774.104522
 20
504.68571
 30
0.0
 40
5.0
  0
LINE
  5
35A
100
AcDbEntity
  8
SIZE
  6
CONTINUOUS
 62
    30
100
AcDbLine
 10
774.104522
 20
494.68571
 30
0.0
 11
774.104522
 21
374.68571
 31
0.0
  0
LINE
  5
35B
100
AcDbEntity
  8
SIZE
  6
CONTINUOUS
 62
    30
100
AcDbLine
 10
774.104522
 20
509.68571
 30
0.0
 11
774.104522
 21
514.68571
 31
0.0
  0
CIRCLE
  5
35C
100
AcDbEntity
  8
SIZE
  6
CONTINUOUS
 62
    30
100
AcDbCircle
 10
774.104522
 20
504.68571
 30
0.0
 40
5.0
  0
POINT
  5
35D
100
AcDbEntity
  8
DEFPOINTS
  6
CONTINUOUS
 62
     7
100
AcDbPoint
 10
998.616322
 20
411.68571
 30
0.0
  0
LINE
  5
35E
100
AcDbEntity
  8
SIZE
  6
CONTINUOUS
 62
    30
100
AcDbLine
 10
998.616322
 20
416.68571
 30
0.0
 11
998.616322
 21
421.68571
 31
0.0
  0
CIRCLE
  5
35F
100
AcDbEntity
  8
SIZE
  6
CONTINUOUS
 62
    30
100
AcDbCircle
 10
998.616322
 20
411.68571
 30
0.0
 40
5.0
  0
LINE
  5
360
100
AcDbEntity
  8
SIZE
  6
CONTINUOUS
 62
    30
100
AcDbLine
 10
998.616322
 20
364.68571
 30
0.0
 11
998.616322
 21
411.68571
 31
0.0
  0
LINE
  5
361
100
AcDbEntity
  8
SIZE
  6
CONTINUOUS
 62
    30
100
AcDbLine
 10
998.616322
 20
364.68571
 30
0.0
 11
998.616322
 21
411.68571
 31
0.0
  0
LINE
  5
362
100
AcDbEntity
  8
SIZE
  6
CONTINUOUS
 62
    30
100
AcDbLine
 10
998.616322
 20
421.68571
 30
0.0
 11
998.616322
 21
431.68571
 31
0.0
  0
POINT
  5
363
100
AcDbEntity
  8
DEFPOINTS
  6
CONTINUOUS
 62
     7
100
AcDbPoint
 10
998.616322
 20
364.68571
 30
0.0
  0
LINE
  5
364
100
AcDbEntity
  8
SIZE
  6
CONTINUOUS
 62
    30
100
AcDbLine
 10
998.616322
 20
369.68571
 30
0.0
 11
998.616322
 21
374.68571
 31
0.0
  0
LINE
  5
365
100
AcDbEntity
  8
SIZE
  6
CONTINUOUS
 62
    30
100
AcDbLine
 10
998.616322
 20
374.68571
 30
0.0
 11
998.616322
 21
384.68571
 31
0.0
  0
POINT
  5
366
100
AcDbEntity
  8
DEFPOINTS
  6
CONTINUOUS
 62
     7
100
AcDbPoint
 10
774.104522
 20
797.68571
 30
0.0
  0
LINE
  5
367
100
AcDbEntity
  8
SIZE
  6
CONTINUOUS
 62
    30
100
AcDbLine
 10
774.104522
 20
792.68571
 30
0.0
 11
774.104522
 21
787.68571
 31
0.0
  0
CIRCLE
  5
368
100
AcDbEntity
  8
SIZE
  6
CONTINUOUS
 62
    30
100
AcDbCircle
 10
774.104522
 20
797.68571
 30
0.0
 40
5.0
  0
LINE
  5
369
100
AcDbEntity
  8
SIZE
  6
CONTINUOUS
 62
    30
100
AcDbLine
 10
1244.2607
 20
872.68571
 30
0.0
 11
1244.2607
 21
393.455219
 31
0.0
  0
LINE
  5
36A
100
AcDbEntity
  8
OUTLINE
  6
CONTINUOUS
 62
     3
100
AcDbLine
 10
1260.2607
 20
797.68571
 30
0.0
 11
1260.2607
 21
504.68571
 31
0.0
  0
LINE
  5
36B
100
AcDbEntity
  8
DETAIL
  6
CONTINUOUS
 62
     5
100
AcDbLine
 10
1260.2607
 20
537.08571
 30
0.0
 11
1260.2607
 21
795.08571
 31
0.0
  0
TEXT
  5
36C
100
AcDbEntity
  8
SIZE
  6
CONTINUOUS
 62
    30
100
AcDbText
 10
1282.2607
 20
441.455219
 30
0.0
 40
55.0
  1
4
 41
0.9
 72
     1
 11
1299.939271
 21
441.455219
 31
0.0
100
AcDbText
  0
LINE
  5
36D
100
AcDbEntity
  8
SIZE
  6
CONTINUOUS
 62
    30
100
AcDbLine
 10
1254.2607
 20
423.455219
 30
0.0
 11
1335.617843
 21
423.455219
 31
0.0
  0
LINE
  5
36E
100
AcDbEntity
  8
DETAIL
  6
CONTINUOUS
 62
     5
100
AcDbLine
 10
1260.2607
 20
586.88571
 30
0.0
 11
1260.2607
 21
504.68571
 31
0.0
  0
LINE
  5
36F
100
AcDbEntity
  8
DETAIL
  6
CONTINUOUS
 62
     5
100
AcDbLine
 10
1260.2607
 20
586.88571
 30
0.0
 11
1260.2607
 21
505.48571
 31
0.0
  0
LINE
  5
370
100
AcDbEntity
  8
DETAIL
  6
CONTINUOUS
 62
     5
100
AcDbLine
 10
1260.2607
 20
586.88571
 30
0.0
 11
1260.2607
 21
505.48571
 31
0.0
  0
LINE
  5
371
100
AcDbEntity
  8
DETAIL
  6
CONTINUOUS
 62
     5
100
AcDbLine
 10
1275.2607
 20
516.68571
 30
0.0
 11
1275.2607
 21
504.68571
 31
0.0
  0
LINE
  5
372
100
AcDbEntity
  8
DETAIL
  6
CONTINUOUS
 62
     5
100
AcDbLine
 10
1275.2607
 20
516.68571
 30
0.0
 11
1275.2607
 21
504.68571
 31
0.0
  0
LINE
  5
373
100
AcDbEntity
  8
NOTE
  6
CONTINUOUS
 62
     4
100
AcDbLine
 10
1189.21826
 20
365.68571
 30
0.0
 11
1169.21826
 21
385.68571
 31
0.0
  0
LINE
  5
374
100
AcDbEntity
  8
NOTE
  6
CONTINUOUS
 62
     4
100
AcDbLine
 10
1184.21826
 20
365.68571
 30
0.0
 11
1164.21826
 21
385.68571
 31
0.0
  0
LINE
  5
375
100
AcDbEntity
  8
NOTE
  6
CONTINUOUS
 62
     4
100
AcDbLine
 10
1179.21826
 20
365.68571
 30
0.0
 11
1159.21826
 21
385.68571
 31
0.0
  0
LINE
  5
376
100
AcDbEntity
  8
NOTE
  6
CONTINUOUS
 62
     4
100
AcDbLine
 10
1240.2607
 20
365.68571
 30
0.0
 11
1138.953251
 21
365.68571
 31
0.0
  0
LINE
  5
377
100
AcDbEntity
  8
NOTE
  6
CONTINUOUS
 62
     4
100
AcDbLine
 10
1240.2607
 20
385.68571
 30
0.0
 11
1138.953251
 21
385.68571
 31
0.0
  0
POINT
  5
378
100
AcDbEntity
  8
DEFPOINTS
  6
CONTINUOUS
 62
     7
100
AcDbPoint
 10
1220.502014
 20
364.68571
 30
0.0
  0
POINT
  5
379
100
AcDbEntity
  8
DEFPOINTS
  6
CONTINUOUS
 62
     7
100
AcDbPoint
 10
1260.502014
 20
504.68571
 30
0.0
  0
POINT
  5
37A
100
AcDbEntity
  8
DEFPOINTS
  6
CONTINUOUS
 62
     7
100
AcDbPoint
 10
1260.2607
 20
411.68571
 30
0.0
  0
POINT
  5
37B
100
AcDbEntity
  8
DEFPOINTS
  6
CONTINUOUS
 62
     7
100
AcDbPoint
 10
1220.2607
 20
364.68571
 30
0.0
  0
POINT
  5
37C
100
AcDbEntity
  8
DEFPOINTS
  6
CONTINUOUS
 62
     7
100
AcDbPoint
 10
1220.2607
 20
364.68571
 30
0.0
  0
POINT
  5
37D
100
AcDbEntity
  8
DEFPOINTS
  6
CONTINUOUS
 62
     7
100
AcDbPoint
 10
1244.2607
 20
423.455219
 30
0.0
  0
POINT
  5
37E
100
AcDbEntity
  8
DEFPOINTS
  6
CONTINUOUS
 62
     7
100
AcDbPoint
 10
1240.2607
 20
385.68571
 30
0.0
  0
LINE
  5
37F
100
AcDbEntity
  8
SIZE
  6
CONTINUOUS
 62
    30
100
AcDbLine
 10
1249.2607
 20
423.455219
 30
0.0
 11
1254.2607
 21
423.455219
 31
0.0
  0
CIRCLE
  5
380
100
AcDbEntity
  8
SIZE
  6
CONTINUOUS
 62
    30
100
AcDbCircle
 10
1244.2607
 20
423.455219
 30
0.0
 40
5.0
  0
LINE
  5
381
100
AcDbEntity
  8
SIZE
  6
CONTINUOUS
 62
    30
100
AcDbLine
 10
1235.2607
 20
423.455219
 30
0.0
 11
1230.2607
 21
423.455219
 31
0.0
  0
CIRCLE
  5
382
100
AcDbEntity
  8
SIZE
  6
CONTINUOUS
 62
    30
100
AcDbCircle
 10
1240.2607
 20
423.455219
 30
0.0
 40
5.0
  0
LINE
  5
383
100
AcDbEntity
  8
SIZE
  6
CONTINUOUS
 62
    30
100
AcDbLine
 10
1240.2607
 20
423.455219
 30
0.0
 11
1244.2607
 21
423.455219
 31
0.0
  0
LINE
  5
384
100
AcDbEntity
  8
SIZE
  6
CONTINUOUS
 62
    30
100
AcDbLine
 10
1230.2607
 20
423.455219
 30
0.0
 11
1220.2607
 21
423.455219
 31
0.0
  0
LINE
  5
385
100
AcDbEntity
  8
SIZE
  6
CONTINUOUS
 62
    30
100
AcDbLine
 10
1240.2607
 20
405.68571
 30
0.0
 11
1240.2607
 21
453.455219
 31
0.0
  0
POINT
  5
386
100
AcDbEntity
  8
DEFPOINTS
  6
CONTINUOUS
 62
     7
100
AcDbPoint
 10
1240.2607
 20
365.68571
 30
0.0
  0
POINT
  5
387
100
AcDbEntity
  8
DEFPOINTS
  6
CONTINUOUS
 62
     7
100
AcDbPoint
 10
1240.2607
 20
365.68571
 30
0.0
  0
LINE
  5
388
100
AcDbEntity
  8
OUTLINE
  6
CONTINUOUS
 62
     3
100
AcDbLine
 10
1260.2607
 20
364.68571
 30
0.0
 11
1220.2607
 21
364.68571
 31
0.0
  0
LINE
  5
389
100
AcDbEntity
  8
OUTLINE
  6
CONTINUOUS
 62
     3
100
AcDbLine
 10
1260.2607
 20
364.68571
 30
0.0
 11
1255.2607
 21
364.68571
 31
0.0
  0
LINE
  5
38A
100
AcDbEntity
  8
OUTLINE
  6
CONTINUOUS
 62
     3
100
AcDbLine
 10
1260.2607
 20
364.68571
 30
0.0
 11
1260.2607
 21
411.68571
 31
0.0
  0
POINT
  5
38B
100
AcDbEntity
  8
DEFPOINTS
  6
CONTINUOUS
 62
     7
100
AcDbPoint
 10
1260.2607
 20
504.68571
 30
0.0
  0
LINE
  5
38C
100
AcDbEntity
  8
NOTE
  6
CONTINUOUS
 62
     4
100
AcDbLine
 10
1229.21826
 20
365.68571
 30
0.0
 11
1209.21826
 21
385.68571
 31
0.0
  0
LINE
  5
38D
100
AcDbEntity
  8
NOTE
  6
CONTINUOUS
 62
     4
100
AcDbLine
 10
1224.21826
 20
365.68571
 30
0.0
 11
1204.21826
 21
385.68571
 31
0.0
  0
LINE
  5
38E
100
AcDbEntity
  8
NOTE
  6
CONTINUOUS
 62
     4
100
AcDbLine
 10
1219.21826
 20
365.68571
 30
0.0
 11
1199.21826
 21
385.68571
 31
0.0
  0
LINE
  5
38F
100
AcDbEntity
  8
NOTE
  6
CONTINUOUS
 62
     4
100
AcDbLine
 10
1240.2607
 20
365.68571
 30
0.0
 11
1240.2607
 21
385.68571
 31
0.0
  0
LINE
  5
390
100
AcDbEntity
  8
DETAIL
  6
CONTINUOUS
 62
     5
100
AcDbLine
 10
1260.2607
 20
364.68571
 30
0.0
 11
1220.2607
 21
364.68571
 31
0.0
  0
LINE
  5
391
100
AcDbEntity
  8
DETAIL
  6
CONTINUOUS
 62
     5
100
AcDbLine
 10
1260.2607
 20
364.68571
 30
0.0
 11
1255.2607
 21
364.68571
 31
0.0
  0
LINE
  5
392
100
AcDbEntity
  8
DETAIL
  6
CONTINUOUS
 62
     5
100
AcDbLine
 10
1260.2607
 20
364.68571
 30
0.0
 11
1260.2607
 21
411.68571
 31
0.0
  0
LINE
  5
393
100
AcDbEntity
  8
DETAIL
  6
CONTINUOUS
 62
     5
100
AcDbLine
 10
1275.2607
 20
516.68571
 30
0.0
 11
1278.2607
 21
519.68571
 31
0.0
  0
LINE
  5
394
100
AcDbEntity
  8
DETAIL
  6
CONTINUOUS
 62
     5
100
AcDbLine
 10
1275.2607
 20
516.68571
 30
0.0
 11
1278.2607
 21
519.68571
 31
0.0
  0
LINE
  5
395
100
AcDbEntity
  8
NOTE
  6
CONTINUOUS
 62
     4
100
AcDbLine
 10
1267.260339
 20
797.686179
 30
0.0
 11
1258.249433
 21
830.869808
 31
0.0
  0
LINE
  5
396
100
AcDbEntity
  8
NOTE
  6
CONTINUOUS
 62
     4
100
AcDbLine
 10
1267.260339
 20
797.686179
 30
0.0
 11
1242.86485
 21
821.918592
 31
0.0
  0
POINT
  5
397
100
AcDbEntity
  8
DEFPOINTS
  6
CONTINUOUS
 62
     7
100
AcDbPoint
 10
1244.2607
 20
793.38571
 30
0.0
  0
POINT
  5
398
100
AcDbEntity
  8
DEFPOINTS
  6
CONTINUOUS
 62
     7
100
AcDbPoint
 10
1267.2607
 20
812.680876
 30
0.0
  0
POINT
  5
399
100
AcDbEntity
  8
DEFPOINTS
  6
CONTINUOUS
 62
     7
100
AcDbPoint
 10
1267.2607
 20
812.680876
 30
0.0
  0
POINT
  5
39A
100
AcDbEntity
  8
DEFPOINTS
  6
CONTINUOUS
 62
     7
100
AcDbPoint
 10
1244.2607
 20
793.38571
 30
0.0
  0
POINT
  5
39B
100
AcDbEntity
  8
DEFPOINTS
  6
CONTINUOUS
 62
     7
100
AcDbPoint
 10
1260.2607
 20
797.68571
 30
0.0
  0
POINT
  5
39C
100
AcDbEntity
  8
DEFPOINTS
  6
CONTINUOUS
 62
     7
100
AcDbPoint
 10
1260.2607
 20
797.68571
 30
0.0
  0
POINT
  5
39D
100
AcDbEntity
  8
DEFPOINTS
  6
CONTINUOUS
 62
     7
100
AcDbPoint
 10
1248.5607
 20
797.68571
 30
0.0
  0
CIRCLE
  5
39E
100
AcDbEntity
  8
FIX
  6
CONTINUOUS
 62
    11
100
AcDbCircle
 10
1267.2607
 20
797.68571
 30
0.0
 40
12.421498
  0
LINE
  5
39F
100
AcDbEntity
  8
NOTE
  6
CONTINUOUS
 62
     4
100
AcDbLine
 10
1267.2607
 20
782.690544
 30
0.0
 11
1267.2607
 21
812.680876
 31
0.0
  0
LINE
  5
3A0
100
AcDbEntity
  8
NOTE
  6
CONTINUOUS
 62
     4
100
AcDbLine
 10
1252.265534
 20
797.68571
 30
0.0
 11
1282.255866
 21
797.68571
 31
0.0
  0
POINT
  5
3A1
100
AcDbEntity
  8
DEFPOINTS
  6
CONTINUOUS
 62
     7
100
AcDbPoint
 10
1244.2607
 20
791.78571
 30
0.0
  0
LINE
  5
3A2
100
AcDbEntity
  8
DETAIL
  6
CONTINUOUS
 62
     5
100
AcDbLine
 10
1260.2607
 20
795.38571
 30
0.0
 11
1248.5607
 21
795.38571
 31
0.0
  0
LINE
  5
3A3
100
AcDbEntity
  8
DETAIL
  6
CONTINUOUS
 62
     5
100
AcDbLine
 10
1260.2607
 20
797.68571
 30
0.0
 11
1248.5607
 21
797.68571
 31
0.0
  0
LINE
  5
3A4
100
AcDbEntity
  8
DETAIL
  6
CONTINUOUS
 62
     5
100
AcDbLine
 10
1246.5607
 20
785.68571
 30
0.0
 11
1244.2607
 21
785.68571
 31
0.0
  0
LINE
  5
3A5
100
AcDbEntity
  8
DETAIL
  6
CONTINUOUS
 62
     5
100
AcDbLine
 10
1246.5607
 20
793.38571
 30
0.0
 11
1246.5607
 21
785.68571
 31
0.0
  0
ARC
  5
3A6
100
AcDbEntity
  8
DETAIL
  6
CONTINUOUS
 62
     5
100
AcDbCircle
 10
1248.5607
 20
793.38571
 30
0.0
 40
2.0
100
AcDbArc
 50
90.0
 51
180.0
  0
LINE
  5
3A7
100
AcDbEntity
  8
DETAIL
  6
CONTINUOUS
 62
     5
100
AcDbLine
 10
1244.2607
 20
793.38571
 30
0.0
 11
1244.2607
 21
785.68571
 31
0.0
  0
ARC
  5
3A8
100
AcDbEntity
  8
DETAIL
  6
CONTINUOUS
 62
     5
100
AcDbCircle
 10
1248.5607
 20
793.38571
 30
0.0
 40
4.3
100
AcDbArc
 50
90.0
 51
180.0
  0
LINE
  5
3A9
100
AcDbEntity
  8
DETAIL
  6
CONTINUOUS
 62
     5
100
AcDbLine
 10
1246.5607
 20
785.68571
 30
0.0
 11
1244.2607
 21
785.68571
 31
0.0
  0
LINE
  5
3AA
100
AcDbEntity
  8
DETAIL
  6
CONTINUOUS
 62
     5
100
AcDbLine
 10
1246.5607
 20
793.38571
 30
0.0
 11
1246.5607
 21
785.68571
 31
0.0
  0
ARC
  5
3AB
100
AcDbEntity
  8
DETAIL
  6
CONTINUOUS
 62
     5
100
AcDbCircle
 10
1248.5607
 20
793.38571
 30
0.0
 40
2.0
100
AcDbArc
 50
90.0
 51
180.0
  0
LINE
  5
3AC
100
AcDbEntity
  8
DETAIL
  6
CONTINUOUS
 62
     5
100
AcDbLine
 10
1260.2607
 20
795.38571
 30
0.0
 11
1248.5607
 21
795.38571
 31
0.0
  0
LINE
  5
3AD
100
AcDbEntity
  8
DETAIL
  6
CONTINUOUS
 62
     5
100
AcDbLine
 10
1260.2607
 20
797.68571
 30
0.0
 11
1248.5607
 21
797.68571
 31
0.0
  0
LINE
  5
3AE
100
AcDbEntity
  8
DETAIL
  6
CONTINUOUS
 62
     5
100
AcDbLine
 10
1244.2607
 20
793.38571
 30
0.0
 11
1244.2607
 21
785.68571
 31
0.0
  0
ARC
  5
3AF
100
AcDbEntity
  8
DETAIL
  6
CONTINUOUS
 62
     5
100
AcDbCircle
 10
1248.5607
 20
793.38571
 30
0.0
 40
4.3
100
AcDbArc
 50
90.0
 51
180.0
  0
LINE
  5
3B0
100
AcDbEntity
  8
DETAIL
  6
CONTINUOUS
 62
     5
100
AcDbLine
 10
1260.2607
 20
797.68571
 30
0.0
 11
1260.2607
 21
771.28571
 31
0.0
  0
LINE
  5
3B1
100
AcDbEntity
  8
DETAIL
  6
CONTINUOUS
 62
     5
100
AcDbLine
 10
1260.2607
 20
797.68571
 30
0.0
 11
1260.2607
 21
771.28571
 31
0.0
  0
POINT
  5
3B2
100
AcDbEntity
  8
DEFPOINTS
  6
CONTINUOUS
 62
     7
100
AcDbPoint
 10
1244.2607
 20
892.68571
 30
0.0
  0
CIRCLE
  5
3B3
100
AcDbEntity
  8
SIZE
  6
CONTINUOUS
 62
    30
100
AcDbCircle
 10
1244.2607
 20
1281.848132
 30
0.0
 40
5.0
  0
CIRCLE
  5
3B4
100
AcDbEntity
  8
SIZE
  6
CONTINUOUS
 62
    30
100
AcDbCircle
 10
1267.2607
 20
1281.848132
 30
0.0
 40
5.0
  0
CIRCLE
  5
3B5
100
AcDbEntity
  8
SIZE
  6
CONTINUOUS
 62
    30
100
AcDbCircle
 10
1267.2607
 20
1281.848132
 30
0.0
 40
5.0
  0
TEXT
  5
3B6
100
AcDbEntity
  8
SIZE
  6
CONTINUOUS
 62
    30
100
AcDbText
 10
1143.84567
 20
1178.512947
 30
0.0
 40
55.0
  1
16
 41
0.9
 72
     1
 11
1178.024241
 21
1178.512947
 31
0.0
100
AcDbText
  0
POINT
  5
3B7
100
AcDbEntity
  8
DEFPOINTS
  6
CONTINUOUS
 62
     7
100
AcDbPoint
 10
1244.2607
 20
1164.788907
 30
0.0
  0
LINE
  5
3B8
100
AcDbEntity
  8
SIZE
  6
CONTINUOUS
 62
    30
100
AcDbLine
 10
1239.2607
 20
1164.788907
 30
0.0
 11
1234.2607
 21
1164.788907
 31
0.0
  0
CIRCLE
  5
3B9
100
AcDbEntity
  8
SIZE
  6
CONTINUOUS
 62
    30
100
AcDbCircle
 10
1244.2607
 20
1164.788907
 30
0.0
 40
5.0
  0
LINE
  5
3BA
100
AcDbEntity
  8
SIZE
  6
CONTINUOUS
 62
    30
100
AcDbLine
 10
1265.2607
 20
1164.788907
 30
0.0
 11
1270.2607
 21
1164.788907
 31
0.0
  0
CIRCLE
  5
3BB
100
AcDbEntity
  8
SIZE
  6
CONTINUOUS
 62
    30
100
AcDbCircle
 10
1260.2607
 20
1164.788907
 30
0.0
 40
5.0
  0
LINE
  5
3BC
100
AcDbEntity
  8
SIZE
  6
CONTINUOUS
 62
    30
100
AcDbLine
 10
1260.2607
 20
1164.788907
 30
0.0
 11
1244.2607
 21
1164.788907
 31
0.0
  0
LINE
  5
3BD
100
AcDbEntity
  8
SIZE
  6
CONTINUOUS
 62
    30
100
AcDbLine
 10
1234.2607
 20
1164.788907
 30
0.0
 11
1224.2607
 21
1164.788907
 31
0.0
  0
LINE
  5
3BE
100
AcDbEntity
  8
SIZE
  6
CONTINUOUS
 62
    30
100
AcDbLine
 10
1270.2607
 20
1164.788907
 30
0.0
 11
1280.2607
 21
1164.788907
 31
0.0
  0
POINT
  5
3BF
100
AcDbEntity
  8
DEFPOINTS
  6
CONTINUOUS
 62
     7
100
AcDbPoint
 10
1260.2607
 20
1164.788907
 30
0.0
  0
LINE
  5
3C0
100
AcDbEntity
  8
SIZE
  6
CONTINUOUS
 62
    30
100
AcDbLine
 10
1265.2607
 20
1164.788907
 30
0.0
 11
1270.2607
 21
1164.788907
 31
0.0
  0
CIRCLE
  5
3C1
100
AcDbEntity
  8
SIZE
  6
CONTINUOUS
 62
    30
100
AcDbCircle
 10
1260.2607
 20
1164.788907
 30
0.0
 40
5.0
  0
TEXT
  5
3C2
100
AcDbEntity
  8
SIZE
  6
CONTINUOUS
 62
    30
100
AcDbText
 10
1121.604541
 20
1299.848132
 30
0.0
 40
55.0
  1
23
 41
0.9
 72
     1
 11
1161.67597
 21
1299.848132
 31
0.0
100
AcDbText
  0
LINE
  5
3C3
100
AcDbEntity
  8
SIZE
  6
CONTINUOUS
 62
    30
100
AcDbLine
 10
1103.604541
 20
1281.848132
 30
0.0
 11
1244.2607
 21
1281.848132
 31
0.0
  0
POINT
  5
3C4
100
AcDbEntity
  8
DEFPOINTS
  6
CONTINUOUS
 62
     7
100
AcDbPoint
 10
1244.2607
 20
1281.848132
 30
0.0
  0
LINE
  5
3C5
100
AcDbEntity
  8
SIZE
  6
CONTINUOUS
 62
    30
100
AcDbLine
 10
1239.2607
 20
1281.848132
 30
0.0
 11
1234.2607
 21
1281.848132
 31
0.0
  0
LINE
  5
3C6
100
AcDbEntity
  8
SIZE
  6
CONTINUOUS
 62
    30
100
AcDbLine
 10
1272.2607
 20
1281.848132
 30
0.0
 11
1277.2607
 21
1281.848132
 31
0.0
  0
LINE
  5
3C7
100
AcDbEntity
  8
SIZE
  6
CONTINUOUS
 62
    30
100
AcDbLine
 10
1267.2607
 20
1281.848132
 30
0.0
 11
1244.2607
 21
1281.848132
 31
0.0
  0
LINE
  5
3C8
100
AcDbEntity
  8
SIZE
  6
CONTINUOUS
 62
    30
100
AcDbLine
 10
1267.2607
 20
1281.848132
 30
0.0
 11
1244.2607
 21
1281.848132
 31
0.0
  0
LINE
  5
3C9
100
AcDbEntity
  8
SIZE
  6
CONTINUOUS
 62
    30
100
AcDbLine
 10
1234.2607
 20
1281.848132
 30
0.0
 11
1224.2607
 21
1281.848132
 31
0.0
  0
LINE
  5
3CA
100
AcDbEntity
  8
SIZE
  6
CONTINUOUS
 62
    30
100
AcDbLine
 10
1277.2607
 20
1281.848132
 30
0.0
 11
1287.2607
 21
1281.848132
 31
0.0
  0
POINT
  5
3CB
100
AcDbEntity
  8
DEFPOINTS
  6
CONTINUOUS
 62
     7
100
AcDbPoint
 10
1267.2607
 20
1281.848132
 30
0.0
  0
LINE
  5
3CC
100
AcDbEntity
  8
SIZE
  6
CONTINUOUS
 62
    30
100
AcDbLine
 10
1272.2607
 20
1281.848132
 30
0.0
 11
1277.2607
 21
1281.848132
 31
0.0
  0
POINT
  5
3CD
100
AcDbEntity
  8
DEFPOINTS
  6
CONTINUOUS
 62
     7
100
AcDbPoint
 10
1244.2607
 20
1393.835484
 30
0.0
  0
LINE
  5
3CE
100
AcDbEntity
  8
SIZE
  6
CONTINUOUS
 62
    30
100
AcDbLine
 10
1249.2607
 20
1393.835484
 30
0.0
 11
1254.2607
 21
1393.835484
 31
0.0
  0
CIRCLE
  5
3CF
100
AcDbEntity
  8
SIZE
  6
CONTINUOUS
 62
    30
100
AcDbCircle
 10
1244.2607
 20
1393.835484
 30
0.0
 40
5.0
  0
LINE
  5
3D0
100
AcDbEntity
  8
BASIS
  6
DASHDOT
 62
     6
100
AcDbLine
 10
1840.2607
 20
833.257423
 30
0.0
 11
1840.2607
 21
310.799539
 31
0.0
  0
CIRCLE
  5
3D1
100
AcDbEntity
  8
ARRANGE
  6
CONTINUOUS
 62
     1
100
AcDbCircle
 10
1840.2607
 20
364.68571
 30
0.0
 40
50.0
  0
LINE
  5
3D2
100
AcDbEntity
  8
OUTLINE
  6
CONTINUOUS
 62
     3
100
AcDbLine
 10
2460.2607
 20
360.679202
 30
0.0
 11
2460.2607
 21
364.68571
 31
0.0
  0
LINE
  5
3D3
100
AcDbEntity
  8
ARRANGE
  6
CONTINUOUS
 62
     1
100
AcDbLine
 10
1790.296937
 20
414.282305
 30
0.0
 11
1890.224463
 21
315.089115
 31
0.0
  0
LINE
  5
3D4
100
AcDbEntity
  8
ARRANGE
  6
CONTINUOUS
 62
     1
100
AcDbLine
 10
1790.22335
 20
315.163357
 30
0.0
 11
1890.29805
 21
414.208063
 31
0.0
  0
LINE
  5
3D5
100
AcDbEntity
  8
NOTE
  6
CONTINUOUS
 62
     4
100
AcDbLine
 10
2605.054602
 20
226.497936
 30
0.0
 11
2420.2607
 21
532.68571
 31
0.0
  0
LINE
  5
3D6
100
AcDbEntity
  8
DETAIL
  6
CONTINUOUS
 62
     5
100
AcDbLine
 10
2460.2607
 20
360.679202
 30
0.0
 11
2460.2607
 21
364.68571
 31
0.0
  0
LINE
  5
3D7
100
AcDbEntity
  8
OUTLINE
  6
CONTINUOUS
 62
     3
100
AcDbLine
 10
2460.2607
 20
360.679202
 30
0.0
 11
2406.7907
 21
356.68571
 31
0.0
  0
LINE
  5
3D8
100
AcDbEntity
  8
DETAIL
  6
CONTINUOUS
 62
     5
100
AcDbLine
 10
2460.2607
 20
360.679202
 30
0.0
 11
2406.7907
 21
356.68571
 31
0.0
  0
TEXT
  5
3D9
100
AcDbEntity
  8
SIZE
  6
CONTINUOUS
 62
    30
100
AcDbText
 10
1532.889271
 20
203.875821
 30
0.0
 40
55.0
  1
1200（天井開口寸法）
 41
0.9
 72
     1
 11
1840.2607
 21
203.875821
 31
0.0
100
AcDbText
  0
TEXT
  5
3DA
100
AcDbEntity
  8
SIZE
  6
CONTINUOUS
 62
    30
100
AcDbText
 10
1762.330346
 20
57.618248
 30
0.0
 40
55.0
  1
1240
 41
0.9
 72
     1
 11
1844.830346
 21
57.618248
 31
0.0
100
AcDbText
  0
LINE
  5
3DB
100
AcDbEntity
  8
NOTE
  6
CONTINUOUS
 62
     4
100
AcDbLine
 10
3034.443879
 20
226.497936
 30
0.0
 11
2605.054602
 21
226.497936
 31
0.0
  0
TEXT
  5
3DC
100
AcDbEntity
  8
NOTE
  6
CONTINUOUS
 62
     4
100
AcDbText
 10
2621.188351
 20
242.324467
 30
0.0
 40
60.0
  1
D2（自然排水口）
 50
0.000003
 41
0.7
  7
STANDARD1
100
AcDbText
  0
LINE
  5
3DD
100
AcDbEntity
  8
SIZE
  6
CONTINUOUS
 62
    30
100
AcDbLine
 10
2460.2607
 20
340.679202
 30
0.0
 11
2460.2607
 21
9.618248
 31
0.0
  0
LINE
  5
3DE
100
AcDbEntity
  8
SIZE
  6
CONTINUOUS
 62
    30
100
AcDbLine
 10
2455.2607
 20
39.618248
 30
0.0
 11
2450.2607
 21
39.618248
 31
0.0
  0
CIRCLE
  5
3DF
100
AcDbEntity
  8
SIZE
  6
CONTINUOUS
 62
    30
100
AcDbCircle
 10
2460.2607
 20
39.618248
 30
0.0
 40
5.0
  0
LINE
  5
3E0
100
AcDbEntity
  8
SIZE
  6
CONTINUOUS
 62
    30
100
AcDbLine
 10
2440.2607
 20
345.68571
 30
0.0
 11
2440.2607
 21
155.875821
 31
0.0
  0
TEXT
  5
3E1
100
AcDbEntity
  8
SIZE
  6
CONTINUOUS
 62
    30
100
AcDbText
 10
2498.2607
 20
203.875821
 30
0.0
 40
55.0
  1
20
 41
0.9
 72
     1
 11
2538.332129
 21
203.875821
 31
0.0
100
AcDbText
  0
LINE
  5
3E2
100
AcDbEntity
  8
SIZE
  6
CONTINUOUS
 62
    30
100
AcDbLine
 10
2440.2607
 20
345.68571
 30
0.0
 11
2440.2607
 21
155.875821
 31
0.0
  0
LINE
  5
3E3
100
AcDbEntity
  8
SIZE
  6
CONTINUOUS
 62
    30
100
AcDbLine
 10
2460.2607
 20
340.679202
 30
0.0
 11
2460.2607
 21
155.875821
 31
0.0
  0
LINE
  5
3E4
100
AcDbEntity
  8
SIZE
  6
CONTINUOUS
 62
    30
100
AcDbLine
 10
2470.2607
 20
185.875821
 30
0.0
 11
2596.403557
 21
185.875821
 31
0.0
  0
LINE
  5
3E5
100
AcDbEntity
  8
SIZE
  6
CONTINUOUS
 62
    30
100
AcDbLine
 10
2435.2607
 20
185.875821
 30
0.0
 11
2430.2607
 21
185.875821
 31
0.0
  0
CIRCLE
  5
3E6
100
AcDbEntity
  8
SIZE
  6
CONTINUOUS
 62
    30
100
AcDbCircle
 10
2440.2607
 20
185.875821
 30
0.0
 40
5.0
  0
POINT
  5
3E7
100
AcDbEntity
  8
DEFPOINTS
  6
CONTINUOUS
 62
     7
100
AcDbPoint
 10
2440.2607
 20
185.875821
 30
0.0
  0
LINE
  5
3E8
100
AcDbEntity
  8
SIZE
  6
CONTINUOUS
 62
    30
100
AcDbLine
 10
2465.2607
 20
185.875821
 30
0.0
 11
2470.2607
 21
185.875821
 31
0.0
  0
CIRCLE
  5
3E9
100
AcDbEntity
  8
SIZE
  6
CONTINUOUS
 62
    30
100
AcDbCircle
 10
2460.2607
 20
185.875821
 30
0.0
 40
5.0
  0
LINE
  5
3EA
100
AcDbEntity
  8
SIZE
  6
CONTINUOUS
 62
    30
100
AcDbLine
 10
2435.2607
 20
185.875821
 30
0.0
 11
2430.2607
 21
185.875821
 31
0.0
  0
CIRCLE
  5
3EB
100
AcDbEntity
  8
SIZE
  6
CONTINUOUS
 62
    30
100
AcDbCircle
 10
2440.2607
 20
185.875821
 30
0.0
 40
5.0
  0
LINE
  5
3EC
100
AcDbEntity
  8
SIZE
  6
CONTINUOUS
 62
    30
100
AcDbLine
 10
2440.2607
 20
185.875821
 30
0.0
 11
2460.2607
 21
185.875821
 31
0.0
  0
LINE
  5
3ED
100
AcDbEntity
  8
SIZE
  6
CONTINUOUS
 62
    30
100
AcDbLine
 10
2430.2607
 20
185.875821
 30
0.0
 11
2420.2607
 21
185.875821
 31
0.0
  0
POINT
  5
3EE
100
AcDbEntity
  8
DEFPOINTS
  6
CONTINUOUS
 62
     7
100
AcDbPoint
 10
2460.2607
 20
360.679202
 30
0.0
  0
POINT
  5
3EF
100
AcDbEntity
  8
DEFPOINTS
  6
CONTINUOUS
 62
     7
100
AcDbPoint
 10
2460.2607
 20
360.679202
 30
0.0
  0
LINE
  5
3F0
100
AcDbEntity
  8
SIZE
  6
CONTINUOUS
 62
    30
100
AcDbLine
 10
2426.2607
 20
423.455219
 30
0.0
 11
2344.903557
 21
423.455219
 31
0.0
  0
LINE
  5
3F1
100
AcDbEntity
  8
SIZE
  6
CONTINUOUS
 62
    30
100
AcDbLine
 10
2410.2607
 20
965.930795
 30
0.0
 11
2286.474986
 21
965.930795
 31
0.0
  0
LINE
  5
3F2
100
AcDbEntity
  8
SIZE
  6
CONTINUOUS
 62
    30
100
AcDbLine
 10
2408.2607
 20
1281.848132
 30
0.0
 11
2403.2607
 21
1281.848132
 31
0.0
  0
LINE
  5
3F3
100
AcDbEntity
  8
SIZE
  6
CONTINUOUS
 62
    30
100
AcDbLine
 10
2408.2607
 20
1281.848132
 30
0.0
 11
2403.2607
 21
1281.848132
 31
0.0
  0
LINE
  5
3F4
100
AcDbEntity
  8
SIZE
  6
CONTINUOUS
 62
    30
100
AcDbLine
 10
2410.2607
 20
1164.788907
 30
0.0
 11
2400.2607
 21
1164.788907
 31
0.0
  0
LINE
  5
3F5
100
AcDbEntity
  8
SIZE
  6
CONTINUOUS
 62
    30
100
AcDbLine
 10
2410.2607
 20
1067.039942
 30
0.0
 11
2286.474986
 21
1067.039942
 31
0.0
  0
LINE
  5
3F6
100
AcDbEntity
  8
SIZE
  6
CONTINUOUS
 62
    30
100
AcDbLine
 10
2410.2607
 20
880.330531
 30
0.0
 11
2281.7607
 21
880.330531
 31
0.0
  0
LINE
  5
3F7
100
AcDbEntity
  8
NOTE
  6
CONTINUOUS
 62
     4
100
AcDbLine
 10
2161.319601
 20
931.155278
 30
0.0
 11
2459.269849
 21
625.68571
 31
0.0
  0
CIRCLE
  5
3F8
100
AcDbEntity
  8
FIX
  6
CONTINUOUS
 62
    11
100
AcDbCircle
 10
2413.2607
 20
797.68571
 30
0.0
 40
12.421498
  0
LINE
  5
3F9
100
AcDbEntity
  8
NOTE
  6
CONTINUOUS
 62
     4
100
AcDbLine
 10
2428.255866
 20
797.68571
 30
0.0
 11
2398.265534
 21
797.68571
 31
0.0
  0
TEXT
  5
3FA
100
AcDbEntity
  8
NOTE
  6
CONTINUOUS
 62
     4
100
AcDbText
 10
1834.44433
 20
946.981822
 30
0.0
 40
60.0
  1
RL %%C9.52
 50
359.999997
 41
0.7
  7
STANDARD1
100
AcDbText
  0
LINE
  5
3FB
100
AcDbEntity
  8
NOTE
  6
CONTINUOUS
 62
     4
100
AcDbLine
 10
1817.60602
 20
931.155278
 30
0.0
 11
2161.319601
 21
931.155278
 31
0.0
  0
LINE
  5
3FC
100
AcDbEntity
  8
DETAIL
  6
CONTINUOUS
 62
     5
100
AcDbLine
 10
2405.2607
 20
516.68571
 30
0.0
 11
2405.2607
 21
504.68571
 31
0.0
  0
LINE
  5
3FD
100
AcDbEntity
  8
DETAIL
  6
CONTINUOUS
 62
     5
100
AcDbLine
 10
2405.2607
 20
516.68571
 30
0.0
 11
2405.2607
 21
504.68571
 31
0.0
  0
TEXT
  5
3FE
100
AcDbEntity
  8
SIZE
  6
CONTINUOUS
 62
    30
100
AcDbText
 10
2362.903558
 20
441.455219
 30
0.0
 40
55.0
  1
4
 41
0.9
 72
     1
 11
2380.582129
 21
441.455219
 31
0.0
100
AcDbText
  0
LINE
  5
3FF
100
AcDbEntity
  8
DETAIL
  6
CONTINUOUS
 62
     5
100
AcDbLine
 10
2402.2607
 20
519.68571
 30
0.0
 11
2405.2607
 21
516.68571
 31
0.0
  0
LINE
  5
400
100
AcDbEntity
  8
DETAIL
  6
CONTINUOUS
 62
     5
100
AcDbLine
 10
2402.2607
 20
519.68571
 30
0.0
 11
2405.2607
 21
516.68571
 31
0.0
  0
TEXT
  5
401
100
AcDbEntity
  8
SIZE
  6
CONTINUOUS
 62
    30
100
AcDbText
 10
2299.7607
 20
898.330531
 30
0.0
 40
55.0
  1
34
 41
0.9
 72
     1
 11
2341.0107
 21
898.330531
 31
0.0
100
AcDbText
  0
TEXT
  5
402
100
AcDbEntity
  8
SIZE
  6
CONTINUOUS
 62
    30
100
AcDbText
 10
1762.474986
 20
1182.788907
 30
0.0
 40
55.0
  1
1160
 41
0.9
 72
     1
 11
1840.2607
 21
1182.788907
 31
0.0
100
AcDbText
  0
TEXT
  5
403
100
AcDbEntity
  8
SIZE
  6
CONTINUOUS
 62
    30
100
AcDbText
 10
1764.625451
 20
1411.835484
 30
0.0
 40
55.0
  1
1192
 41
0.9
 72
     1
 11
1842.411165
 21
1411.835484
 31
0.0
100
AcDbText
  0
TEXT
  5
404
100
AcDbEntity
  8
SIZE
  6
CONTINUOUS
 62
    30
100
AcDbText
 10
2304.474986
 20
1085.039942
 30
0.0
 40
55.0
  1
39
 41
0.9
 72
     1
 11
2343.367843
 21
1085.039942
 31
0.0
100
AcDbText
  0
TEXT
  5
405
100
AcDbEntity
  8
SIZE
  6
CONTINUOUS
 62
    30
100
AcDbText
 10
2304.474986
 20
983.930795
 30
0.0
 40
55.0
  1
36
 41
0.9
 72
     1
 11
2343.367843
 21
983.930795
 31
0.0
100
AcDbText
  0
LINE
  5
406
100
AcDbEntity
  8
SIZE
  6
CONTINUOUS
 62
    30
100
AcDbLine
 10
2403.2607
 20
1281.848132
 30
0.0
 11
2393.2607
 21
1281.848132
 31
0.0
  0
LINE
  5
407
100
AcDbEntity
  8
SIZE
  6
CONTINUOUS
 62
    30
100
AcDbLine
 10
2420.2607
 20
817.68571
 30
0.0
 11
2420.2607
 21
995.930795
 31
0.0
  0
LINE
  5
408
100
AcDbEntity
  8
SIZE
  6
CONTINUOUS
 62
    30
100
AcDbLine
 10
2456.2607
 20
628.93571
 30
0.0
 11
2456.2607
 21
995.930795
 31
0.0
  0
LINE
  5
409
100
AcDbEntity
  8
SIZE
  6
CONTINUOUS
 62
    30
100
AcDbLine
 10
2413.2607
 20
832.680876
 30
0.0
 11
2413.2607
 21
1311.848132
 31
0.0
  0
LINE
  5
40A
100
AcDbEntity
  8
SIZE
  6
CONTINUOUS
 62
    30
100
AcDbLine
 10
2413.2607
 20
832.680876
 30
0.0
 11
2413.2607
 21
1311.848132
 31
0.0
  0
LINE
  5
40B
100
AcDbEntity
  8
SIZE
  6
CONTINUOUS
 62
    30
100
AcDbLine
 10
2436.2607
 20
813.38571
 30
0.0
 11
2436.2607
 21
1311.848132
 31
0.0
  0
LINE
  5
40C
100
AcDbEntity
  8
SIZE
  6
CONTINUOUS
 62
    30
100
AcDbLine
 10
2420.2607
 20
817.68571
 30
0.0
 11
2420.2607
 21
1194.788907
 31
0.0
  0
LINE
  5
40D
100
AcDbEntity
  8
SIZE
  6
CONTINUOUS
 62
    30
100
AcDbLine
 10
2420.2607
 20
817.68571
 30
0.0
 11
2420.2607
 21
1194.788907
 31
0.0
  0
LINE
  5
40E
100
AcDbEntity
  8
SIZE
  6
CONTINUOUS
 62
    30
100
AcDbLine
 10
2436.2607
 20
813.38571
 30
0.0
 11
2436.2607
 21
1194.788907
 31
0.0
  0
LINE
  5
40F
100
AcDbEntity
  8
SIZE
  6
CONTINUOUS
 62
    30
100
AcDbLine
 10
2459.269849
 20
645.68571
 30
0.0
 11
2459.269849
 21
1097.039942
 31
0.0
  0
LINE
  5
410
100
AcDbEntity
  8
SIZE
  6
CONTINUOUS
 62
    30
100
AcDbLine
 10
2420.2607
 20
817.68571
 30
0.0
 11
2420.2607
 21
1097.039942
 31
0.0
  0
LINE
  5
411
100
AcDbEntity
  8
NOTE
  6
CONTINUOUS
 62
     4
100
AcDbLine
 10
2564.222293
 20
1022.955794
 30
0.0
 11
2454.2607
 21
689.68571
 31
0.0
  0
LINE
  5
412
100
AcDbEntity
  8
SIZE
  6
CONTINUOUS
 62
    30
100
AcDbLine
 10
2436.2607
 20
811.78571
 30
0.0
 11
2436.2607
 21
1423.835484
 31
0.0
  0
LINE
  5
413
100
AcDbEntity
  8
NOTE
  6
CONTINUOUS
 62
     4
100
AcDbLine
 10
2622.045768
 20
378.980823
 30
0.0
 11
2993.576648
 21
378.980823
 31
0.0
  0
TEXT
  5
414
100
AcDbEntity
  8
NOTE
  6
CONTINUOUS
 62
     4
100
AcDbText
 10
2637.219405
 20
394.807367
 30
0.0
 40
60.0
  1
RG %%C15.88
 50
359.999997
 41
0.7
  7
STANDARD1
100
AcDbText
  0
LINE
  5
415
100
AcDbEntity
  8
SIZE
  6
CONTINUOUS
 62
    30
100
AcDbLine
 10
2445.751551
 20
532.68571
 30
0.0
 11
3024.819884
 21
532.68571
 31
0.0
  0
LINE
  5
416
100
AcDbEntity
  8
SIZE
  6
CONTINUOUS
 62
    30
100
AcDbLine
 10
2451.9607
 20
797.68571
 30
0.0
 11
3024.819884
 21
797.68571
 31
0.0
  0
LINE
  5
417
100
AcDbEntity
  8
SIZE
  6
CONTINUOUS
 62
    30
100
AcDbLine
 10
2766.980769
 20
611.68571
 30
0.0
 11
2869.180859
 21
635.465174
 31
0.0
  0
LINE
  5
418
100
AcDbEntity
  8
SIZE
  6
CONTINUOUS
 62
    30
100
AcDbLine
 10
2436.2607
 20
872.68571
 30
0.0
 11
2436.2607
 21
393.455219
 31
0.0
  0
TEXT
  5
419
100
AcDbEntity
  8
SIZE
  6
CONTINUOUS
 62
    30
100
AcDbText
 10
2851.180859
 20
653.465173
 30
0.0
 40
55.0
  1
28
 50
90.0
 41
0.9
 72
     1
 11
2851.180859
 21
693.536602
 31
0.0
100
AcDbText
  0
TEXT
  5
41A
100
AcDbEntity
  8
SIZE
  6
CONTINUOUS
 62
    30
100
AcDbText
 10
2748.980769
 20
652.757139
 30
0.0
 40
55.0
  1
172
 50
90.0
 41
0.9
 72
     1
 11
2748.980769
 21
711.68571
 31
0.0
100
AcDbText
  0
LINE
  5
41B
100
AcDbEntity
  8
SIZE
  6
CONTINUOUS
 62
    30
100
AcDbLine
 10
2766.980769
 20
787.68571
 30
0.0
 11
2766.980769
 21
635.68571
 31
0.0
  0
LINE
  5
41C
100
AcDbEntity
  8
OUTLINE
  6
CONTINUOUS
 62
     3
100
AcDbLine
 10
2420.2607
 20
504.68571
 30
0.0
 11
2420.2607
 21
797.68571
 31
0.0
  0
LINE
  5
41D
100
AcDbEntity
  8
DETAIL
  6
CONTINUOUS
 62
     5
100
AcDbLine
 10
2420.2607
 20
794.48571
 30
0.0
 11
2420.2607
 21
586.88571
 31
0.0
  0
LINE
  5
41E
100
AcDbEntity
  8
DETAIL
  6
CONTINUOUS
 62
     5
100
AcDbLine
 10
2420.2607
 20
794.48571
 30
0.0
 11
2420.2607
 21
586.88571
 31
0.0
  0
LINE
  5
41F
100
AcDbEntity
  8
DETAIL
  6
CONTINUOUS
 62
     5
100
AcDbLine
 10
2420.2607
 20
537.08571
 30
0.0
 11
2420.2607
 21
681.08571
 31
0.0
  0
LINE
  5
420
100
AcDbEntity
  8
SIZE
  6
CONTINUOUS
 62
    30
100
AcDbLine
 10
2487.519849
 20
597.68571
 30
0.0
 11
2796.980769
 21
597.68571
 31
0.0
  0
LINE
  5
421
100
AcDbEntity
  8
SIZE
  6
CONTINUOUS
 62
    30
100
AcDbLine
 10
2484.7607
 20
625.68571
 30
0.0
 11
2796.980769
 21
625.68571
 31
0.0
  0
LINE
  5
422
100
AcDbEntity
  8
SIZE
  6
CONTINUOUS
 62
    30
100
AcDbLine
 10
2484.7607
 20
625.68571
 30
0.0
 11
2796.980769
 21
625.68571
 31
0.0
  0
LINE
  5
423
100
AcDbEntity
  8
NOTE
  6
CONTINUOUS
 62
     4
100
AcDbLine
 10
2420.2607
 20
532.68571
 30
0.0
 11
2431.294834
 21
500.118893
 31
0.0
  0
LINE
  5
424
100
AcDbEntity
  8
NOTE
  6
CONTINUOUS
 62
     4
100
AcDbLine
 10
2420.2607
 20
532.68571
 30
0.0
 11
2446.099949
 21
509.999086
 31
0.0
  0
LINE
  5
425
100
AcDbEntity
  8
NOTE
  6
CONTINUOUS
 62
     4
100
AcDbLine
 10
2622.045768
 20
378.980823
 30
0.0
 11
2456.2607
 21
597.68571
 31
0.0
  0
LINE
  5
426
100
AcDbEntity
  8
DETAIL
  6
CONTINUOUS
 62
     5
100
AcDbLine
 10
2420.2607
 20
586.88571
 30
0.0
 11
2420.2607
 21
504.68571
 31
0.0
  0
LINE
  5
427
100
AcDbEntity
  8
DETAIL
  6
CONTINUOUS
 62
     5
100
AcDbLine
 10
2420.2607
 20
586.88571
 30
0.0
 11
2420.2607
 21
505.48571
 31
0.0
  0
LINE
  5
428
100
AcDbEntity
  8
DETAIL
  6
CONTINUOUS
 62
     5
100
AcDbLine
 10
2420.2607
 20
504.98571
 30
0.0
 11
2420.2607
 21
589.98571
 31
0.0
  0
LINE
  5
429
100
AcDbEntity
  8
NOTE
  6
CONTINUOUS
 62
     4
100
AcDbLine
 10
2440.2607
 20
365.68571
 30
0.0
 11
2541.568149
 21
365.68571
 31
0.0
  0
LINE
  5
42A
100
AcDbEntity
  8
NOTE
  6
CONTINUOUS
 62
     4
100
AcDbLine
 10
2440.2607
 20
385.68571
 30
0.0
 11
2541.568149
 21
385.68571
 31
0.0
  0
LINE
  5
42B
100
AcDbEntity
  8
NOTE
  6
CONTINUOUS
 62
     4
100
AcDbLine
 10
2530.525708
 20
365.68571
 30
0.0
 11
2510.525708
 21
385.68571
 31
0.0
  0
LINE
  5
42C
100
AcDbEntity
  8
NOTE
  6
CONTINUOUS
 62
     4
100
AcDbLine
 10
2525.525708
 20
365.68571
 30
0.0
 11
2505.525708
 21
385.68571
 31
0.0
  0
LINE
  5
42D
100
AcDbEntity
  8
NOTE
  6
CONTINUOUS
 62
     4
100
AcDbLine
 10
2520.525708
 20
365.68571
 30
0.0
 11
2500.525708
 21
385.68571
 31
0.0
  0
POINT
  5
42E
100
AcDbEntity
  8
DEFPOINTS
  6
CONTINUOUS
 62
     7
100
AcDbPoint
 10
2436.2607
 20
423.455219
 30
0.0
  0
POINT
  5
42F
100
AcDbEntity
  8
DEFPOINTS
  6
CONTINUOUS
 62
     7
100
AcDbPoint
 10
2440.2607
 20
385.68571
 30
0.0
  0
LINE
  5
430
100
AcDbEntity
  8
SIZE
  6
CONTINUOUS
 62
    30
100
AcDbLine
 10
2431.2607
 20
423.455219
 30
0.0
 11
2426.2607
 21
423.455219
 31
0.0
  0
CIRCLE
  5
431
100
AcDbEntity
  8
SIZE
  6
CONTINUOUS
 62
    30
100
AcDbCircle
 10
2436.2607
 20
423.455219
 30
0.0
 40
5.0
  0
LINE
  5
432
100
AcDbEntity
  8
SIZE
  6
CONTINUOUS
 62
    30
100
AcDbLine
 10
2445.2607
 20
423.455219
 30
0.0
 11
2450.2607
 21
423.455219
 31
0.0
  0
CIRCLE
  5
433
100
AcDbEntity
  8
SIZE
  6
CONTINUOUS
 62
    30
100
AcDbCircle
 10
2440.2607
 20
423.455219
 30
0.0
 40
5.0
  0
LINE
  5
434
100
AcDbEntity
  8
SIZE
  6
CONTINUOUS
 62
    30
100
AcDbLine
 10
2440.2607
 20
423.455219
 30
0.0
 11
2436.2607
 21
423.455219
 31
0.0
  0
LINE
  5
435
100
AcDbEntity
  8
SIZE
  6
CONTINUOUS
 62
    30
100
AcDbLine
 10
2450.2607
 20
423.455219
 30
0.0
 11
2460.2607
 21
423.455219
 31
0.0
  0
LINE
  5
436
100
AcDbEntity
  8
SIZE
  6
CONTINUOUS
 62
    30
100
AcDbLine
 10
2440.2607
 20
405.68571
 30
0.0
 11
2440.2607
 21
453.455219
 31
0.0
  0
POINT
  5
437
100
AcDbEntity
  8
DEFPOINTS
  6
CONTINUOUS
 62
     7
100
AcDbPoint
 10
2440.2607
 20
365.68571
 30
0.0
  0
POINT
  5
438
100
AcDbEntity
  8
DEFPOINTS
  6
CONTINUOUS
 62
     7
100
AcDbPoint
 10
2440.2607
 20
365.68571
 30
0.0
  0
LINE
  5
439
100
AcDbEntity
  8
OUTLINE
  6
CONTINUOUS
 62
     3
100
AcDbLine
 10
2420.2607
 20
364.68571
 30
0.0
 11
2420.2607
 21
411.68571
 31
0.0
  0
LINE
  5
43A
100
AcDbEntity
  8
OUTLINE
  6
CONTINUOUS
 62
     3
100
AcDbLine
 10
2420.2607
 20
364.68571
 30
0.0
 11
2425.2607
 21
364.68571
 31
0.0
  0
LINE
  5
43B
100
AcDbEntity
  8
NOTE
  6
CONTINUOUS
 62
     4
100
AcDbLine
 10
2440.2607
 20
365.68571
 30
0.0
 11
2440.2607
 21
385.68571
 31
0.0
  0
LINE
  5
43C
100
AcDbEntity
  8
NOTE
  6
CONTINUOUS
 62
     4
100
AcDbLine
 10
2490.525708
 20
365.68571
 30
0.0
 11
2470.525708
 21
385.68571
 31
0.0
  0
LINE
  5
43D
100
AcDbEntity
  8
NOTE
  6
CONTINUOUS
 62
     4
100
AcDbLine
 10
2485.525708
 20
365.68571
 30
0.0
 11
2465.525708
 21
385.68571
 31
0.0
  0
LINE
  5
43E
100
AcDbEntity
  8
NOTE
  6
CONTINUOUS
 62
     4
100
AcDbLine
 10
2480.525708
 20
365.68571
 30
0.0
 11
2460.525708
 21
385.68571
 31
0.0
  0
LINE
  5
43F
100
AcDbEntity
  8
DETAIL
  6
CONTINUOUS
 62
     5
100
AcDbLine
 10
2420.2607
 20
364.68571
 30
0.0
 11
2420.2607
 21
411.68571
 31
0.0
  0
LINE
  5
440
100
AcDbEntity
  8
DETAIL
  6
CONTINUOUS
 62
     5
100
AcDbLine
 10
2420.2607
 20
364.68571
 30
0.0
 11
2425.2607
 21
364.68571
 31
0.0
  0
POINT
  5
441
100
AcDbEntity
  8
DEFPOINTS
  6
CONTINUOUS
 62
     7
100
AcDbPoint
 10
2456.2607
 20
608.93571
 30
0.0
  0
POINT
  5
442
100
AcDbEntity
  8
DEFPOINTS
  6
CONTINUOUS
 62
     7
100
AcDbPoint
 10
2459.269849
 20
625.68571
 30
0.0
  0
LINE
  5
443
100
AcDbEntity
  8
NOTE
  6
CONTINUOUS
 62
     4
100
AcDbLine
 10
2453.7607
 20
625.68571
 30
0.0
 11
2464.7607
 21
625.68571
 31
0.0
  0
LINE
  5
444
100
AcDbEntity
  8
NOTE
  6
CONTINUOUS
 62
     4
100
AcDbLine
 10
2459.269849
 20
631.185702
 30
0.0
 11
2459.269849
 21
620.185718
 31
0.0
  0
LINE
  5
445
100
AcDbEntity
  8
NOTE
  6
CONTINUOUS
 62
     4
100
AcDbLine
 10
2459.269849
 20
625.68571
 30
0.0
 11
2441.103952
 21
654.880742
 31
0.0
  0
LINE
  5
446
100
AcDbEntity
  8
NOTE
  6
CONTINUOUS
 62
     4
100
AcDbLine
 10
2459.269849
 20
625.68571
 30
0.0
 11
2428.940205
 21
641.8864
 31
0.0
  0
LINE
  5
447
100
AcDbEntity
  8
DETAIL
  6
CONTINUOUS
 62
     5
100
AcDbLine
 10
2440.269849
 20
620.18571
 30
0.0
 11
2420.269849
 21
620.18571
 31
0.0
  0
LINE
  5
448
100
AcDbEntity
  8
DETAIL
  6
CONTINUOUS
 62
     5
100
AcDbLine
 10
2439.269849
 20
616.18571
 30
0.0
 11
2420.269849
 21
616.18571
 31
0.0
  0
LINE
  5
449
100
AcDbEntity
  8
DETAIL
  6
CONTINUOUS
 62
     5
100
AcDbLine
 10
2439.269849
 20
635.18571
 30
0.0
 11
2420.269849
 21
635.18571
 31
0.0
  0
LINE
  5
44A
100
AcDbEntity
  8
DETAIL
  6
CONTINUOUS
 62
     5
100
AcDbLine
 10
2440.269849
 20
631.18571
 30
0.0
 11
2420.269849
 21
631.18571
 31
0.0
  0
LINE
  5
44B
100
AcDbEntity
  8
DETAIL
  6
CONTINUOUS
 62
     5
100
AcDbLine
 10
2456.269849
 20
615.18571
 30
0.0
 11
2443.269849
 21
615.18571
 31
0.0
  0
LINE
  5
44C
100
AcDbEntity
  8
DETAIL
  6
CONTINUOUS
 62
     5
100
AcDbLine
 10
2455.269849
 20
620.18571
 30
0.0
 11
2442.269849
 21
620.18571
 31
0.0
  0
LINE
  5
44D
100
AcDbEntity
  8
DETAIL
  6
CONTINUOUS
 62
     5
100
AcDbLine
 10
2459.269849
 20
620.18571
 30
0.0
 11
2459.269849
 21
631.18571
 31
0.0
  0
LINE
  5
44E
100
AcDbEntity
  8
DETAIL
  6
CONTINUOUS
 62
     5
100
AcDbLine
 10
2459.269849
 20
620.18571
 30
0.0
 11
2456.269849
 21
615.18571
 31
0.0
  0
LINE
  5
44F
100
AcDbEntity
  8
DETAIL
  6
CONTINUOUS
 62
     5
100
AcDbLine
 10
2442.269849
 20
616.18571
 30
0.0
 11
2443.269849
 21
615.18571
 31
0.0
  0
LINE
  5
450
100
AcDbEntity
  8
DETAIL
  6
CONTINUOUS
 62
     5
100
AcDbLine
 10
2440.269849
 20
617.18571
 30
0.0
 11
2439.269849
 21
616.18571
 31
0.0
  0
LINE
  5
451
100
AcDbEntity
  8
DETAIL
  6
CONTINUOUS
 62
     5
100
AcDbLine
 10
2455.269849
 20
620.18571
 30
0.0
 11
2456.269849
 21
621.18571
 31
0.0
  0
LINE
  5
452
100
AcDbEntity
  8
DETAIL
  6
CONTINUOUS
 62
     5
100
AcDbLine
 10
2455.269849
 20
620.18571
 30
0.0
 11
2456.269849
 21
619.18571
 31
0.0
  0
LINE
  5
453
100
AcDbEntity
  8
DETAIL
  6
CONTINUOUS
 62
     5
100
AcDbLine
 10
2442.269849
 20
620.93571
 30
0.0
 11
2440.269849
 21
620.93571
 31
0.0
  0
LINE
  5
454
100
AcDbEntity
  8
DETAIL
  6
CONTINUOUS
 62
     5
100
AcDbLine
 10
2440.269849
 20
617.18571
 30
0.0
 11
2440.269849
 21
634.18571
 31
0.0
  0
LINE
  5
455
100
AcDbEntity
  8
DETAIL
  6
CONTINUOUS
 62
     5
100
AcDbLine
 10
2442.269849
 20
616.18571
 30
0.0
 11
2442.269849
 21
635.18571
 31
0.0
  0
LINE
  5
456
100
AcDbEntity
  8
DETAIL
  6
CONTINUOUS
 62
     5
100
AcDbLine
 10
2456.269849
 20
636.18571
 30
0.0
 11
2443.269849
 21
636.18571
 31
0.0
  0
LINE
  5
457
100
AcDbEntity
  8
DETAIL
  6
CONTINUOUS
 62
     5
100
AcDbLine
 10
2456.269849
 20
615.18571
 30
0.0
 11
2456.269849
 21
636.18571
 31
0.0
  0
LINE
  5
458
100
AcDbEntity
  8
DETAIL
  6
CONTINUOUS
 62
     5
100
AcDbLine
 10
2455.269849
 20
631.18571
 30
0.0
 11
2442.269849
 21
631.18571
 31
0.0
  0
LINE
  5
459
100
AcDbEntity
  8
DETAIL
  6
CONTINUOUS
 62
     5
100
AcDbLine
 10
2459.269849
 20
631.18571
 30
0.0
 11
2456.269849
 21
636.18571
 31
0.0
  0
LINE
  5
45A
100
AcDbEntity
  8
DETAIL
  6
CONTINUOUS
 62
     5
100
AcDbLine
 10
2443.269849
 20
636.18571
 30
0.0
 11
2442.269849
 21
635.18571
 31
0.0
  0
LINE
  5
45B
100
AcDbEntity
  8
DETAIL
  6
CONTINUOUS
 62
     5
100
AcDbLine
 10
2440.269849
 20
634.18571
 30
0.0
 11
2439.269849
 21
635.18571
 31
0.0
  0
LINE
  5
45C
100
AcDbEntity
  8
DETAIL
  6
CONTINUOUS
 62
     5
100
AcDbLine
 10
2455.269849
 20
631.18571
 30
0.0
 11
2456.269849
 21
632.18571
 31
0.0
  0
LINE
  5
45D
100
AcDbEntity
  8
DETAIL
  6
CONTINUOUS
 62
     5
100
AcDbLine
 10
2455.269849
 20
631.18571
 30
0.0
 11
2456.269849
 21
630.18571
 31
0.0
  0
LINE
  5
45E
100
AcDbEntity
  8
DETAIL
  6
CONTINUOUS
 62
     5
100
AcDbLine
 10
2442.269849
 20
630.43571
 30
0.0
 11
2440.269849
 21
630.43571
 31
0.0
  0
LINE
  5
45F
100
AcDbEntity
  8
DETAIL
  6
CONTINUOUS
 62
     5
100
AcDbLine
 10
2440.269849
 20
631.18571
 30
0.0
 11
2423.2607
 21
631.18571
 31
0.0
  0
LINE
  5
460
100
AcDbEntity
  8
DETAIL
  6
CONTINUOUS
 62
     5
100
AcDbLine
 10
2439.269849
 20
635.18571
 30
0.0
 11
2423.2607
 21
635.18571
 31
0.0
  0
LINE
  5
461
100
AcDbEntity
  8
DETAIL
  6
CONTINUOUS
 62
     5
100
AcDbLine
 10
2439.269849
 20
616.18571
 30
0.0
 11
2423.2607
 21
616.18571
 31
0.0
  0
LINE
  5
462
100
AcDbEntity
  8
DETAIL
  6
CONTINUOUS
 62
     5
100
AcDbLine
 10
2456.269849
 20
615.18571
 30
0.0
 11
2443.269849
 21
615.18571
 31
0.0
  0
LINE
  5
463
100
AcDbEntity
  8
DETAIL
  6
CONTINUOUS
 62
     5
100
AcDbLine
 10
2440.269849
 20
620.18571
 30
0.0
 11
2423.2607
 21
620.18571
 31
0.0
  0
LINE
  5
464
100
AcDbEntity
  8
DETAIL
  6
CONTINUOUS
 62
     5
100
AcDbLine
 10
2455.269849
 20
620.18571
 30
0.0
 11
2442.269849
 21
620.18571
 31
0.0
  0
LINE
  5
465
100
AcDbEntity
  8
DETAIL
  6
CONTINUOUS
 62
     5
100
AcDbLine
 10
2459.269849
 20
620.18571
 30
0.0
 11
2459.269849
 21
631.18571
 31
0.0
  0
LINE
  5
466
100
AcDbEntity
  8
DETAIL
  6
CONTINUOUS
 62
     5
100
AcDbLine
 10
2459.269849
 20
620.18571
 30
0.0
 11
2456.269849
 21
615.18571
 31
0.0
  0
LINE
  5
467
100
AcDbEntity
  8
DETAIL
  6
CONTINUOUS
 62
     5
100
AcDbLine
 10
2442.269849
 20
616.18571
 30
0.0
 11
2443.269849
 21
615.18571
 31
0.0
  0
LINE
  5
468
100
AcDbEntity
  8
DETAIL
  6
CONTINUOUS
 62
     5
100
AcDbLine
 10
2440.269849
 20
617.18571
 30
0.0
 11
2439.269849
 21
616.18571
 31
0.0
  0
LINE
  5
469
100
AcDbEntity
  8
DETAIL
  6
CONTINUOUS
 62
     5
100
AcDbLine
 10
2455.269849
 20
620.18571
 30
0.0
 11
2456.269849
 21
621.18571
 31
0.0
  0
LINE
  5
46A
100
AcDbEntity
  8
DETAIL
  6
CONTINUOUS
 62
     5
100
AcDbLine
 10
2455.269849
 20
620.18571
 30
0.0
 11
2456.269849
 21
619.18571
 31
0.0
  0
LINE
  5
46B
100
AcDbEntity
  8
DETAIL
  6
CONTINUOUS
 62
     5
100
AcDbLine
 10
2442.269849
 20
620.93571
 30
0.0
 11
2440.269849
 21
620.93571
 31
0.0
  0
LINE
  5
46C
100
AcDbEntity
  8
DETAIL
  6
CONTINUOUS
 62
     5
100
AcDbLine
 10
2440.269849
 20
617.18571
 30
0.0
 11
2440.269849
 21
634.18571
 31
0.0
  0
LINE
  5
46D
100
AcDbEntity
  8
DETAIL
  6
CONTINUOUS
 62
     5
100
AcDbLine
 10
2442.269849
 20
616.18571
 30
0.0
 11
2442.269849
 21
635.18571
 31
0.0
  0
LINE
  5
46E
100
AcDbEntity
  8
DETAIL
  6
CONTINUOUS
 62
     5
100
AcDbLine
 10
2456.269849
 20
636.18571
 30
0.0
 11
2443.269849
 21
636.18571
 31
0.0
  0
LINE
  5
46F
100
AcDbEntity
  8
DETAIL
  6
CONTINUOUS
 62
     5
100
AcDbLine
 10
2456.269849
 20
615.18571
 30
0.0
 11
2456.269849
 21
636.18571
 31
0.0
  0
LINE
  5
470
100
AcDbEntity
  8
DETAIL
  6
CONTINUOUS
 62
     5
100
AcDbLine
 10
2455.269849
 20
631.18571
 30
0.0
 11
2442.269849
 21
631.18571
 31
0.0
  0
LINE
  5
471
100
AcDbEntity
  8
DETAIL
  6
CONTINUOUS
 62
     5
100
AcDbLine
 10
2459.269849
 20
631.18571
 30
0.0
 11
2456.269849
 21
636.18571
 31
0.0
  0
LINE
  5
472
100
AcDbEntity
  8
DETAIL
  6
CONTINUOUS
 62
     5
100
AcDbLine
 10
2443.269849
 20
636.18571
 30
0.0
 11
2442.269849
 21
635.18571
 31
0.0
  0
LINE
  5
473
100
AcDbEntity
  8
DETAIL
  6
CONTINUOUS
 62
     5
100
AcDbLine
 10
2440.269849
 20
634.18571
 30
0.0
 11
2439.269849
 21
635.18571
 31
0.0
  0
LINE
  5
474
100
AcDbEntity
  8
DETAIL
  6
CONTINUOUS
 62
     5
100
AcDbLine
 10
2455.269849
 20
631.18571
 30
0.0
 11
2456.269849
 21
632.18571
 31
0.0
  0
LINE
  5
475
100
AcDbEntity
  8
DETAIL
  6
CONTINUOUS
 62
     5
100
AcDbLine
 10
2455.269849
 20
631.18571
 30
0.0
 11
2456.269849
 21
630.18571
 31
0.0
  0
LINE
  5
476
100
AcDbEntity
  8
DETAIL
  6
CONTINUOUS
 62
     5
100
AcDbLine
 10
2442.269849
 20
630.43571
 30
0.0
 11
2440.269849
 21
630.43571
 31
0.0
  0
POINT
  5
477
100
AcDbEntity
  8
DEFPOINTS
  6
CONTINUOUS
 62
     7
100
AcDbPoint
 10
2425.751551
 20
532.68571
 30
0.0
  0
POINT
  5
478
100
AcDbEntity
  8
DEFPOINTS
  6
CONTINUOUS
 62
     7
100
AcDbPoint
 10
2467.519849
 20
597.68571
 30
0.0
  0
POINT
  5
479
100
AcDbEntity
  8
DEFPOINTS
  6
CONTINUOUS
 62
     7
100
AcDbPoint
 10
2464.7607
 20
625.68571
 30
0.0
  0
POINT
  5
47A
100
AcDbEntity
  8
DEFPOINTS
  6
CONTINUOUS
 62
     7
100
AcDbPoint
 10
2464.7607
 20
625.68571
 30
0.0
  0
LINE
  5
47B
100
AcDbEntity
  8
NOTE
  6
CONTINUOUS
 62
     4
100
AcDbLine
 10
2414.751551
 20
532.68571
 30
0.0
 11
2425.751551
 21
532.68571
 31
0.0
  0
LINE
  5
47C
100
AcDbEntity
  8
NOTE
  6
CONTINUOUS
 62
     4
100
AcDbLine
 10
2420.2607
 20
538.185702
 30
0.0
 11
2420.2607
 21
527.185718
 31
0.0
  0
LINE
  5
47D
100
AcDbEntity
  8
NOTE
  6
CONTINUOUS
 62
     4
100
AcDbLine
 10
2445.019849
 20
597.68571
 30
0.0
 11
2467.519849
 21
597.68571
 31
0.0
  0
LINE
  5
47E
100
AcDbEntity
  8
NOTE
  6
CONTINUOUS
 62
     4
100
AcDbLine
 10
2456.2607
 20
608.935706
 30
0.0
 11
2456.2607
 21
586.435714
 31
0.0
  0
LINE
  5
47F
100
AcDbEntity
  8
NOTE
  6
CONTINUOUS
 62
     4
100
AcDbLine
 10
2456.2607
 20
597.68571
 30
0.0
 11
2470.666321
 21
566.463478
 31
0.0
  0
LINE
  5
480
100
AcDbEntity
  8
NOTE
  6
CONTINUOUS
 62
     4
100
AcDbLine
 10
2456.2607
 20
597.68571
 30
0.0
 11
2484.34745
 21
577.849275
 31
0.0
  0
LINE
  5
481
100
AcDbEntity
  8
DETAIL
  6
CONTINUOUS
 62
     5
100
AcDbLine
 10
2456.2607
 20
608.93571
 30
0.0
 11
2456.2607
 21
586.43571
 31
0.0
  0
LINE
  5
482
100
AcDbEntity
  8
DETAIL
  6
CONTINUOUS
 62
     5
100
AcDbLine
 10
2420.2607
 20
586.18571
 30
0.0
 11
2431.269849
 21
586.18571
 31
0.0
  0
LINE
  5
483
100
AcDbEntity
  8
DETAIL
  6
CONTINUOUS
 62
     5
100
AcDbLine
 10
2420.269849
 20
609.18571
 30
0.0
 11
2431.269849
 21
609.18571
 31
0.0
  0
LINE
  5
484
100
AcDbEntity
  8
DETAIL
  6
CONTINUOUS
 62
     5
100
AcDbLine
 10
2451.269849
 20
590.68571
 30
0.0
 11
2453.269849
 21
588.68571
 31
0.0
  0
LINE
  5
485
100
AcDbEntity
  8
DETAIL
  6
CONTINUOUS
 62
     5
100
AcDbLine
 10
2451.269849
 20
590.68571
 30
0.0
 11
2453.269849
 21
588.68571
 31
0.0
  0
LINE
  5
486
100
AcDbEntity
  8
DETAIL
  6
CONTINUOUS
 62
     5
100
AcDbLine
 10
2451.269849
 20
590.68571
 30
0.0
 11
2453.269849
 21
592.68571
 31
0.0
  0
LINE
  5
487
100
AcDbEntity
  8
DETAIL
  6
CONTINUOUS
 62
     5
100
AcDbLine
 10
2451.269849
 20
590.68571
 30
0.0
 11
2453.269849
 21
592.68571
 31
0.0
  0
LINE
  5
488
100
AcDbEntity
  8
DETAIL
  6
CONTINUOUS
 62
     5
100
AcDbLine
 10
2451.269849
 20
604.68571
 30
0.0
 11
2453.269849
 21
602.68571
 31
0.0
  0
LINE
  5
489
100
AcDbEntity
  8
DETAIL
  6
CONTINUOUS
 62
     5
100
AcDbLine
 10
2451.269849
 20
604.68571
 30
0.0
 11
2453.269849
 21
602.68571
 31
0.0
  0
LINE
  5
48A
100
AcDbEntity
  8
DETAIL
  6
CONTINUOUS
 62
     5
100
AcDbLine
 10
2451.269849
 20
604.68571
 30
0.0
 11
2453.269849
 21
606.68571
 31
0.0
  0
LINE
  5
48B
100
AcDbEntity
  8
DETAIL
  6
CONTINUOUS
 62
     5
100
AcDbLine
 10
2451.269849
 20
604.68571
 30
0.0
 11
2453.269849
 21
606.68571
 31
0.0
  0
LINE
  5
48C
100
AcDbEntity
  8
DETAIL
  6
CONTINUOUS
 62
     5
100
AcDbLine
 10
2439.269849
 20
604.68571
 30
0.0
 11
2437.269849
 21
606.68571
 31
0.0
  0
LINE
  5
48D
100
AcDbEntity
  8
DETAIL
  6
CONTINUOUS
 62
     5
100
AcDbLine
 10
2439.269849
 20
604.68571
 30
0.0
 11
2437.269849
 21
606.68571
 31
0.0
  0
LINE
  5
48E
100
AcDbEntity
  8
DETAIL
  6
CONTINUOUS
 62
     5
100
AcDbLine
 10
2439.269849
 20
604.68571
 30
0.0
 11
2437.269849
 21
602.68571
 31
0.0
  0
LINE
  5
48F
100
AcDbEntity
  8
DETAIL
  6
CONTINUOUS
 62
     5
100
AcDbLine
 10
2439.269849
 20
604.68571
 30
0.0
 11
2437.269849
 21
602.68571
 31
0.0
  0
LINE
  5
490
100
AcDbEntity
  8
DETAIL
  6
CONTINUOUS
 62
     5
100
AcDbLine
 10
2439.269849
 20
590.68571
 30
0.0
 11
2437.269849
 21
592.68571
 31
0.0
  0
LINE
  5
491
100
AcDbEntity
  8
DETAIL
  6
CONTINUOUS
 62
     5
100
AcDbLine
 10
2439.269849
 20
590.68571
 30
0.0
 11
2437.269849
 21
592.68571
 31
0.0
  0
LINE
  5
492
100
AcDbEntity
  8
DETAIL
  6
CONTINUOUS
 62
     5
100
AcDbLine
 10
2439.269849
 20
590.68571
 30
0.0
 11
2437.269849
 21
588.68571
 31
0.0
  0
LINE
  5
493
100
AcDbEntity
  8
DETAIL
  6
CONTINUOUS
 62
     5
100
AcDbLine
 10
2439.269849
 20
590.68571
 30
0.0
 11
2437.269849
 21
588.68571
 31
0.0
  0
LINE
  5
494
100
AcDbEntity
  8
DETAIL
  6
CONTINUOUS
 62
     5
100
AcDbLine
 10
2439.269849
 20
590.68571
 30
0.0
 11
2451.269849
 21
590.68571
 31
0.0
  0
LINE
  5
495
100
AcDbEntity
  8
DETAIL
  6
CONTINUOUS
 62
     5
100
AcDbLine
 10
2439.269849
 20
590.68571
 30
0.0
 11
2451.269849
 21
590.68571
 31
0.0
  0
LINE
  5
496
100
AcDbEntity
  8
DETAIL
  6
CONTINUOUS
 62
     5
100
AcDbLine
 10
2439.269849
 20
604.68571
 30
0.0
 11
2451.269849
 21
604.68571
 31
0.0
  0
LINE
  5
497
100
AcDbEntity
  8
DETAIL
  6
CONTINUOUS
 62
     5
100
AcDbLine
 10
2439.269849
 20
604.68571
 30
0.0
 11
2451.269849
 21
604.68571
 31
0.0
  0
LINE
  5
498
100
AcDbEntity
  8
DETAIL
  6
CONTINUOUS
 62
     5
100
AcDbLine
 10
2437.269849
 20
586.68571
 30
0.0
 11
2439.269849
 21
584.68571
 31
0.0
  0
LINE
  5
499
100
AcDbEntity
  8
DETAIL
  6
CONTINUOUS
 62
     5
100
AcDbLine
 10
2437.269849
 20
586.68571
 30
0.0
 11
2439.269849
 21
584.68571
 31
0.0
  0
LINE
  5
49A
100
AcDbEntity
  8
DETAIL
  6
CONTINUOUS
 62
     5
100
AcDbLine
 10
2437.269849
 20
608.68571
 30
0.0
 11
2439.269849
 21
610.68571
 31
0.0
  0
LINE
  5
49B
100
AcDbEntity
  8
DETAIL
  6
CONTINUOUS
 62
     5
100
AcDbLine
 10
2437.269849
 20
608.68571
 30
0.0
 11
2439.269849
 21
610.68571
 31
0.0
  0
LINE
  5
49C
100
AcDbEntity
  8
DETAIL
  6
CONTINUOUS
 62
     5
100
AcDbLine
 10
2456.2607
 20
586.43571
 30
0.0
 11
2453.269849
 21
584.68571
 31
0.0
  0
LINE
  5
49D
100
AcDbEntity
  8
DETAIL
  6
CONTINUOUS
 62
     5
100
AcDbLine
 10
2453.269849
 20
610.68571
 30
0.0
 11
2456.2607
 21
608.935706
 31
0.0
  0
LINE
  5
49E
100
AcDbEntity
  8
DETAIL
  6
CONTINUOUS
 62
     5
100
AcDbLine
 10
2453.269849
 20
610.68571
 30
0.0
 11
2453.269849
 21
584.68571
 31
0.0
  0
LINE
  5
49F
100
AcDbEntity
  8
DETAIL
  6
CONTINUOUS
 62
     5
100
AcDbLine
 10
2453.269849
 20
610.68571
 30
0.0
 11
2453.269849
 21
584.68571
 31
0.0
  0
LINE
  5
4A0
100
AcDbEntity
  8
DETAIL
  6
CONTINUOUS
 62
     5
100
AcDbLine
 10
2437.269849
 20
608.68571
 30
0.0
 11
2437.269849
 21
586.68571
 31
0.0
  0
LINE
  5
4A1
100
AcDbEntity
  8
DETAIL
  6
CONTINUOUS
 62
     5
100
AcDbLine
 10
2437.269849
 20
608.68571
 30
0.0
 11
2437.269849
 21
586.68571
 31
0.0
  0
LINE
  5
4A2
100
AcDbEntity
  8
DETAIL
  6
CONTINUOUS
 62
     5
100
AcDbLine
 10
2439.269849
 20
584.68571
 30
0.0
 11
2453.269849
 21
584.68571
 31
0.0
  0
LINE
  5
4A3
100
AcDbEntity
  8
DETAIL
  6
CONTINUOUS
 62
     5
100
AcDbLine
 10
2439.269849
 20
584.68571
 30
0.0
 11
2453.269849
 21
584.68571
 31
0.0
  0
LINE
  5
4A4
100
AcDbEntity
  8
DETAIL
  6
CONTINUOUS
 62
     5
100
AcDbLine
 10
2439.269849
 20
610.68571
 30
0.0
 11
2453.269849
 21
610.68571
 31
0.0
  0
LINE
  5
4A5
100
AcDbEntity
  8
DETAIL
  6
CONTINUOUS
 62
     5
100
AcDbLine
 10
2439.269849
 20
610.68571
 30
0.0
 11
2453.269849
 21
610.68571
 31
0.0
  0
LINE
  5
4A6
100
AcDbEntity
  8
DETAIL
  6
CONTINUOUS
 62
     5
100
AcDbLine
 10
2437.269849
 20
605.68571
 30
0.0
 11
2437.269849
 21
589.68571
 31
0.0
  0
LINE
  5
4A7
100
AcDbEntity
  8
DETAIL
  6
CONTINUOUS
 62
     5
100
AcDbLine
 10
2437.269849
 20
589.68571
 30
0.0
 11
2433.269849
 21
589.68571
 31
0.0
  0
LINE
  5
4A8
100
AcDbEntity
  8
DETAIL
  6
CONTINUOUS
 62
     5
100
AcDbLine
 10
2437.269849
 20
605.68571
 30
0.0
 11
2433.269849
 21
605.68571
 31
0.0
  0
LINE
  5
4A9
100
AcDbEntity
  8
DETAIL
  6
CONTINUOUS
 62
     5
100
AcDbLine
 10
2433.269849
 20
607.18571
 30
0.0
 11
2431.269849
 21
609.18571
 31
0.0
  0
LINE
  5
4AA
100
AcDbEntity
  8
DETAIL
  6
CONTINUOUS
 62
     5
100
AcDbLine
 10
2433.269849
 20
588.18571
 30
0.0
 11
2431.269849
 21
586.18571
 31
0.0
  0
LINE
  5
4AB
100
AcDbEntity
  8
DETAIL
  6
CONTINUOUS
 62
     5
100
AcDbLine
 10
2433.269849
 20
607.18571
 30
0.0
 11
2433.269849
 21
588.18571
 31
0.0
  0
LINE
  5
4AC
100
AcDbEntity
  8
DETAIL
  6
CONTINUOUS
 62
     5
100
AcDbLine
 10
2451.269849
 20
590.68571
 30
0.0
 11
2453.269849
 21
588.68571
 31
0.0
  0
LINE
  5
4AD
100
AcDbEntity
  8
DETAIL
  6
CONTINUOUS
 62
     5
100
AcDbLine
 10
2451.269849
 20
590.68571
 30
0.0
 11
2453.269849
 21
588.68571
 31
0.0
  0
LINE
  5
4AE
100
AcDbEntity
  8
DETAIL
  6
CONTINUOUS
 62
     5
100
AcDbLine
 10
2451.269849
 20
590.68571
 30
0.0
 11
2453.269849
 21
592.68571
 31
0.0
  0
LINE
  5
4AF
100
AcDbEntity
  8
DETAIL
  6
CONTINUOUS
 62
     5
100
AcDbLine
 10
2451.269849
 20
590.68571
 30
0.0
 11
2453.269849
 21
592.68571
 31
0.0
  0
LINE
  5
4B0
100
AcDbEntity
  8
DETAIL
  6
CONTINUOUS
 62
     5
100
AcDbLine
 10
2451.269849
 20
604.68571
 30
0.0
 11
2453.269849
 21
602.68571
 31
0.0
  0
LINE
  5
4B1
100
AcDbEntity
  8
DETAIL
  6
CONTINUOUS
 62
     5
100
AcDbLine
 10
2451.269849
 20
604.68571
 30
0.0
 11
2453.269849
 21
602.68571
 31
0.0
  0
LINE
  5
4B2
100
AcDbEntity
  8
DETAIL
  6
CONTINUOUS
 62
     5
100
AcDbLine
 10
2451.269849
 20
604.68571
 30
0.0
 11
2453.269849
 21
606.68571
 31
0.0
  0
LINE
  5
4B3
100
AcDbEntity
  8
DETAIL
  6
CONTINUOUS
 62
     5
100
AcDbLine
 10
2451.269849
 20
604.68571
 30
0.0
 11
2453.269849
 21
606.68571
 31
0.0
  0
LINE
  5
4B4
100
AcDbEntity
  8
DETAIL
  6
CONTINUOUS
 62
     5
100
AcDbLine
 10
2439.269849
 20
604.68571
 30
0.0
 11
2437.269849
 21
606.68571
 31
0.0
  0
LINE
  5
4B5
100
AcDbEntity
  8
DETAIL
  6
CONTINUOUS
 62
     5
100
AcDbLine
 10
2439.269849
 20
604.68571
 30
0.0
 11
2437.269849
 21
606.68571
 31
0.0
  0
LINE
  5
4B6
100
AcDbEntity
  8
DETAIL
  6
CONTINUOUS
 62
     5
100
AcDbLine
 10
2439.269849
 20
604.68571
 30
0.0
 11
2437.269849
 21
602.68571
 31
0.0
  0
LINE
  5
4B7
100
AcDbEntity
  8
DETAIL
  6
CONTINUOUS
 62
     5
100
AcDbLine
 10
2439.269849
 20
604.68571
 30
0.0
 11
2437.269849
 21
602.68571
 31
0.0
  0
LINE
  5
4B8
100
AcDbEntity
  8
DETAIL
  6
CONTINUOUS
 62
     5
100
AcDbLine
 10
2439.269849
 20
590.68571
 30
0.0
 11
2437.269849
 21
592.68571
 31
0.0
  0
LINE
  5
4B9
100
AcDbEntity
  8
DETAIL
  6
CONTINUOUS
 62
     5
100
AcDbLine
 10
2439.269849
 20
590.68571
 30
0.0
 11
2437.269849
 21
592.68571
 31
0.0
  0
LINE
  5
4BA
100
AcDbEntity
  8
DETAIL
  6
CONTINUOUS
 62
     5
100
AcDbLine
 10
2439.269849
 20
590.68571
 30
0.0
 11
2437.269849
 21
588.68571
 31
0.0
  0
LINE
  5
4BB
100
AcDbEntity
  8
DETAIL
  6
CONTINUOUS
 62
     5
100
AcDbLine
 10
2439.269849
 20
590.68571
 30
0.0
 11
2437.269849
 21
588.68571
 31
0.0
  0
LINE
  5
4BC
100
AcDbEntity
  8
DETAIL
  6
CONTINUOUS
 62
     5
100
AcDbLine
 10
2439.269849
 20
590.68571
 30
0.0
 11
2451.269849
 21
590.68571
 31
0.0
  0
LINE
  5
4BD
100
AcDbEntity
  8
DETAIL
  6
CONTINUOUS
 62
     5
100
AcDbLine
 10
2439.269849
 20
590.68571
 30
0.0
 11
2451.269849
 21
590.68571
 31
0.0
  0
LINE
  5
4BE
100
AcDbEntity
  8
DETAIL
  6
CONTINUOUS
 62
     5
100
AcDbLine
 10
2439.269849
 20
604.68571
 30
0.0
 11
2451.269849
 21
604.68571
 31
0.0
  0
LINE
  5
4BF
100
AcDbEntity
  8
DETAIL
  6
CONTINUOUS
 62
     5
100
AcDbLine
 10
2439.269849
 20
604.68571
 30
0.0
 11
2451.269849
 21
604.68571
 31
0.0
  0
LINE
  5
4C0
100
AcDbEntity
  8
DETAIL
  6
CONTINUOUS
 62
     5
100
AcDbLine
 10
2437.269849
 20
586.68571
 30
0.0
 11
2439.269849
 21
584.68571
 31
0.0
  0
LINE
  5
4C1
100
AcDbEntity
  8
DETAIL
  6
CONTINUOUS
 62
     5
100
AcDbLine
 10
2437.269849
 20
586.68571
 30
0.0
 11
2439.269849
 21
584.68571
 31
0.0
  0
LINE
  5
4C2
100
AcDbEntity
  8
DETAIL
  6
CONTINUOUS
 62
     5
100
AcDbLine
 10
2437.269849
 20
608.68571
 30
0.0
 11
2439.269849
 21
610.68571
 31
0.0
  0
LINE
  5
4C3
100
AcDbEntity
  8
DETAIL
  6
CONTINUOUS
 62
     5
100
AcDbLine
 10
2437.269849
 20
608.68571
 30
0.0
 11
2439.269849
 21
610.68571
 31
0.0
  0
LINE
  5
4C4
100
AcDbEntity
  8
DETAIL
  6
CONTINUOUS
 62
     5
100
AcDbLine
 10
2453.269849
 20
610.68571
 30
0.0
 11
2453.269849
 21
584.68571
 31
0.0
  0
LINE
  5
4C5
100
AcDbEntity
  8
DETAIL
  6
CONTINUOUS
 62
     5
100
AcDbLine
 10
2453.269849
 20
610.68571
 30
0.0
 11
2453.269849
 21
584.68571
 31
0.0
  0
LINE
  5
4C6
100
AcDbEntity
  8
DETAIL
  6
CONTINUOUS
 62
     5
100
AcDbLine
 10
2437.269849
 20
608.68571
 30
0.0
 11
2437.269849
 21
586.68571
 31
0.0
  0
LINE
  5
4C7
100
AcDbEntity
  8
DETAIL
  6
CONTINUOUS
 62
     5
100
AcDbLine
 10
2437.269849
 20
608.68571
 30
0.0
 11
2437.269849
 21
586.68571
 31
0.0
  0
LINE
  5
4C8
100
AcDbEntity
  8
DETAIL
  6
CONTINUOUS
 62
     5
100
AcDbLine
 10
2439.269849
 20
584.68571
 30
0.0
 11
2453.269849
 21
584.68571
 31
0.0
  0
LINE
  5
4C9
100
AcDbEntity
  8
DETAIL
  6
CONTINUOUS
 62
     5
100
AcDbLine
 10
2439.269849
 20
584.68571
 30
0.0
 11
2453.269849
 21
584.68571
 31
0.0
  0
LINE
  5
4CA
100
AcDbEntity
  8
DETAIL
  6
CONTINUOUS
 62
     5
100
AcDbLine
 10
2439.269849
 20
610.68571
 30
0.0
 11
2453.269849
 21
610.68571
 31
0.0
  0
LINE
  5
4CB
100
AcDbEntity
  8
DETAIL
  6
CONTINUOUS
 62
     5
100
AcDbLine
 10
2439.269849
 20
610.68571
 30
0.0
 11
2453.269849
 21
610.68571
 31
0.0
  0
LINE
  5
4CC
100
AcDbEntity
  8
DETAIL
  6
CONTINUOUS
 62
     5
100
AcDbLine
 10
2437.269849
 20
605.68571
 30
0.0
 11
2437.269849
 21
589.68571
 31
0.0
  0
LINE
  5
4CD
100
AcDbEntity
  8
DETAIL
  6
CONTINUOUS
 62
     5
100
AcDbLine
 10
2437.269849
 20
589.68571
 30
0.0
 11
2433.269849
 21
589.68571
 31
0.0
  0
LINE
  5
4CE
100
AcDbEntity
  8
DETAIL
  6
CONTINUOUS
 62
     5
100
AcDbLine
 10
2437.269849
 20
605.68571
 30
0.0
 11
2433.269849
 21
605.68571
 31
0.0
  0
LINE
  5
4CF
100
AcDbEntity
  8
DETAIL
  6
CONTINUOUS
 62
     5
100
AcDbLine
 10
2433.269849
 20
607.18571
 30
0.0
 11
2431.269849
 21
609.18571
 31
0.0
  0
LINE
  5
4D0
100
AcDbEntity
  8
DETAIL
  6
CONTINUOUS
 62
     5
100
AcDbLine
 10
2433.269849
 20
588.18571
 30
0.0
 11
2431.269849
 21
586.18571
 31
0.0
  0
LINE
  5
4D1
100
AcDbEntity
  8
DETAIL
  6
CONTINUOUS
 62
     5
100
AcDbLine
 10
2433.269849
 20
607.18571
 30
0.0
 11
2433.269849
 21
588.18571
 31
0.0
  0
LINE
  5
4D2
100
AcDbEntity
  8
DETAIL
  6
CONTINUOUS
 62
     5
100
AcDbLine
 10
2420.269849
 20
609.18571
 30
0.0
 11
2431.269849
 21
609.18571
 31
0.0
  0
LINE
  5
4D3
100
AcDbEntity
  8
DETAIL
  6
CONTINUOUS
 62
     5
100
AcDbLine
 10
2420.269849
 20
586.18571
 30
0.0
 11
2431.269849
 21
586.18571
 31
0.0
  0
POINT
  5
4D4
100
AcDbEntity
  8
DEFPOINTS
  6
CONTINUOUS
 62
     7
100
AcDbPoint
 10
2766.980769
 20
597.68571
 30
0.0
  0
LINE
  5
4D5
100
AcDbEntity
  8
SIZE
  6
CONTINUOUS
 62
    30
100
AcDbLine
 10
2766.980769
 20
592.68571
 30
0.0
 11
2766.980769
 21
587.68571
 31
0.0
  0
CIRCLE
  5
4D6
100
AcDbEntity
  8
SIZE
  6
CONTINUOUS
 62
    30
100
AcDbCircle
 10
2766.980769
 20
597.68571
 30
0.0
 40
5.0
  0
LINE
  5
4D7
100
AcDbEntity
  8
SIZE
  6
CONTINUOUS
 62
    30
100
AcDbLine
 10
2766.980769
 20
630.68571
 30
0.0
 11
2766.980769
 21
635.68571
 31
0.0
  0
CIRCLE
  5
4D8
100
AcDbEntity
  8
SIZE
  6
CONTINUOUS
 62
    30
100
AcDbCircle
 10
2766.980769
 20
625.68571
 30
0.0
 40
5.0
  0
LINE
  5
4D9
100
AcDbEntity
  8
SIZE
  6
CONTINUOUS
 62
    30
100
AcDbLine
 10
2766.980769
 20
625.68571
 30
0.0
 11
2766.980769
 21
597.68571
 31
0.0
  0
LINE
  5
4DA
100
AcDbEntity
  8
SIZE
  6
CONTINUOUS
 62
    30
100
AcDbLine
 10
2766.980769
 20
625.68571
 30
0.0
 11
2766.980769
 21
597.68571
 31
0.0
  0
LINE
  5
4DB
100
AcDbEntity
  8
SIZE
  6
CONTINUOUS
 62
    30
100
AcDbLine
 10
2766.980769
 20
587.68571
 30
0.0
 11
2766.980769
 21
577.68571
 31
0.0
  0
LINE
  5
4DC
100
AcDbEntity
  8
SIZE
  6
CONTINUOUS
 62
    30
100
AcDbLine
 10
2766.980769
 20
635.68571
 30
0.0
 11
2766.980769
 21
645.68571
 31
0.0
  0
POINT
  5
4DD
100
AcDbEntity
  8
DEFPOINTS
  6
CONTINUOUS
 62
     7
100
AcDbPoint
 10
2766.980769
 20
625.68571
 30
0.0
  0
LINE
  5
4DE
100
AcDbEntity
  8
SIZE
  6
CONTINUOUS
 62
    30
100
AcDbLine
 10
2766.980769
 20
630.68571
 30
0.0
 11
2766.980769
 21
635.68571
 31
0.0
  0
CIRCLE
  5
4DF
100
AcDbEntity
  8
SIZE
  6
CONTINUOUS
 62
    30
100
AcDbCircle
 10
2766.980769
 20
625.68571
 30
0.0
 40
5.0
  0
LINE
  5
4E0
100
AcDbEntity
  8
SIZE
  6
CONTINUOUS
 62
    30
100
AcDbLine
 10
2451.9607
 20
797.68571
 30
0.0
 11
2796.980769
 21
797.68571
 31
0.0
  0
LINE
  5
4E1
100
AcDbEntity
  8
SIZE
  6
CONTINUOUS
 62
    30
100
AcDbLine
 10
2490.977352
 20
689.68571
 30
0.0
 11
2673.30263
 21
689.68571
 31
0.0
  0
LINE
  5
4E2
100
AcDbEntity
  8
SIZE
  6
CONTINUOUS
 62
    30
100
AcDbLine
 10
2451.9607
 20
797.68571
 30
0.0
 11
2673.30263
 21
797.68571
 31
0.0
  0
LINE
  5
4E3
100
AcDbEntity
  8
SIZE
  6
CONTINUOUS
 62
    30
100
AcDbLine
 10
2420.2607
 20
817.68571
 30
0.0
 11
2420.2607
 21
910.330531
 31
0.0
  0
LINE
  5
4E4
100
AcDbEntity
  8
SIZE
  6
CONTINUOUS
 62
    30
100
AcDbLine
 10
2454.2607
 20
726.402362
 30
0.0
 11
2454.2607
 21
910.330531
 31
0.0
  0
POINT
  5
4E5
100
AcDbEntity
  8
DEFPOINTS
  6
CONTINUOUS
 62
     7
100
AcDbPoint
 10
2420.2607
 20
797.68571
 30
0.0
  0
POINT
  5
4E6
100
AcDbEntity
  8
DEFPOINTS
  6
CONTINUOUS
 62
     7
100
AcDbPoint
 10
2413.2607
 20
812.680876
 30
0.0
  0
POINT
  5
4E7
100
AcDbEntity
  8
DEFPOINTS
  6
CONTINUOUS
 62
     7
100
AcDbPoint
 10
2413.2607
 20
812.680876
 30
0.0
  0
POINT
  5
4E8
100
AcDbEntity
  8
DEFPOINTS
  6
CONTINUOUS
 62
     7
100
AcDbPoint
 10
2436.2607
 20
793.38571
 30
0.0
  0
POINT
  5
4E9
100
AcDbEntity
  8
DEFPOINTS
  6
CONTINUOUS
 62
     7
100
AcDbPoint
 10
2420.2607
 20
797.68571
 30
0.0
  0
POINT
  5
4EA
100
AcDbEntity
  8
DEFPOINTS
  6
CONTINUOUS
 62
     7
100
AcDbPoint
 10
2420.2607
 20
797.68571
 30
0.0
  0
POINT
  5
4EB
100
AcDbEntity
  8
DEFPOINTS
  6
CONTINUOUS
 62
     7
100
AcDbPoint
 10
2436.2607
 20
793.38571
 30
0.0
  0
POINT
  5
4EC
100
AcDbEntity
  8
DEFPOINTS
  6
CONTINUOUS
 62
     7
100
AcDbPoint
 10
2420.2607
 20
797.68571
 30
0.0
  0
POINT
  5
4ED
100
AcDbEntity
  8
DEFPOINTS
  6
CONTINUOUS
 62
     7
100
AcDbPoint
 10
2420.2607
 20
797.68571
 30
0.0
  0
POINT
  5
4EE
100
AcDbEntity
  8
DEFPOINTS
  6
CONTINUOUS
 62
     7
100
AcDbPoint
 10
2454.2607
 20
706.402362
 30
0.0
  0
POINT
  5
4EF
100
AcDbEntity
  8
DEFPOINTS
  6
CONTINUOUS
 62
     7
100
AcDbPoint
 10
2431.9607
 20
797.68571
 30
0.0
  0
POINT
  5
4F0
100
AcDbEntity
  8
DEFPOINTS
  6
CONTINUOUS
 62
     7
100
AcDbPoint
 10
2431.9607
 20
797.68571
 30
0.0
  0
POINT
  5
4F1
100
AcDbEntity
  8
DEFPOINTS
  6
CONTINUOUS
 62
     7
100
AcDbPoint
 10
2470.977352
 20
689.68571
 30
0.0
  0
POINT
  5
4F2
100
AcDbEntity
  8
DEFPOINTS
  6
CONTINUOUS
 62
     7
100
AcDbPoint
 10
2431.9607
 20
797.68571
 30
0.0
  0
LINE
  5
4F3
100
AcDbEntity
  8
NOTE
  6
CONTINUOUS
 62
     4
100
AcDbLine
 10
2437.544048
 20
689.68571
 30
0.0
 11
2470.977352
 21
689.68571
 31
0.0
  0
LINE
  5
4F4
100
AcDbEntity
  8
NOTE
  6
CONTINUOUS
 62
     4
100
AcDbLine
 10
2454.2607
 20
706.402362
 30
0.0
 11
2454.2607
 21
672.969058
 31
0.0
  0
LINE
  5
4F5
100
AcDbEntity
  8
NOTE
  6
CONTINUOUS
 62
     4
100
AcDbLine
 10
2454.2607
 20
689.68571
 30
0.0
 11
2473.224681
 21
718.368755
 31
0.0
  0
LINE
  5
4F6
100
AcDbEntity
  8
NOTE
  6
CONTINUOUS
 62
     4
100
AcDbLine
 10
2454.2607
 20
689.68571
 30
0.0
 11
2456.342466
 21
724.007947
 31
0.0
  0
LINE
  5
4F7
100
AcDbEntity
  8
NOTE
  6
CONTINUOUS
 62
     4
100
AcDbLine
 10
2413.2607
 20
782.690544
 30
0.0
 11
2413.2607
 21
812.680876
 31
0.0
  0
POINT
  5
4F8
100
AcDbEntity
  8
DEFPOINTS
  6
CONTINUOUS
 62
     7
100
AcDbPoint
 10
2436.2607
 20
791.78571
 30
0.0
  0
LINE
  5
4F9
100
AcDbEntity
  8
DETAIL
  6
CONTINUOUS
 62
     5
100
AcDbLine
 10
2420.2607
 20
771.28571
 30
0.0
 11
2420.2607
 21
797.68571
 31
0.0
  0
LINE
  5
4FA
100
AcDbEntity
  8
DETAIL
  6
CONTINUOUS
 62
     5
100
AcDbLine
 10
2420.2607
 20
771.28571
 30
0.0
 11
2420.2607
 21
797.68571
 31
0.0
  0
LINE
  5
4FB
100
AcDbEntity
  8
DETAIL
  6
CONTINUOUS
 62
     5
100
AcDbLine
 10
2420.2607
 20
795.38571
 30
0.0
 11
2431.9607
 21
795.38571
 31
0.0
  0
LINE
  5
4FC
100
AcDbEntity
  8
DETAIL
  6
CONTINUOUS
 62
     5
100
AcDbLine
 10
2420.2607
 20
797.68571
 30
0.0
 11
2431.9607
 21
797.68571
 31
0.0
  0
LINE
  5
4FD
100
AcDbEntity
  8
DETAIL
  6
CONTINUOUS
 62
     5
100
AcDbLine
 10
2420.2607
 20
796.08571
 30
0.0
 11
2420.2607
 21
793.78571
 31
0.0
  0
LINE
  5
4FE
100
AcDbEntity
  8
DETAIL
  6
CONTINUOUS
 62
     5
100
AcDbLine
 10
2433.9607
 20
785.68571
 30
0.0
 11
2436.2607
 21
785.68571
 31
0.0
  0
LINE
  5
4FF
100
AcDbEntity
  8
DETAIL
  6
CONTINUOUS
 62
     5
100
AcDbLine
 10
2433.9607
 20
793.38571
 30
0.0
 11
2433.9607
 21
785.68571
 31
0.0
  0
ARC
  5
500
100
AcDbEntity
  8
DETAIL
  6
CONTINUOUS
 62
     5
100
AcDbCircle
 10
2431.9607
 20
793.38571
 30
0.0
 40
2.0
100
AcDbArc
 50
0.0
 51
90.0
  0
LINE
  5
501
100
AcDbEntity
  8
DETAIL
  6
CONTINUOUS
 62
     5
100
AcDbLine
 10
2436.2607
 20
793.38571
 30
0.0
 11
2436.2607
 21
785.68571
 31
0.0
  0
ARC
  5
502
100
AcDbEntity
  8
DETAIL
  6
CONTINUOUS
 62
     5
100
AcDbCircle
 10
2431.9607
 20
793.38571
 30
0.0
 40
4.3
100
AcDbArc
 50
0.0
 51
90.0
  0
LINE
  5
503
100
AcDbEntity
  8
DETAIL
  6
CONTINUOUS
 62
     5
100
AcDbLine
 10
2420.2607
 20
796.08571
 30
0.0
 11
2420.2607
 21
793.78571
 31
0.0
  0
LINE
  5
504
100
AcDbEntity
  8
DETAIL
  6
CONTINUOUS
 62
     5
100
AcDbLine
 10
2433.9607
 20
785.68571
 30
0.0
 11
2436.2607
 21
785.68571
 31
0.0
  0
LINE
  5
505
100
AcDbEntity
  8
DETAIL
  6
CONTINUOUS
 62
     5
100
AcDbLine
 10
2433.9607
 20
793.38571
 30
0.0
 11
2433.9607
 21
785.68571
 31
0.0
  0
ARC
  5
506
100
AcDbEntity
  8
DETAIL
  6
CONTINUOUS
 62
     5
100
AcDbCircle
 10
2431.9607
 20
793.38571
 30
0.0
 40
2.0
100
AcDbArc
 50
0.0
 51
90.0
  0
LINE
  5
507
100
AcDbEntity
  8
DETAIL
  6
CONTINUOUS
 62
     5
100
AcDbLine
 10
2420.2607
 20
795.38571
 30
0.0
 11
2431.9607
 21
795.38571
 31
0.0
  0
LINE
  5
508
100
AcDbEntity
  8
DETAIL
  6
CONTINUOUS
 62
     5
100
AcDbLine
 10
2420.2607
 20
797.68571
 30
0.0
 11
2431.9607
 21
797.68571
 31
0.0
  0
LINE
  5
509
100
AcDbEntity
  8
DETAIL
  6
CONTINUOUS
 62
     5
100
AcDbLine
 10
2436.2607
 20
793.38571
 30
0.0
 11
2436.2607
 21
785.68571
 31
0.0
  0
ARC
  5
50A
100
AcDbEntity
  8
DETAIL
  6
CONTINUOUS
 62
     5
100
AcDbCircle
 10
2431.9607
 20
793.38571
 30
0.0
 40
4.3
100
AcDbArc
 50
0.0
 51
90.0
  0
LINE
  5
50B
100
AcDbEntity
  8
DETAIL
  6
CONTINUOUS
 62
     5
100
AcDbLine
 10
2420.2607
 20
691.08571
 30
0.0
 11
2420.2607
 21
787.08571
 31
0.0
  0
LINE
  5
50C
100
AcDbEntity
  8
DETAIL
  6
CONTINUOUS
 62
     5
100
AcDbLine
 10
2429.2607
 20
705.88571
 30
0.0
 11
2420.2607
 21
706.042806
 31
0.0
  0
ARC
  5
50D
100
AcDbEntity
  8
DETAIL
  6
CONTINUOUS
 62
     5
100
AcDbCircle
 10
2453.7607
 20
705.18571
 30
0.0
 40
0.5
100
AcDbArc
 50
0.0
 51
90.0
  0
LINE
  5
50E
100
AcDbEntity
  8
DETAIL
  6
CONTINUOUS
 62
     5
100
AcDbLine
 10
2429.2607
 20
705.68571
 30
0.0
 11
2453.7607
 21
705.68571
 31
0.0
  0
LINE
  5
50F
100
AcDbEntity
  8
DETAIL
  6
CONTINUOUS
 62
     5
100
AcDbLine
 10
2429.2607
 20
673.48571
 30
0.0
 11
2420.2607
 21
673.328614
 31
0.0
  0
ARC
  5
510
100
AcDbEntity
  8
DETAIL
  6
CONTINUOUS
 62
     5
100
AcDbCircle
 10
2453.7607
 20
674.18571
 30
0.0
 40
0.5
100
AcDbArc
 50
270.0
 51
0.0
  0
LINE
  5
511
100
AcDbEntity
  8
DETAIL
  6
CONTINUOUS
 62
     5
100
AcDbLine
 10
2429.2607
 20
673.68571
 30
0.0
 11
2453.7607
 21
673.68571
 31
0.0
  0
LINE
  5
512
100
AcDbEntity
  8
DETAIL
  6
CONTINUOUS
 62
     5
100
AcDbLine
 10
2429.2607
 20
705.88571
 30
0.0
 11
2429.2607
 21
673.48571
 31
0.0
  0
LINE
  5
513
100
AcDbEntity
  8
DETAIL
  6
CONTINUOUS
 62
     5
100
AcDbLine
 10
2454.2607
 20
705.18571
 30
0.0
 11
2454.2607
 21
674.18571
 31
0.0
  0
LINE
  5
514
100
AcDbEntity
  8
DETAIL
  6
CONTINUOUS
 62
     5
100
AcDbLine
 10
2429.2607
 20
705.88571
 30
0.0
 11
2420.2607
 21
706.042806
 31
0.0
  0
LINE
  5
515
100
AcDbEntity
  8
DETAIL
  6
CONTINUOUS
 62
     5
100
AcDbLine
 10
2429.2607
 20
673.48571
 30
0.0
 11
2420.2607
 21
673.328614
 31
0.0
  0
ARC
  5
516
100
AcDbEntity
  8
DETAIL
  6
CONTINUOUS
 62
     5
100
AcDbCircle
 10
2453.7607
 20
674.18571
 30
0.0
 40
0.5
100
AcDbArc
 50
270.0
 51
0.0
  0
ARC
  5
517
100
AcDbEntity
  8
DETAIL
  6
CONTINUOUS
 62
     5
100
AcDbCircle
 10
2453.7607
 20
705.18571
 30
0.0
 40
0.5
100
AcDbArc
 50
0.0
 51
90.0
  0
LINE
  5
518
100
AcDbEntity
  8
DETAIL
  6
CONTINUOUS
 62
     5
100
AcDbLine
 10
2429.2607
 20
705.88571
 30
0.0
 11
2429.2607
 21
673.48571
 31
0.0
  0
LINE
  5
519
100
AcDbEntity
  8
DETAIL
  6
CONTINUOUS
 62
     5
100
AcDbLine
 10
2429.2607
 20
673.68571
 30
0.0
 11
2453.7607
 21
673.68571
 31
0.0
  0
LINE
  5
51A
100
AcDbEntity
  8
DETAIL
  6
CONTINUOUS
 62
     5
100
AcDbLine
 10
2429.2607
 20
705.68571
 30
0.0
 11
2453.7607
 21
705.68571
 31
0.0
  0
LINE
  5
51B
100
AcDbEntity
  8
DETAIL
  6
CONTINUOUS
 62
     5
100
AcDbLine
 10
2454.2607
 20
705.18571
 30
0.0
 11
2454.2607
 21
674.18571
 31
0.0
  0
LINE
  5
51C
100
AcDbEntity
  8
DETAIL
  6
CONTINUOUS
 62
     5
100
AcDbLine
 10
2420.2607
 20
797.68571
 30
0.0
 11
2420.2607
 21
768.38571
 31
0.0
  0
POINT
  5
51D
100
AcDbEntity
  8
DEFPOINTS
  6
CONTINUOUS
 62
     7
100
AcDbPoint
 10
2436.2607
 20
892.68571
 30
0.0
  0
POINT
  5
51E
100
AcDbEntity
  8
DEFPOINTS
  6
CONTINUOUS
 62
     7
100
AcDbPoint
 10
2420.2607
 20
965.930795
 30
0.0
  0
LINE
  5
51F
100
AcDbEntity
  8
SIZE
  6
CONTINUOUS
 62
    30
100
AcDbLine
 10
2415.2607
 20
965.930795
 30
0.0
 11
2410.2607
 21
965.930795
 31
0.0
  0
CIRCLE
  5
520
100
AcDbEntity
  8
SIZE
  6
CONTINUOUS
 62
    30
100
AcDbCircle
 10
2420.2607
 20
965.930795
 30
0.0
 40
5.0
  0
LINE
  5
521
100
AcDbEntity
  8
SIZE
  6
CONTINUOUS
 62
    30
100
AcDbLine
 10
2461.2607
 20
965.930795
 30
0.0
 11
2466.2607
 21
965.930795
 31
0.0
  0
CIRCLE
  5
522
100
AcDbEntity
  8
SIZE
  6
CONTINUOUS
 62
    30
100
AcDbCircle
 10
2456.2607
 20
965.930795
 30
0.0
 40
5.0
  0
LINE
  5
523
100
AcDbEntity
  8
SIZE
  6
CONTINUOUS
 62
    30
100
AcDbLine
 10
2456.2607
 20
965.930795
 30
0.0
 11
2420.2607
 21
965.930795
 31
0.0
  0
LINE
  5
524
100
AcDbEntity
  8
SIZE
  6
CONTINUOUS
 62
    30
100
AcDbLine
 10
2466.2607
 20
965.930795
 30
0.0
 11
2476.2607
 21
965.930795
 31
0.0
  0
POINT
  5
525
100
AcDbEntity
  8
DEFPOINTS
  6
CONTINUOUS
 62
     7
100
AcDbPoint
 10
2420.2607
 20
880.330531
 30
0.0
  0
LINE
  5
526
100
AcDbEntity
  8
SIZE
  6
CONTINUOUS
 62
    30
100
AcDbLine
 10
2415.2607
 20
880.330531
 30
0.0
 11
2410.2607
 21
880.330531
 31
0.0
  0
CIRCLE
  5
527
100
AcDbEntity
  8
SIZE
  6
CONTINUOUS
 62
    30
100
AcDbCircle
 10
2420.2607
 20
880.330531
 30
0.0
 40
5.0
  0
LINE
  5
528
100
AcDbEntity
  8
SIZE
  6
CONTINUOUS
 62
    30
100
AcDbLine
 10
2459.2607
 20
880.330531
 30
0.0
 11
2464.2607
 21
880.330531
 31
0.0
  0
CIRCLE
  5
529
100
AcDbEntity
  8
SIZE
  6
CONTINUOUS
 62
    30
100
AcDbCircle
 10
2454.2607
 20
880.330531
 30
0.0
 40
5.0
  0
LINE
  5
52A
100
AcDbEntity
  8
SIZE
  6
CONTINUOUS
 62
    30
100
AcDbLine
 10
2454.2607
 20
880.330531
 30
0.0
 11
2420.2607
 21
880.330531
 31
0.0
  0
LINE
  5
52B
100
AcDbEntity
  8
SIZE
  6
CONTINUOUS
 62
    30
100
AcDbLine
 10
2464.2607
 20
880.330531
 30
0.0
 11
2474.2607
 21
880.330531
 31
0.0
  0
TEXT
  5
52C
100
AcDbEntity
  8
SIZE
  6
CONTINUOUS
 62
    30
100
AcDbText
 10
2625.30263
 20
825.68571
 30
0.0
 40
55.0
  1
108
 50
90.0
 41
0.9
 72
     1
 11
2625.30263
 21
884.614281
 31
0.0
100
AcDbText
  0
LINE
  5
52D
100
AcDbEntity
  8
SIZE
  6
CONTINUOUS
 62
    30
100
AcDbLine
 10
2643.30263
 20
797.68571
 30
0.0
 11
2643.30263
 21
961.542853
 31
0.0
  0
POINT
  5
52E
100
AcDbEntity
  8
DEFPOINTS
  6
CONTINUOUS
 62
     7
100
AcDbPoint
 10
2643.30263
 20
689.68571
 30
0.0
  0
LINE
  5
52F
100
AcDbEntity
  8
SIZE
  6
CONTINUOUS
 62
    30
100
AcDbLine
 10
2643.30263
 20
792.68571
 30
0.0
 11
2643.30263
 21
787.68571
 31
0.0
  0
CIRCLE
  5
530
100
AcDbEntity
  8
SIZE
  6
CONTINUOUS
 62
    30
100
AcDbCircle
 10
2643.30263
 20
797.68571
 30
0.0
 40
5.0
  0
LINE
  5
531
100
AcDbEntity
  8
SIZE
  6
CONTINUOUS
 62
    30
100
AcDbLine
 10
2643.30263
 20
694.68571
 30
0.0
 11
2643.30263
 21
699.68571
 31
0.0
  0
CIRCLE
  5
532
100
AcDbEntity
  8
SIZE
  6
CONTINUOUS
 62
    30
100
AcDbCircle
 10
2643.30263
 20
689.68571
 30
0.0
 40
5.0
  0
LINE
  5
533
100
AcDbEntity
  8
SIZE
  6
CONTINUOUS
 62
    30
100
AcDbLine
 10
2643.30263
 20
699.68571
 30
0.0
 11
2643.30263
 21
787.68571
 31
0.0
  0
LINE
  5
534
100
AcDbEntity
  8
SIZE
  6
CONTINUOUS
 62
    30
100
AcDbLine
 10
2766.980769
 20
792.68571
 30
0.0
 11
2766.980769
 21
787.68571
 31
0.0
  0
CIRCLE
  5
535
100
AcDbEntity
  8
SIZE
  6
CONTINUOUS
 62
    30
100
AcDbCircle
 10
2766.980769
 20
797.68571
 30
0.0
 40
5.0
  0
TEXT
  5
536
100
AcDbEntity
  8
SIZE
  6
CONTINUOUS
 62
    30
100
AcDbText
 10
2976.819884
 20
596.95729
 30
0.0
 40
55.0
  1
265
 50
90.0
 41
0.9
 72
     1
 11
2976.819884
 21
660.600147
 31
0.0
100
AcDbText
  0
LINE
  5
537
100
AcDbEntity
  8
SIZE
  6
CONTINUOUS
 62
    30
100
AcDbLine
 10
2994.819884
 20
787.68571
 30
0.0
 11
2994.819884
 21
542.68571
 31
0.0
  0
LINE
  5
538
100
AcDbEntity
  8
SIZE
  6
CONTINUOUS
 62
    30
100
AcDbLine
 10
2869.180859
 20
635.465174
 30
0.0
 11
2869.180859
 21
751.608031
 31
0.0
  0
POINT
  5
539
100
AcDbEntity
  8
DEFPOINTS
  6
CONTINUOUS
 62
     7
100
AcDbPoint
 10
2994.819884
 20
532.68571
 30
0.0
  0
LINE
  5
53A
100
AcDbEntity
  8
SIZE
  6
CONTINUOUS
 62
    30
100
AcDbLine
 10
2994.819884
 20
537.68571
 30
0.0
 11
2994.819884
 21
542.68571
 31
0.0
  0
CIRCLE
  5
53B
100
AcDbEntity
  8
SIZE
  6
CONTINUOUS
 62
    30
100
AcDbCircle
 10
2994.819884
 20
532.68571
 30
0.0
 40
5.0
  0
LINE
  5
53C
100
AcDbEntity
  8
SIZE
  6
CONTINUOUS
 62
    30
100
AcDbLine
 10
2994.819884
 20
792.68571
 30
0.0
 11
2994.819884
 21
787.68571
 31
0.0
  0
CIRCLE
  5
53D
100
AcDbEntity
  8
SIZE
  6
CONTINUOUS
 62
    30
100
AcDbCircle
 10
2994.819884
 20
797.68571
 30
0.0
 40
5.0
  0
LINE
  5
53E
100
AcDbEntity
  8
NOTE
  6
CONTINUOUS
 62
     4
100
AcDbLine
 10
2564.222293
 20
1022.955794
 30
0.0
 11
2911.036154
 21
1022.955794
 31
0.0
  0
TEXT
  5
53F
100
AcDbEntity
  8
NOTE
  6
CONTINUOUS
 62
     4
100
AcDbText
 10
2584.160883
 20
1038.782338
 30
0.0
 40
60.0
  1
D1 VP-25
 50
359.999997
 41
0.7
  7
STANDARD1
100
AcDbText
  0
CIRCLE
  5
540
100
AcDbEntity
  8
SIZE
  6
CONTINUOUS
 62
    30
100
AcDbCircle
 10
2413.2607
 20
1281.848132
 30
0.0
 40
5.0
  0
CIRCLE
  5
541
100
AcDbEntity
  8
SIZE
  6
CONTINUOUS
 62
    30
100
AcDbCircle
 10
2436.2607
 20
1281.848132
 30
0.0
 40
5.0
  0
CIRCLE
  5
542
100
AcDbEntity
  8
SIZE
  6
CONTINUOUS
 62
    30
100
AcDbCircle
 10
2413.2607
 20
1281.848132
 30
0.0
 40
5.0
  0
POINT
  5
543
100
AcDbEntity
  8
DEFPOINTS
  6
CONTINUOUS
 62
     7
100
AcDbPoint
 10
2459.269849
 20
1067.039942
 30
0.0
  0
LINE
  5
544
100
AcDbEntity
  8
SIZE
  6
CONTINUOUS
 62
    30
100
AcDbLine
 10
2415.2607
 20
1067.039942
 30
0.0
 11
2410.2607
 21
1067.039942
 31
0.0
  0
CIRCLE
  5
545
100
AcDbEntity
  8
SIZE
  6
CONTINUOUS
 62
    30
100
AcDbCircle
 10
2420.2607
 20
1067.039942
 30
0.0
 40
5.0
  0
LINE
  5
546
100
AcDbEntity
  8
SIZE
  6
CONTINUOUS
 62
    30
100
AcDbLine
 10
2464.269849
 20
1067.039942
 30
0.0
 11
2469.269849
 21
1067.039942
 31
0.0
  0
CIRCLE
  5
547
100
AcDbEntity
  8
SIZE
  6
CONTINUOUS
 62
    30
100
AcDbCircle
 10
2459.269849
 20
1067.039942
 30
0.0
 40
5.0
  0
LINE
  5
548
100
AcDbEntity
  8
SIZE
  6
CONTINUOUS
 62
    30
100
AcDbLine
 10
2459.269849
 20
1067.039942
 30
0.0
 11
2420.2607
 21
1067.039942
 31
0.0
  0
LINE
  5
549
100
AcDbEntity
  8
SIZE
  6
CONTINUOUS
 62
    30
100
AcDbLine
 10
2469.269849
 20
1067.039942
 30
0.0
 11
2479.269849
 21
1067.039942
 31
0.0
  0
TEXT
  5
54A
100
AcDbEntity
  8
SIZE
  6
CONTINUOUS
 62
    30
100
AcDbText
 10
2474.2607
 20
1182.788907
 30
0.0
 40
55.0
  1
16
 41
0.9
 72
     1
 11
2508.439271
 21
1182.788907
 31
0.0
100
AcDbText
  0
LINE
  5
54B
100
AcDbEntity
  8
SIZE
  6
CONTINUOUS
 62
    30
100
AcDbLine
 10
2446.2607
 20
1164.788907
 30
0.0
 11
2560.617843
 21
1164.788907
 31
0.0
  0
LINE
  5
54C
100
AcDbEntity
  8
SIZE
  6
CONTINUOUS
 62
    30
100
AcDbLine
 10
2415.2607
 20
1164.788907
 30
0.0
 11
2410.2607
 21
1164.788907
 31
0.0
  0
CIRCLE
  5
54D
100
AcDbEntity
  8
SIZE
  6
CONTINUOUS
 62
    30
100
AcDbCircle
 10
2420.2607
 20
1164.788907
 30
0.0
 40
5.0
  0
POINT
  5
54E
100
AcDbEntity
  8
DEFPOINTS
  6
CONTINUOUS
 62
     7
100
AcDbPoint
 10
2420.2607
 20
1164.788907
 30
0.0
  0
LINE
  5
54F
100
AcDbEntity
  8
SIZE
  6
CONTINUOUS
 62
    30
100
AcDbLine
 10
2441.2607
 20
1164.788907
 30
0.0
 11
2446.2607
 21
1164.788907
 31
0.0
  0
CIRCLE
  5
550
100
AcDbEntity
  8
SIZE
  6
CONTINUOUS
 62
    30
100
AcDbCircle
 10
2436.2607
 20
1164.788907
 30
0.0
 40
5.0
  0
LINE
  5
551
100
AcDbEntity
  8
SIZE
  6
CONTINUOUS
 62
    30
100
AcDbLine
 10
2415.2607
 20
1164.788907
 30
0.0
 11
2410.2607
 21
1164.788907
 31
0.0
  0
CIRCLE
  5
552
100
AcDbEntity
  8
SIZE
  6
CONTINUOUS
 62
    30
100
AcDbCircle
 10
2420.2607
 20
1164.788907
 30
0.0
 40
5.0
  0
LINE
  5
553
100
AcDbEntity
  8
SIZE
  6
CONTINUOUS
 62
    30
100
AcDbLine
 10
2420.2607
 20
1164.788907
 30
0.0
 11
2436.2607
 21
1164.788907
 31
0.0
  0
TEXT
  5
554
100
AcDbEntity
  8
SIZE
  6
CONTINUOUS
 62
    30
100
AcDbText
 10
2474.2607
 20
1299.848132
 30
0.0
 40
55.0
  1
23
 41
0.9
 72
     1
 11
2514.332129
 21
1299.848132
 31
0.0
100
AcDbText
  0
LINE
  5
555
100
AcDbEntity
  8
SIZE
  6
CONTINUOUS
 62
    30
100
AcDbLine
 10
2446.2607
 20
1281.848132
 30
0.0
 11
2572.403557
 21
1281.848132
 31
0.0
  0
POINT
  5
556
100
AcDbEntity
  8
DEFPOINTS
  6
CONTINUOUS
 62
     7
100
AcDbPoint
 10
2413.2607
 20
1281.848132
 30
0.0
  0
LINE
  5
557
100
AcDbEntity
  8
SIZE
  6
CONTINUOUS
 62
    30
100
AcDbLine
 10
2441.2607
 20
1281.848132
 30
0.0
 11
2446.2607
 21
1281.848132
 31
0.0
  0
LINE
  5
558
100
AcDbEntity
  8
SIZE
  6
CONTINUOUS
 62
    30
100
AcDbLine
 10
2413.2607
 20
1281.848132
 30
0.0
 11
2436.2607
 21
1281.848132
 31
0.0
  0
LINE
  5
559
100
AcDbEntity
  8
SIZE
  6
CONTINUOUS
 62
    30
100
AcDbLine
 10
2431.2607
 20
1393.835484
 30
0.0
 11
2426.2607
 21
1393.835484
 31
0.0
  0
CIRCLE
  5
55A
100
AcDbEntity
  8
SIZE
  6
CONTINUOUS
 62
    30
100
AcDbCircle
 10
2436.2607
 20
1393.835484
 30
0.0
 40
5.0
  0
ENDBLK
  5
55C
100
AcDbEntity
  8
0
 62
     7
100
AcDbBlockEnd
  0
ENDSEC
  0
SECTION
  2
ENTITIES
  0
LINE
  5
55E
100
AcDbEntity
  8
OUTLINE
  6
CONTINUOUS
 62
     3
100
AcDbLine
 10
-580.0
 20
0.0
 30
0.0
 11
620.0
 21
0.0
 31
0.0
  0
LINE
  5
55F
100
AcDbEntity
  8
SIZE
  6
CONTINUOUS
 62
    30
100
AcDbLine
 10
590.0
 20
-178.809889
 30
0.0
 11
-590.0
 21
-178.809889
 31
0.0
  0
TEXT
  5
560
100
AcDbEntity
  8
SIZE
  6
CONTINUOUS
 62
    30
100
AcDbText
 10
-347.207143
 20
933.567184
 30
0.0
 40
55.0
  1
1146(吊りボルトピッチ)
 41
0.9
 72
     1
 11
0.0
 21
933.567184
 31
0.0
100
AcDbText
  0
LINE
  5
561
100
AcDbEntity
  8
SIZE
  6
CONTINUOUS
 62
    30
100
AcDbLine
 10
563.0
 20
917.162422
 30
0.0
 11
-563.0
 21
917.162422
 31
0.0
  0
LINE
  5
562
100
AcDbEntity
  8
SIZE
  6
CONTINUOUS
 62
    30
100
AcDbLine
 10
570.0
 20
800.103197
 30
0.0
 11
-570.0
 21
800.103197
 31
0.0
  0
LINE
  5
563
100
AcDbEntity
  8
OUTLINE
  6
CONTINUOUS
 62
     3
100
AcDbLine
 10
-580.0
 20
47.0
 30
0.0
 11
580.0
 21
47.0
 31
0.0
  0
LINE
  5
564
100
AcDbEntity
  8
OUTLINE
  6
CONTINUOUS
 62
     3
100
AcDbLine
 10
-566.53
 20
-8.0
 30
0.0
 11
566.53
 21
-8.0
 31
0.0
  0
LINE
  5
565
100
AcDbEntity
  8
SIZE
  6
CONTINUOUS
 62
    30
100
AcDbLine
 10
610.0
 20
-325.067462
 30
0.0
 11
-610.0
 21
-325.067462
 31
0.0
  0
LINE
  5
566
100
AcDbEntity
  8
OUTLINE
  6
CONTINUOUS
 62
     3
100
AcDbLine
 10
-580.0
 20
140.0
 30
0.0
 11
580.0
 21
140.0
 31
0.0
  0
LINE
  5
567
100
AcDbEntity
  8
OUTLINE
  6
CONTINUOUS
 62
     3
100
AcDbLine
 10
580.0
 20
433.0
 30
0.0
 11
-580.0
 21
433.0
 31
0.0
  0
LINE
  5
568
100
AcDbEntity
  8
DETAIL
  6
CONTINUOUS
 62
     5
100
AcDbLine
 10
580.0
 20
140.0
 30
0.0
 11
-580.0
 21
140.0
 31
0.0
  0
LINE
  5
569
100
AcDbEntity
  8
SIZE
  6
CONTINUOUS
 62
    30
100
AcDbLine
 10
586.0
 20
1029.149774
 30
0.0
 11
-586.0
 21
1029.149774
 31
0.0
  0
LINE
  5
56A
100
AcDbEntity
  8
DETAIL
  6
CONTINUOUS
 62
     5
100
AcDbLine
 10
580.0
 20
433.0
 30
0.0
 11
-580.0
 21
433.0
 31
0.0
  0
LINE
  5
56C
100
AcDbEntity
  8
DETAIL
  6
CONTINUOUS
 62
     5
100
AcDbLine
 10
562.0
 20
155.0
 30
0.0
 11
-562.0
 21
155.0
 31
0.0
  0
LINE
  5
56D
100
AcDbEntity
  8
DETAIL
  6
CONTINUOUS
 62
     5
100
AcDbLine
 10
565.0
 20
140.0
 30
0.0
 11
-565.0
 21
140.0
 31
0.0
  0
LINE
  5
56E
100
AcDbEntity
  8
DETAIL
  6
CONTINUOUS
 62
     5
100
AcDbLine
 10
562.0
 20
155.0
 30
0.0
 11
-562.0
 21
155.0
 31
0.0
  0
LINE
  5
56F
100
AcDbEntity
  8
DETAIL
  6
CONTINUOUS
 62
     5
100
AcDbLine
 10
565.0
 20
140.0
 30
0.0
 11
-565.0
 21
140.0
 31
0.0
  0
LINE
  5
570
100
AcDbEntity
  8
DETAIL
  6
CONTINUOUS
 62
     5
100
AcDbLine
 10
-580.0
 20
47.0
 30
0.0
 11
580.0
 21
47.0
 31
0.0
  0
LINE
  5
571
100
AcDbEntity
  8
DETAIL
  6
CONTINUOUS
 62
     5
100
AcDbLine
 10
-566.53
 20
-8.0
 30
0.0
 11
566.53
 21
-8.0
 31
0.0
  0
CIRCLE
  5
573
100
AcDbEntity
  8
SIZE
  6
CONTINUOUS
 62
    30
100
AcDbCircle
 10
-1066.156178
 20
0.0
 30
0.0
 40
5.0
  0
LINE
  5
574
100
AcDbEntity
  8
SIZE
  6
CONTINUOUS
 62
    30
100
AcDbLine
 10
-1066.156178
 20
0.0
 30
0.0
 11
-1066.156178
 21
-364.685714
 31
0.0
  0
CIRCLE
  5
575
100
AcDbEntity
  8
SIZE
  6
CONTINUOUS
 62
    30
100
AcDbCircle
 10
-841.644378
 20
0.0
 30
0.0
 40
5.0
  0
LINE
  5
576
100
AcDbEntity
  8
SIZE
  6
CONTINUOUS
 62
    30
100
AcDbLine
 10
-841.644378
 20
23.5
 30
0.0
 11
-942.66764
 21
-17.519043
 31
0.0
  0
CIRCLE
  5
577
100
AcDbEntity
  8
SIZE
  6
CONTINUOUS
 62
    30
100
AcDbCircle
 10
-841.644378
 20
0.0
 30
0.0
 40
5.0
  0
LINE
  5
578
100
AcDbEntity
  8
SIZE
  6
CONTINUOUS
 62
    30
100
AcDbLine
 10
-841.644378
 20
0.0
 30
0.0
 11
-841.644378
 21
-8.0
 31
0.0
  0
TEXT
  5
579
100
AcDbEntity
  8
SIZE
  6
CONTINUOUS
 62
    30
100
AcDbText
 10
-1255.632816
 20
-318.561264
 30
0.0
 40
55.0
  1
パネル直付時
 50
90.0
 41
0.9
 72
     1
 11
-1255.632816
 21
-146.961264
 31
0.0
100
AcDbText
  0
LINE
  5
57A
100
AcDbEntity
  8
OUTLINE
  6
CONTINUOUS
 62
     3
100
AcDbLine
 10
-620.0
 20
-4.006508
 30
0.0
 11
-620.0
 21
0.0
 31
0.0
  0
LINE
  5
57B
100
AcDbEntity
  8
DETAIL
  6
CONTINUOUS
 62
     5
100
AcDbLine
 10
-620.0
 20
-4.006508
 30
0.0
 11
-620.0
 21
0.0
 31
0.0
  0
POLYLINE
  5
57C
100
AcDbEntity
  8
SIZE
  6
CONTINUOUS
 62
    30
100
AcDb2dPolyline
 66
     1
 10
0.0
 20
0.0
 30
0.0
  0
VERTEX
  5
57D
100
AcDbEntity
  8
SIZE
  6
CONTINUOUS
 62
    30
100
AcDbVertex
100
AcDb2dVertex
 10
-1331.82528
 20
-311.999958
 30
0.0
 42
0.186174
  0
VERTEX
  5
57E
100
AcDbEntity
  8
SIZE
  6
CONTINUOUS
 62
    30
100
AcDbVertex
100
AcDb2dVertex
 10
-1322.975432
 20
-332.949446
 30
0.0
 42
0.082105
  0
VERTEX
  5
57F
100
AcDbEntity
  8
SIZE
  6
CONTINUOUS
 62
    30
100
AcDbVertex
100
AcDb2dVertex
 10
-1307.27293
 20
-345.124007
 30
0.0
 42
0.058826
  0
VERTEX
  5
580
100
AcDbEntity
  8
SIZE
  6
CONTINUOUS
 62
    30
100
AcDbVertex
100
AcDb2dVertex
 10
-1285.486872
 20
-353.898934
 30
0.0
 42
0.067494
  0
VERTEX
  5
581
100
AcDbEntity
  8
SIZE
  6
CONTINUOUS
 62
    30
100
AcDbVertex
100
AcDb2dVertex
 10
-1247.998312
 20
-358.844438
 30
0.0
 42
0.067494
  0
VERTEX
  5
582
100
AcDbEntity
  8
SIZE
  6
CONTINUOUS
 62
    30
100
AcDbVertex
100
AcDb2dVertex
 10
-1210.509752
 20
-353.898934
 30
0.0
 42
0.058826
  0
VERTEX
  5
583
100
AcDbEntity
  8
SIZE
  6
CONTINUOUS
 62
    30
100
AcDbVertex
100
AcDb2dVertex
 10
-1188.723694
 20
-345.124007
 30
0.0
 42
0.082105
  0
VERTEX
  5
584
100
AcDbEntity
  8
SIZE
  6
CONTINUOUS
 62
    30
100
AcDbVertex
100
AcDb2dVertex
 10
-1173.021192
 20
-332.949446
 30
0.0
 42
0.186174
  0
VERTEX
  5
585
100
AcDbEntity
  8
SIZE
  6
CONTINUOUS
 62
    30
100
AcDbVertex
100
AcDb2dVertex
 10
-1164.171344
 20
-311.999958
 30
0.0
 42
0.186174
  0
VERTEX
  5
586
100
AcDbEntity
  8
SIZE
  6
CONTINUOUS
 62
    30
100
AcDbVertex
100
AcDb2dVertex
 10
-1164.171344
 20
-311.999958
 30
0.0
 42
0.186174
  0
SEQEND
  5
587
100
AcDbEntity
  8
SIZE
  6
CONTINUOUS
 62
    30
  0
TEXT
  5
588
100
AcDbEntity
  8
SIZE
  6
CONTINUOUS
 62
    30
100
AcDbText
 10
-1171.883037
 20
-261.702613
 30
0.0
 40
55.0
  1
50～60
 50
90.0
 41
0.9
 72
     1
 11
-1171.883037
 21
-144.788327
 31
0.0
100
AcDbText
  0
LINE
  5
589
100
AcDbEntity
  8
SIZE
  6
CONTINUOUS
 62
    30
100
AcDbLine
 10
-586.53
 20
-8.0
 30
0.0
 11
-871.644378
 21
-8.0
 31
0.0
  0
LINE
  5
58A
100
AcDbEntity
  8
SIZE
  6
CONTINUOUS
 62
    30
100
AcDbLine
 10
-788.615388
 20
-178.809889
 30
0.0
 11
-620.0
 21
-178.809889
 31
0.0
  0
TEXT
  5
58B
100
AcDbEntity
  8
SIZE
  6
CONTINUOUS
 62
    30
100
AcDbText
 10
-1084.156178
 20
-346.685714
 30
0.0
 40
55.0
  1
140～300
 50
90.0
 41
0.9
 72
     1
 11
-1084.156178
 21
-187.342857
 31
0.0
100
AcDbText
  0
TEXT
  5
58C
100
AcDbEntity
  8
SIZE
  6
CONTINUOUS
 62
    30
100
AcDbText
 10
-960.66764
 20
-115.661901
 30
0.0
 40
55.0
  1
47
 50
90.0
 41
0.9
 72
     1
 11
-960.66764
 21
-75.590472
 31
0.0
100
AcDbText
  0
TEXT
  5
58D
100
AcDbEntity
  8
SIZE
  6
CONTINUOUS
 62
    30
100
AcDbText
 10
-859.644378
 20
-79.0
 30
0.0
 40
55.0
  1
8
 50
90.0
 41
0.9
 72
     1
 11
-859.644378
 21
-62.5
 31
0.0
100
AcDbText
  0
LINE
  5
58E
100
AcDbEntity
  8
SIZE
  6
CONTINUOUS
 62
    30
100
AcDbLine
 10
-942.66764
 20
-17.519043
 30
0.0
 11
-942.66764
 21
-133.6619
 31
0.0
  0
LINE
  5
58F
100
AcDbEntity
  8
SIZE
  6
CONTINUOUS
 62
    30
100
AcDbLine
 10
-841.644378
 20
-5.0
 30
0.0
 11
-841.644378
 21
-10.0
 31
0.0
  0
LINE
  5
590
100
AcDbEntity
  8
SIZE
  6
CONTINUOUS
 62
    30
100
AcDbLine
 10
-841.644378
 20
-10.0
 30
0.0
 11
-841.644378
 21
-20.0
 31
0.0
  0
LINE
  5
591
100
AcDbEntity
  8
SIZE
  6
CONTINUOUS
 62
    30
100
AcDbLine
 10
-841.644378
 20
-13.0
 30
0.0
 11
-841.644378
 21
-18.0
 31
0.0
  0
CIRCLE
  5
592
100
AcDbEntity
  8
SIZE
  6
CONTINUOUS
 62
    30
100
AcDbCircle
 10
-841.644378
 20
-8.0
 30
0.0
 40
5.0
  0
LINE
  5
593
100
AcDbEntity
  8
SIZE
  6
CONTINUOUS
 62
    30
100
AcDbLine
 10
-841.644378
 20
-18.0
 30
0.0
 11
-841.644378
 21
-97.0
 31
0.0
  0
LINE
  5
594
100
AcDbEntity
  8
SIZE
  6
CONTINUOUS
 62
    30
100
AcDbLine
 10
-620.0
 20
-24.006508
 30
0.0
 11
-620.0
 21
-355.067462
 31
0.0
  0
POINT
  5
595
100
AcDbEntity
  8
DEFPOINTS
  6
CONTINUOUS
 62
     7
100
AcDbPoint
 10
-620.0
 20
-325.067462
 30
0.0
  0
LINE
  5
596
100
AcDbEntity
  8
SIZE
  6
CONTINUOUS
 62
    30
100
AcDbLine
 10
-615.0
 20
-325.067462
 30
0.0
 11
-610.0
 21
-325.067462
 31
0.0
  0
CIRCLE
  5
597
100
AcDbEntity
  8
SIZE
  6
CONTINUOUS
 62
    30
100
AcDbCircle
 10
-620.0
 20
-325.067462
 30
0.0
 40
5.0
  0
TEXT
  5
598
100
AcDbEntity
  8
SIZE
  6
CONTINUOUS
 62
    30
100
AcDbText
 10
-770.615389
 20
-160.809889
 30
0.0
 40
55.0
  1
20
 41
0.9
 72
     1
 11
-730.54396
 21
-160.809889
 31
0.0
100
AcDbText
  0
LINE
  5
599
100
AcDbEntity
  8
SIZE
  6
CONTINUOUS
 62
    30
100
AcDbLine
 10
-620.0
 20
-24.006508
 30
0.0
 11
-620.0
 21
-208.809889
 31
0.0
  0
LINE
  5
59A
100
AcDbEntity
  8
SIZE
  6
CONTINUOUS
 62
    30
100
AcDbLine
 10
-600.0
 20
-19.0
 30
0.0
 11
-600.0
 21
-208.809889
 31
0.0
  0
LINE
  5
59B
100
AcDbEntity
  8
SIZE
  6
CONTINUOUS
 62
    30
100
AcDbLine
 10
-600.0
 20
-19.0
 30
0.0
 11
-600.0
 21
-208.809889
 31
0.0
  0
POINT
  5
59C
100
AcDbEntity
  8
DEFPOINTS
  6
CONTINUOUS
 62
     7
100
AcDbPoint
 10
-620.0
 20
-178.809889
 30
0.0
  0
LINE
  5
59D
100
AcDbEntity
  8
SIZE
  6
CONTINUOUS
 62
    30
100
AcDbLine
 10
-625.0
 20
-178.809889
 30
0.0
 11
-630.0
 21
-178.809889
 31
0.0
  0
CIRCLE
  5
59E
100
AcDbEntity
  8
SIZE
  6
CONTINUOUS
 62
    30
100
AcDbCircle
 10
-620.0
 20
-178.809889
 30
0.0
 40
5.0
  0
LINE
  5
59F
100
AcDbEntity
  8
SIZE
  6
CONTINUOUS
 62
    30
100
AcDbLine
 10
-595.0
 20
-178.809889
 30
0.0
 11
-590.0
 21
-178.809889
 31
0.0
  0
CIRCLE
  5
5A0
100
AcDbEntity
  8
SIZE
  6
CONTINUOUS
 62
    30
100
AcDbCircle
 10
-600.0
 20
-178.809889
 30
0.0
 40
5.0
  0
LINE
  5
5A1
100
AcDbEntity
  8
SIZE
  6
CONTINUOUS
 62
    30
100
AcDbLine
 10
-600.0
 20
-178.809889
 30
0.0
 11
-620.0
 21
-178.809889
 31
0.0
  0
LINE
  5
5A2
100
AcDbEntity
  8
SIZE
  6
CONTINUOUS
 62
    30
100
AcDbLine
 10
-600.0
 20
-178.809889
 30
0.0
 11
-620.0
 21
-178.809889
 31
0.0
  0
LINE
  5
5A3
100
AcDbEntity
  8
SIZE
  6
CONTINUOUS
 62
    30
100
AcDbLine
 10
-630.0
 20
-178.809889
 30
0.0
 11
-640.0
 21
-178.809889
 31
0.0
  0
LINE
  5
5A4
100
AcDbEntity
  8
SIZE
  6
CONTINUOUS
 62
    30
100
AcDbLine
 10
-590.0
 20
-178.809889
 30
0.0
 11
-580.0
 21
-178.809889
 31
0.0
  0
POINT
  5
5A5
100
AcDbEntity
  8
DEFPOINTS
  6
CONTINUOUS
 62
     7
100
AcDbPoint
 10
-600.0
 20
-178.809889
 30
0.0
  0
LINE
  5
5A6
100
AcDbEntity
  8
SIZE
  6
CONTINUOUS
 62
    30
100
AcDbLine
 10
-595.0
 20
-178.809889
 30
0.0
 11
-590.0
 21
-178.809889
 31
0.0
  0
CIRCLE
  5
5A7
100
AcDbEntity
  8
SIZE
  6
CONTINUOUS
 62
    30
100
AcDbCircle
 10
-600.0
 20
-178.809889
 30
0.0
 40
5.0
  0
POINT
  5
5A8
100
AcDbEntity
  8
DEFPOINTS
  6
CONTINUOUS
 62
     7
100
AcDbPoint
 10
-566.53
 20
-8.0
 30
0.0
  0
POINT
  5
5A9
100
AcDbEntity
  8
DEFPOINTS
  6
CONTINUOUS
 62
     7
100
AcDbPoint
 10
-620.0
 20
-4.006508
 30
0.0
  0
LINE
  5
5AA
100
AcDbEntity
  8
OUTLINE
  6
CONTINUOUS
 62
     3
100
AcDbLine
 10
-566.53
 20
-8.0
 30
0.0
 11
-620.0
 21
-4.006508
 31
0.0
  0
POINT
  5
5AB
100
AcDbEntity
  8
DEFPOINTS
  6
CONTINUOUS
 62
     7
100
AcDbPoint
 10
-620.0
 20
-4.006508
 30
0.0
  0
LINE
  5
5AC
100
AcDbEntity
  8
DETAIL
  6
CONTINUOUS
 62
     5
100
AcDbLine
 10
-566.53
 20
-8.0
 30
0.0
 11
-620.0
 21
-4.006508
 31
0.0
  0
POLYLINE
  5
5AD
100
AcDbEntity
  8
SIZE
  6
CONTINUOUS
 62
    30
100
AcDb2dPolyline
 66
     1
 10
0.0
 20
0.0
 30
0.0
  0
VERTEX
  5
5AE
100
AcDbEntity
  8
SIZE
  6
CONTINUOUS
 62
    30
100
AcDbVertex
100
AcDb2dVertex
 10
-1164.171344
 20
15.745668
 30
0.0
 42
0.186174
  0
VERTEX
  5
5AF
100
AcDbEntity
  8
SIZE
  6
CONTINUOUS
 62
    30
100
AcDbVertex
100
AcDb2dVertex
 10
-1173.021192
 20
36.695156
 30
0.0
 42
0.082105
  0
VERTEX
  5
5B0
100
AcDbEntity
  8
SIZE
  6
CONTINUOUS
 62
    30
100
AcDbVertex
100
AcDb2dVertex
 10
-1188.723694
 20
48.869717
 30
0.0
 42
0.058826
  0
VERTEX
  5
5B1
100
AcDbEntity
  8
SIZE
  6
CONTINUOUS
 62
    30
100
AcDbVertex
100
AcDb2dVertex
 10
-1210.509752
 20
57.644644
 30
0.0
 42
0.067494
  0
VERTEX
  5
5B2
100
AcDbEntity
  8
SIZE
  6
CONTINUOUS
 62
    30
100
AcDbVertex
100
AcDb2dVertex
 10
-1247.998312
 20
62.590147
 30
0.0
 42
0.067494
  0
VERTEX
  5
5B3
100
AcDbEntity
  8
SIZE
  6
CONTINUOUS
 62
    30
100
AcDbVertex
100
AcDb2dVertex
 10
-1285.486872
 20
57.644644
 30
0.0
 42
0.058826
  0
VERTEX
  5
5B4
100
AcDbEntity
  8
SIZE
  6
CONTINUOUS
 62
    30
100
AcDbVertex
100
AcDb2dVertex
 10
-1307.27293
 20
48.869717
 30
0.0
 42
0.082105
  0
VERTEX
  5
5B5
100
AcDbEntity
  8
SIZE
  6
CONTINUOUS
 62
    30
100
AcDbVertex
100
AcDb2dVertex
 10
-1322.975432
 20
36.695156
 30
0.0
 42
0.186174
  0
VERTEX
  5
5B6
100
AcDbEntity
  8
SIZE
  6
CONTINUOUS
 62
    30
100
AcDbVertex
100
AcDb2dVertex
 10
-1331.82528
 20
15.745668
 30
0.0
 42
0.186174
  0
SEQEND
  5
5B7
100
AcDbEntity
  8
SIZE
  6
CONTINUOUS
 62
    30
  0
TEXT
  5
5B8
100
AcDbEntity
  8
ETC
  6
CONTINUOUS
 62
    61
100
AcDbText
 10
110.678746
 20
1233.617296
 30
0.0
 40
80.0
  1
PDFY-P71_90M-E2_3
 50
359.999997
 41
0.8
100
AcDbText
  0
LINE
  5
5B9
100
AcDbEntity
  8
NOTE
  6
CONTINUOUS
 62
     4
100
AcDbLine
 10
-1337.087767
 20
622.396112
 30
0.0
 11
-624.073158
 21
622.396112
 31
0.0
  0
TEXT
  5
5BA
100
AcDbEntity
  8
NOTE
  6
CONTINUOUS
 62
     4
100
AcDbText
 10
-1340.148429
 20
638.222673
 30
0.0
 40
60.0
  1
AH 4-14×30長穴(M10)
 50
359.999997
 41
0.7
  7
STANDARD1
100
AcDbText
  0
LINE
  5
5BB
100
AcDbEntity
  8
SIZE
  6
CONTINUOUS
 62
    30
100
AcDbLine
 10
-596.0
 20
448.7
 30
0.0
 11
-596.0
 21
947.162422
 31
0.0
  0
LINE
  5
5BC
100
AcDbEntity
  8
SIZE
  6
CONTINUOUS
 62
    30
100
AcDbLine
 10
-573.0
 20
467.995166
 30
0.0
 11
-573.0
 21
947.162422
 31
0.0
  0
LINE
  5
5BD
100
AcDbEntity
  8
SIZE
  6
CONTINUOUS
 62
    30
100
AcDbLine
 10
-573.0
 20
467.995166
 30
0.0
 11
-573.0
 21
947.162422
 31
0.0
  0
LINE
  5
5BE
100
AcDbEntity
  8
SIZE
  6
CONTINUOUS
 62
    30
100
AcDbLine
 10
-596.0
 20
448.7
 30
0.0
 11
-596.0
 21
830.103197
 31
0.0
  0
LINE
  5
5BF
100
AcDbEntity
  8
SIZE
  6
CONTINUOUS
 62
    30
100
AcDbLine
 10
-580.0
 20
453.0
 30
0.0
 11
-580.0
 21
830.103197
 31
0.0
  0
LINE
  5
5C0
100
AcDbEntity
  8
SIZE
  6
CONTINUOUS
 62
    30
100
AcDbLine
 10
-580.0
 20
453.0
 30
0.0
 11
-580.0
 21
830.103197
 31
0.0
  0
LINE
  5
5C1
100
AcDbEntity
  8
NOTE
  6
CONTINUOUS
 62
     4
100
AcDbLine
 10
-624.073158
 20
622.396112
 30
0.0
 11
-573.000361
 21
433.000469
 31
0.0
  0
LINE
  5
5C2
100
AcDbEntity
  8
SIZE
  6
CONTINUOUS
 62
    30
100
AcDbLine
 10
-596.0
 20
447.1
 30
0.0
 11
-596.0
 21
1059.149774
 31
0.0
  0
LINE
  5
5C3
100
AcDbEntity
  8
SIZE
  6
CONTINUOUS
 62
    30
100
AcDbLine
 10
-639.758686
 20
0.0
 30
0.0
 11
-1096.156178
 21
0.0
 31
0.0
  0
LINE
  5
5C4
100
AcDbEntity
  8
SIZE
  6
CONTINUOUS
 62
    30
100
AcDbLine
 10
-599.758686
 20
140.0
 30
0.0
 11
-1096.156178
 21
140.0
 31
0.0
  0
LINE
  5
5C5
100
AcDbEntity
  8
SIZE
  6
CONTINUOUS
 62
    30
100
AcDbLine
 10
-600.0
 20
47.0
 30
0.0
 11
-871.644378
 21
47.0
 31
0.0
  0
LINE
  5
5C6
100
AcDbEntity
  8
SIZE
  6
CONTINUOUS
 62
    30
100
AcDbLine
 10
-640.0
 20
0.0
 30
0.0
 11
-871.644378
 21
0.0
 31
0.0
  0
LINE
  5
5C7
100
AcDbEntity
  8
SIZE
  6
CONTINUOUS
 62
    30
100
AcDbLine
 10
-640.0
 20
0.0
 30
0.0
 11
-871.644378
 21
0.0
 31
0.0
  0
LINE
  5
5C8
100
AcDbEntity
  8
SIZE
  6
CONTINUOUS
 62
    30
100
AcDbLine
 10
-611.7
 20
433.0
 30
0.0
 11
-1096.156178
 21
433.0
 31
0.0
  0
LINE
  5
5C9
100
AcDbEntity
  8
SIZE
  6
CONTINUOUS
 62
    30
100
AcDbLine
 10
-600.0
 20
140.0
 30
0.0
 11
-1096.156178
 21
140.0
 31
0.0
  0
TEXT
  5
5CA
100
AcDbEntity
  8
SIZE
  6
CONTINUOUS
 62
    30
100
AcDbText
 10
-1084.156178
 20
222.857143
 30
0.0
 40
55.0
  1
293
 50
90.0
 41
0.9
 72
     1
 11
-1084.156178
 21
286.5
 31
0.0
100
AcDbText
  0
LINE
  5
5CB
100
AcDbEntity
  8
SIZE
  6
CONTINUOUS
 62
    30
100
AcDbLine
 10
-1066.156178
 20
150.0
 30
0.0
 11
-1066.156178
 21
423.0
 31
0.0
  0
POINT
  5
5CC
100
AcDbEntity
  8
DEFPOINTS
  6
CONTINUOUS
 62
     7
100
AcDbPoint
 10
-1066.156178
 20
0.0
 30
0.0
  0
LINE
  5
5CD
100
AcDbEntity
  8
SIZE
  6
CONTINUOUS
 62
    30
100
AcDbLine
 10
-1066.156178
 20
5.0
 30
0.0
 11
-1066.156178
 21
10.0
 31
0.0
  0
LINE
  5
5CE
100
AcDbEntity
  8
SIZE
  6
CONTINUOUS
 62
    30
100
AcDbLine
 10
-1066.156178
 20
135.0
 30
0.0
 11
-1066.156178
 21
130.0
 31
0.0
  0
CIRCLE
  5
5CF
100
AcDbEntity
  8
SIZE
  6
CONTINUOUS
 62
    30
100
AcDbCircle
 10
-1066.156178
 20
140.0
 30
0.0
 40
5.0
  0
LINE
  5
5D0
100
AcDbEntity
  8
SIZE
  6
CONTINUOUS
 62
    30
100
AcDbLine
 10
-1066.156178
 20
130.0
 30
0.0
 11
-1066.156178
 21
10.0
 31
0.0
  0
LINE
  5
5D1
100
AcDbEntity
  8
SIZE
  6
CONTINUOUS
 62
    30
100
AcDbLine
 10
-1066.156178
 20
145.0
 30
0.0
 11
-1066.156178
 21
150.0
 31
0.0
  0
CIRCLE
  5
5D2
100
AcDbEntity
  8
SIZE
  6
CONTINUOUS
 62
    30
100
AcDbCircle
 10
-1066.156178
 20
140.0
 30
0.0
 40
5.0
  0
POINT
  5
5D3
100
AcDbEntity
  8
DEFPOINTS
  6
CONTINUOUS
 62
     7
100
AcDbPoint
 10
-841.644378
 20
47.0
 30
0.0
  0
LINE
  5
5D4
100
AcDbEntity
  8
SIZE
  6
CONTINUOUS
 62
    30
100
AcDbLine
 10
-841.644378
 20
52.0
 30
0.0
 11
-841.644378
 21
57.0
 31
0.0
  0
CIRCLE
  5
5D5
100
AcDbEntity
  8
SIZE
  6
CONTINUOUS
 62
    30
100
AcDbCircle
 10
-841.644378
 20
47.0
 30
0.0
 40
5.0
  0
LINE
  5
5D6
100
AcDbEntity
  8
SIZE
  6
CONTINUOUS
 62
    30
100
AcDbLine
 10
-841.644378
 20
0.0
 30
0.0
 11
-841.644378
 21
47.0
 31
0.0
  0
LINE
  5
5D7
100
AcDbEntity
  8
SIZE
  6
CONTINUOUS
 62
    30
100
AcDbLine
 10
-841.644378
 20
0.0
 30
0.0
 11
-841.644378
 21
47.0
 31
0.0
  0
LINE
  5
5D8
100
AcDbEntity
  8
SIZE
  6
CONTINUOUS
 62
    30
100
AcDbLine
 10
-841.644378
 20
57.0
 30
0.0
 11
-841.644378
 21
67.0
 31
0.0
  0
POINT
  5
5D9
100
AcDbEntity
  8
DEFPOINTS
  6
CONTINUOUS
 62
     7
100
AcDbPoint
 10
-841.644378
 20
0.0
 30
0.0
  0
LINE
  5
5DA
100
AcDbEntity
  8
SIZE
  6
CONTINUOUS
 62
    30
100
AcDbLine
 10
-841.644378
 20
5.0
 30
0.0
 11
-841.644378
 21
10.0
 31
0.0
  0
LINE
  5
5DB
100
AcDbEntity
  8
SIZE
  6
CONTINUOUS
 62
    30
100
AcDbLine
 10
-841.644378
 20
10.0
 30
0.0
 11
-841.644378
 21
20.0
 31
0.0
  0
POINT
  5
5DC
100
AcDbEntity
  8
DEFPOINTS
  6
CONTINUOUS
 62
     7
100
AcDbPoint
 10
-1066.156178
 20
433.0
 30
0.0
  0
LINE
  5
5DD
100
AcDbEntity
  8
SIZE
  6
CONTINUOUS
 62
    30
100
AcDbLine
 10
-1066.156178
 20
428.0
 30
0.0
 11
-1066.156178
 21
423.0
 31
0.0
  0
CIRCLE
  5
5DE
100
AcDbEntity
  8
SIZE
  6
CONTINUOUS
 62
    30
100
AcDbCircle
 10
-1066.156178
 20
433.0
 30
0.0
 40
5.0
  0
LINE
  5
5DF
100
AcDbEntity
  8
SIZE
  6
CONTINUOUS
 62
    30
100
AcDbLine
 10
-596.0
 20
508.0
 30
0.0
 11
-596.0
 21
28.769509
 31
0.0
  0
LINE
  5
5E0
100
AcDbEntity
  8
OUTLINE
  6
CONTINUOUS
 62
     3
100
AcDbLine
 10
-580.0
 20
433.0
 30
0.0
 11
-580.0
 21
140.0
 31
0.0
  0
TEXT
  5
5E2
100
AcDbEntity
  8
SIZE
  6
CONTINUOUS
 62
    30
100
AcDbText
 10
-558.0
 20
76.769509
 30
0.0
 40
55.0
  1
4
 41
0.9
 72
     1
 11
-540.321429
 21
76.769509
 31
0.0
100
AcDbText
  0
LINE
  5
5E3
100
AcDbEntity
  8
SIZE
  6
CONTINUOUS
 62
    30
100
AcDbLine
 10
-586.0
 20
58.769509
 30
0.0
 11
-504.642857
 21
58.769509
 31
0.0
  0
LINE
  5
5E4
100
AcDbEntity
  8
DETAIL
  6
CONTINUOUS
 62
     5
100
AcDbLine
 10
-580.0
 20
433.0
 30
0.0
 11
-580.0
 21
140.0
 31
0.0
  0
LINE
  5
5E7
100
AcDbEntity
  8
DETAIL
  6
CONTINUOUS
 62
     5
100
AcDbLine
 10
-565.0
 20
152.0
 30
0.0
 11
-565.0
 21
140.0
 31
0.0
  0
LINE
  5
5E8
100
AcDbEntity
  8
DETAIL
  6
CONTINUOUS
 62
     5
100
AcDbLine
 10
-565.0
 20
152.0
 30
0.0
 11
-565.0
 21
140.0
 31
0.0
  0
LINE
  5
5E9
100
AcDbEntity
  8
NOTE
  6
CONTINUOUS
 62
     4
100
AcDbLine
 10
-651.04244
 20
1.0
 30
0.0
 11
-671.04244
 21
21.0
 31
0.0
  0
LINE
  5
5EA
100
AcDbEntity
  8
NOTE
  6
CONTINUOUS
 62
     4
100
AcDbLine
 10
-656.04244
 20
1.0
 30
0.0
 11
-676.04244
 21
21.0
 31
0.0
  0
LINE
  5
5EB
100
AcDbEntity
  8
NOTE
  6
CONTINUOUS
 62
     4
100
AcDbLine
 10
-661.04244
 20
1.0
 30
0.0
 11
-681.04244
 21
21.0
 31
0.0
  0
LINE
  5
5EC
100
AcDbEntity
  8
NOTE
  6
CONTINUOUS
 62
     4
100
AcDbLine
 10
-600.0
 20
1.0
 30
0.0
 11
-701.307449
 21
1.0
 31
0.0
  0
LINE
  5
5ED
100
AcDbEntity
  8
NOTE
  6
CONTINUOUS
 62
     4
100
AcDbLine
 10
-600.0
 20
21.0
 30
0.0
 11
-701.307449
 21
21.0
 31
0.0
  0
POINT
  5
5EE
100
AcDbEntity
  8
DEFPOINTS
  6
CONTINUOUS
 62
     7
100
AcDbPoint
 10
-619.758686
 20
0.0
 30
0.0
  0
POINT
  5
5EF
100
AcDbEntity
  8
DEFPOINTS
  6
CONTINUOUS
 62
     7
100
AcDbPoint
 10
-579.758686
 20
140.0
 30
0.0
  0
POINT
  5
5F0
100
AcDbEntity
  8
DEFPOINTS
  6
CONTINUOUS
 62
     7
100
AcDbPoint
 10
-580.0
 20
47.0
 30
0.0
  0
POINT
  5
5F1
100
AcDbEntity
  8
DEFPOINTS
  6
CONTINUOUS
 62
     7
100
AcDbPoint
 10
-620.0
 20
0.0
 30
0.0
  0
POINT
  5
5F2
100
AcDbEntity
  8
DEFPOINTS
  6
CONTINUOUS
 62
     7
100
AcDbPoint
 10
-620.0
 20
0.0
 30
0.0
  0
POINT
  5
5F3
100
AcDbEntity
  8
DEFPOINTS
  6
CONTINUOUS
 62
     7
100
AcDbPoint
 10
-596.0
 20
58.769509
 30
0.0
  0
POINT
  5
5F4
100
AcDbEntity
  8
DEFPOINTS
  6
CONTINUOUS
 62
     7
100
AcDbPoint
 10
-600.0
 20
21.0
 30
0.0
  0
LINE
  5
5F5
100
AcDbEntity
  8
SIZE
  6
CONTINUOUS
 62
    30
100
AcDbLine
 10
-591.0
 20
58.769509
 30
0.0
 11
-586.0
 21
58.769509
 31
0.0
  0
CIRCLE
  5
5F6
100
AcDbEntity
  8
SIZE
  6
CONTINUOUS
 62
    30
100
AcDbCircle
 10
-596.0
 20
58.769509
 30
0.0
 40
5.0
  0
LINE
  5
5F7
100
AcDbEntity
  8
SIZE
  6
CONTINUOUS
 62
    30
100
AcDbLine
 10
-605.0
 20
58.769509
 30
0.0
 11
-610.0
 21
58.769509
 31
0.0
  0
CIRCLE
  5
5F8
100
AcDbEntity
  8
SIZE
  6
CONTINUOUS
 62
    30
100
AcDbCircle
 10
-600.0
 20
58.769509
 30
0.0
 40
5.0
  0
LINE
  5
5F9
100
AcDbEntity
  8
SIZE
  6
CONTINUOUS
 62
    30
100
AcDbLine
 10
-600.0
 20
58.769509
 30
0.0
 11
-596.0
 21
58.769509
 31
0.0
  0
LINE
  5
5FA
100
AcDbEntity
  8
SIZE
  6
CONTINUOUS
 62
    30
100
AcDbLine
 10
-610.0
 20
58.769509
 30
0.0
 11
-620.0
 21
58.769509
 31
0.0
  0
LINE
  5
5FB
100
AcDbEntity
  8
SIZE
  6
CONTINUOUS
 62
    30
100
AcDbLine
 10
-600.0
 20
41.0
 30
0.0
 11
-600.0
 21
88.769509
 31
0.0
  0
POINT
  5
5FC
100
AcDbEntity
  8
DEFPOINTS
  6
CONTINUOUS
 62
     7
100
AcDbPoint
 10
-600.0
 20
1.0
 30
0.0
  0
POINT
  5
5FD
100
AcDbEntity
  8
DEFPOINTS
  6
CONTINUOUS
 62
     7
100
AcDbPoint
 10
-600.0
 20
1.0
 30
0.0
  0
LINE
  5
5FE
100
AcDbEntity
  8
OUTLINE
  6
CONTINUOUS
 62
     3
100
AcDbLine
 10
-580.0
 20
0.0
 30
0.0
 11
-620.0
 21
0.0
 31
0.0
  0
LINE
  5
5FF
100
AcDbEntity
  8
OUTLINE
  6
CONTINUOUS
 62
     3
100
AcDbLine
 10
-580.0
 20
0.0
 30
0.0
 11
-585.0
 21
0.0
 31
0.0
  0
LINE
  5
600
100
AcDbEntity
  8
OUTLINE
  6
CONTINUOUS
 62
     3
100
AcDbLine
 10
-580.0
 20
0.0
 30
0.0
 11
-580.0
 21
47.0
 31
0.0
  0
POINT
  5
601
100
AcDbEntity
  8
DEFPOINTS
  6
CONTINUOUS
 62
     7
100
AcDbPoint
 10
-580.0
 20
140.0
 30
0.0
  0
LINE
  5
602
100
AcDbEntity
  8
NOTE
  6
CONTINUOUS
 62
     4
100
AcDbLine
 10
-611.04244
 20
1.0
 30
0.0
 11
-631.04244
 21
21.0
 31
0.0
  0
LINE
  5
603
100
AcDbEntity
  8
NOTE
  6
CONTINUOUS
 62
     4
100
AcDbLine
 10
-616.04244
 20
1.0
 30
0.0
 11
-636.04244
 21
21.0
 31
0.0
  0
LINE
  5
604
100
AcDbEntity
  8
NOTE
  6
CONTINUOUS
 62
     4
100
AcDbLine
 10
-621.04244
 20
1.0
 30
0.0
 11
-641.04244
 21
21.0
 31
0.0
  0
LINE
  5
605
100
AcDbEntity
  8
NOTE
  6
CONTINUOUS
 62
     4
100
AcDbLine
 10
-600.0
 20
1.0
 30
0.0
 11
-600.0
 21
21.0
 31
0.0
  0
LINE
  5
606
100
AcDbEntity
  8
DETAIL
  6
CONTINUOUS
 62
     5
100
AcDbLine
 10
620.0
 20
0.0
 30
0.0
 11
-620.0
 21
0.0
 31
0.0
  0
LINE
  5
608
100
AcDbEntity
  8
DETAIL
  6
CONTINUOUS
 62
     5
100
AcDbLine
 10
-580.0
 20
0.0
 30
0.0
 11
-580.0
 21
47.0
 31
0.0
  0
LINE
  5
609
100
AcDbEntity
  8
DETAIL
  6
CONTINUOUS
 62
     5
100
AcDbLine
 10
-565.0
 20
152.0
 30
0.0
 11
-562.0
 21
155.0
 31
0.0
  0
LINE
  5
60A
100
AcDbEntity
  8
DETAIL
  6
CONTINUOUS
 62
     5
100
AcDbLine
 10
-565.0
 20
152.0
 30
0.0
 11
-562.0
 21
155.0
 31
0.0
  0
LINE
  5
60B
100
AcDbEntity
  8
NOTE
  6
CONTINUOUS
 62
     4
100
AcDbLine
 10
-573.000361
 20
433.000469
 30
0.0
 11
-574.222276
 21
467.364063
 31
0.0
  0
LINE
  5
60C
100
AcDbEntity
  8
NOTE
  6
CONTINUOUS
 62
     4
100
AcDbLine
 10
-573.000361
 20
433.000469
 30
0.0
 11
-591.240368
 21
462.149257
 31
0.0
  0
POINT
  5
60D
100
AcDbEntity
  8
DEFPOINTS
  6
CONTINUOUS
 62
     7
100
AcDbPoint
 10
-596.0
 20
428.7
 30
0.0
  0
POINT
  5
60E
100
AcDbEntity
  8
DEFPOINTS
  6
CONTINUOUS
 62
     7
100
AcDbPoint
 10
-573.0
 20
447.995166
 30
0.0
  0
POINT
  5
60F
100
AcDbEntity
  8
DEFPOINTS
  6
CONTINUOUS
 62
     7
100
AcDbPoint
 10
-573.0
 20
447.995166
 30
0.0
  0
POINT
  5
610
100
AcDbEntity
  8
DEFPOINTS
  6
CONTINUOUS
 62
     7
100
AcDbPoint
 10
-596.0
 20
428.7
 30
0.0
  0
POINT
  5
611
100
AcDbEntity
  8
DEFPOINTS
  6
CONTINUOUS
 62
     7
100
AcDbPoint
 10
-580.0
 20
433.0
 30
0.0
  0
POINT
  5
612
100
AcDbEntity
  8
DEFPOINTS
  6
CONTINUOUS
 62
     7
100
AcDbPoint
 10
-580.0
 20
433.0
 30
0.0
  0
POINT
  5
613
100
AcDbEntity
  8
DEFPOINTS
  6
CONTINUOUS
 62
     7
100
AcDbPoint
 10
-591.7
 20
433.0
 30
0.0
  0
CIRCLE
  5
614
100
AcDbEntity
  8
FIX
  6
CONTINUOUS
 62
    11
100
AcDbCircle
 10
-573.0
 20
433.0
 30
0.0
 40
12.421498
  0
LINE
  5
615
100
AcDbEntity
  8
NOTE
  6
CONTINUOUS
 62
     4
100
AcDbLine
 10
-573.0
 20
418.004834
 30
0.0
 11
-573.0
 21
447.995166
 31
0.0
  0
LINE
  5
616
100
AcDbEntity
  8
NOTE
  6
CONTINUOUS
 62
     4
100
AcDbLine
 10
-587.995166
 20
433.0
 30
0.0
 11
-558.004834
 21
433.0
 31
0.0
  0
POINT
  5
617
100
AcDbEntity
  8
DEFPOINTS
  6
CONTINUOUS
 62
     7
100
AcDbPoint
 10
-596.0
 20
427.1
 30
0.0
  0
LINE
  5
618
100
AcDbEntity
  8
DETAIL
  6
CONTINUOUS
 62
     5
100
AcDbLine
 10
-580.0
 20
430.7
 30
0.0
 11
-591.7
 21
430.7
 31
0.0
  0
LINE
  5
619
100
AcDbEntity
  8
DETAIL
  6
CONTINUOUS
 62
     5
100
AcDbLine
 10
-580.0
 20
433.0
 30
0.0
 11
-591.7
 21
433.0
 31
0.0
  0
LINE
  5
61A
100
AcDbEntity
  8
DETAIL
  6
CONTINUOUS
 62
     5
100
AcDbLine
 10
-593.7
 20
421.0
 30
0.0
 11
-596.0
 21
421.0
 31
0.0
  0
LINE
  5
61B
100
AcDbEntity
  8
DETAIL
  6
CONTINUOUS
 62
     5
100
AcDbLine
 10
-593.7
 20
428.7
 30
0.0
 11
-593.7
 21
421.0
 31
0.0
  0
ARC
  5
61C
100
AcDbEntity
  8
DETAIL
  6
CONTINUOUS
 62
     5
100
AcDbCircle
 10
-591.7
 20
428.7
 30
0.0
 40
2.0
100
AcDbArc
 50
90.0
 51
180.0
  0
LINE
  5
61D
100
AcDbEntity
  8
DETAIL
  6
CONTINUOUS
 62
     5
100
AcDbLine
 10
-596.0
 20
428.7
 30
0.0
 11
-596.0
 21
421.0
 31
0.0
  0
ARC
  5
61E
100
AcDbEntity
  8
DETAIL
  6
CONTINUOUS
 62
     5
100
AcDbCircle
 10
-591.7
 20
428.7
 30
0.0
 40
4.3
100
AcDbArc
 50
90.0
 51
180.0
  0
POINT
  5
628
100
AcDbEntity
  8
DEFPOINTS
  6
CONTINUOUS
 62
     7
100
AcDbPoint
 10
-596.0
 20
528.0
 30
0.0
  0
CIRCLE
  5
629
100
AcDbEntity
  8
SIZE
  6
CONTINUOUS
 62
    30
100
AcDbCircle
 10
-596.0
 20
917.162422
 30
0.0
 40
5.0
  0
CIRCLE
  5
62A
100
AcDbEntity
  8
SIZE
  6
CONTINUOUS
 62
    30
100
AcDbCircle
 10
-573.0
 20
917.162422
 30
0.0
 40
5.0
  0
CIRCLE
  5
62B
100
AcDbEntity
  8
SIZE
  6
CONTINUOUS
 62
    30
100
AcDbCircle
 10
-573.0
 20
917.162422
 30
0.0
 40
5.0
  0
TEXT
  5
62C
100
AcDbEntity
  8
SIZE
  6
CONTINUOUS
 62
    30
100
AcDbText
 10
-696.41503
 20
813.827237
 30
0.0
 40
55.0
  1
16
 41
0.9
 72
     1
 11
-662.236459
 21
813.827237
 31
0.0
100
AcDbText
  0
POINT
  5
62D
100
AcDbEntity
  8
DEFPOINTS
  6
CONTINUOUS
 62
     7
100
AcDbPoint
 10
-596.0
 20
800.103197
 30
0.0
  0
LINE
  5
62E
100
AcDbEntity
  8
SIZE
  6
CONTINUOUS
 62
    30
100
AcDbLine
 10
-601.0
 20
800.103197
 30
0.0
 11
-606.0
 21
800.103197
 31
0.0
  0
CIRCLE
  5
62F
100
AcDbEntity
  8
SIZE
  6
CONTINUOUS
 62
    30
100
AcDbCircle
 10
-596.0
 20
800.103197
 30
0.0
 40
5.0
  0
LINE
  5
630
100
AcDbEntity
  8
SIZE
  6
CONTINUOUS
 62
    30
100
AcDbLine
 10
-575.0
 20
800.103197
 30
0.0
 11
-570.0
 21
800.103197
 31
0.0
  0
CIRCLE
  5
631
100
AcDbEntity
  8
SIZE
  6
CONTINUOUS
 62
    30
100
AcDbCircle
 10
-580.0
 20
800.103197
 30
0.0
 40
5.0
  0
LINE
  5
632
100
AcDbEntity
  8
SIZE
  6
CONTINUOUS
 62
    30
100
AcDbLine
 10
-580.0
 20
800.103197
 30
0.0
 11
-596.0
 21
800.103197
 31
0.0
  0
LINE
  5
633
100
AcDbEntity
  8
SIZE
  6
CONTINUOUS
 62
    30
100
AcDbLine
 10
-606.0
 20
800.103197
 30
0.0
 11
-616.0
 21
800.103197
 31
0.0
  0
LINE
  5
634
100
AcDbEntity
  8
SIZE
  6
CONTINUOUS
 62
    30
100
AcDbLine
 10
-570.0
 20
800.103197
 30
0.0
 11
-560.0
 21
800.103197
 31
0.0
  0
POINT
  5
635
100
AcDbEntity
  8
DEFPOINTS
  6
CONTINUOUS
 62
     7
100
AcDbPoint
 10
-580.0
 20
800.103197
 30
0.0
  0
LINE
  5
636
100
AcDbEntity
  8
SIZE
  6
CONTINUOUS
 62
    30
100
AcDbLine
 10
-575.0
 20
800.103197
 30
0.0
 11
-570.0
 21
800.103197
 31
0.0
  0
CIRCLE
  5
637
100
AcDbEntity
  8
SIZE
  6
CONTINUOUS
 62
    30
100
AcDbCircle
 10
-580.0
 20
800.103197
 30
0.0
 40
5.0
  0
TEXT
  5
638
100
AcDbEntity
  8
SIZE
  6
CONTINUOUS
 62
    30
100
AcDbText
 10
-718.656159
 20
935.162422
 30
0.0
 40
55.0
  1
23
 41
0.9
 72
     1
 11
-678.58473
 21
935.162422
 31
0.0
100
AcDbText
  0
LINE
  5
639
100
AcDbEntity
  8
SIZE
  6
CONTINUOUS
 62
    30
100
AcDbLine
 10
-736.656159
 20
917.162422
 30
0.0
 11
-596.0
 21
917.162422
 31
0.0
  0
POINT
  5
63A
100
AcDbEntity
  8
DEFPOINTS
  6
CONTINUOUS
 62
     7
100
AcDbPoint
 10
-596.0
 20
917.162422
 30
0.0
  0
LINE
  5
63B
100
AcDbEntity
  8
SIZE
  6
CONTINUOUS
 62
    30
100
AcDbLine
 10
-601.0
 20
917.162422
 30
0.0
 11
-606.0
 21
917.162422
 31
0.0
  0
LINE
  5
63C
100
AcDbEntity
  8
SIZE
  6
CONTINUOUS
 62
    30
100
AcDbLine
 10
-568.0
 20
917.162422
 30
0.0
 11
-563.0
 21
917.162422
 31
0.0
  0
LINE
  5
63D
100
AcDbEntity
  8
SIZE
  6
CONTINUOUS
 62
    30
100
AcDbLine
 10
-573.0
 20
917.162422
 30
0.0
 11
-596.0
 21
917.162422
 31
0.0
  0
LINE
  5
63E
100
AcDbEntity
  8
SIZE
  6
CONTINUOUS
 62
    30
100
AcDbLine
 10
-573.0
 20
917.162422
 30
0.0
 11
-596.0
 21
917.162422
 31
0.0
  0
LINE
  5
63F
100
AcDbEntity
  8
SIZE
  6
CONTINUOUS
 62
    30
100
AcDbLine
 10
-606.0
 20
917.162422
 30
0.0
 11
-616.0
 21
917.162422
 31
0.0
  0
LINE
  5
640
100
AcDbEntity
  8
SIZE
  6
CONTINUOUS
 62
    30
100
AcDbLine
 10
-563.0
 20
917.162422
 30
0.0
 11
-553.0
 21
917.162422
 31
0.0
  0
POINT
  5
641
100
AcDbEntity
  8
DEFPOINTS
  6
CONTINUOUS
 62
     7
100
AcDbPoint
 10
-573.0
 20
917.162422
 30
0.0
  0
LINE
  5
642
100
AcDbEntity
  8
SIZE
  6
CONTINUOUS
 62
    30
100
AcDbLine
 10
-568.0
 20
917.162422
 30
0.0
 11
-563.0
 21
917.162422
 31
0.0
  0
POINT
  5
643
100
AcDbEntity
  8
DEFPOINTS
  6
CONTINUOUS
 62
     7
100
AcDbPoint
 10
-596.0
 20
1029.149774
 30
0.0
  0
LINE
  5
644
100
AcDbEntity
  8
SIZE
  6
CONTINUOUS
 62
    30
100
AcDbLine
 10
-591.0
 20
1029.149774
 30
0.0
 11
-586.0
 21
1029.149774
 31
0.0
  0
CIRCLE
  5
645
100
AcDbEntity
  8
SIZE
  6
CONTINUOUS
 62
    30
100
AcDbCircle
 10
-596.0
 20
1029.149774
 30
0.0
 40
5.0
  0
LINE
  5
646
100
AcDbEntity
  8
BASIS
  6
DASHDOT
 62
     6
100
AcDbLine
 10
0.0
 20
468.571713
 30
0.0
 11
0.0
 21
-53.886171
 31
0.0
  0
CIRCLE
  5
647
100
AcDbEntity
  8
ARRANGE
  6
CONTINUOUS
 62
     1
100
AcDbCircle
 10
0.0
 20
0.0
 30
0.0
 40
50.0
  0
LINE
  5
648
100
AcDbEntity
  8
OUTLINE
  6
CONTINUOUS
 62
     3
100
AcDbLine
 10
620.0
 20
-4.006508
 30
0.0
 11
620.0
 21
0.0
 31
0.0
  0
LINE
  5
649
100
AcDbEntity
  8
ARRANGE
  6
CONTINUOUS
 62
     1
100
AcDbLine
 10
-49.963763
 20
49.596595
 30
0.0
 11
49.963763
 21
-49.596595
 31
0.0
  0
LINE
  5
64A
100
AcDbEntity
  8
ARRANGE
  6
CONTINUOUS
 62
     1
100
AcDbLine
 10
-50.03735
 20
-49.522353
 30
0.0
 11
50.03735
 21
49.522353
 31
0.0
  0
LINE
  5
64B
100
AcDbEntity
  8
NOTE
  6
CONTINUOUS
 62
     4
100
AcDbLine
 10
764.793902
 20
-138.187774
 30
0.0
 11
580.0
 21
168.0
 31
0.0
  0
LINE
  5
64C
100
AcDbEntity
  8
DETAIL
  6
CONTINUOUS
 62
     5
100
AcDbLine
 10
620.0
 20
-4.006508
 30
0.0
 11
620.0
 21
0.0
 31
0.0
  0
LINE
  5
64D
100
AcDbEntity
  8
OUTLINE
  6
CONTINUOUS
 62
     3
100
AcDbLine
 10
620.0
 20
-4.006508
 30
0.0
 11
566.53
 21
-8.0
 31
0.0
  0
LINE
  5
64E
100
AcDbEntity
  8
DETAIL
  6
CONTINUOUS
 62
     5
100
AcDbLine
 10
620.0
 20
-4.006508
 30
0.0
 11
566.53
 21
-8.0
 31
0.0
  0
TEXT
  5
64F
100
AcDbEntity
  8
SIZE
  6
CONTINUOUS
 62
    30
100
AcDbText
 10
-307.371429
 20
-160.809889
 30
0.0
 40
55.0
  1
1200（天井開口寸法）
 41
0.9
 72
     1
 11
0.0
 21
-160.809889
 31
0.0
100
AcDbText
  0
TEXT
  5
650
100
AcDbEntity
  8
SIZE
  6
CONTINUOUS
 62
    30
100
AcDbText
 10
-77.930354
 20
-307.067462
 30
0.0
 40
55.0
  1
1240
 41
0.9
 72
     1
 11
4.569646
 21
-307.067462
 31
0.0
100
AcDbText
  0
LINE
  5
651
100
AcDbEntity
  8
NOTE
  6
CONTINUOUS
 62
     4
100
AcDbLine
 10
1194.183179
 20
-138.187774
 30
0.0
 11
764.793902
 21
-138.187774
 31
0.0
  0
TEXT
  5
652
100
AcDbEntity
  8
NOTE
  6
CONTINUOUS
 62
     4
100
AcDbText
 10
780.927651
 20
-122.361243
 30
0.0
 40
60.0
  1
D2（自然排水口）
 50
0.000003
 41
0.7
  7
STANDARD1
100
AcDbText
  0
LINE
  5
653
100
AcDbEntity
  8
SIZE
  6
CONTINUOUS
 62
    30
100
AcDbLine
 10
620.0
 20
-24.006508
 30
0.0
 11
620.0
 21
-355.067462
 31
0.0
  0
LINE
  5
654
100
AcDbEntity
  8
SIZE
  6
CONTINUOUS
 62
    30
100
AcDbLine
 10
615.0
 20
-325.067462
 30
0.0
 11
610.0
 21
-325.067462
 31
0.0
  0
CIRCLE
  5
655
100
AcDbEntity
  8
SIZE
  6
CONTINUOUS
 62
    30
100
AcDbCircle
 10
620.0
 20
-325.067462
 30
0.0
 40
5.0
  0
LINE
  5
656
100
AcDbEntity
  8
SIZE
  6
CONTINUOUS
 62
    30
100
AcDbLine
 10
600.0
 20
-19.0
 30
0.0
 11
600.0
 21
-208.809889
 31
0.0
  0
TEXT
  5
657
100
AcDbEntity
  8
SIZE
  6
CONTINUOUS
 62
    30
100
AcDbText
 10
658.0
 20
-160.809889
 30
0.0
 40
55.0
  1
20
 41
0.9
 72
     1
 11
698.071429
 21
-160.809889
 31
0.0
100
AcDbText
  0
LINE
  5
658
100
AcDbEntity
  8
SIZE
  6
CONTINUOUS
 62
    30
100
AcDbLine
 10
600.0
 20
-19.0
 30
0.0
 11
600.0
 21
-208.809889
 31
0.0
  0
LINE
  5
659
100
AcDbEntity
  8
SIZE
  6
CONTINUOUS
 62
    30
100
AcDbLine
 10
620.0
 20
-24.006508
 30
0.0
 11
620.0
 21
-208.809889
 31
0.0
  0
LINE
  5
65A
100
AcDbEntity
  8
SIZE
  6
CONTINUOUS
 62
    30
100
AcDbLine
 10
630.0
 20
-178.809889
 30
0.0
 11
756.142857
 21
-178.809889
 31
0.0
  0
LINE
  5
65B
100
AcDbEntity
  8
SIZE
  6
CONTINUOUS
 62
    30
100
AcDbLine
 10
595.0
 20
-178.809889
 30
0.0
 11
590.0
 21
-178.809889
 31
0.0
  0
CIRCLE
  5
65C
100
AcDbEntity
  8
SIZE
  6
CONTINUOUS
 62
    30
100
AcDbCircle
 10
600.0
 20
-178.809889
 30
0.0
 40
5.0
  0
POINT
  5
65D
100
AcDbEntity
  8
DEFPOINTS
  6
CONTINUOUS
 62
     7
100
AcDbPoint
 10
600.0
 20
-178.809889
 30
0.0
  0
LINE
  5
65E
100
AcDbEntity
  8
SIZE
  6
CONTINUOUS
 62
    30
100
AcDbLine
 10
625.0
 20
-178.809889
 30
0.0
 11
630.0
 21
-178.809889
 31
0.0
  0
CIRCLE
  5
65F
100
AcDbEntity
  8
SIZE
  6
CONTINUOUS
 62
    30
100
AcDbCircle
 10
620.0
 20
-178.809889
 30
0.0
 40
5.0
  0
LINE
  5
660
100
AcDbEntity
  8
SIZE
  6
CONTINUOUS
 62
    30
100
AcDbLine
 10
595.0
 20
-178.809889
 30
0.0
 11
590.0
 21
-178.809889
 31
0.0
  0
CIRCLE
  5
661
100
AcDbEntity
  8
SIZE
  6
CONTINUOUS
 62
    30
100
AcDbCircle
 10
600.0
 20
-178.809889
 30
0.0
 40
5.0
  0
LINE
  5
662
100
AcDbEntity
  8
SIZE
  6
CONTINUOUS
 62
    30
100
AcDbLine
 10
600.0
 20
-178.809889
 30
0.0
 11
620.0
 21
-178.809889
 31
0.0
  0
LINE
  5
663
100
AcDbEntity
  8
SIZE
  6
CONTINUOUS
 62
    30
100
AcDbLine
 10
590.0
 20
-178.809889
 30
0.0
 11
580.0
 21
-178.809889
 31
0.0
  0
POINT
  5
664
100
AcDbEntity
  8
DEFPOINTS
  6
CONTINUOUS
 62
     7
100
AcDbPoint
 10
620.0
 20
-4.006508
 30
0.0
  0
POINT
  5
665
100
AcDbEntity
  8
DEFPOINTS
  6
CONTINUOUS
 62
     7
100
AcDbPoint
 10
620.0
 20
-4.006508
 30
0.0
  0
LINE
  5
666
100
AcDbEntity
  8
SIZE
  6
CONTINUOUS
 62
    30
100
AcDbLine
 10
586.0
 20
58.769509
 30
0.0
 11
504.642857
 21
58.769509
 31
0.0
  0
LINE
  5
667
100
AcDbEntity
  8
SIZE
  6
CONTINUOUS
 62
    30
100
AcDbLine
 10
570.0
 20
601.245085
 30
0.0
 11
446.214286
 21
601.245085
 31
0.0
  0
LINE
  5
668
100
AcDbEntity
  8
SIZE
  6
CONTINUOUS
 62
    30
100
AcDbLine
 10
568.0
 20
917.162422
 30
0.0
 11
563.0
 21
917.162422
 31
0.0
  0
LINE
  5
669
100
AcDbEntity
  8
SIZE
  6
CONTINUOUS
 62
    30
100
AcDbLine
 10
568.0
 20
917.162422
 30
0.0
 11
563.0
 21
917.162422
 31
0.0
  0
LINE
  5
66A
100
AcDbEntity
  8
SIZE
  6
CONTINUOUS
 62
    30
100
AcDbLine
 10
570.0
 20
800.103197
 30
0.0
 11
560.0
 21
800.103197
 31
0.0
  0
LINE
  5
66B
100
AcDbEntity
  8
SIZE
  6
CONTINUOUS
 62
    30
100
AcDbLine
 10
570.0
 20
702.354232
 30
0.0
 11
446.214286
 21
702.354232
 31
0.0
  0
LINE
  5
66C
100
AcDbEntity
  8
SIZE
  6
CONTINUOUS
 62
    30
100
AcDbLine
 10
570.0
 20
515.644821
 30
0.0
 11
441.5
 21
515.644821
 31
0.0
  0
LINE
  5
66D
100
AcDbEntity
  8
NOTE
  6
CONTINUOUS
 62
     4
100
AcDbLine
 10
321.058901
 20
566.469568
 30
0.0
 11
616.0
 21
261.0
 31
0.0
  0
CIRCLE
  5
66E
100
AcDbEntity
  8
FIX
  6
CONTINUOUS
 62
    11
100
AcDbCircle
 10
573.0
 20
433.0
 30
0.0
 40
12.421498
  0
LINE
  5
66F
100
AcDbEntity
  8
NOTE
  6
CONTINUOUS
 62
     4
100
AcDbLine
 10
587.995166
 20
433.0
 30
0.0
 11
558.004834
 21
433.0
 31
0.0
  0
TEXT
  5
670
100
AcDbEntity
  8
NOTE
  6
CONTINUOUS
 62
     4
100
AcDbText
 10
-5.81637
 20
582.296112
 30
0.0
 40
60.0
  1
RL %%C9.52
 50
359.999997
 41
0.7
  7
STANDARD1
100
AcDbText
  0
LINE
  5
671
100
AcDbEntity
  8
NOTE
  6
CONTINUOUS
 62
     4
100
AcDbLine
 10
-22.65468
 20
566.469568
 30
0.0
 11
321.058901
 21
566.469568
 31
0.0
  0
LINE
  5
672
100
AcDbEntity
  8
DETAIL
  6
CONTINUOUS
 62
     5
100
AcDbLine
 10
565.0
 20
152.0
 30
0.0
 11
565.0
 21
140.0
 31
0.0
  0
LINE
  5
673
100
AcDbEntity
  8
DETAIL
  6
CONTINUOUS
 62
     5
100
AcDbLine
 10
565.0
 20
152.0
 30
0.0
 11
565.0
 21
140.0
 31
0.0
  0
TEXT
  5
674
100
AcDbEntity
  8
SIZE
  6
CONTINUOUS
 62
    30
100
AcDbText
 10
522.642858
 20
76.769509
 30
0.0
 40
55.0
  1
4
 41
0.9
 72
     1
 11
540.321429
 21
76.769509
 31
0.0
100
AcDbText
  0
LINE
  5
675
100
AcDbEntity
  8
DETAIL
  6
CONTINUOUS
 62
     5
100
AcDbLine
 10
562.0
 20
155.0
 30
0.0
 11
565.0
 21
152.0
 31
0.0
  0
LINE
  5
676
100
AcDbEntity
  8
DETAIL
  6
CONTINUOUS
 62
     5
100
AcDbLine
 10
562.0
 20
155.0
 30
0.0
 11
565.0
 21
152.0
 31
0.0
  0
TEXT
  5
677
100
AcDbEntity
  8
SIZE
  6
CONTINUOUS
 62
    30
100
AcDbText
 10
459.5
 20
533.644821
 30
0.0
 40
55.0
  1
34
 41
0.9
 72
     1
 11
500.75
 21
533.644821
 31
0.0
100
AcDbText
  0
TEXT
  5
678
100
AcDbEntity
  8
SIZE
  6
CONTINUOUS
 62
    30
100
AcDbText
 10
-77.785714
 20
818.103197
 30
0.0
 40
55.0
  1
1160
 41
0.9
 72
     1
 11
0.0
 21
818.103197
 31
0.0
100
AcDbText
  0
TEXT
  5
679
100
AcDbEntity
  8
SIZE
  6
CONTINUOUS
 62
    30
100
AcDbText
 10
-75.635249
 20
1047.149774
 30
0.0
 40
55.0
  1
1192
 41
0.9
 72
     1
 11
2.150465
 21
1047.149774
 31
0.0
100
AcDbText
  0
TEXT
  5
67A
100
AcDbEntity
  8
SIZE
  6
CONTINUOUS
 62
    30
100
AcDbText
 10
464.214286
 20
720.354232
 30
0.0
 40
55.0
  1
39
 41
0.9
 72
     1
 11
503.107143
 21
720.354232
 31
0.0
100
AcDbText
  0
TEXT
  5
67B
100
AcDbEntity
  8
SIZE
  6
CONTINUOUS
 62
    30
100
AcDbText
 10
464.214286
 20
619.245085
 30
0.0
 40
55.0
  1
36
 41
0.9
 72
     1
 11
503.107143
 21
619.245085
 31
0.0
100
AcDbText
  0
LINE
  5
67C
100
AcDbEntity
  8
SIZE
  6
CONTINUOUS
 62
    30
100
AcDbLine
 10
563.0
 20
917.162422
 30
0.0
 11
553.0
 21
917.162422
 31
0.0
  0
LINE
  5
67D
100
AcDbEntity
  8
SIZE
  6
CONTINUOUS
 62
    30
100
AcDbLine
 10
580.0
 20
453.0
 30
0.0
 11
580.0
 21
631.245085
 31
0.0
  0
LINE
  5
67E
100
AcDbEntity
  8
SIZE
  6
CONTINUOUS
 62
    30
100
AcDbLine
 10
616.0
 20
266.5
 30
0.0
 11
616.0
 21
631.245085
 31
0.0
  0
LINE
  5
67F
100
AcDbEntity
  8
SIZE
  6
CONTINUOUS
 62
    30
100
AcDbLine
 10
573.0
 20
467.995166
 30
0.0
 11
573.0
 21
947.162422
 31
0.0
  0
LINE
  5
680
100
AcDbEntity
  8
SIZE
  6
CONTINUOUS
 62
    30
100
AcDbLine
 10
573.0
 20
467.995166
 30
0.0
 11
573.0
 21
947.162422
 31
0.0
  0
LINE
  5
681
100
AcDbEntity
  8
SIZE
  6
CONTINUOUS
 62
    30
100
AcDbLine
 10
596.0
 20
448.7
 30
0.0
 11
596.0
 21
947.162422
 31
0.0
  0
LINE
  5
682
100
AcDbEntity
  8
SIZE
  6
CONTINUOUS
 62
    30
100
AcDbLine
 10
580.0
 20
453.0
 30
0.0
 11
580.0
 21
830.103197
 31
0.0
  0
LINE
  5
683
100
AcDbEntity
  8
SIZE
  6
CONTINUOUS
 62
    30
100
AcDbLine
 10
580.0
 20
453.0
 30
0.0
 11
580.0
 21
830.103197
 31
0.0
  0
LINE
  5
684
100
AcDbEntity
  8
SIZE
  6
CONTINUOUS
 62
    30
100
AcDbLine
 10
596.0
 20
448.7
 30
0.0
 11
596.0
 21
830.103197
 31
0.0
  0
LINE
  5
685
100
AcDbEntity
  8
SIZE
  6
CONTINUOUS
 62
    30
100
AcDbLine
 10
619.0
 20
244.25
 30
0.0
 11
619.009149
 21
732.354232
 31
0.0
  0
LINE
  5
686
100
AcDbEntity
  8
SIZE
  6
CONTINUOUS
 62
    30
100
AcDbLine
 10
580.0
 20
453.0
 30
0.0
 11
580.0
 21
732.354232
 31
0.0
  0
LINE
  5
687
100
AcDbEntity
  8
NOTE
  6
CONTINUOUS
 62
     4
100
AcDbLine
 10
723.961593
 20
658.270084
 30
0.0
 11
614.0
 21
325.0
 31
0.0
  0
LINE
  5
688
100
AcDbEntity
  8
SIZE
  6
CONTINUOUS
 62
    30
100
AcDbLine
 10
596.0
 20
447.1
 30
0.0
 11
596.0
 21
1059.149774
 31
0.0
  0
LINE
  5
689
100
AcDbEntity
  8
NOTE
  6
CONTINUOUS
 62
     4
100
AcDbLine
 10
781.785068
 20
14.295113
 30
0.0
 11
1153.315948
 21
14.295113
 31
0.0
  0
TEXT
  5
68A
100
AcDbEntity
  8
NOTE
  6
CONTINUOUS
 62
     4
100
AcDbText
 10
796.958705
 20
30.121657
 30
0.0
 40
60.0
  1
RG %%C15.88
 50
359.999997
 41
0.7
  7
STANDARD1
100
AcDbText
  0
LINE
  5
68B
100
AcDbEntity
  8
SIZE
  6
CONTINUOUS
 62
    30
100
AcDbLine
 10
605.490851
 20
168.0
 30
0.0
 11
1184.559184
 21
168.0
 31
0.0
  0
LINE
  5
68C
100
AcDbEntity
  8
SIZE
  6
CONTINUOUS
 62
    30
100
AcDbLine
 10
611.7
 20
433.0
 30
0.0
 11
1184.559184
 21
433.0
 31
0.0
  0
LINE
  5
68D
100
AcDbEntity
  8
SIZE
  6
CONTINUOUS
 62
    30
100
AcDbLine
 10
926.720069
 20
247.0
 30
0.0
 11
1028.920159
 21
270.779464
 31
0.0
  0
LINE
  5
68E
100
AcDbEntity
  8
SIZE
  6
CONTINUOUS
 62
    30
100
AcDbLine
 10
596.0
 20
508.0
 30
0.0
 11
596.0
 21
28.769509
 31
0.0
  0
TEXT
  5
68F
100
AcDbEntity
  8
SIZE
  6
CONTINUOUS
 62
    30
100
AcDbText
 10
1010.920159
 20
288.779463
 30
0.0
 40
55.0
  1
28
 50
90.0
 41
0.9
 72
     1
 11
1010.920159
 21
328.850892
 31
0.0
100
AcDbText
  0
TEXT
  5
690
100
AcDbEntity
  8
SIZE
  6
CONTINUOUS
 62
    30
100
AcDbText
 10
908.720069
 20
288.071429
 30
0.0
 40
55.0
  1
172
 50
90.0
 41
0.9
 72
     1
 11
908.720069
 21
347.0
 31
0.0
100
AcDbText
  0
LINE
  5
691
100
AcDbEntity
  8
SIZE
  6
CONTINUOUS
 62
    30
100
AcDbLine
 10
926.720069
 20
423.0
 30
0.0
 11
926.720069
 21
271.0
 31
0.0
  0
LINE
  5
692
100
AcDbEntity
  8
OUTLINE
  6
CONTINUOUS
 62
     3
100
AcDbLine
 10
580.0
 20
140.0
 30
0.0
 11
580.0
 21
433.0
 31
0.0
  0
LINE
  5
696
100
AcDbEntity
  8
SIZE
  6
CONTINUOUS
 62
    30
100
AcDbLine
 10
647.259149
 20
233.0
 30
0.0
 11
956.720069
 21
233.0
 31
0.0
  0
LINE
  5
697
100
AcDbEntity
  8
SIZE
  6
CONTINUOUS
 62
    30
100
AcDbLine
 10
644.5
 20
261.0
 30
0.0
 11
956.720069
 21
261.0
 31
0.0
  0
LINE
  5
698
100
AcDbEntity
  8
SIZE
  6
CONTINUOUS
 62
    30
100
AcDbLine
 10
644.5
 20
261.0
 30
0.0
 11
956.720069
 21
261.0
 31
0.0
  0
LINE
  5
699
100
AcDbEntity
  8
NOTE
  6
CONTINUOUS
 62
     4
100
AcDbLine
 10
580.0
 20
168.0
 30
0.0
 11
591.034134
 21
135.433183
 31
0.0
  0
LINE
  5
69A
100
AcDbEntity
  8
NOTE
  6
CONTINUOUS
 62
     4
100
AcDbLine
 10
580.0
 20
168.0
 30
0.0
 11
605.839249
 21
145.313376
 31
0.0
  0
LINE
  5
69B
100
AcDbEntity
  8
NOTE
  6
CONTINUOUS
 62
     4
100
AcDbLine
 10
781.785068
 20
14.295113
 30
0.0
 11
619.0
 21
233.0
 31
0.0
  0
LINE
  5
69C
100
AcDbEntity
  8
DETAIL
  6
CONTINUOUS
 62
     5
100
AcDbLine
 10
580.0
 20
433.0
 30
0.0
 11
580.0
 21
140.0
 31
0.0
  0
LINE
  5
69F
100
AcDbEntity
  8
NOTE
  6
CONTINUOUS
 62
     4
100
AcDbLine
 10
600.0
 20
1.0
 30
0.0
 11
701.307449
 21
1.0
 31
0.0
  0
LINE
  5
6A0
100
AcDbEntity
  8
NOTE
  6
CONTINUOUS
 62
     4
100
AcDbLine
 10
600.0
 20
21.0
 30
0.0
 11
701.307449
 21
21.0
 31
0.0
  0
LINE
  5
6A1
100
AcDbEntity
  8
NOTE
  6
CONTINUOUS
 62
     4
100
AcDbLine
 10
690.265008
 20
1.0
 30
0.0
 11
670.265008
 21
21.0
 31
0.0
  0
LINE
  5
6A2
100
AcDbEntity
  8
NOTE
  6
CONTINUOUS
 62
     4
100
AcDbLine
 10
685.265008
 20
1.0
 30
0.0
 11
665.265008
 21
21.0
 31
0.0
  0
LINE
  5
6A3
100
AcDbEntity
  8
NOTE
  6
CONTINUOUS
 62
     4
100
AcDbLine
 10
680.265008
 20
1.0
 30
0.0
 11
660.265008
 21
21.0
 31
0.0
  0
POINT
  5
6A4
100
AcDbEntity
  8
DEFPOINTS
  6
CONTINUOUS
 62
     7
100
AcDbPoint
 10
596.0
 20
58.769509
 30
0.0
  0
POINT
  5
6A5
100
AcDbEntity
  8
DEFPOINTS
  6
CONTINUOUS
 62
     7
100
AcDbPoint
 10
600.0
 20
21.0
 30
0.0
  0
LINE
  5
6A6
100
AcDbEntity
  8
SIZE
  6
CONTINUOUS
 62
    30
100
AcDbLine
 10
591.0
 20
58.769509
 30
0.0
 11
586.0
 21
58.769509
 31
0.0
  0
CIRCLE
  5
6A7
100
AcDbEntity
  8
SIZE
  6
CONTINUOUS
 62
    30
100
AcDbCircle
 10
596.0
 20
58.769509
 30
0.0
 40
5.0
  0
LINE
  5
6A8
100
AcDbEntity
  8
SIZE
  6
CONTINUOUS
 62
    30
100
AcDbLine
 10
605.0
 20
58.769509
 30
0.0
 11
610.0
 21
58.769509
 31
0.0
  0
CIRCLE
  5
6A9
100
AcDbEntity
  8
SIZE
  6
CONTINUOUS
 62
    30
100
AcDbCircle
 10
600.0
 20
58.769509
 30
0.0
 40
5.0
  0
LINE
  5
6AA
100
AcDbEntity
  8
SIZE
  6
CONTINUOUS
 62
    30
100
AcDbLine
 10
600.0
 20
58.769509
 30
0.0
 11
596.0
 21
58.769509
 31
0.0
  0
LINE
  5
6AB
100
AcDbEntity
  8
SIZE
  6
CONTINUOUS
 62
    30
100
AcDbLine
 10
610.0
 20
58.769509
 30
0.0
 11
620.0
 21
58.769509
 31
0.0
  0
LINE
  5
6AC
100
AcDbEntity
  8
SIZE
  6
CONTINUOUS
 62
    30
100
AcDbLine
 10
600.0
 20
41.0
 30
0.0
 11
600.0
 21
88.769509
 31
0.0
  0
POINT
  5
6AD
100
AcDbEntity
  8
DEFPOINTS
  6
CONTINUOUS
 62
     7
100
AcDbPoint
 10
600.0
 20
1.0
 30
0.0
  0
POINT
  5
6AE
100
AcDbEntity
  8
DEFPOINTS
  6
CONTINUOUS
 62
     7
100
AcDbPoint
 10
600.0
 20
1.0
 30
0.0
  0
LINE
  5
6AF
100
AcDbEntity
  8
OUTLINE
  6
CONTINUOUS
 62
     3
100
AcDbLine
 10
580.0
 20
0.0
 30
0.0
 11
580.0
 21
47.0
 31
0.0
  0
LINE
  5
6B0
100
AcDbEntity
  8
OUTLINE
  6
CONTINUOUS
 62
     3
100
AcDbLine
 10
580.0
 20
0.0
 30
0.0
 11
585.0
 21
0.0
 31
0.0
  0
LINE
  5
6B1
100
AcDbEntity
  8
NOTE
  6
CONTINUOUS
 62
     4
100
AcDbLine
 10
600.0
 20
1.0
 30
0.0
 11
600.0
 21
21.0
 31
0.0
  0
LINE
  5
6B2
100
AcDbEntity
  8
NOTE
  6
CONTINUOUS
 62
     4
100
AcDbLine
 10
650.265008
 20
1.0
 30
0.0
 11
630.265008
 21
21.0
 31
0.0
  0
LINE
  5
6B3
100
AcDbEntity
  8
NOTE
  6
CONTINUOUS
 62
     4
100
AcDbLine
 10
645.265008
 20
1.0
 30
0.0
 11
625.265008
 21
21.0
 31
0.0
  0
LINE
  5
6B4
100
AcDbEntity
  8
NOTE
  6
CONTINUOUS
 62
     4
100
AcDbLine
 10
640.265008
 20
1.0
 30
0.0
 11
620.265008
 21
21.0
 31
0.0
  0
LINE
  5
6B5
100
AcDbEntity
  8
DETAIL
  6
CONTINUOUS
 62
     5
100
AcDbLine
 10
580.0
 20
0.0
 30
0.0
 11
580.0
 21
47.0
 31
0.0
  0
POINT
  5
6B7
100
AcDbEntity
  8
DEFPOINTS
  6
CONTINUOUS
 62
     7
100
AcDbPoint
 10
619.0
 20
244.25
 30
0.0
  0
POINT
  5
6B8
100
AcDbEntity
  8
DEFPOINTS
  6
CONTINUOUS
 62
     7
100
AcDbPoint
 10
619.009149
 20
261.0
 30
0.0
  0
LINE
  5
6B9
100
AcDbEntity
  8
NOTE
  6
CONTINUOUS
 62
     4
100
AcDbLine
 10
610.5
 20
261.0
 30
0.0
 11
621.5
 21
261.0
 31
0.0
  0
LINE
  5
6BA
100
AcDbEntity
  8
NOTE
  6
CONTINUOUS
 62
     4
100
AcDbLine
 10
616.0
 20
266.5
 30
0.0
 11
616.0
 21
255.500008
 31
0.0
  0
LINE
  5
6BB
100
AcDbEntity
  8
NOTE
  6
CONTINUOUS
 62
     4
100
AcDbLine
 10
616.0
 20
261.0
 30
0.0
 11
597.843252
 21
290.195032
 31
0.0
  0
LINE
  5
6BC
100
AcDbEntity
  8
NOTE
  6
CONTINUOUS
 62
     4
100
AcDbLine
 10
616.0
 20
261.0
 30
0.0
 11
585.679505
 21
277.20069
 31
0.0
  0
LINE
  5
6BD
100
AcDbEntity
  8
DETAIL
  6
CONTINUOUS
 62
     5
100
AcDbLine
 10
597.0
 20
255.5
 30
0.0
 11
580.0
 21
255.5
 31
0.0
  0
LINE
  5
6BE
100
AcDbEntity
  8
DETAIL
  6
CONTINUOUS
 62
     5
100
AcDbLine
 10
596.0
 20
251.5
 30
0.0
 11
580.0
 21
251.5
 31
0.0
  0
LINE
  5
6BF
100
AcDbEntity
  8
DETAIL
  6
CONTINUOUS
 62
     5
100
AcDbLine
 10
596.0
 20
270.5
 30
0.0
 11
580.0
 21
270.5
 31
0.0
  0
LINE
  5
6C0
100
AcDbEntity
  8
DETAIL
  6
CONTINUOUS
 62
     5
100
AcDbLine
 10
597.0
 20
266.5
 30
0.0
 11
580.0
 21
266.5
 31
0.0
  0
LINE
  5
6C1
100
AcDbEntity
  8
DETAIL
  6
CONTINUOUS
 62
     5
100
AcDbLine
 10
613.0
 20
250.5
 30
0.0
 11
600.0
 21
250.5
 31
0.0
  0
LINE
  5
6C2
100
AcDbEntity
  8
DETAIL
  6
CONTINUOUS
 62
     5
100
AcDbLine
 10
612.0
 20
255.5
 30
0.0
 11
599.0
 21
255.5
 31
0.0
  0
LINE
  5
6C3
100
AcDbEntity
  8
DETAIL
  6
CONTINUOUS
 62
     5
100
AcDbLine
 10
616.0
 20
255.5
 30
0.0
 11
616.0
 21
266.5
 31
0.0
  0
LINE
  5
6C4
100
AcDbEntity
  8
DETAIL
  6
CONTINUOUS
 62
     5
100
AcDbLine
 10
616.0
 20
255.5
 30
0.0
 11
613.0
 21
250.5
 31
0.0
  0
LINE
  5
6C5
100
AcDbEntity
  8
DETAIL
  6
CONTINUOUS
 62
     5
100
AcDbLine
 10
599.0
 20
251.5
 30
0.0
 11
600.0
 21
250.5
 31
0.0
  0
LINE
  5
6C6
100
AcDbEntity
  8
DETAIL
  6
CONTINUOUS
 62
     5
100
AcDbLine
 10
597.0
 20
252.5
 30
0.0
 11
596.0
 21
251.5
 31
0.0
  0
LINE
  5
6C7
100
AcDbEntity
  8
DETAIL
  6
CONTINUOUS
 62
     5
100
AcDbLine
 10
612.0
 20
255.5
 30
0.0
 11
613.0
 21
256.5
 31
0.0
  0
LINE
  5
6C8
100
AcDbEntity
  8
DETAIL
  6
CONTINUOUS
 62
     5
100
AcDbLine
 10
612.0
 20
255.5
 30
0.0
 11
613.0
 21
254.5
 31
0.0
  0
LINE
  5
6C9
100
AcDbEntity
  8
DETAIL
  6
CONTINUOUS
 62
     5
100
AcDbLine
 10
599.0
 20
256.24
 30
0.0
 11
597.0
 21
256.24
 31
0.0
  0
LINE
  5
6CA
100
AcDbEntity
  8
DETAIL
  6
CONTINUOUS
 62
     5
100
AcDbLine
 10
597.0
 20
252.5
 30
0.0
 11
597.0
 21
269.5
 31
0.0
  0
LINE
  5
6CB
100
AcDbEntity
  8
DETAIL
  6
CONTINUOUS
 62
     5
100
AcDbLine
 10
599.0
 20
251.5
 30
0.0
 11
599.0
 21
270.5
 31
0.0
  0
LINE
  5
6CC
100
AcDbEntity
  8
DETAIL
  6
CONTINUOUS
 62
     5
100
AcDbLine
 10
613.0
 20
271.5
 30
0.0
 11
600.0
 21
271.5
 31
0.0
  0
LINE
  5
6CD
100
AcDbEntity
  8
DETAIL
  6
CONTINUOUS
 62
     5
100
AcDbLine
 10
613.0
 20
250.5
 30
0.0
 11
613.0
 21
271.5
 31
0.0
  0
LINE
  5
6CE
100
AcDbEntity
  8
DETAIL
  6
CONTINUOUS
 62
     5
100
AcDbLine
 10
612.0
 20
266.5
 30
0.0
 11
599.0
 21
266.5
 31
0.0
  0
LINE
  5
6CF
100
AcDbEntity
  8
DETAIL
  6
CONTINUOUS
 62
     5
100
AcDbLine
 10
616.0
 20
266.5
 30
0.0
 11
613.0
 21
271.5
 31
0.0
  0
LINE
  5
6D0
100
AcDbEntity
  8
DETAIL
  6
CONTINUOUS
 62
     5
100
AcDbLine
 10
600.0
 20
271.5
 30
0.0
 11
599.0
 21
270.5
 31
0.0
  0
LINE
  5
6D1
100
AcDbEntity
  8
DETAIL
  6
CONTINUOUS
 62
     5
100
AcDbLine
 10
597.0
 20
269.5
 30
0.0
 11
596.0
 21
270.5
 31
0.0
  0
LINE
  5
6D2
100
AcDbEntity
  8
DETAIL
  6
CONTINUOUS
 62
     5
100
AcDbLine
 10
612.0
 20
266.5
 30
0.0
 11
613.0
 21
267.5
 31
0.0
  0
LINE
  5
6D3
100
AcDbEntity
  8
DETAIL
  6
CONTINUOUS
 62
     5
100
AcDbLine
 10
612.0
 20
266.5
 30
0.0
 11
613.0
 21
265.5
 31
0.0
  0
LINE
  5
6D4
100
AcDbEntity
  8
DETAIL
  6
CONTINUOUS
 62
     5
100
AcDbLine
 10
599.0
 20
265.76
 30
0.0
 11
597.0
 21
265.76
 31
0.0
  0
LINE
  5
6DB
100
AcDbEntity
  8
DETAIL
  6
CONTINUOUS
 62
     5
100
AcDbLine
 10
616.0
 20
255.5
 30
0.0
 11
616.0
 21
266.5
 31
0.0
  0
LINE
  5
6DC
100
AcDbEntity
  8
DETAIL
  6
CONTINUOUS
 62
     5
100
AcDbLine
 10
616.0
 20
255.5
 30
0.0
 11
613.0
 21
250.5
 31
0.0
  0
LINE
  5
6E7
100
AcDbEntity
  8
DETAIL
  6
CONTINUOUS
 62
     5
100
AcDbLine
 10
616.0
 20
266.5
 30
0.0
 11
613.0
 21
271.5
 31
0.0
  0
POINT
  5
6ED
100
AcDbEntity
  8
DEFPOINTS
  6
CONTINUOUS
 62
     7
100
AcDbPoint
 10
585.490851
 20
168.0
 30
0.0
  0
POINT
  5
6EE
100
AcDbEntity
  8
DEFPOINTS
  6
CONTINUOUS
 62
     7
100
AcDbPoint
 10
630.259149
 20
233.0
 30
0.0
  0
POINT
  5
6EF
100
AcDbEntity
  8
DEFPOINTS
  6
CONTINUOUS
 62
     7
100
AcDbPoint
 10
621.5
 20
261.0
 30
0.0
  0
POINT
  5
6F0
100
AcDbEntity
  8
DEFPOINTS
  6
CONTINUOUS
 62
     7
100
AcDbPoint
 10
621.5
 20
261.0
 30
0.0
  0
LINE
  5
6F1
100
AcDbEntity
  8
NOTE
  6
CONTINUOUS
 62
     4
100
AcDbLine
 10
574.490851
 20
168.0
 30
0.0
 11
585.490851
 21
168.0
 31
0.0
  0
LINE
  5
6F2
100
AcDbEntity
  8
NOTE
  6
CONTINUOUS
 62
     4
100
AcDbLine
 10
580.0
 20
173.499992
 30
0.0
 11
580.0
 21
162.500008
 31
0.0
  0
LINE
  5
6F3
100
AcDbEntity
  8
NOTE
  6
CONTINUOUS
 62
     4
100
AcDbLine
 10
607.759149
 20
233.0
 30
0.0
 11
630.259149
 21
233.0
 31
0.0
  0
LINE
  5
6F4
100
AcDbEntity
  8
NOTE
  6
CONTINUOUS
 62
     4
100
AcDbLine
 10
619.0
 20
244.249996
 30
0.0
 11
619.0
 21
221.750004
 31
0.0
  0
LINE
  5
6F5
100
AcDbEntity
  8
NOTE
  6
CONTINUOUS
 62
     4
100
AcDbLine
 10
619.0
 20
233.0
 30
0.0
 11
633.405621
 21
201.777768
 31
0.0
  0
LINE
  5
6F6
100
AcDbEntity
  8
NOTE
  6
CONTINUOUS
 62
     4
100
AcDbLine
 10
619.0
 20
233.0
 30
0.0
 11
647.08675
 21
213.163565
 31
0.0
  0
LINE
  5
6F7
100
AcDbEntity
  8
DETAIL
  6
CONTINUOUS
 62
     5
100
AcDbLine
 10
619.0
 20
244.25
 30
0.0
 11
619.0
 21
221.75
 31
0.0
  0
LINE
  5
6F8
100
AcDbEntity
  8
DETAIL
  6
CONTINUOUS
 62
     5
100
AcDbLine
 10
580.0
 20
221.5
 30
0.0
 11
594.009149
 21
221.5
 31
0.0
  0
LINE
  5
6F9
100
AcDbEntity
  8
DETAIL
  6
CONTINUOUS
 62
     5
100
AcDbLine
 10
580.0
 20
244.5
 30
0.0
 11
594.009149
 21
244.5
 31
0.0
  0
LINE
  5
6FA
100
AcDbEntity
  8
DETAIL
  6
CONTINUOUS
 62
     5
100
AcDbLine
 10
614.009149
 20
226.0
 30
0.0
 11
616.009149
 21
224.0
 31
0.0
  0
LINE
  5
6FC
100
AcDbEntity
  8
DETAIL
  6
CONTINUOUS
 62
     5
100
AcDbLine
 10
614.009149
 20
226.0
 30
0.0
 11
616.009149
 21
228.0
 31
0.0
  0
LINE
  5
6FE
100
AcDbEntity
  8
DETAIL
  6
CONTINUOUS
 62
     5
100
AcDbLine
 10
614.009149
 20
240.0
 30
0.0
 11
616.009149
 21
238.0
 31
0.0
  0
LINE
  5
700
100
AcDbEntity
  8
DETAIL
  6
CONTINUOUS
 62
     5
100
AcDbLine
 10
614.009149
 20
240.0
 30
0.0
 11
616.009149
 21
242.0
 31
0.0
  0
LINE
  5
702
100
AcDbEntity
  8
DETAIL
  6
CONTINUOUS
 62
     5
100
AcDbLine
 10
602.009149
 20
240.0
 30
0.0
 11
600.009149
 21
242.0
 31
0.0
  0
LINE
  5
704
100
AcDbEntity
  8
DETAIL
  6
CONTINUOUS
 62
     5
100
AcDbLine
 10
602.009149
 20
240.0
 30
0.0
 11
600.009149
 21
238.0
 31
0.0
  0
LINE
  5
706
100
AcDbEntity
  8
DETAIL
  6
CONTINUOUS
 62
     5
100
AcDbLine
 10
602.009149
 20
226.0
 30
0.0
 11
600.009149
 21
228.0
 31
0.0
  0
LINE
  5
708
100
AcDbEntity
  8
DETAIL
  6
CONTINUOUS
 62
     5
100
AcDbLine
 10
602.009149
 20
226.0
 30
0.0
 11
600.009149
 21
224.0
 31
0.0
  0
LINE
  5
70A
100
AcDbEntity
  8
DETAIL
  6
CONTINUOUS
 62
     5
100
AcDbLine
 10
602.009149
 20
226.0
 30
0.0
 11
614.009149
 21
226.0
 31
0.0
  0
LINE
  5
70C
100
AcDbEntity
  8
DETAIL
  6
CONTINUOUS
 62
     5
100
AcDbLine
 10
602.009149
 20
240.0
 30
0.0
 11
614.009149
 21
240.0
 31
0.0
  0
LINE
  5
70E
100
AcDbEntity
  8
DETAIL
  6
CONTINUOUS
 62
     5
100
AcDbLine
 10
600.009149
 20
222.0
 30
0.0
 11
602.009149
 21
220.0
 31
0.0
  0
LINE
  5
710
100
AcDbEntity
  8
DETAIL
  6
CONTINUOUS
 62
     5
100
AcDbLine
 10
600.009149
 20
244.0
 30
0.0
 11
602.009149
 21
246.0
 31
0.0
  0
LINE
  5
712
100
AcDbEntity
  8
DETAIL
  6
CONTINUOUS
 62
     5
100
AcDbLine
 10
619.0
 20
221.75
 30
0.0
 11
616.009149
 21
220.0
 31
0.0
  0
LINE
  5
713
100
AcDbEntity
  8
DETAIL
  6
CONTINUOUS
 62
     5
100
AcDbLine
 10
616.009149
 20
246.0
 30
0.0
 11
619.0
 21
244.249996
 31
0.0
  0
LINE
  5
714
100
AcDbEntity
  8
DETAIL
  6
CONTINUOUS
 62
     5
100
AcDbLine
 10
616.009149
 20
246.0
 30
0.0
 11
616.009149
 21
220.0
 31
0.0
  0
LINE
  5
716
100
AcDbEntity
  8
DETAIL
  6
CONTINUOUS
 62
     5
100
AcDbLine
 10
600.009149
 20
244.0
 30
0.0
 11
600.009149
 21
222.0
 31
0.0
  0
LINE
  5
718
100
AcDbEntity
  8
DETAIL
  6
CONTINUOUS
 62
     5
100
AcDbLine
 10
602.009149
 20
220.0
 30
0.0
 11
616.009149
 21
220.0
 31
0.0
  0
LINE
  5
71A
100
AcDbEntity
  8
DETAIL
  6
CONTINUOUS
 62
     5
100
AcDbLine
 10
602.009149
 20
246.0
 30
0.0
 11
616.009149
 21
246.0
 31
0.0
  0
LINE
  5
71D
100
AcDbEntity
  8
DETAIL
  6
CONTINUOUS
 62
     5
100
AcDbLine
 10
600.009149
 20
225.06
 30
0.0
 11
596.009149
 21
225.06
 31
0.0
  0
LINE
  5
71E
100
AcDbEntity
  8
DETAIL
  6
CONTINUOUS
 62
     5
100
AcDbLine
 10
600.009149
 20
240.94
 30
0.0
 11
596.009149
 21
240.94
 31
0.0
  0
LINE
  5
71F
100
AcDbEntity
  8
DETAIL
  6
CONTINUOUS
 62
     5
100
AcDbLine
 10
596.009149
 20
242.5
 30
0.0
 11
594.009149
 21
244.5
 31
0.0
  0
LINE
  5
720
100
AcDbEntity
  8
DETAIL
  6
CONTINUOUS
 62
     5
100
AcDbLine
 10
596.009149
 20
223.5
 30
0.0
 11
594.009149
 21
221.5
 31
0.0
  0
LINE
  5
721
100
AcDbEntity
  8
DETAIL
  6
CONTINUOUS
 62
     5
100
AcDbLine
 10
596.009149
 20
242.5
 30
0.0
 11
596.009149
 21
223.5
 31
0.0
  0
LINE
  5
747
100
AcDbEntity
  8
DETAIL
  6
CONTINUOUS
 62
     5
100
AcDbLine
 10
596.009149
 20
242.5
 30
0.0
 11
596.009149
 21
223.5
 31
0.0
  0
POINT
  5
74A
100
AcDbEntity
  8
DEFPOINTS
  6
CONTINUOUS
 62
     7
100
AcDbPoint
 10
926.720069
 20
233.0
 30
0.0
  0
LINE
  5
74B
100
AcDbEntity
  8
SIZE
  6
CONTINUOUS
 62
    30
100
AcDbLine
 10
926.720069
 20
228.0
 30
0.0
 11
926.720069
 21
223.0
 31
0.0
  0
CIRCLE
  5
74C
100
AcDbEntity
  8
SIZE
  6
CONTINUOUS
 62
    30
100
AcDbCircle
 10
926.720069
 20
233.0
 30
0.0
 40
5.0
  0
LINE
  5
74D
100
AcDbEntity
  8
SIZE
  6
CONTINUOUS
 62
    30
100
AcDbLine
 10
926.720069
 20
266.0
 30
0.0
 11
926.720069
 21
271.0
 31
0.0
  0
CIRCLE
  5
74E
100
AcDbEntity
  8
SIZE
  6
CONTINUOUS
 62
    30
100
AcDbCircle
 10
926.720069
 20
261.0
 30
0.0
 40
5.0
  0
LINE
  5
74F
100
AcDbEntity
  8
SIZE
  6
CONTINUOUS
 62
    30
100
AcDbLine
 10
926.720069
 20
261.0
 30
0.0
 11
926.720069
 21
233.0
 31
0.0
  0
LINE
  5
750
100
AcDbEntity
  8
SIZE
  6
CONTINUOUS
 62
    30
100
AcDbLine
 10
926.720069
 20
261.0
 30
0.0
 11
926.720069
 21
233.0
 31
0.0
  0
LINE
  5
751
100
AcDbEntity
  8
SIZE
  6
CONTINUOUS
 62
    30
100
AcDbLine
 10
926.720069
 20
223.0
 30
0.0
 11
926.720069
 21
213.0
 31
0.0
  0
LINE
  5
752
100
AcDbEntity
  8
SIZE
  6
CONTINUOUS
 62
    30
100
AcDbLine
 10
926.720069
 20
271.0
 30
0.0
 11
926.720069
 21
281.0
 31
0.0
  0
POINT
  5
753
100
AcDbEntity
  8
DEFPOINTS
  6
CONTINUOUS
 62
     7
100
AcDbPoint
 10
926.720069
 20
261.0
 30
0.0
  0
LINE
  5
754
100
AcDbEntity
  8
SIZE
  6
CONTINUOUS
 62
    30
100
AcDbLine
 10
926.720069
 20
266.0
 30
0.0
 11
926.720069
 21
271.0
 31
0.0
  0
CIRCLE
  5
755
100
AcDbEntity
  8
SIZE
  6
CONTINUOUS
 62
    30
100
AcDbCircle
 10
926.720069
 20
261.0
 30
0.0
 40
5.0
  0
LINE
  5
756
100
AcDbEntity
  8
SIZE
  6
CONTINUOUS
 62
    30
100
AcDbLine
 10
611.7
 20
433.0
 30
0.0
 11
956.720069
 21
433.0
 31
0.0
  0
LINE
  5
757
100
AcDbEntity
  8
SIZE
  6
CONTINUOUS
 62
    30
100
AcDbLine
 10
650.716652
 20
325.0
 30
0.0
 11
833.04193
 21
325.0
 31
0.0
  0
LINE
  5
758
100
AcDbEntity
  8
SIZE
  6
CONTINUOUS
 62
    30
100
AcDbLine
 10
611.7
 20
433.0
 30
0.0
 11
833.04193
 21
433.0
 31
0.0
  0
LINE
  5
759
100
AcDbEntity
  8
SIZE
  6
CONTINUOUS
 62
    30
100
AcDbLine
 10
580.0
 20
453.0
 30
0.0
 11
580.0
 21
545.644821
 31
0.0
  0
LINE
  5
75A
100
AcDbEntity
  8
SIZE
  6
CONTINUOUS
 62
    30
100
AcDbLine
 10
614.0
 20
361.716652
 30
0.0
 11
614.0
 21
545.644821
 31
0.0
  0
POINT
  5
75B
100
AcDbEntity
  8
DEFPOINTS
  6
CONTINUOUS
 62
     7
100
AcDbPoint
 10
580.0
 20
433.0
 30
0.0
  0
POINT
  5
75C
100
AcDbEntity
  8
DEFPOINTS
  6
CONTINUOUS
 62
     7
100
AcDbPoint
 10
573.0
 20
447.995166
 30
0.0
  0
POINT
  5
75D
100
AcDbEntity
  8
DEFPOINTS
  6
CONTINUOUS
 62
     7
100
AcDbPoint
 10
573.0
 20
447.995166
 30
0.0
  0
POINT
  5
75E
100
AcDbEntity
  8
DEFPOINTS
  6
CONTINUOUS
 62
     7
100
AcDbPoint
 10
596.0
 20
428.7
 30
0.0
  0
POINT
  5
75F
100
AcDbEntity
  8
DEFPOINTS
  6
CONTINUOUS
 62
     7
100
AcDbPoint
 10
580.0
 20
433.0
 30
0.0
  0
POINT
  5
760
100
AcDbEntity
  8
DEFPOINTS
  6
CONTINUOUS
 62
     7
100
AcDbPoint
 10
580.0
 20
433.0
 30
0.0
  0
POINT
  5
761
100
AcDbEntity
  8
DEFPOINTS
  6
CONTINUOUS
 62
     7
100
AcDbPoint
 10
596.0
 20
428.7
 30
0.0
  0
POINT
  5
762
100
AcDbEntity
  8
DEFPOINTS
  6
CONTINUOUS
 62
     7
100
AcDbPoint
 10
580.0
 20
433.0
 30
0.0
  0
POINT
  5
763
100
AcDbEntity
  8
DEFPOINTS
  6
CONTINUOUS
 62
     7
100
AcDbPoint
 10
580.0
 20
433.0
 30
0.0
  0
POINT
  5
764
100
AcDbEntity
  8
DEFPOINTS
  6
CONTINUOUS
 62
     7
100
AcDbPoint
 10
614.0
 20
341.716652
 30
0.0
  0
POINT
  5
765
100
AcDbEntity
  8
DEFPOINTS
  6
CONTINUOUS
 62
     7
100
AcDbPoint
 10
591.7
 20
433.0
 30
0.0
  0
POINT
  5
766
100
AcDbEntity
  8
DEFPOINTS
  6
CONTINUOUS
 62
     7
100
AcDbPoint
 10
591.7
 20
433.0
 30
0.0
  0
POINT
  5
767
100
AcDbEntity
  8
DEFPOINTS
  6
CONTINUOUS
 62
     7
100
AcDbPoint
 10
630.716652
 20
325.0
 30
0.0
  0
POINT
  5
768
100
AcDbEntity
  8
DEFPOINTS
  6
CONTINUOUS
 62
     7
100
AcDbPoint
 10
591.7
 20
433.0
 30
0.0
  0
LINE
  5
769
100
AcDbEntity
  8
NOTE
  6
CONTINUOUS
 62
     4
100
AcDbLine
 10
597.283348
 20
325.0
 30
0.0
 11
630.716652
 21
325.0
 31
0.0
  0
LINE
  5
76A
100
AcDbEntity
  8
NOTE
  6
CONTINUOUS
 62
     4
100
AcDbLine
 10
614.0
 20
341.716652
 30
0.0
 11
614.0
 21
308.283348
 31
0.0
  0
LINE
  5
76B
100
AcDbEntity
  8
NOTE
  6
CONTINUOUS
 62
     4
100
AcDbLine
 10
614.0
 20
325.0
 30
0.0
 11
632.963981
 21
353.683045
 31
0.0
  0
LINE
  5
76C
100
AcDbEntity
  8
NOTE
  6
CONTINUOUS
 62
     4
100
AcDbLine
 10
614.0
 20
325.0
 30
0.0
 11
616.081766
 21
359.322237
 31
0.0
  0
LINE
  5
76D
100
AcDbEntity
  8
NOTE
  6
CONTINUOUS
 62
     4
100
AcDbLine
 10
573.0
 20
418.004834
 30
0.0
 11
573.0
 21
447.995166
 31
0.0
  0
POINT
  5
76E
100
AcDbEntity
  8
DEFPOINTS
  6
CONTINUOUS
 62
     7
100
AcDbPoint
 10
596.0
 20
427.1
 30
0.0
  0
LINE
  5
771
100
AcDbEntity
  8
DETAIL
  6
CONTINUOUS
 62
     5
100
AcDbLine
 10
580.0
 20
430.7
 30
0.0
 11
591.7
 21
430.7
 31
0.0
  0
LINE
  5
772
100
AcDbEntity
  8
DETAIL
  6
CONTINUOUS
 62
     5
100
AcDbLine
 10
580.0
 20
433.0
 30
0.0
 11
591.7
 21
433.0
 31
0.0
  0
LINE
  5
774
100
AcDbEntity
  8
DETAIL
  6
CONTINUOUS
 62
     5
100
AcDbLine
 10
593.7
 20
421.0
 30
0.0
 11
596.0
 21
421.0
 31
0.0
  0
LINE
  5
775
100
AcDbEntity
  8
DETAIL
  6
CONTINUOUS
 62
     5
100
AcDbLine
 10
593.7
 20
428.7
 30
0.0
 11
593.7
 21
421.0
 31
0.0
  0
ARC
  5
776
100
AcDbEntity
  8
DETAIL
  6
CONTINUOUS
 62
     5
100
AcDbCircle
 10
591.7
 20
428.7
 30
0.0
 40
2.0
100
AcDbArc
 50
0.0
 51
90.0
  0
LINE
  5
777
100
AcDbEntity
  8
DETAIL
  6
CONTINUOUS
 62
     5
100
AcDbLine
 10
596.0
 20
428.7
 30
0.0
 11
596.0
 21
421.0
 31
0.0
  0
ARC
  5
778
100
AcDbEntity
  8
DETAIL
  6
CONTINUOUS
 62
     5
100
AcDbCircle
 10
591.7
 20
428.7
 30
0.0
 40
4.3
100
AcDbArc
 50
0.0
 51
90.0
  0
LINE
  5
782
100
AcDbEntity
  8
DETAIL
  6
CONTINUOUS
 62
     5
100
AcDbLine
 10
589.0
 20
341.2
 30
0.0
 11
580.0
 21
341.357096
 31
0.0
  0
ARC
  5
783
100
AcDbEntity
  8
DETAIL
  6
CONTINUOUS
 62
     5
100
AcDbCircle
 10
613.5
 20
340.5
 30
0.0
 40
0.5
100
AcDbArc
 50
0.0
 51
90.0
  0
LINE
  5
784
100
AcDbEntity
  8
DETAIL
  6
CONTINUOUS
 62
     5
100
AcDbLine
 10
589.0
 20
341.0
 30
0.0
 11
613.5
 21
341.0
 31
0.0
  0
LINE
  5
785
100
AcDbEntity
  8
DETAIL
  6
CONTINUOUS
 62
     5
100
AcDbLine
 10
589.0
 20
308.8
 30
0.0
 11
580.0
 21
308.642904
 31
0.0
  0
ARC
  5
786
100
AcDbEntity
  8
DETAIL
  6
CONTINUOUS
 62
     5
100
AcDbCircle
 10
613.5
 20
309.5
 30
0.0
 40
0.5
100
AcDbArc
 50
270.0
 51
0.0
  0
LINE
  5
787
100
AcDbEntity
  8
DETAIL
  6
CONTINUOUS
 62
     5
100
AcDbLine
 10
589.0
 20
309.0
 30
0.0
 11
613.5
 21
309.0
 31
0.0
  0
LINE
  5
788
100
AcDbEntity
  8
DETAIL
  6
CONTINUOUS
 62
     5
100
AcDbLine
 10
589.0
 20
341.2
 30
0.0
 11
589.0
 21
308.8
 31
0.0
  0
LINE
  5
789
100
AcDbEntity
  8
DETAIL
  6
CONTINUOUS
 62
     5
100
AcDbLine
 10
614.0
 20
340.5
 30
0.0
 11
614.0
 21
309.5
 31
0.0
  0
LINE
  5
78A
100
AcDbEntity
  8
DETAIL
  6
CONTINUOUS
 62
     5
100
AcDbLine
 10
589.0
 20
341.2
 30
0.0
 11
580.0
 21
341.357096
 31
0.0
  0
LINE
  5
78B
100
AcDbEntity
  8
DETAIL
  6
CONTINUOUS
 62
     5
100
AcDbLine
 10
589.0
 20
308.8
 30
0.0
 11
580.0
 21
308.642904
 31
0.0
  0
ARC
  5
78C
100
AcDbEntity
  8
DETAIL
  6
CONTINUOUS
 62
     5
100
AcDbCircle
 10
613.5
 20
309.5
 30
0.0
 40
0.5
100
AcDbArc
 50
270.0
 51
0.0
  0
ARC
  5
78D
100
AcDbEntity
  8
DETAIL
  6
CONTINUOUS
 62
     5
100
AcDbCircle
 10
613.5
 20
340.5
 30
0.0
 40
0.5
100
AcDbArc
 50
0.0
 51
90.0
  0
LINE
  5
78E
100
AcDbEntity
  8
DETAIL
  6
CONTINUOUS
 62
     5
100
AcDbLine
 10
589.0
 20
341.2
 30
0.0
 11
589.0
 21
308.8
 31
0.0
  0
LINE
  5
78F
100
AcDbEntity
  8
DETAIL
  6
CONTINUOUS
 62
     5
100
AcDbLine
 10
589.0
 20
309.0
 30
0.0
 11
613.5
 21
309.0
 31
0.0
  0
LINE
  5
790
100
AcDbEntity
  8
DETAIL
  6
CONTINUOUS
 62
     5
100
AcDbLine
 10
589.0
 20
341.0
 30
0.0
 11
613.5
 21
341.0
 31
0.0
  0
LINE
  5
791
100
AcDbEntity
  8
DETAIL
  6
CONTINUOUS
 62
     5
100
AcDbLine
 10
614.0
 20
340.5
 30
0.0
 11
614.0
 21
309.5
 31
0.0
  0
POINT
  5
793
100
AcDbEntity
  8
DEFPOINTS
  6
CONTINUOUS
 62
     7
100
AcDbPoint
 10
596.0
 20
528.0
 30
0.0
  0
POINT
  5
794
100
AcDbEntity
  8
DEFPOINTS
  6
CONTINUOUS
 62
     7
100
AcDbPoint
 10
580.0
 20
601.245085
 30
0.0
  0
LINE
  5
795
100
AcDbEntity
  8
SIZE
  6
CONTINUOUS
 62
    30
100
AcDbLine
 10
575.0
 20
601.245085
 30
0.0
 11
570.0
 21
601.245085
 31
0.0
  0
CIRCLE
  5
796
100
AcDbEntity
  8
SIZE
  6
CONTINUOUS
 62
    30
100
AcDbCircle
 10
580.0
 20
601.245085
 30
0.0
 40
5.0
  0
LINE
  5
797
100
AcDbEntity
  8
SIZE
  6
CONTINUOUS
 62
    30
100
AcDbLine
 10
621.0
 20
601.245085
 30
0.0
 11
626.0
 21
601.245085
 31
0.0
  0
CIRCLE
  5
798
100
AcDbEntity
  8
SIZE
  6
CONTINUOUS
 62
    30
100
AcDbCircle
 10
616.0
 20
601.245085
 30
0.0
 40
5.0
  0
LINE
  5
799
100
AcDbEntity
  8
SIZE
  6
CONTINUOUS
 62
    30
100
AcDbLine
 10
616.0
 20
601.245085
 30
0.0
 11
580.0
 21
601.245085
 31
0.0
  0
LINE
  5
79A
100
AcDbEntity
  8
SIZE
  6
CONTINUOUS
 62
    30
100
AcDbLine
 10
626.0
 20
601.245085
 30
0.0
 11
636.0
 21
601.245085
 31
0.0
  0
POINT
  5
79B
100
AcDbEntity
  8
DEFPOINTS
  6
CONTINUOUS
 62
     7
100
AcDbPoint
 10
580.0
 20
515.644821
 30
0.0
  0
LINE
  5
79C
100
AcDbEntity
  8
SIZE
  6
CONTINUOUS
 62
    30
100
AcDbLine
 10
575.0
 20
515.644821
 30
0.0
 11
570.0
 21
515.644821
 31
0.0
  0
CIRCLE
  5
79D
100
AcDbEntity
  8
SIZE
  6
CONTINUOUS
 62
    30
100
AcDbCircle
 10
580.0
 20
515.644821
 30
0.0
 40
5.0
  0
LINE
  5
79E
100
AcDbEntity
  8
SIZE
  6
CONTINUOUS
 62
    30
100
AcDbLine
 10
619.0
 20
515.644821
 30
0.0
 11
624.0
 21
515.644821
 31
0.0
  0
CIRCLE
  5
79F
100
AcDbEntity
  8
SIZE
  6
CONTINUOUS
 62
    30
100
AcDbCircle
 10
614.0
 20
515.644821
 30
0.0
 40
5.0
  0
LINE
  5
7A0
100
AcDbEntity
  8
SIZE
  6
CONTINUOUS
 62
    30
100
AcDbLine
 10
614.0
 20
515.644821
 30
0.0
 11
580.0
 21
515.644821
 31
0.0
  0
LINE
  5
7A1
100
AcDbEntity
  8
SIZE
  6
CONTINUOUS
 62
    30
100
AcDbLine
 10
624.0
 20
515.644821
 30
0.0
 11
634.0
 21
515.644821
 31
0.0
  0
TEXT
  5
7A2
100
AcDbEntity
  8
SIZE
  6
CONTINUOUS
 62
    30
100
AcDbText
 10
785.04193
 20
461.0
 30
0.0
 40
55.0
  1
108
 50
90.0
 41
0.9
 72
     1
 11
785.04193
 21
519.928571
 31
0.0
100
AcDbText
  0
LINE
  5
7A3
100
AcDbEntity
  8
SIZE
  6
CONTINUOUS
 62
    30
100
AcDbLine
 10
803.04193
 20
433.0
 30
0.0
 11
803.04193
 21
596.857143
 31
0.0
  0
POINT
  5
7A4
100
AcDbEntity
  8
DEFPOINTS
  6
CONTINUOUS
 62
     7
100
AcDbPoint
 10
803.04193
 20
325.0
 30
0.0
  0
LINE
  5
7A5
100
AcDbEntity
  8
SIZE
  6
CONTINUOUS
 62
    30
100
AcDbLine
 10
803.04193
 20
428.0
 30
0.0
 11
803.04193
 21
423.0
 31
0.0
  0
CIRCLE
  5
7A6
100
AcDbEntity
  8
SIZE
  6
CONTINUOUS
 62
    30
100
AcDbCircle
 10
803.04193
 20
433.0
 30
0.0
 40
5.0
  0
LINE
  5
7A7
100
AcDbEntity
  8
SIZE
  6
CONTINUOUS
 62
    30
100
AcDbLine
 10
803.04193
 20
330.0
 30
0.0
 11
803.04193
 21
335.0
 31
0.0
  0
CIRCLE
  5
7A8
100
AcDbEntity
  8
SIZE
  6
CONTINUOUS
 62
    30
100
AcDbCircle
 10
803.04193
 20
325.0
 30
0.0
 40
5.0
  0
LINE
  5
7A9
100
AcDbEntity
  8
SIZE
  6
CONTINUOUS
 62
    30
100
AcDbLine
 10
803.04193
 20
335.0
 30
0.0
 11
803.04193
 21
423.0
 31
0.0
  0
LINE
  5
7AA
100
AcDbEntity
  8
SIZE
  6
CONTINUOUS
 62
    30
100
AcDbLine
 10
926.720069
 20
428.0
 30
0.0
 11
926.720069
 21
423.0
 31
0.0
  0
CIRCLE
  5
7AB
100
AcDbEntity
  8
SIZE
  6
CONTINUOUS
 62
    30
100
AcDbCircle
 10
926.720069
 20
433.0
 30
0.0
 40
5.0
  0
TEXT
  5
7AC
100
AcDbEntity
  8
SIZE
  6
CONTINUOUS
 62
    30
100
AcDbText
 10
1136.559184
 20
232.27158
 30
0.0
 40
55.0
  1
265
 50
90.0
 41
0.9
 72
     1
 11
1136.559184
 21
295.914437
 31
0.0
100
AcDbText
  0
LINE
  5
7AD
100
AcDbEntity
  8
SIZE
  6
CONTINUOUS
 62
    30
100
AcDbLine
 10
1154.559184
 20
423.0
 30
0.0
 11
1154.559184
 21
178.0
 31
0.0
  0
LINE
  5
7AE
100
AcDbEntity
  8
SIZE
  6
CONTINUOUS
 62
    30
100
AcDbLine
 10
1028.920159
 20
270.779464
 30
0.0
 11
1028.920159
 21
386.922321
 31
0.0
  0
POINT
  5
7AF
100
AcDbEntity
  8
DEFPOINTS
  6
CONTINUOUS
 62
     7
100
AcDbPoint
 10
1154.559184
 20
168.0
 30
0.0
  0
LINE
  5
7B0
100
AcDbEntity
  8
SIZE
  6
CONTINUOUS
 62
    30
100
AcDbLine
 10
1154.559184
 20
173.0
 30
0.0
 11
1154.559184
 21
178.0
 31
0.0
  0
CIRCLE
  5
7B1
100
AcDbEntity
  8
SIZE
  6
CONTINUOUS
 62
    30
100
AcDbCircle
 10
1154.559184
 20
168.0
 30
0.0
 40
5.0
  0
LINE
  5
7B2
100
AcDbEntity
  8
SIZE
  6
CONTINUOUS
 62
    30
100
AcDbLine
 10
1154.559184
 20
428.0
 30
0.0
 11
1154.559184
 21
423.0
 31
0.0
  0
CIRCLE
  5
7B3
100
AcDbEntity
  8
SIZE
  6
CONTINUOUS
 62
    30
100
AcDbCircle
 10
1154.559184
 20
433.0
 30
0.0
 40
5.0
  0
LINE
  5
7B4
100
AcDbEntity
  8
NOTE
  6
CONTINUOUS
 62
     4
100
AcDbLine
 10
723.961593
 20
658.270084
 30
0.0
 11
1070.775454
 21
658.270084
 31
0.0
  0
TEXT
  5
7B5
100
AcDbEntity
  8
NOTE
  6
CONTINUOUS
 62
     4
100
AcDbText
 10
743.900183
 20
674.096628
 30
0.0
 40
60.0
  1
D1 VP-25
 50
359.999997
 41
0.7
  7
STANDARD1
100
AcDbText
  0
CIRCLE
  5
7B6
100
AcDbEntity
  8
SIZE
  6
CONTINUOUS
 62
    30
100
AcDbCircle
 10
573.0
 20
917.162422
 30
0.0
 40
5.0
  0
CIRCLE
  5
7B7
100
AcDbEntity
  8
SIZE
  6
CONTINUOUS
 62
    30
100
AcDbCircle
 10
596.0
 20
917.162422
 30
0.0
 40
5.0
  0
CIRCLE
  5
7B8
100
AcDbEntity
  8
SIZE
  6
CONTINUOUS
 62
    30
100
AcDbCircle
 10
573.0
 20
917.162422
 30
0.0
 40
5.0
  0
POINT
  5
7B9
100
AcDbEntity
  8
DEFPOINTS
  6
CONTINUOUS
 62
     7
100
AcDbPoint
 10
619.009149
 20
702.354232
 30
0.0
  0
LINE
  5
7BA
100
AcDbEntity
  8
SIZE
  6
CONTINUOUS
 62
    30
100
AcDbLine
 10
575.0
 20
702.354232
 30
0.0
 11
570.0
 21
702.354232
 31
0.0
  0
CIRCLE
  5
7BB
100
AcDbEntity
  8
SIZE
  6
CONTINUOUS
 62
    30
100
AcDbCircle
 10
580.0
 20
702.354232
 30
0.0
 40
5.0
  0
LINE
  5
7BC
100
AcDbEntity
  8
SIZE
  6
CONTINUOUS
 62
    30
100
AcDbLine
 10
624.009149
 20
702.354232
 30
0.0
 11
629.009149
 21
702.354232
 31
0.0
  0
CIRCLE
  5
7BD
100
AcDbEntity
  8
SIZE
  6
CONTINUOUS
 62
    30
100
AcDbCircle
 10
619.009149
 20
702.354232
 30
0.0
 40
5.0
  0
LINE
  5
7BE
100
AcDbEntity
  8
SIZE
  6
CONTINUOUS
 62
    30
100
AcDbLine
 10
619.009149
 20
702.354232
 30
0.0
 11
580.0
 21
702.354232
 31
0.0
  0
LINE
  5
7BF
100
AcDbEntity
  8
SIZE
  6
CONTINUOUS
 62
    30
100
AcDbLine
 10
629.009149
 20
702.354232
 30
0.0
 11
639.009149
 21
702.354232
 31
0.0
  0
TEXT
  5
7C0
100
AcDbEntity
  8
SIZE
  6
CONTINUOUS
 62
    30
100
AcDbText
 10
634.0
 20
818.103197
 30
0.0
 40
55.0
  1
16
 41
0.9
 72
     1
 11
668.178571
 21
818.103197
 31
0.0
100
AcDbText
  0
LINE
  5
7C1
100
AcDbEntity
  8
SIZE
  6
CONTINUOUS
 62
    30
100
AcDbLine
 10
606.0
 20
800.103197
 30
0.0
 11
720.357143
 21
800.103197
 31
0.0
  0
LINE
  5
7C2
100
AcDbEntity
  8
SIZE
  6
CONTINUOUS
 62
    30
100
AcDbLine
 10
575.0
 20
800.103197
 30
0.0
 11
570.0
 21
800.103197
 31
0.0
  0
CIRCLE
  5
7C3
100
AcDbEntity
  8
SIZE
  6
CONTINUOUS
 62
    30
100
AcDbCircle
 10
580.0
 20
800.103197
 30
0.0
 40
5.0
  0
POINT
  5
7C4
100
AcDbEntity
  8
DEFPOINTS
  6
CONTINUOUS
 62
     7
100
AcDbPoint
 10
580.0
 20
800.103197
 30
0.0
  0
LINE
  5
7C5
100
AcDbEntity
  8
SIZE
  6
CONTINUOUS
 62
    30
100
AcDbLine
 10
601.0
 20
800.103197
 30
0.0
 11
606.0
 21
800.103197
 31
0.0
  0
CIRCLE
  5
7C6
100
AcDbEntity
  8
SIZE
  6
CONTINUOUS
 62
    30
100
AcDbCircle
 10
596.0
 20
800.103197
 30
0.0
 40
5.0
  0
LINE
  5
7C7
100
AcDbEntity
  8
SIZE
  6
CONTINUOUS
 62
    30
100
AcDbLine
 10
575.0
 20
800.103197
 30
0.0
 11
570.0
 21
800.103197
 31
0.0
  0
CIRCLE
  5
7C8
100
AcDbEntity
  8
SIZE
  6
CONTINUOUS
 62
    30
100
AcDbCircle
 10
580.0
 20
800.103197
 30
0.0
 40
5.0
  0
LINE
  5
7C9
100
AcDbEntity
  8
SIZE
  6
CONTINUOUS
 62
    30
100
AcDbLine
 10
580.0
 20
800.103197
 30
0.0
 11
596.0
 21
800.103197
 31
0.0
  0
TEXT
  5
7CA
100
AcDbEntity
  8
SIZE
  6
CONTINUOUS
 62
    30
100
AcDbText
 10
634.0
 20
935.162422
 30
0.0
 40
55.0
  1
23
 41
0.9
 72
     1
 11
674.071429
 21
935.162422
 31
0.0
100
AcDbText
  0
LINE
  5
7CB
100
AcDbEntity
  8
SIZE
  6
CONTINUOUS
 62
    30
100
AcDbLine
 10
606.0
 20
917.162422
 30
0.0
 11
732.142857
 21
917.162422
 31
0.0
  0
POINT
  5
7CC
100
AcDbEntity
  8
DEFPOINTS
  6
CONTINUOUS
 62
     7
100
AcDbPoint
 10
573.0
 20
917.162422
 30
0.0
  0
LINE
  5
7CD
100
AcDbEntity
  8
SIZE
  6
CONTINUOUS
 62
    30
100
AcDbLine
 10
601.0
 20
917.162422
 30
0.0
 11
606.0
 21
917.162422
 31
0.0
  0
LINE
  5
7CE
100
AcDbEntity
  8
SIZE
  6
CONTINUOUS
 62
    30
100
AcDbLine
 10
573.0
 20
917.162422
 30
0.0
 11
596.0
 21
917.162422
 31
0.0
  0
LINE
  5
7CF
100
AcDbEntity
  8
SIZE
  6
CONTINUOUS
 62
    30
100
AcDbLine
 10
591.0
 20
1029.149774
 30
0.0
 11
586.0
 21
1029.149774
 31
0.0
  0
CIRCLE
  5
7D0
100
AcDbEntity
  8
SIZE
  6
CONTINUOUS
 62
    30
100
AcDbCircle
 10
596.0
 20
1029.149774
 30
0.0
 40
5.0
  0
ENDSEC
  0
SECTION
  2
OBJECTS
  0
DICTIONARY
  5
7DD
100
AcDbDictionary
  3
ACAD_GROUP
350
7DE
  3
ACAD_MLINESTYLE
350
7EC
  0
DICTIONARY
  5
7DE
102
{ACAD_REACTORS
330
7DD
102
}
100
AcDbDictionary
  0
DICTIONARY
  5
7EC
102
{ACAD_REACTORS
330
7DD
102
}
100
AcDbDictionary
  3
STANDARD
350
7ED
  0
MLINESTYLE
  5
7ED
102
{ACAD_REACTORS
330
7EC
102
}
100
AcDbMlineStyle
  2
STANDARD
 70
     0
  3

 62
   256
 51
90.0
 52
90.0
 71
     2
 49
0.5
 62
   256
  6
BYLAYER
 49
-0.5
 62
   256
  6
BYLAYER
  0
ENDSEC
  0
EOF
