  0
SECTION
  2
HEADER
  9
$ACADVER
  1
AC1009
  9
$INSBASE
 10
0.0
 20
0.0
 30
0.0
  9
$EXTMIN
 10
-922.94243471601646
 20
-436.73033910728918
 30
-0.0000000000112498
  9
$EXTMAX
 10
1292.7238750140939
 20
1320.5972423909659
 30
0.0000000000002956
  9
$LIMMIN
 10
-4267.1522210000003
 20
-2696.0832100000011
  9
$LIMMAX
 10
7190.7174229999991
 20
5141.1553640000002
  9
$ORTHOMODE
 70
     0
  9
$REGENMODE
 70
     1
  9
$FILLMODE
 70
     1
  9
$QTEXTMODE
 70
     0
  9
$MIRRTEXT
 70
     0
  9
$DRAGMODE
 70
     2
  9
$LTSCALE
 40
20.0
  9
$OSMODE
 70
   431
  9
$ATTMODE
 70
     1
  9
$TEXTSIZE
 40
64.0
  9
$TRACEWID
 40
0.05
  9
$TEXTSTYLE
  7
STANDARD
  9
$CLAYER
  8
SYMBOLLINE
  9
$CELTYPE
  6
CONTINUOUS
  9
$CECOLOR
 62
     7
  9
$DIMSCALE
 40
1.0
  9
$DIMASZ
 40
10.0
  9
$DIMEXO
 40
20.0
  9
$DIMDLI
 40
200.0
  9
$DIMRND
 40
0.0
  9
$DIMDLE
 40
0.0
  9
$DIMEXE
 40
30.0
  9
$DIMTP
 40
0.0
  9
$DIMTM
 40
0.0
  9
$DIMTXT
 40
55.0
  9
$DIMCEN
 40
0.0
  9
$DIMTSZ
 40
0.0
  9
$DIMTOL
 70
     0
  9
$DIMLIM
 70
     0
  9
$DIMTIH
 70
     0
  9
$DIMTOH
 70
     0
  9
$DIMSE1
 70
     0
  9
$DIMSE2
 70
     0
  9
$DIMTAD
 70
     1
  9
$DIMZIN
 70
     8
  9
$DIMBLK
  1

  9
$DIMASO
 70
     1
  9
$DIMSHO
 70
     0
  9
$DIMPOST
  1

  9
$DIMAPOST
  1

  9
$DIMALT
 70
     0
  9
$DIMALTD
 70
     2
  9
$DIMALTF
 40
25.399999999999999
  9
$DIMLFAC
 40
1.0
  9
$DIMTOFL
 70
     1
  9
$DIMTVP
 40
0.0
  9
$DIMTIX
 70
     1
  9
$DIMSOXD
 70
     0
  9
$DIMSAH
 70
     1
  9
$DIMBLK1
  1
DOTBLANK
  9
$DIMBLK2
  1
DOTBLANK
  9
$DIMSTYLE
  2
STANDARD
  9
$DIMCLRD
 70
     0
  9
$DIMCLRE
 70
     0
  9
$DIMCLRT
 70
     0
  9
$DIMTFAC
 40
1.0
  9
$DIMGAP
 40
0.09
  9
$LUNITS
 70
     2
  9
$LUPREC
 70
     4
  9
$SKETCHINC
 40
0.1
  9
$FILLETRAD
 40
0.0
  9
$AUNITS
 70
     1
  9
$AUPREC
 70
     3
  9
$MENU
  1
ACAD
  9
$ELEVATION
 40
0.0
  9
$PELEVATION
 40
0.0
  9
$THICKNESS
 40
0.0
  9
$LIMCHECK
 70
     0
  9
$BLIPMODE
 70
     0
  9
$CHAMFERA
 40
0.0
  9
$CHAMFERB
 40
0.0
  9
$SKPOLY
 70
     0
  9
$TDCREATE
 40
2450330.4399309959
  9
$TDUPDATE
 40
2456720.7693201271
  9
$TDINDWG
 40
3.7223511111000001
  9
$TDUSRTIMER
 40
3.7223367129999998
  9
$USRTIMER
 70
     1
  9
$ANGBASE
 50
0.0
  9
$ANGDIR
 70
     0
  9
$PDMODE
 70
     3
  9
$PDSIZE
 40
-2.0
  9
$PLINEWID
 40
0.0
  9
$COORDS
 70
     1
  9
$SPLFRAME
 70
     0
  9
$SPLINETYPE
 70
     6
  9
$SPLINESEGS
 70
     8
  9
$ATTDIA
 70
     0
  9
$ATTREQ
 70
     1
  9
$HANDLING
 70
     1
  9
$HANDSEED
  5
447
  9
$SURFTAB1
 70
     6
  9
$SURFTAB2
 70
     6
  9
$SURFTYPE
 70
     6
  9
$SURFU
 70
     6
  9
$SURFV
 70
     6
  9
$UCSNAME
  2

  9
$UCSORG
 10
0.0
 20
0.0
 30
0.0
  9
$UCSXDIR
 10
1.0
 20
0.0
 30
0.0
  9
$UCSYDIR
 10
0.0
 20
1.0
 30
0.0
  9
$PUCSNAME
  2

  9
$PUCSORG
 10
0.0
 20
0.0
 30
0.0
  9
$PUCSXDIR
 10
1.0
 20
0.0
 30
0.0
  9
$PUCSYDIR
 10
0.0
 20
1.0
 30
0.0
  9
$USERI1
 70
     0
  9
$USERI2
 70
     0
  9
$USERI3
 70
     0
  9
$USERI4
 70
     0
  9
$USERI5
 70
     0
  9
$USERR1
 40
20.0
  9
$USERR2
 40
0.0
  9
$USERR3
 40
0.0
  9
$USERR4
 40
0.0
  9
$USERR5
 40
0.0
  9
$WORLDVIEW
 70
     1
  9
$SHADEDGE
 70
     3
  9
$SHADEDIF
 70
    70
  9
$TILEMODE
 70
     1
  9
$MAXACTVP
 70
    64
  9
$PLIMCHECK
 70
     0
  9
$PEXTMIN
 10
1.0000000000000000E+020
 20
1.0000000000000000E+020
 30
1.0000000000000000E+020
  9
$PEXTMAX
 10
-1.0000000000000000E+020
 20
-1.0000000000000000E+020
 30
-1.0000000000000000E+020
  9
$PLIMMIN
 10
0.0
 20
0.0
  9
$PLIMMAX
 10
12.0
 20
9.0
  9
$UNITMODE
 70
     0
  9
$VISRETAIN
 70
     1
  9
$PLINEGEN
 70
     0
  9
$PSLTSCALE
 70
     1
  0
ENDSEC
  0
SECTION
  2
TABLES
  0
TABLE
  2
VPORT
 70
     1
  0
VPORT
  2
*ACTIVE
 70
     0
 10
0.0
 20
0.0
 11
1.0
 21
1.0
 12
169.76515990806729
 22
441.93345164183859
 13
0.0
 23
0.0
 14
50.0
 24
50.0
 15
100.0
 25
100.0
 16
0.0
 26
0.0
 36
1.0
 17
0.0
 27
0.0
 37
0.0
 40
1770.6912893423489
 41
1.552030456852791
 42
50.0
 43
0.0
 44
0.0
 50
0.0
 51
0.0
 71
     0
 72
  1000
 73
     1
 74
     0
 75
     0
 76
     0
 77
     0
 78
     0
  0
ENDTAB
  0
TABLE
  2
LTYPE
 70
     2
  0
LTYPE
  2
CONTINUOUS
 70
     0
  3
実線
 72
    65
 73
     0
 40
0.0
  0
LTYPE
  2
DASHDOT
 70
     0
  3
____ _ ____ _ ____ _ ____ _ ____ _ ____ _ ____
 72
    65
 73
     4
 40
5.5
 49
4.0
 49
-0.6
 49
0.3
 49
-0.6
  0
ENDTAB
  0
TABLE
  2
LAYER
 70
    12
  0
LAYER
  2
0
 70
     0
 62
     7
  6
CONTINUOUS
  0
LAYER
  2
SYMBOLLINE
 70
     0
 62
    15
  6
CONTINUOUS
  0
LAYER
  2
OUTLINE
 70
     0
 62
     3
  6
CONTINUOUS
  0
LAYER
  2
DETAIL
 70
     0
 62
     5
  6
CONTINUOUS
  0
LAYER
  2
BASIS
 70
     0
 62
     6
  6
DASHDOT
  0
LAYER
  2
SIZE
 70
     0
 62
    30
  6
CONTINUOUS
  0
LAYER
  2
NOTE
 70
     0
 62
     4
  6
CONTINUOUS
  0
LAYER
  2
ARRANGE
 70
     0
 62
     1
  6
CONTINUOUS
  0
LAYER
  2
FIX
 70
     0
 62
    11
  6
CONTINUOUS
  0
LAYER
  2
SERVICESPACE
 70
     0
 62
     2
  6
DASHDOT
  0
LAYER
  2
ETC
 70
     0
 62
    61
  6
CONTINUOUS
  0
LAYER
  2
DEFPOINTS
 70
     0
 62
     7
  6
CONTINUOUS
  0
ENDTAB
  0
TABLE
  2
STYLE
 70
     3
  0
STYLE
  2
STANDARD
 70
     0
 40
0.0
 41
0.9
 50
0.0
 71
     0
 42
64.0
  3
SIMPLEX
  4
BIGFONT
  0
STYLE
  2
ANNOTATIVE
 70
     0
 40
0.0
 41
1.0
 50
0.0
 71
     0
 42
0.2
  3
txt
  4

  0
STYLE
  2
STANDARD1
 70
     0
 40
0.0
 41
1.0
 50
0.0
 71
     0
 42
64.0
  3
MONOTXT
  4
BIGFONT
  0
ENDTAB
  0
TABLE
  2
VIEW
 70
     1
  0
VIEW
  2
ALL
 70
     0
 40
9000.0
 10
241.50664699999999
 20
0.0
 41
12483.01
 11
0.0
 21
0.0
 31
1.0
 12
0.0
 22
0.0
 32
0.0
 42
50.0
 43
0.0
 44
0.0
 50
0.0
 71
     0
  0
ENDTAB
  0
TABLE
  2
UCS
 70
     0
  0
ENDTAB
  0
TABLE
  2
APPID
 70
     4
  0
APPID
  2
ACAD
 70
     0
  0
APPID
  2
ACADANNOTATIVE
 70
     0
  0
APPID
  2
ACAD_MLEADERVER
 70
     0
  0
APPID
  2
ACAD_EXEMPT_FROM_CAD_STANDARDS
 70
     0
  0
ENDTAB
  0
TABLE
  2
DIMSTYLE
 70
     2
  0
DIMSTYLE
  2
STANDARD
 70
     0
  3

  4

  5

  6

  7

 40
1.0
 41
0.18
 42
0.0625
 43
0.38
 44
0.18
 45
0.0
 46
0.0
 47
0.0
 48
0.0
140
0.18
141
0.09
142
0.0
143
25.399999999999999
144
1.0
145
0.0
146
1.0
147
0.09
 71
     0
 72
     0
 73
     1
 74
     1
 75
     0
 76
     0
 77
     0
 78
     0
170
     0
171
     2
172
     0
173
     0
174
     0
175
     0
176
     0
177
     0
178
     0
  0
DIMSTYLE
  2
ANNOTATIVE
 70
     0
  3

  4

  5

  6

  7

 40
1.0
 41
0.18
 42
0.0625
 43
0.38
 44
0.18
 45
0.0
 46
0.0
 47
0.0
 48
0.0
140
0.18
141
0.09
142
0.0
143
25.399999999999999
144
1.0
145
0.0
146
1.0
147
0.09
 71
     0
 72
     0
 73
     1
 74
     1
 75
     0
 76
     0
 77
     0
 78
     0
170
     0
171
     2
172
     0
173
     0
174
     0
175
     0
176
     0
177
     0
178
     0
  0
ENDTAB
  0
ENDSEC
  0
SECTION
  2
BLOCKS
  0
BLOCK
  8
0
  2
$MODEL_SPACE
 70
     0
 10
0.0
 20
0.0
 30
0.0
  3
$MODEL_SPACE
  1

  0
ENDBLK
  5
3EE
  8
0
  0
BLOCK
 67
     1
  8
0
  2
$PAPER_SPACE
 70
     0
 10
0.0
 20
0.0
 30
0.0
  3
$PAPER_SPACE
  1

  0
ENDBLK
  5
3EA
 67
     1
  8
0
  0
BLOCK
  8
0
  2
_DOTBLANK
 70
     0
 10
0.0
 20
0.0
 30
0.0
  3
_DOTBLANK
  1

  0
CIRCLE
  5
8C
  8
0
  6
CONTINUOUS
 62
     7
 10
0.0
 20
0.0
 30
0.0
 40
0.5
  0
LINE
  5
8D
  8
0
  6
CONTINUOUS
 62
     7
 10
-0.5
 20
0.0
 30
0.0
 11
-1.0
 21
0.0
 31
0.0
  0
ENDBLK
  5
8E
  8
0
  0
ENDSEC
  0
SECTION
  2
ENTITIES
  0
TEXT
  5
8F
  8
ETC
  6
CONTINUOUS
 62
    61
 10
-431.00945712243993
 20
1225.178789077675
 30
0.0
 40
80.0
  1
PDFY-P71_90M-G(キャンバスダクト)_5
 50
0.000003
 41
0.8
  0
LINE
  5
90
  8
OUTLINE
  6
CONTINUOUS
 62
     3
 10
157.5
 20
0.0
 30
0.0
 11
-442.49999999999989
 21
0.0
 31
0.0
  0
TEXT
  5
91
  8
SIZE
  6
CONTINUOUS
 62
    30
 10
-387.49999985714271
 20
-131.31652800000029
 30
0.0
 40
55.0
  1
17
 41
0.9
 72
     1
 11
-352.14285699999982
 21
-131.31652800000029
 31
0.0
  0
LINE
  5
92
  8
SIZE
  6
CONTINUOUS
 62
    30
 10
-415.5
 20
-149.31652800000029
 30
0.0
 11
-298.7857139999997
 21
-149.31652800000029
 31
0.0
  0
TEXT
  5
93
  8
SIZE
  6
CONTINUOUS
 62
    30
 10
-414.54626471428543
 20
-390.31333499999982
 30
0.0
 40
55.0
  1
566(天井開口寸法)
 41
0.9
 72
     1
 11
-140.88197899999969
 21
-390.31333499999982
 31
0.0
  0
LINE
  5
94
  8
SIZE
  6
CONTINUOUS
 62
    30
 10
-415.5
 20
-406.71809699999989
 30
0.0
 11
130.5
 21
-406.71809699999989
 31
0.0
  0
LINE
  5
95
  8
SIZE
  6
CONTINUOUS
 62
    30
 10
-432.5
 20
-250.62665600000039
 30
0.0
 11
147.5
 21
-250.62665600000039
 31
0.0
  0
LINE
  5
96
  8
SIZE
  6
CONTINUOUS
 62
    30
 10
-357.5
 20
1093.756433
 30
0.0
 11
357.5
 21
1093.756433
 31
0.0
  0
LINE
  5
97
  8
SIZE
  6
CONTINUOUS
 62
    30
 10
-331.5
 20
967.98808299999985
 30
0.0
 11
-326.5
 21
967.98808299999985
 31
0.0
  0
LINE
  5
98
  8
SIZE
  6
CONTINUOUS
 62
    30
 10
-331.5
 20
967.98808299999985
 30
0.0
 11
-326.5
 21
967.98808299999985
 31
0.0
  0
LINE
  5
99
  8
OUTLINE
  6
CONTINUOUS
 62
     3
 10
126.8000000000002
 20
-8.0
 30
0.0
 11
-411.80000000000001
 21
-8.0
 31
0.0
  0
LINE
  5
9A
  8
OUTLINE
  6
CONTINUOUS
 62
     3
 10
-410.97000000000008
 20
47.0
 30
0.0
 11
125.9700000000002
 21
47.0
 31
0.0
  0
LINE
  5
9B
  8
OUTLINE
  6
CONTINUOUS
 62
     3
 10
367.5
 20
214.0
 30
0.0
 11
-367.5
 21
214.0
 31
0.0
  0
LINE
  5
9C
  8
OUTLINE
  6
CONTINUOUS
 62
     3
 10
-367.5
 20
507.0
 30
0.0
 11
367.5
 21
507.0
 31
0.0
  0
CIRCLE
  5
9D
  8
FIX
  6
CONTINUOUS
 62
    11
 10
-336.5
 20
507.0
 30
0.0
 40
12.421498
  0
LINE
  5
9E
  8
NOTE
  6
CONTINUOUS
 62
     4
 10
-351.4951659999997
 20
507.0
 30
0.0
 11
-321.5048340000003
 21
507.0
 31
0.0
  0
LINE
  5
9F
  8
DETAIL
  6
CONTINUOUS
 62
     5
 10
-367.5
 20
507.0
 30
0.0
 11
367.5
 21
507.0
 31
0.0
  0
CIRCLE
  5
A0
  8
DETAIL
  6
CONTINUOUS
 62
     5
 10
-319.11274700000013
 20
284.0
 30
0.0
 40
13.0
  0
LINE
  5
A1
  8
DETAIL
  6
CONTINUOUS
 62
     5
 10
-325.5
 20
469.0
 30
0.0
 11
-364.5
 21
469.0
 31
0.0
  0
LINE
  5
A2
  8
DETAIL
  6
CONTINUOUS
 62
     5
 10
-329.0
 20
495.0
 30
0.0
 11
-311.5
 21
495.0
 31
0.0
  0
LINE
  5
A3
  8
DETAIL
  6
CONTINUOUS
 62
     5
 10
125.9700000000002
 20
47.0
 30
0.0
 11
-410.97000000000008
 21
47.0
 31
0.0
  0
LINE
  5
A4
  8
DETAIL
  6
CONTINUOUS
 62
     5
 10
126.8000000000002
 20
-8.0
 30
0.0
 11
-411.80000000000001
 21
-8.0
 31
0.0
  0
LINE
  5
A5
  8
OUTLINE
  6
CONTINUOUS
 62
     3
 10
-442.49999999999989
 20
0.0
 30
0.0
 11
-442.49999999999989
 21
-4.006508000000391
 31
0.0
  0
LINE
  5
A6
  8
DETAIL
  6
CONTINUOUS
 62
     5
 10
-442.49999999999989
 20
-4.006508000000391
 30
0.0
 11
-442.49999999999989
 21
0.0
 31
0.0
  0
LINE
  5
A7
  8
SIZE
  6
CONTINUOUS
 62
    30
 10
-425.49999999999989
 20
-19.0
 30
0.0
 11
-425.49999999999989
 21
-436.71809699999989
 31
0.0
  0
LINE
  5
A8
  8
SIZE
  6
CONTINUOUS
 62
    30
 10
-420.5
 20
-406.71809699999989
 30
0.0
 11
-415.5
 21
-406.71809699999989
 31
0.0
  0
CIRCLE
  5
A9
  8
SIZE
  6
CONTINUOUS
 62
    30
 10
-425.49999999999989
 20
-406.71809699999989
 30
0.0
 40
5.0
  0
LINE
  5
AA
  8
SIZE
  6
CONTINUOUS
 62
    30
 10
-425.49999999999989
 20
-19.0
 30
0.0
 11
-425.49999999999989
 21
-179.3165280000002
 31
0.0
  0
LINE
  5
AB
  8
SIZE
  6
CONTINUOUS
 62
    30
 10
-442.49999999999989
 20
-24.006508000000402
 30
0.0
 11
-442.49999999999989
 21
-179.3165280000002
 31
0.0
  0
LINE
  5
AC
  8
SIZE
  6
CONTINUOUS
 62
    30
 10
-442.49999999999989
 20
-24.006508000000402
 30
0.0
 11
-442.49999999999989
 21
-280.62665600000042
 31
0.0
  0
CIRCLE
  5
AD
  8
SIZE
  6
CONTINUOUS
 62
    30
 10
-442.49999999999989
 20
-250.62665600000039
 30
0.0
 40
5.0
  0
LINE
  5
AE
  8
SIZE
  6
CONTINUOUS
 62
    30
 10
-437.5
 20
-250.62665600000039
 30
0.0
 11
-432.5
 21
-250.62665600000039
 31
0.0
  0
CIRCLE
  5
AF
  8
SIZE
  6
CONTINUOUS
 62
    30
 10
-442.49999999999989
 20
-149.31652800000029
 30
0.0
 40
5.0
  0
LINE
  5
B0
  8
SIZE
  6
CONTINUOUS
 62
    30
 10
-442.49999999999989
 20
-149.31652800000029
 30
0.0
 11
-425.49999999999989
 21
-149.31652800000029
 31
0.0
  0
ARC
  5
B1
  8
OUTLINE
  6
CONTINUOUS
 62
     3
 10
-411.80000000000001
 20
112.0
 30
0.0
 40
120.0
 50
255.17702999999881
 51
270.0
  0
ARC
  5
B2
  8
DETAIL
  6
CONTINUOUS
 62
     5
 10
-411.80000000000001
 20
112.0
 30
0.0
 40
120.0
 50
255.17702999999881
 51
270.0
  0
LINE
  5
B3
  8
SIZE
  6
CONTINUOUS
 62
    30
 10
-420.5
 20
-149.31652800000029
 30
0.0
 11
-415.5
 21
-149.31652800000029
 31
0.0
  0
CIRCLE
  5
B4
  8
SIZE
  6
CONTINUOUS
 62
    30
 10
-425.49999999999989
 20
-149.31652800000029
 30
0.0
 40
5.0
  0
LINE
  5
B5
  8
NOTE
  6
CONTINUOUS
 62
     4
 10
-464.97213100000022
 20
732.96709699999974
 30
0.0
 11
-336.5
 21
507.0
 31
0.0
  0
LINE
  5
B6
  8
SIZE
  6
CONTINUOUS
 62
    30
 10
-367.5
 20
527.0
 30
0.0
 11
-367.5
 21
1123.756433
 31
0.0
  0
LINE
  5
B7
  8
SIZE
  6
CONTINUOUS
 62
    30
 10
-336.5
 20
541.9951659999997
 30
0.0
 11
-336.5
 21
997.98808300000019
 31
0.0
  0
LINE
  5
B8
  8
SIZE
  6
CONTINUOUS
 62
    30
 10
-336.5
 20
541.9951659999997
 30
0.0
 11
-336.5
 21
997.98808300000019
 31
0.0
  0
LINE
  5
B9
  8
SIZE
  6
CONTINUOUS
 62
    30
 10
-367.5
 20
527.0
 30
0.0
 11
-367.5
 21
997.98808300000019
 31
0.0
  0
LINE
  5
BA
  8
OUTLINE
  6
CONTINUOUS
 62
     3
 10
-367.5
 20
507.0
 30
0.0
 11
-367.5
 21
214.0
 31
0.0
  0
LINE
  5
BB
  8
DETAIL
  6
CONTINUOUS
 62
     5
 10
-367.5
 20
507.0
 30
0.0
 11
-367.5
 21
214.0
 31
0.0
  0
TEXT
  5
BC
  8
SIZE
  6
CONTINUOUS
 62
    30
 10
-533.64285757142818
 20
101.44523099999969
 30
0.0
 40
55.0
  1
58
 41
0.9
 72
     1
 11
-493.57142899999963
 21
101.44523099999969
 31
0.0
  0
LINE
  5
BD
  8
SIZE
  6
CONTINUOUS
 62
    30
 10
-425.49999999999989
 20
83.445230999999708
 30
0.0
 11
-551.64285699999982
 21
83.445230999999708
 31
0.0
  0
LINE
  5
BE
  8
NOTE
  6
CONTINUOUS
 62
     4
 10
-457.1616539999992
 20
1.0
 30
0.0
 11
-437.16165399999949
 21
21.0
 31
0.0
  0
LINE
  5
BF
  8
NOTE
  6
CONTINUOUS
 62
     4
 10
-425.49999999999989
 20
21.0
 30
0.0
 11
-518.20409400000062
 21
21.0
 31
0.0
  0
LINE
  5
C0
  8
NOTE
  6
CONTINUOUS
 62
     4
 10
-425.49999999999989
 20
1.0
 30
0.0
 11
-518.20409400000062
 21
1.0
 31
0.0
  0
LINE
  5
C1
  8
NOTE
  6
CONTINUOUS
 62
     4
 10
-497.16165399999937
 20
1.0
 30
0.0
 11
-477.16165399999932
 21
21.0
 31
0.0
  0
LINE
  5
C2
  8
NOTE
  6
CONTINUOUS
 62
     4
 10
-502.16165399999932
 20
1.0
 30
0.0
 11
-482.1616539999992
 21
21.0
 31
0.0
  0
LINE
  5
C3
  8
NOTE
  6
CONTINUOUS
 62
     4
 10
-507.1616539999992
 20
1.0
 30
0.0
 11
-487.16165399999949
 21
21.0
 31
0.0
  0
LINE
  5
C4
  8
NOTE
  6
CONTINUOUS
 62
     4
 10
-467.16165399999949
 20
1.0
 30
0.0
 11
-447.16165399999937
 21
21.0
 31
0.0
  0
LINE
  5
C5
  8
NOTE
  6
CONTINUOUS
 62
     4
 10
-462.16165399999949
 20
1.0
 30
0.0
 11
-442.16165399999949
 21
21.0
 31
0.0
  0
LINE
  5
C6
  8
SIZE
  6
CONTINUOUS
 62
    30
 10
-420.5
 20
83.445230999999708
 30
0.0
 11
-415.5
 21
83.445230999999708
 31
0.0
  0
CIRCLE
  5
C7
  8
SIZE
  6
CONTINUOUS
 62
    30
 10
-425.49999999999989
 20
83.445230999999708
 30
0.0
 40
5.0
  0
LINE
  5
C8
  8
SIZE
  6
CONTINUOUS
 62
    30
 10
-372.5
 20
83.445230999999708
 30
0.0
 11
-377.5
 21
83.445230999999708
 31
0.0
  0
CIRCLE
  5
C9
  8
SIZE
  6
CONTINUOUS
 62
    30
 10
-367.5
 20
83.445230999999708
 30
0.0
 40
5.0
  0
LINE
  5
CA
  8
SIZE
  6
CONTINUOUS
 62
    30
 10
-377.5
 20
83.445230999999708
 30
0.0
 11
-415.5
 21
83.445230999999708
 31
0.0
  0
LINE
  5
CB
  8
SIZE
  6
CONTINUOUS
 62
    30
 10
-425.49999999999989
 20
41.0
 30
0.0
 11
-425.49999999999989
 21
113.44523099999969
 31
0.0
  0
LINE
  5
CC
  8
SIZE
  6
CONTINUOUS
 62
    30
 10
-367.5
 20
192.0
 30
0.0
 11
-367.5
 21
53.445230999999673
 31
0.0
  0
LINE
  5
CD
  8
OUTLINE
  6
CONTINUOUS
 62
     3
 10
-410.97000000000008
 20
0.0
 30
0.0
 11
-410.97000000000008
 21
47.0
 31
0.0
  0
LINE
  5
CE
  8
NOTE
  6
CONTINUOUS
 62
     4
 10
-425.49999999999989
 20
1.0
 30
0.0
 11
-425.49999999999989
 21
21.0
 31
0.0
  0
LINE
  5
CF
  8
DETAIL
  6
CONTINUOUS
 62
     5
 10
-410.97000000000008
 20
0.0
 30
0.0
 11
-410.97000000000008
 21
47.0
 31
0.0
  0
LINE
  5
D0
  8
NOTE
  6
CONTINUOUS
 62
     4
 10
-336.5
 20
507.0
 30
0.0
 11
-359.51506400000022
 21
532.54714299999955
 31
0.0
  0
LINE
  5
D1
  8
NOTE
  6
CONTINUOUS
 62
     4
 10
-336.5
 20
507.0
 30
0.0
 11
-343.65805799999998
 21
540.63200700000004
 31
0.0
  0
LINE
  5
D2
  8
NOTE
  6
CONTINUOUS
 62
     4
 10
-336.5
 20
521.99516599999947
 30
0.0
 11
-336.5
 21
492.00483399999922
 31
0.0
  0
ARC
  5
D3
  8
DETAIL
  6
CONTINUOUS
 62
     5
 10
-364.5
 20
472.0
 30
0.0
 40
3.0
 50
180.0
 51
270.0
  0
LINE
  5
D4
  8
DETAIL
  6
CONTINUOUS
 62
     5
 10
-347.0
 20
495.0
 30
0.0
 11
-364.5
 21
495.0
 31
0.0
  0
LINE
  5
D5
  8
DETAIL
  6
CONTINUOUS
 62
     5
 10
-344.0
 20
507.0
 30
0.0
 11
-344.0
 21
498.0
 31
0.0
  0
ARC
  5
D6
  8
DETAIL
  6
CONTINUOUS
 62
     5
 10
-364.5
 20
498.0
 30
0.0
 40
3.0
 50
180.0
 51
270.0
  0
ARC
  5
D7
  8
DETAIL
  6
CONTINUOUS
 62
     5
 10
-347.0
 20
498.0
 30
0.0
 40
3.0
 50
270.0
 51
0.0
  0
ARC
  5
D8
  8
DETAIL
  6
CONTINUOUS
 62
     5
 10
-329.0
 20
498.0
 30
0.0
 40
3.0
 50
180.0
 51
270.0
  0
LINE
  5
D9
  8
DETAIL
  6
CONTINUOUS
 62
     5
 10
-332.0
 20
507.0
 30
0.0
 11
-332.0
 21
498.0
 31
0.0
  0
LINE
  5
DA
  8
NOTE
  6
CONTINUOUS
 62
     4
 10
-464.97213100000022
 20
732.96709699999974
 30
0.0
 11
-922.90999490732804
 21
732.96709699999974
 31
0.0
  0
TEXT
  5
DB
  8
SIZE
  6
CONTINUOUS
 62
    30
 10
-464.42857171428568
 20
985.98808299999985
 30
0.0
 40
55.0
  1
31
 41
0.9
 72
     1
 11
-434.96428600000007
 21
985.98808299999985
 31
0.0
  0
LINE
  5
DC
  8
SIZE
  6
CONTINUOUS
 62
    30
 10
-377.5
 20
967.98808299999985
 30
0.0
 11
-482.42857100000037
 21
967.98808299999985
 31
0.0
  0
CIRCLE
  5
DD
  8
SIZE
  6
CONTINUOUS
 62
    30
 10
-336.5
 20
967.98808299999985
 30
0.0
 40
5.0
  0
LINE
  5
DE
  8
SIZE
  6
CONTINUOUS
 62
    30
 10
-372.5
 20
967.98808299999985
 30
0.0
 11
-377.5
 21
967.98808299999985
 31
0.0
  0
CIRCLE
  5
DF
  8
SIZE
  6
CONTINUOUS
 62
    30
 10
-367.5
 20
967.98808299999985
 30
0.0
 40
5.0
  0
CIRCLE
  5
E0
  8
SIZE
  6
CONTINUOUS
 62
    30
 10
-336.5
 20
967.98808299999985
 30
0.0
 40
5.0
  0
LINE
  5
E1
  8
SIZE
  6
CONTINUOUS
 62
    30
 10
-336.5
 20
967.98808299999985
 30
0.0
 11
-367.5
 21
967.98808299999985
 31
0.0
  0
LINE
  5
E2
  8
SIZE
  6
CONTINUOUS
 62
    30
 10
-362.5
 20
1093.756433
 30
0.0
 11
-357.5
 21
1093.756433
 31
0.0
  0
CIRCLE
  5
E3
  8
SIZE
  6
CONTINUOUS
 62
    30
 10
-367.5
 20
1093.756433
 30
0.0
 40
5.0
  0
LINE
  5
E4
  8
BASIS
  6
DASHDOT
 62
     6
 10
0.0
 20
540.57171299999982
 30
0.0
 11
0.0
 21
-53.886171000000097
 31
0.0
  0
CIRCLE
  5
E5
  8
ARRANGE
  6
CONTINUOUS
 62
     1
 10
0.0
 20
0.0
 30
0.0
 40
50.0
  0
CIRCLE
  5
E6
  8
SIZE
  6
CONTINUOUS
 62
    30
 10
1167.958627
 20
0.0
 30
0.0
 40
5.0
  0
LINE
  5
E7
  8
SIZE
  6
CONTINUOUS
 62
    30
 10
1167.958627
 20
0.0
 30
0.0
 11
1167.958627
 21
-364.68571400000019
 31
0.0
  0
CIRCLE
  5
E8
  8
SIZE
  6
CONTINUOUS
 62
    30
 10
861.5933129999994
 20
0.0
 30
0.0
 40
5.0
  0
CIRCLE
  5
E9
  8
SIZE
  6
CONTINUOUS
 62
    30
 10
861.5933129999994
 20
0.0
 30
0.0
 40
5.0
  0
LINE
  5
EA
  8
SIZE
  6
CONTINUOUS
 62
    30
 10
861.5933129999994
 20
0.0
 30
0.0
 11
861.5933129999994
 21
-8.0
 31
0.0
  0
LINE
  5
EB
  8
SIZE
  6
CONTINUOUS
 62
    30
 10
367.5
 20
196.65559551920509
 30
0.0
 11
367.5
 21
-436.71809699999989
 31
0.0
  0
LINE
  5
EC
  8
NOTE
  6
CONTINUOUS
 62
     4
 10
409.05041417185492
 20
-244.8596699999998
 30
0.0
 11
175.5
 21
242.00314400000019
 31
0.0
  0
LINE
  5
ED
  8
SIZE
  6
CONTINUOUS
 62
    30
 10
175.5
 20
218.3190557435955
 30
0.0
 11
175.5
 21
-281.78496799999988
 31
0.0
  0
LINE
  5
EE
  8
SIZE
  6
CONTINUOUS
 62
    30
 10
367.5
 20
196.65559551920509
 30
0.0
 11
367.5
 21
-281.78496799999988
 31
0.0
  0
LINE
  5
EF
  8
OUTLINE
  6
CONTINUOUS
 62
     3
 10
157.5
 20
0.0
 30
0.0
 11
157.5
 21
-4.006508000000391
 31
0.0
  0
LINE
  5
F0
  8
NOTE
  6
CONTINUOUS
 62
     4
 10
35.1267979665189
 20
851.79067108035258
 30
0.0
 11
239.5
 21
307.0
 31
0.0
  0
LINE
  5
F1
  8
ARRANGE
  6
CONTINUOUS
 62
     1
 10
49.963762999999737
 20
49.596594999999979
 30
0.0
 11
-49.963762999999737
 21
-49.596594999999979
 31
0.0
  0
LINE
  5
F2
  8
ARRANGE
  6
CONTINUOUS
 62
     1
 10
50.037350000000522
 20
-49.522353000000301
 30
0.0
 11
-50.037350000000522
 21
49.522353000000301
 31
0.0
  0
LINE
  5
F3
  8
DETAIL
  6
CONTINUOUS
 62
     5
 10
157.5
 20
-4.006508000000391
 30
0.0
 11
157.5
 21
0.0
 31
0.0
  0
LINE
  5
F4
  8
SIZE
  6
CONTINUOUS
 62
    30
 10
146.8000000000001
 20
-8.0
 30
0.0
 11
891.59331299999928
 21
-8.0
 31
0.0
  0
LINE
  5
F5
  8
NOTE
  6
CONTINUOUS
 62
     4
 10
856.75172699999973
 20
-244.8596699999998
 30
0.0
 11
409.05041417185492
 21
-244.8596699999998
 31
0.0
  0
TEXT
  5
F6
  8
NOTE
  6
CONTINUOUS
 62
     4
 10
433.5166329999991
 20
-230.29112900000021
 30
0.0
 40
60.0
  1
D2（自然排水口）
 50
0.000003
 41
0.7
  7
STANDARD1
  0
LINE
  5
F7
  8
NOTE
  6
CONTINUOUS
 62
     4
 10
35.1267979665189
 20
851.79067108035258
 30
0.0
 11
-327.01632803348008
 21
851.79067108035258
 31
0.0
  0
TEXT
  5
F8
  8
NOTE
  6
CONTINUOUS
 62
     4
 10
-311.1016600334807
 20
862.55969408035355
 30
0.0
 40
60.0
  1
RG %%C15.88
 50
0.000003
 41
0.7
  7
STANDARD1
  0
LINE
  5
F9
  8
SIZE
  6
CONTINUOUS
 62
    30
 10
130.5
 20
-149.31652800000029
 30
0.0
 11
13.78571399999964
 21
-149.31652800000029
 31
0.0
  0
TEXT
  5
FA
  8
SIZE
  6
CONTINUOUS
 62
    30
 10
-213.8207131428573
 20
-232.62665600000039
 30
0.0
 40
55.0
  1
600
 41
0.9
 72
     1
 11
-150.17785600000019
 21
-232.62665600000039
 31
0.0
  0
TEXT
  5
FB
  8
SIZE
  6
CONTINUOUS
 62
    30
 10
31.785714142856971
 20
-131.31652800000029
 30
0.0
 40
55.0
  1
17
 41
0.9
 72
     1
 11
67.142856999999822
 21
-131.31652800000029
 31
0.0
  0
LINE
  5
FC
  8
SIZE
  6
CONTINUOUS
 62
    30
 10
140.5
 20
-19.0
 30
0.0
 11
140.5
 21
-436.71809699999989
 31
0.0
  0
LINE
  5
FD
  8
SIZE
  6
CONTINUOUS
 62
    30
 10
140.5
 20
-19.0
 30
0.0
 11
140.5
 21
-436.71809699999989
 31
0.0
  0
LINE
  5
FE
  8
SIZE
  6
CONTINUOUS
 62
    30
 10
357.5
 20
-406.71809699999989
 30
0.0
 11
150.5
 21
-406.71809699999989
 31
0.0
  0
TEXT
  5
FF
  8
SIZE
  6
CONTINUOUS
 62
    30
 10
190.3571428571428
 20
-388.718097
 30
0.0
 40
55.0
  1
227
 41
0.9
 72
     1
 11
254.0
 21
-388.718097
 31
0.0
  0
LINE
  5
100
  8
SIZE
  6
CONTINUOUS
 62
    30
 10
145.5
 20
-406.71809699999989
 30
0.0
 11
150.5
 21
-406.71809699999989
 31
0.0
  0
CIRCLE
  5
101
  8
SIZE
  6
CONTINUOUS
 62
    30
 10
140.5
 20
-406.71809699999989
 30
0.0
 40
5.0
  0
LINE
  5
102
  8
SIZE
  6
CONTINUOUS
 62
    30
 10
135.5
 20
-406.71809699999989
 30
0.0
 11
130.5
 21
-406.71809699999989
 31
0.0
  0
CIRCLE
  5
103
  8
SIZE
  6
CONTINUOUS
 62
    30
 10
140.5
 20
-406.71809699999989
 30
0.0
 40
5.0
  0
LINE
  5
104
  8
SIZE
  6
CONTINUOUS
 62
    30
 10
362.5
 20
-406.71809699999989
 30
0.0
 11
357.5
 21
-406.71809699999989
 31
0.0
  0
CIRCLE
  5
105
  8
SIZE
  6
CONTINUOUS
 62
    30
 10
367.5
 20
-406.71809699999989
 30
0.0
 40
5.0
  0
TEXT
  5
106
  8
SIZE
  6
CONTINUOUS
 62
    30
 10
215.1996260079888
 20
-233.78496799999991
 30
0.0
 40
55.0
  1
192
 41
0.9
 72
     1
 11
274.12819743656019
 21
-233.78496799999991
 31
0.0
  0
LINE
  5
107
  8
SIZE
  6
CONTINUOUS
 62
    30
 10
357.5
 20
-251.78496799999991
 30
0.0
 11
185.5
 21
-251.78496799999991
 31
0.0
  0
LINE
  5
108
  8
SIZE
  6
CONTINUOUS
 62
    30
 10
140.5
 20
-19.0
 30
0.0
 11
140.5
 21
-179.3165280000002
 31
0.0
  0
LINE
  5
109
  8
SIZE
  6
CONTINUOUS
 62
    30
 10
157.5
 20
-24.006508000000402
 30
0.0
 11
157.5
 21
-179.3165280000002
 31
0.0
  0
LINE
  5
10A
  8
SIZE
  6
CONTINUOUS
 62
    30
 10
157.5
 20
-24.006508000000402
 30
0.0
 11
157.5
 21
-280.62665600000042
 31
0.0
  0
LINE
  5
10B
  8
SIZE
  6
CONTINUOUS
 62
    30
 10
152.5
 20
-250.62665600000039
 30
0.0
 11
147.5
 21
-250.62665600000039
 31
0.0
  0
CIRCLE
  5
10C
  8
SIZE
  6
CONTINUOUS
 62
    30
 10
157.5
 20
-250.62665600000039
 30
0.0
 40
5.0
  0
LINE
  5
10D
  8
SIZE
  6
CONTINUOUS
 62
    30
 10
180.5
 20
-251.78496799999991
 30
0.0
 11
185.5
 21
-251.78496799999991
 31
0.0
  0
CIRCLE
  5
10E
  8
SIZE
  6
CONTINUOUS
 62
    30
 10
175.5
 20
-251.78496799999991
 30
0.0
 40
5.0
  0
LINE
  5
10F
  8
SIZE
  6
CONTINUOUS
 62
    30
 10
135.5
 20
-149.31652800000029
 30
0.0
 11
130.5
 21
-149.31652800000029
 31
0.0
  0
CIRCLE
  5
110
  8
SIZE
  6
CONTINUOUS
 62
    30
 10
140.5
 20
-149.31652800000029
 30
0.0
 40
5.0
  0
CIRCLE
  5
111
  8
SIZE
  6
CONTINUOUS
 62
    30
 10
157.5
 20
-149.31652800000029
 30
0.0
 40
5.0
  0
LINE
  5
112
  8
SIZE
  6
CONTINUOUS
 62
    30
 10
157.5
 20
-149.31652800000029
 30
0.0
 11
140.5
 21
-149.31652800000029
 31
0.0
  0
ARC
  5
113
  8
OUTLINE
  6
CONTINUOUS
 62
     3
 10
126.8000000000002
 20
112.0
 30
0.0
 40
120.0
 50
270.0
 51
284.82297000000119
  0
ARC
  5
114
  8
DETAIL
  6
CONTINUOUS
 62
     5
 10
126.8000000000002
 20
112.0
 30
0.0
 40
120.0
 50
270.0
 51
284.82297000000119
  0
LINE
  5
115
  8
SIZE
  6
CONTINUOUS
 62
    30
 10
362.5
 20
-251.78496799999991
 30
0.0
 11
357.5
 21
-251.78496799999991
 31
0.0
  0
CIRCLE
  5
116
  8
SIZE
  6
CONTINUOUS
 62
    30
 10
367.5
 20
-251.78496799999991
 30
0.0
 40
5.0
  0
TEXT
  5
117
  8
SIZE
  6
CONTINUOUS
 62
    30
 10
843.59331299999928
 20
-79.0
 30
0.0
 40
55.0
  1
8
 50
90.0
 41
0.9
 72
     1
 11
843.59331299999928
 21
-62.5
 31
0.0
  0
LINE
  5
118
  8
SIZE
  6
CONTINUOUS
 62
    30
 10
861.5933129999994
 20
-5.0
 30
0.0
 11
861.5933129999994
 21
-10.0
 31
0.0
  0
LINE
  5
119
  8
SIZE
  6
CONTINUOUS
 62
    30
 10
861.5933129999994
 20
-10.0
 30
0.0
 11
861.5933129999994
 21
-20.0
 31
0.0
  0
LINE
  5
11A
  8
SIZE
  6
CONTINUOUS
 62
    30
 10
861.5933129999994
 20
-13.0
 30
0.0
 11
861.5933129999994
 21
-18.0
 31
0.0
  0
CIRCLE
  5
11B
  8
SIZE
  6
CONTINUOUS
 62
    30
 10
861.5933129999994
 20
-8.0
 30
0.0
 40
5.0
  0
LINE
  5
11C
  8
SIZE
  6
CONTINUOUS
 62
    30
 10
861.5933129999994
 20
-18.0
 30
0.0
 11
861.5933129999994
 21
-97.0
 31
0.0
  0
TEXT
  5
11D
  8
SIZE
  6
CONTINUOUS
 62
    30
 10
843.59331299999928
 20
65.000000428571951
 30
0.0
 40
55.0
  1
47
 50
90.0
 41
0.9
 72
     1
 11
843.59331299999928
 21
105.07142900000051
 31
0.0
  0
LINE
  5
11E
  8
SIZE
  6
CONTINUOUS
 62
    30
 10
861.5933129999994
 20
163.14285699999979
 30
0.0
 11
861.5933129999994
 21
47.0
 31
0.0
  0
TEXT
  5
11F
  8
SIZE
  6
CONTINUOUS
 62
    30
 10
1149.958627
 20
-346.68571414285668
 30
0.0
 40
55.0
  1
140～300
 50
90.0
 41
0.9
 72
     1
 11
1149.958627
 21
-187.34285699999961
 31
0.0
  0
LINE
  5
120
  8
SIZE
  6
CONTINUOUS
 62
    30
 10
177.42274199999969
 20
0.0
 30
0.0
 11
1197.958627
 21
0.0
 31
0.0
  0
LINE
  5
121
  8
SIZE
  6
CONTINUOUS
 62
    30
 10
387.47302999999999
 20
214.0
 30
0.0
 11
1197.958627
 21
214.0
 31
0.0
  0
LINE
  5
122
  8
SIZE
  6
CONTINUOUS
 62
    30
 10
145.9700000000002
 20
47.0
 30
0.0
 11
891.59331299999928
 21
47.0
 31
0.0
  0
LINE
  5
123
  8
SIZE
  6
CONTINUOUS
 62
    30
 10
177.42274199999969
 20
0.0
 30
0.0
 11
891.59331299999928
 21
0.0
 31
0.0
  0
LINE
  5
124
  8
SIZE
  6
CONTINUOUS
 62
    30
 10
177.42274199999969
 20
0.0
 30
0.0
 11
891.59331299999928
 21
0.0
 31
0.0
  0
LINE
  5
125
  8
SIZE
  6
CONTINUOUS
 62
    30
 10
265.00914899999952
 20
307.00264099999998
 30
0.0
 11
907.54594799999995
 21
307.00264099999998
 31
0.0
  0
LINE
  5
126
  8
SIZE
  6
CONTINUOUS
 62
    30
 10
201.0091489999995
 20
335.0
 30
0.0
 11
907.54594799999995
 21
335.0
 31
0.0
  0
LINE
  5
127
  8
SIZE
  6
CONTINUOUS
 62
    30
 10
201.0091489999995
 20
335.0
 30
0.0
 11
907.54594799999995
 21
335.0
 31
0.0
  0
LINE
  5
128
  8
SIZE
  6
CONTINUOUS
 62
    30
 10
387.5
 20
507.0
 30
0.0
 11
907.54594799999995
 21
507.0
 31
0.0
  0
LINE
  5
12B
  8
SIZE
  6
CONTINUOUS
 62
    30
 10
387.55028800000042
 20
214.0
 30
0.0
 11
1197.958627
 21
214.0
 31
0.0
  0
LINE
  5
12C
  8
SIZE
  6
CONTINUOUS
 62
    30
 10
387.5
 20
507.0
 30
0.0
 11
1197.958627
 21
507.0
 31
0.0
  0
LINE
  5
12D
  8
SIZE
  6
CONTINUOUS
 62
    30
 10
387.5
 20
507.0
 30
0.0
 11
1098.6851129999991
 21
507.0
 31
0.0
  0
LINE
  5
12E
  8
SIZE
  6
CONTINUOUS
 62
    30
 10
206.0091489999995
 20
242.0
 30
0.0
 11
1098.6851129999991
 21
242.0
 31
0.0
  0
LINE
  5
12F
  8
SIZE
  6
CONTINUOUS
 62
    30
 10
125.0091489999995
 20
399.0
 30
0.0
 11
703.63956900000005
 21
399.0
 31
0.0
  0
LINE
  5
130
  8
SIZE
  6
CONTINUOUS
 62
    30
 10
387.5
 20
507.0
 30
0.0
 11
703.63956900000005
 21
507.0
 31
0.0
  0
TEXT
  5
131
  8
SIZE
  6
CONTINUOUS
 62
    30
 10
455.1639505714283
 20
722.56139199999984
 30
0.0
 40
55.0
  1
128
 41
0.9
 72
     1
 11
514.09252199999969
 21
722.56139199999984
 31
0.0
  0
LINE
  5
132
  8
SIZE
  6
CONTINUOUS
 62
    30
 10
591.02109299999915
 20
704.56139199999996
 30
0.0
 11
367.5
 21
704.56139199999996
 31
0.0
  0
LINE
  5
135
  8
SIZE
  6
CONTINUOUS
 62
    30
 10
437.5
 20
488.49999999999989
 30
0.0
 11
437.5
 21
1123.756433
 31
0.0
  0
LINE
  5
136
  8
SIZE
  6
CONTINUOUS
 62
    30
 10
367.5
 20
527.0
 30
0.0
 11
367.5
 21
1123.756433
 31
0.0
  0
LINE
  5
137
  8
SIZE
  6
CONTINUOUS
 62
    30
 10
367.5
 20
527.0
 30
0.0
 11
367.5
 21
1123.756433
 31
0.0
  0
LINE
  5
138
  8
SIZE
  6
CONTINUOUS
 62
    30
 10
333.5
 20
541.9951659999997
 30
0.0
 11
333.5
 21
997.98808300000019
 31
0.0
  0
LINE
  5
139
  8
SIZE
  6
CONTINUOUS
 62
    30
 10
367.5
 20
527.0
 30
0.0
 11
367.5
 21
734.56139199999984
 31
0.0
  0
LINE
  5
13A
  8
SIZE
  6
CONTINUOUS
 62
    30
 10
239.5
 20
332.50263399999989
 30
0.0
 11
239.5
 21
734.56139199999984
 31
0.0
  0
LINE
  5
13B
  8
SIZE
  6
CONTINUOUS
 62
    30
 10
239.5
 20
332.50263399999989
 30
0.0
 11
239.5
 21
734.56139199999984
 31
0.0
  0
LINE
  5
13C
  8
SIZE
  6
CONTINUOUS
 62
    30
 10
175.5
 20
359.75
 30
0.0
 11
175.5
 21
734.56139199999984
 31
0.0
  0
LINE
  5
13D
  8
SIZE
  6
CONTINUOUS
 62
    30
 10
367.5
 20
527.0
 30
0.0
 11
367.5
 21
863.69734699999992
 31
0.0
  0
LINE
  5
13E
  8
SIZE
  6
CONTINUOUS
 62
    30
 10
94.500000000000014
 20
429.49999200000002
 30
0.0
 11
94.500000000000014
 21
863.69734699999992
 31
0.0
  0
LINE
  5
140
  8
NOTE
  6
CONTINUOUS
 62
     4
 10
59.029375000000073
 20
682.90008799999976
 30
0.0
 11
175.5
 21
335.0
 31
0.0
  0
LINE
  5
141
  8
DETAIL
  6
CONTINUOUS
 62
     5
 10
-367.5
 20
214.0
 30
0.0
 11
367.55028800000042
 21
214.0
 31
0.0
  0
CIRCLE
  5
142
  8
DETAIL
  6
CONTINUOUS
 62
     5
 10
101.0
 20
321.79820300000029
 30
0.0
 40
20.0
  0
LINE
  5
143
  8
DETAIL
  6
CONTINUOUS
 62
     5
 10
4.0002089999998098
 20
255.9982030000001
 30
0.0
 11
131.0
 21
255.9982030000001
 31
0.0
  0
CIRCLE
  5
144
  8
DETAIL
  6
CONTINUOUS
 62
     5
 10
101.0
 20
321.79820300000029
 30
0.0
 40
20.0
  0
LINE
  5
145
  8
DETAIL
  6
CONTINUOUS
 62
     5
 10
131.0
 20
414.0
 30
0.0
 11
112.0
 21
414.0
 31
0.0
  0
LINE
  5
146
  8
DETAIL
  6
CONTINUOUS
 62
     5
 10
-5.9997910000001831
 20
265.9982030000001
 30
0.0
 11
-5.9997910000001831
 21
404.0
 31
0.0
  0
CIRCLE
  5
147
  8
DETAIL
  6
CONTINUOUS
 62
     5
 10
-139.1127470000001
 20
334.0
 30
0.0
 40
13.0
  0
CIRCLE
  5
148
  8
DETAIL
  6
CONTINUOUS
 62
     5
 10
-139.1127470000001
 20
284.0
 30
0.0
 40
13.0
  0
ARC
  5
149
  8
DETAIL
  6
CONTINUOUS
 62
     5
 10
4.0002089999998098
 20
265.9982030000001
 30
0.0
 40
10.0
 50
180.0
 51
270.0
  0
LINE
  5
14A
  8
NOTE
  6
CONTINUOUS
 62
     4
 10
59.029375000000073
 20
682.90008799999976
 30
0.0
 11
-279.08167499999939
 21
682.90008799999976
 31
0.0
  0
LINE
  5
14B
  8
NOTE
  6
CONTINUOUS
 62
     4
 10
14.61659700000018
 20
565.32476599999961
 30
0.0
 11
-328.0372399999996
 21
565.32476599999961
 31
0.0
  0
TEXT
  5
14C
  8
NOTE
  6
CONTINUOUS
 62
     4
 10
-306.36196800000027
 20
581.15129699999989
 30
0.0
 40
60.0
  1
D1 VP-25
 50
0.000003
 41
0.7
  7
STANDARD1
  0
ARC
  5
14D
  8
DETAIL
  6
CONTINUOUS
 62
     5
 10
-311.5
 20
495.0
 30
0.0
 40
3.0
 50
270.0
 51
0.0
  0
ARC
  5
14E
  8
DETAIL
  6
CONTINUOUS
 62
     5
 10
-325.5
 20
472.0
 30
0.0
 40
3.0
 50
270.0
 51
0.0
  0
LINE
  5
14F
  8
DETAIL
  6
CONTINUOUS
 62
     5
 10
-308.5
 20
507.0
 30
0.0
 11
-308.5
 21
495.0
 31
0.0
  0
ARC
  5
150
  8
DETAIL
  6
CONTINUOUS
 62
     5
 10
-311.5
 20
498.0
 30
0.0
 40
3.0
 50
270.0
 51
0.0
  0
LINE
  5
151
  8
DETAIL
  6
CONTINUOUS
 62
     5
 10
-311.5
 20
492.0
 30
0.0
 11
-322.5
 21
492.0
 31
0.0
  0
LINE
  5
152
  8
DETAIL
  6
CONTINUOUS
 62
     5
 10
-322.5
 20
492.0
 30
0.0
 11
-322.5
 21
472.0
 31
0.0
  0
LINE
  5
153
  8
NOTE
  6
CONTINUOUS
 62
     4
 10
14.61659700000018
 20
565.32476599999961
 30
0.0
 11
94.500000000000014
 21
399.0
 31
0.0
  0
LINE
  5
154
  8
DETAIL
  6
CONTINUOUS
 62
     5
 10
77.0
 20
414.0
 30
0.0
 11
4.0002089999998098
 21
414.0
 31
0.0
  0
ARC
  5
155
  8
DETAIL
  6
CONTINUOUS
 62
     5
 10
4.0002089999998098
 20
404.0
 30
0.0
 40
10.0
 50
90.0
 51
180.0
  0
LINE
  5
156
  8
NOTE
  6
CONTINUOUS
 62
     4
 10
105.0
 20
399.0
 30
0.0
 11
84.0
 21
399.0
 31
0.0
  0
LINE
  5
157
  8
NOTE
  6
CONTINUOUS
 62
     4
 10
94.500000000000014
 20
409.49999200000002
 30
0.0
 11
94.500000000000014
 21
388.50000799999998
 31
0.0
  0
LINE
  5
158
  8
NOTE
  6
CONTINUOUS
 62
     4
 10
94.500000000000014
 20
399.0
 30
0.0
 11
73.306915000000089
 21
426.07771799999989
 31
0.0
  0
LINE
  5
159
  8
NOTE
  6
CONTINUOUS
 62
     4
 10
94.500000000000014
 20
399.0
 30
0.0
 11
89.685110000000336
 21
433.04653399999989
 31
0.0
  0
ARC
  5
15A
  8
DETAIL
  6
CONTINUOUS
 62
     5
 10
94.500000000000014
 20
399.0
 30
0.0
 40
17.5
 50
0.0
 51
180.0
  0
CIRCLE
  5
15B
  8
DETAIL
  6
CONTINUOUS
 62
     5
 10
94.500000000000014
 20
399.0
 30
0.0
 40
13.0
  0
LINE
  5
15C
  8
DETAIL
  6
CONTINUOUS
 62
     5
 10
77.0
 20
399.0
 30
0.0
 11
77.0
 21
414.0
 31
0.0
  0
ARC
  5
15D
  8
DETAIL
  6
CONTINUOUS
 62
     5
 10
94.500000000000014
 20
399.0
 30
0.0
 40
17.5
 50
180.0
 51
0.0
  0
ARC
  5
15E
  8
DETAIL
  6
CONTINUOUS
 62
     5
 10
94.500000000000014
 20
399.0
 30
0.0
 40
17.5
 50
180.0
 51
0.0
  0
LINE
  5
15F
  8
DETAIL
  6
CONTINUOUS
 62
     5
 10
112.0
 20
399.0
 30
0.0
 11
112.0
 21
414.0
 31
0.0
  0
LINE
  5
160
  8
OUTLINE
  6
CONTINUOUS
 62
     3
 10
367.5
 20
507.0
 30
0.0
 11
367.5
 21
214.0
 31
0.0
  0
LINE
  5
163
  8
NOTE
  6
CONTINUOUS
 62
     4
 10
437.5
 20
442.94451500000008
 30
0.0
 11
437.5
 21
299.05548499999992
 31
0.0
  0
LINE
  5
164
  8
DETAIL
  6
CONTINUOUS
 62
     5
 10
397.5
 20
471.0
 30
0.0
 11
397.5
 21
271.0
 31
0.0
  0
LINE
  5
165
  8
DETAIL
  6
CONTINUOUS
 62
     5
 10
437.5
 20
468.5
 30
0.0
 11
437.5
 21
273.5
 31
0.0
  0
LINE
  5
166
  8
DETAIL
  6
CONTINUOUS
 62
     5
 10
314.49700200000012
 20
296.998716
 30
0.0
 11
314.49700200000012
 21
480.00451699999968
 31
0.0
  0
LINE
  5
167
  8
DETAIL
  6
CONTINUOUS
 62
     5
 10
142.4956430000002
 20
480.00451699999968
 30
0.0
 11
142.4956430000002
 21
325.00391200000013
 31
0.0
  0
LINE
  5
168
  8
DETAIL
  6
CONTINUOUS
 62
     5
 10
141.0
 20
265.9982030000001
 30
0.0
 11
141.0
 21
404.0
 31
0.0
  0
LINE
  5
169
  8
DETAIL
  6
CONTINUOUS
 62
     5
 10
367.5
 20
507.0
 30
0.0
 11
367.5
 21
214.0
 31
0.0
  0
LINE
  5
16A
  8
DETAIL
  6
CONTINUOUS
 62
     5
 10
382.5
 20
475.0
 30
0.0
 11
382.5
 21
267.0
 31
0.0
  0
LINE
  5
16B
  8
NOTE
  6
CONTINUOUS
 62
     4
 10
175.5
 20
242.00314400000019
 30
0.0
 11
196.6802976073958
 21
214.9154228952834
 31
0.0
  0
LINE
  5
16C
  8
NOTE
  6
CONTINUOUS
 62
     4
 10
175.5
 20
242.00314400000019
 30
0.0
 11
183.4769917310141
 21
208.55591269080381
 31
0.0
  0
LINE
  5
16D
  8
DETAIL
  6
CONTINUOUS
 62
     5
 10
154.5
 20
214.0
 30
0.0
 11
154.5
 21
242.00698999999989
 31
0.0
  0
LINE
  5
16E
  8
DETAIL
  6
CONTINUOUS
 62
     5
 10
196.5000000000004
 20
214.0
 30
0.0
 11
196.5
 21
242.00698999999989
 31
0.0
  0
LINE
  5
16F
  8
NOTE
  6
CONTINUOUS
 62
     4
 10
240.5
 20
1.0
 30
0.0
 11
140.5
 21
1.0
 31
0.0
  0
LINE
  5
170
  8
NOTE
  6
CONTINUOUS
 62
     4
 10
240.5
 20
21.0
 30
0.0
 11
140.5
 21
21.0
 31
0.0
  0
LINE
  5
171
  8
OUTLINE
  6
CONTINUOUS
 62
     3
 10
125.9700000000002
 20
47.0
 30
0.0
 11
125.9700000000002
 21
0.0
 31
0.0
  0
LINE
  5
172
  8
NOTE
  6
CONTINUOUS
 62
     4
 10
140.5
 20
1.0
 30
0.0
 11
140.5
 21
21.0
 31
0.0
  0
LINE
  5
173
  8
NOTE
  6
CONTINUOUS
 62
     4
 10
158.8383460000004
 20
1.0
 30
0.0
 11
178.8383460000004
 21
21.0
 31
0.0
  0
LINE
  5
174
  8
NOTE
  6
CONTINUOUS
 62
     4
 10
198.8383460000004
 20
1.0
 30
0.0
 11
218.83834600000051
 21
21.0
 31
0.0
  0
LINE
  5
175
  8
NOTE
  6
CONTINUOUS
 62
     4
 10
163.8383460000004
 20
1.0
 30
0.0
 11
183.8383460000004
 21
21.0
 31
0.0
  0
LINE
  5
176
  8
NOTE
  6
CONTINUOUS
 62
     4
 10
203.83834600000051
 20
1.0
 30
0.0
 11
223.8383460000004
 21
21.0
 31
0.0
  0
LINE
  5
177
  8
NOTE
  6
CONTINUOUS
 62
     4
 10
168.8383460000004
 20
1.0
 30
0.0
 11
188.8383460000004
 21
21.0
 31
0.0
  0
LINE
  5
178
  8
NOTE
  6
CONTINUOUS
 62
     4
 10
208.83834600000051
 20
1.0
 30
0.0
 11
228.83834600000051
 21
21.0
 31
0.0
  0
LINE
  5
179
  8
DETAIL
  6
CONTINUOUS
 62
     5
 10
-442.49999999999989
 20
0.0
 30
0.0
 11
157.5
 21
0.0
 31
0.0
  0
LINE
  5
17A
  8
DETAIL
  6
CONTINUOUS
 62
     5
 10
125.9700000000002
 20
0.0
 30
0.0
 11
125.9700000000002
 21
47.0
 31
0.0
  0
CIRCLE
  5
17B
  8
DETAIL
  6
CONTINUOUS
 62
     5
 10
239.5
 20
307.00264099999998
 30
0.0
 40
21.0
  0
CIRCLE
  5
17C
  8
DETAIL
  6
CONTINUOUS
 62
     5
 10
239.5
 20
307.00264099999998
 30
0.0
 40
18.0
  0
LINE
  5
17D
  8
DETAIL
  6
CONTINUOUS
 62
     5
 10
226.2161759999999
 20
307.00264099999998
 30
0.0
 11
232.78403799999981
 21
318.37851200000028
 31
0.0
  0
LINE
  5
17E
  8
DETAIL
  6
CONTINUOUS
 62
     5
 10
226.2161759999999
 20
307.00264099999998
 30
0.0
 11
232.85808800000001
 21
295.49851200000012
 31
0.0
  0
LINE
  5
17F
  8
NOTE
  6
CONTINUOUS
 62
     4
 10
175.5
 20
335.0
 30
0.0
 11
157.83928199999991
 21
364.50336800000008
 31
0.0
  0
LINE
  5
180
  8
NOTE
  6
CONTINUOUS
 62
     4
 10
175.5
 20
335.0
 30
0.0
 11
171.72882999999999
 21
369.17788699999983
 31
0.0
  0
LINE
  5
181
  8
NOTE
  6
CONTINUOUS
 62
     4
 10
186.0
 20
242.0
 30
0.0
 11
165.0
 21
242.0
 31
0.0
  0
LINE
  5
182
  8
NOTE
  6
CONTINUOUS
 62
     4
 10
175.5
 20
252.49999199999999
 30
0.0
 11
175.5
 21
231.50000800000001
 31
0.0
  0
LINE
  5
183
  8
NOTE
  6
CONTINUOUS
 62
     4
 10
181.0
 20
335.0
 30
0.0
 11
170.0
 21
335.0
 31
0.0
  0
LINE
  5
184
  8
NOTE
  6
CONTINUOUS
 62
     4
 10
175.5
 20
340.49999200000002
 30
0.0
 11
175.5
 21
329.50000799999998
 31
0.0
  0
ARC
  5
185
  8
DETAIL
  6
CONTINUOUS
 62
     5
 10
175.5
 20
242.00698999999989
 30
0.0
 40
21.0
 50
0.0
 51
180.0
  0
LINE
  5
186
  8
DETAIL
  6
CONTINUOUS
 62
     5
 10
216.5
 20
296.998716
 30
0.0
 11
195.50238200000061
 21
296.998716
 31
0.0
  0
CIRCLE
  5
187
  8
DETAIL
  6
CONTINUOUS
 62
     5
 10
175.5
 20
335.0
 30
0.0
 40
18.0
  0
CIRCLE
  5
188
  8
DETAIL
  6
CONTINUOUS
 62
     5
 10
175.5
 20
335.0
 30
0.0
 40
15.0
  0
CIRCLE
  5
189
  8
DETAIL
  6
CONTINUOUS
 62
     5
 10
175.5
 20
335.0
 30
0.0
 40
15.0
  0
CIRCLE
  5
18A
  8
DETAIL
  6
CONTINUOUS
 62
     5
 10
175.5
 20
335.0
 30
0.0
 40
18.0
  0
LINE
  5
18B
  8
DETAIL
  6
CONTINUOUS
 62
     5
 10
181.0
 20
326.05572800000027
 30
0.0
 11
170.0
 21
326.05572800000027
 31
0.0
  0
LINE
  5
18C
  8
DETAIL
  6
CONTINUOUS
 62
     5
 10
181.0
 20
343.94427199999978
 30
0.0
 11
170.0
 21
343.94427199999978
 31
0.0
  0
LINE
  5
18D
  8
DETAIL
  6
CONTINUOUS
 62
     5
 10
181.0
 20
326.05572800000027
 30
0.0
 11
186.0
 21
335.0
 31
0.0
  0
LINE
  5
18E
  8
DETAIL
  6
CONTINUOUS
 62
     5
 10
170.0
 20
326.05572800000027
 30
0.0
 11
165.0
 21
335.0
 31
0.0
  0
LINE
  5
18F
  8
DETAIL
  6
CONTINUOUS
 62
     5
 10
170.0
 20
343.94427199999978
 30
0.0
 11
165.0
 21
335.0
 31
0.0
  0
LINE
  5
190
  8
DETAIL
  6
CONTINUOUS
 62
     5
 10
181.0
 20
343.94427199999978
 30
0.0
 11
186.0
 21
335.0
 31
0.0
  0
CIRCLE
  5
191
  8
DETAIL
  6
CONTINUOUS
 62
     5
 10
175.5
 20
242.0
 30
0.0
 40
13.75
  0
CIRCLE
  5
192
  8
DETAIL
  6
CONTINUOUS
 62
     5
 10
175.5
 20
242.00314400000019
 30
0.0
 40
15.75
  0
ARC
  5
193
  8
DETAIL
  6
CONTINUOUS
 62
     5
 10
155.50238200000061
 20
325.00391200000013
 30
0.0
 40
5.0
 50
270.0
 51
0.0
  0
ARC
  5
194
  8
DETAIL
  6
CONTINUOUS
 62
     5
 10
195.50238200000061
 20
301.99871600000012
 30
0.0
 40
5.0
 50
180.0
 51
270.0
  0
ARC
  5
195
  8
DETAIL
  6
CONTINUOUS
 62
     5
 10
216.5
 20
301.99871600000012
 30
0.0
 40
5.0
 50
270.0
 51
318.17973300001631
  0
LINE
  5
196
  8
DETAIL
  6
CONTINUOUS
 62
     5
 10
147.4956430000002
 20
320.00391200000013
 30
0.0
 11
155.50238200000061
 21
320.00391200000013
 31
0.0
  0
ARC
  5
197
  8
DETAIL
  6
CONTINUOUS
 62
     5
 10
147.4956430000002
 20
325.00391200000013
 30
0.0
 40
5.0
 50
180.0
 51
270.0
  0
LINE
  5
198
  8
DETAIL
  6
CONTINUOUS
 62
     5
 10
190.50238200000041
 20
301.99871600000012
 30
0.0
 11
190.50238200000041
 21
325.05371800000012
 31
0.0
  0
ARC
  5
199
  8
DETAIL
  6
CONTINUOUS
 62
     5
 10
131.0
 20
265.9982030000001
 30
0.0
 40
10.0
 50
270.0
 51
0.0
  0
LINE
  5
19A
  8
NOTE
  6
CONTINUOUS
 62
     4
 10
245.0
 20
307.0
 30
0.0
 11
234.0
 21
307.0
 31
0.0
  0
LINE
  5
19B
  8
NOTE
  6
CONTINUOUS
 62
     4
 10
239.5
 20
312.49999250000019
 30
0.0
 11
239.5
 21
301.50000749999981
 31
0.0
  0
LINE
  5
19C
  8
NOTE
  6
CONTINUOUS
 62
     4
 10
239.50026745838389
 20
307.00526842212298
 30
0.0
 11
221.20231322581
 21
336.1177146881455
 31
0.0
  0
LINE
  5
19D
  8
NOTE
  6
CONTINUOUS
 62
     4
 10
239.50026745838389
 20
307.00526842212298
 30
0.0
 11
234.98695413205431
 21
341.09309093107032
 31
0.0
  0
LINE
  5
19E
  8
DETAIL
  6
CONTINUOUS
 62
     5
 10
245.99381199999971
 20
295.49851200000012
 30
0.0
 11
252.63572399999981
 21
307.00264099999998
 31
0.0
  0
LINE
  5
19F
  8
DETAIL
  6
CONTINUOUS
 62
     5
 10
232.85808800000001
 20
295.49851200000012
 30
0.0
 11
245.99381199999971
 21
295.49851200000012
 31
0.0
  0
LINE
  5
1A0
  8
DETAIL
  6
CONTINUOUS
 62
     5
 10
246.06786199999991
 20
318.37851200000028
 30
0.0
 11
232.78403799999981
 21
318.37851200000028
 31
0.0
  0
LINE
  5
1A1
  8
DETAIL
  6
CONTINUOUS
 62
     5
 10
246.06786199999991
 20
318.37851200000028
 30
0.0
 11
252.63572399999981
 21
307.00264099999998
 31
0.0
  0
ARC
  5
1A2
  8
DETAIL
  6
CONTINUOUS
 62
     5
 10
262.5
 20
296.998716
 30
0.0
 40
5.0
 50
188.330816000016
 51
270.0
  0
ARC
  5
1A3
  8
DETAIL
  6
CONTINUOUS
 62
     5
 10
309.49700200000012
 20
296.998716
 30
0.0
 40
5.0
 50
270.0
 51
0.0
  0
LINE
  5
1A4
  8
DETAIL
  6
CONTINUOUS
 62
     5
 10
262.5
 20
291.99871600000012
 30
0.0
 11
309.49700200000012
 21
291.99871600000012
 31
0.0
  0
LINE
  5
1A5
  8
NOTE
  6
CONTINUOUS
 62
     4
 10
365.55548499999992
 20
371.0
 30
0.0
 11
509.44451500000008
 21
371.0
 31
0.0
  0
ARC
  5
1A6
  8
DETAIL
  6
CONTINUOUS
 62
     5
 10
384.5
 20
269.0
 30
0.0
 40
2.0
 50
90.0
 51
180.0
  0
LINE
  5
1A7
  8
DETAIL
  6
CONTINUOUS
 62
     5
 10
402.5
 20
271.0
 30
0.0
 11
437.5
 21
273.5
 31
0.0
  0
LINE
  5
1A8
  8
DETAIL
  6
CONTINUOUS
 62
     5
 10
402.5
 20
271.0
 30
0.0
 11
384.5
 21
271.0
 31
0.0
  0
LINE
  5
1A9
  8
DETAIL
  6
CONTINUOUS
 62
     5
 10
378.5
 20
263.0
 30
0.0
 11
367.5
 21
263.0
 31
0.0
  0
ARC
  5
1AA
  8
DETAIL
  6
CONTINUOUS
 62
     5
 10
378.5
 20
267.0
 30
0.0
 40
4.0
 50
270.0
 51
0.0
  0
CIRCLE
  5
1AB
  8
FIX
  6
CONTINUOUS
 62
    11
 10
333.5
 20
507.0
 30
0.0
 40
12.421498
  0
LINE
  5
1AC
  8
NOTE
  6
CONTINUOUS
 62
     4
 10
318.5048340000003
 20
507.0
 30
0.0
 11
348.49516600000061
 21
507.0
 31
0.0
  0
LINE
  5
1AD
  8
DETAIL
  6
CONTINUOUS
 62
     5
 10
325.50025300000021
 20
469.0
 30
0.0
 11
364.50036799999998
 21
469.0
 31
0.0
  0
LINE
  5
1AE
  8
DETAIL
  6
CONTINUOUS
 62
     5
 10
309.49700200000012
 20
485.00451699999962
 30
0.0
 11
147.4956430000002
 21
485.00451699999962
 31
0.0
  0
ARC
  5
1AF
  8
DETAIL
  6
CONTINUOUS
 62
     5
 10
147.4956430000002
 20
480.00451699999968
 30
0.0
 40
5.0
 50
90.0
 51
180.0
  0
ARC
  5
1B0
  8
DETAIL
  6
CONTINUOUS
 62
     5
 10
131.0
 20
404.0
 30
0.0
 40
10.0
 50
0.0
 51
90.0
  0
LINE
  5
1B1
  8
NOTE
  6
CONTINUOUS
 62
     4
 10
333.5
 20
521.99516599999947
 30
0.0
 11
333.5
 21
492.00483399999922
 31
0.0
  0
ARC
  5
1B2
  8
DETAIL
  6
CONTINUOUS
 62
     5
 10
311.50025300000021
 20
495.0
 30
0.0
 40
3.0
 50
180.0
 51
270.0
  0
ARC
  5
1B3
  8
DETAIL
  6
CONTINUOUS
 62
     5
 10
325.50025300000021
 20
472.0
 30
0.0
 40
3.0
 50
180.0
 51
270.0
  0
LINE
  5
1B4
  8
DETAIL
  6
CONTINUOUS
 62
     5
 10
308.5002530000001
 20
507.0
 30
0.0
 11
308.5002530000001
 21
495.0
 31
0.0
  0
ARC
  5
1B5
  8
DETAIL
  6
CONTINUOUS
 62
     5
 10
329.0002530000001
 20
498.0
 30
0.0
 40
3.0
 50
270.0
 51
0.0
  0
LINE
  5
1B6
  8
DETAIL
  6
CONTINUOUS
 62
     5
 10
332.00025300000021
 20
507.0
 30
0.0
 11
332.00025300000021
 21
498.0
 31
0.0
  0
LINE
  5
1B7
  8
DETAIL
  6
CONTINUOUS
 62
     5
 10
329.0002530000001
 20
495.0
 30
0.0
 11
311.50025300000021
 21
495.0
 31
0.0
  0
ARC
  5
1B8
  8
DETAIL
  6
CONTINUOUS
 62
     5
 10
311.50025300000021
 20
498.0
 30
0.0
 40
3.0
 50
180.0
 51
270.0
  0
LINE
  5
1B9
  8
DETAIL
  6
CONTINUOUS
 62
     5
 10
311.50025300000021
 20
492.0
 30
0.0
 11
322.50025300000021
 21
492.0
 31
0.0
  0
LINE
  5
1BA
  8
DETAIL
  6
CONTINUOUS
 62
     5
 10
322.50025300000021
 20
492.0
 30
0.0
 11
322.50025300000021
 21
472.0
 31
0.0
  0
ARC
  5
1BB
  8
DETAIL
  6
CONTINUOUS
 62
     5
 10
309.49700200000012
 20
480.00451699999968
 30
0.0
 40
5.0
 50
0.0
 51
90.0
  0
ARC
  5
1BE
  8
DETAIL
  6
CONTINUOUS
 62
     5
 10
364.50036799999998
 20
472.0
 30
0.0
 40
3.0
 50
270.0
 51
0.0006019999980657
  0
LINE
  5
1BF
  8
DETAIL
  6
CONTINUOUS
 62
     5
 10
347.00025300000021
 20
495.0
 30
0.0
 11
364.5002530000001
 21
495.0
 31
0.0
  0
LINE
  5
1C0
  8
DETAIL
  6
CONTINUOUS
 62
     5
 10
344.0002530000001
 20
507.0
 30
0.0
 11
344.0002530000001
 21
498.0
 31
0.0
  0
ARC
  5
1C1
  8
DETAIL
  6
CONTINUOUS
 62
     5
 10
364.5002530000001
 20
498.0
 30
0.0
 40
3.0
 50
270.0
 51
0.0
  0
ARC
  5
1C2
  8
DETAIL
  6
CONTINUOUS
 62
     5
 10
347.00025300000021
 20
498.0
 30
0.0
 40
3.0
 50
180.0
 51
270.0
  0
ARC
  5
1C3
  8
DETAIL
  6
CONTINUOUS
 62
     5
 10
384.5
 20
473.0
 30
0.0
 40
2.0
 50
180.0
 51
270.0
  0
LINE
  5
1C4
  8
DETAIL
  6
CONTINUOUS
 62
     5
 10
402.5
 20
471.0
 30
0.0
 11
384.5
 21
471.0
 31
0.0
  0
LINE
  5
1C5
  8
DETAIL
  6
CONTINUOUS
 62
     5
 10
402.5
 20
471.0
 30
0.0
 11
437.5
 21
468.5
 31
0.0
  0
LINE
  5
1C6
  8
DETAIL
  6
CONTINUOUS
 62
     5
 10
378.5
 20
479.0
 30
0.0
 11
367.5
 21
479.0
 31
0.0
  0
ARC
  5
1C7
  8
DETAIL
  6
CONTINUOUS
 62
     5
 10
378.5
 20
475.0
 30
0.0
 40
4.0
 50
0.0
 51
90.0
  0
TEXT
  5
1CC
  8
SIZE
  6
CONTINUOUS
 62
    30
 10
-179.83301899999969
 20
981.07315299999993
 30
0.0
 40
60.0
  1
(吊りボルトピッチ)
 50
0.000003
 41
0.75
  7
STANDARD1
  0
LINE
  5
1CD
  8
SIZE
  6
CONTINUOUS
 62
    30
 10
-326.5
 20
967.98808299999985
 30
0.0
 11
323.5
 21
967.98808299999985
 31
0.0
  0
LINE
  5
1CE
  8
SIZE
  6
CONTINUOUS
 62
    30
 10
104.5
 20
833.69734699999981
 30
0.0
 11
357.5
 21
833.69734699999981
 31
0.0
  0
TEXT
  5
1CF
  8
SIZE
  6
CONTINUOUS
 62
    30
 10
-322.07014314285721
 20
985.41030899999976
 30
0.0
 40
55.0
  1
670
 41
0.9
 72
     1
 11
-258.42728600000009
 21
985.41030899999976
 31
0.0
  0
TEXT
  5
1D0
  8
NOTE
  6
CONTINUOUS
 62
     4
 10
-270.10298999999941
 20
700.53949499999953
 30
0.0
 40
60.0
  1
RL %%C9.52
 50
0.000003
 41
0.7
  7
STANDARD1
  0
LINE
  5
1D1
  8
SIZE
  6
CONTINUOUS
 62
    30
 10
-326.5
 20
967.98808299999985
 30
0.0
 11
-316.5
 21
967.98808299999985
 31
0.0
  0
CIRCLE
  5
1D2
  8
SIZE
  6
CONTINUOUS
 62
    30
 10
94.500000000000014
 20
833.69734699999981
 30
0.0
 40
5.0
  0
LINE
  5
1D3
  8
SIZE
  6
CONTINUOUS
 62
    30
 10
99.500000000000014
 20
833.69734699999981
 30
0.0
 11
104.5
 21
833.69734699999981
 31
0.0
  0
TEXT
  5
1D4
  8
SIZE
  6
CONTINUOUS
 62
    30
 10
-63.642857142857139
 20
1111.756433
 30
0.0
 40
55.0
  1
735
 41
0.9
 72
     1
 11
0.0
 21
1111.756433
 31
0.0
  0
LINE
  5
1D5
  8
SIZE
  6
CONTINUOUS
 62
    30
 10
249.5
 20
704.56139199999996
 30
0.0
 11
357.5
 21
704.56139199999996
 31
0.0
  0
TEXT
  5
1D6
  8
SIZE
  6
CONTINUOUS
 62
    30
 10
116.9065313261526
 20
768.21130292461032
 30
0.0
 40
55.0
  1
64
 41
0.9
 72
     1
 11
158.15653132615259
 21
768.21130292461032
 31
0.0
  0
LINE
  5
1D7
  8
SIZE
  6
CONTINUOUS
 62
    30
 10
175.5
 20
704.56139199999996
 30
0.0
 11
239.5
 21
704.56139199999996
 31
0.0
  0
CIRCLE
  5
1D8
  8
SIZE
  6
CONTINUOUS
 62
    30
 10
175.5
 20
704.56139199999996
 30
0.0
 40
5.0
  0
LINE
  5
1D9
  8
SIZE
  6
CONTINUOUS
 62
    30
 10
244.5
 20
704.56139199999996
 30
0.0
 11
249.5
 21
704.56139199999996
 31
0.0
  0
CIRCLE
  5
1DA
  8
SIZE
  6
CONTINUOUS
 62
    30
 10
239.5
 20
704.56139199999996
 30
0.0
 40
5.0
  0
LINE
  5
1DB
  8
SIZE
  6
CONTINUOUS
 62
    30
 10
244.5
 20
704.56139199999996
 30
0.0
 11
249.5
 21
704.56139199999996
 31
0.0
  0
CIRCLE
  5
1DC
  8
SIZE
  6
CONTINUOUS
 62
    30
 10
239.5
 20
704.56139199999996
 30
0.0
 40
5.0
  0
LINE
  5
1DD
  8
SIZE
  6
CONTINUOUS
 62
    30
 10
249.5
 20
704.56139199999996
 30
0.0
 11
259.5
 21
704.56139199999996
 31
0.0
  0
TEXT
  5
1DE
  8
SIZE
  6
CONTINUOUS
 62
    30
 10
167.3571428571428
 20
851.69734699999981
 30
0.0
 40
55.0
  1
273
 41
0.9
 72
     1
 11
231.0
 21
851.69734699999981
 31
0.0
  0
LINE
  5
1DF
  8
SIZE
  6
CONTINUOUS
 62
    30
 10
328.5
 20
967.98808299999985
 30
0.0
 11
323.5
 21
967.98808299999985
 31
0.0
  0
CIRCLE
  5
1E0
  8
SIZE
  6
CONTINUOUS
 62
    30
 10
333.5
 20
967.98808299999985
 30
0.0
 40
5.0
  0
CIRCLE
  5
1E1
  8
SIZE
  6
CONTINUOUS
 62
    30
 10
367.5
 20
833.69734699999981
 30
0.0
 40
5.0
  0
LINE
  5
1E2
  8
SIZE
  6
CONTINUOUS
 62
    30
 10
362.5
 20
704.56139199999996
 30
0.0
 11
357.5
 21
704.56139199999996
 31
0.0
  0
CIRCLE
  5
1E3
  8
SIZE
  6
CONTINUOUS
 62
    30
 10
367.5
 20
704.56139199999996
 30
0.0
 40
5.0
  0
LINE
  5
1E4
  8
SIZE
  6
CONTINUOUS
 62
    30
 10
362.5
 20
833.69734699999981
 30
0.0
 11
357.5
 21
833.69734699999981
 31
0.0
  0
CIRCLE
  5
1E6
  8
SIZE
  6
CONTINUOUS
 62
    30
 10
437.5
 20
1093.756433
 30
0.0
 40
5.0
  0
LINE
  5
1E7
  8
SIZE
  6
CONTINUOUS
 62
    30
 10
362.5
 20
1093.756433
 30
0.0
 11
357.5
 21
1093.756433
 31
0.0
  0
CIRCLE
  5
1E8
  8
SIZE
  6
CONTINUOUS
 62
    30
 10
367.5
 20
1093.756433
 30
0.0
 40
5.0
  0
LINE
  5
1E9
  8
SIZE
  6
CONTINUOUS
 62
    30
 10
367.5
 20
1093.756433
 30
0.0
 11
437.5
 21
1093.756433
 31
0.0
  0
LINE
  5
1EA
  8
SIZE
  6
CONTINUOUS
 62
    30
 10
357.5
 20
1093.756433
 30
0.0
 11
347.5
 21
1093.756433
 31
0.0
  0
LINE
  5
1EB
  8
SIZE
  6
CONTINUOUS
 62
    30
 10
362.5
 20
1093.756433
 30
0.0
 11
357.5
 21
1093.756433
 31
0.0
  0
CIRCLE
  5
1EC
  8
SIZE
  6
CONTINUOUS
 62
    30
 10
367.5
 20
1093.756433
 30
0.0
 40
5.0
  0
TEXT
  5
1ED
  8
SIZE
  6
CONTINUOUS
 62
    30
 10
1050.6851129999991
 20
300.49783385714289
 30
0.0
 40
55.0
  1
265
 50
90.0
 41
0.9
 72
     1
 11
1050.6851129999991
 21
364.14069100000012
 31
0.0
  0
LINE
  5
1EE
  8
SIZE
  6
CONTINUOUS
 62
    30
 10
972.67888200000004
 20
372.6849629999997
 30
0.0
 11
972.67888200000004
 21
488.8278209999998
 31
0.0
  0
TEXT
  5
1EF
  8
SIZE
  6
CONTINUOUS
 62
    30
 10
859.54594799999984
 20
362.0714285714285
 30
0.0
 40
55.0
  1
172
 50
90.0
 41
0.9
 72
     1
 11
859.54594799999984
 21
421.0
 31
0.0
  0
LINE
  5
1F0
  8
SIZE
  6
CONTINUOUS
 62
    30
 10
877.54594799999984
 20
497.0
 30
0.0
 11
877.54594799999984
 21
345.0
 31
0.0
  0
CIRCLE
  5
1F3
  8
SIZE
  6
CONTINUOUS
 62
    30
 10
861.5933129999994
 20
47.0
 30
0.0
 40
5.0
  0
LINE
  5
1F4
  8
SIZE
  6
CONTINUOUS
 62
    30
 10
861.5933129999994
 20
0.0
 30
0.0
 11
861.5933129999994
 21
47.0
 31
0.0
  0
LINE
  5
1F5
  8
SIZE
  6
CONTINUOUS
 62
    30
 10
861.5933129999994
 20
0.0
 30
0.0
 11
861.5933129999994
 21
47.0
 31
0.0
  0
LINE
  5
1F6
  8
SIZE
  6
CONTINUOUS
 62
    30
 10
861.5933129999994
 20
5.0
 30
0.0
 11
861.5933129999994
 21
10.0
 31
0.0
  0
LINE
  5
1F7
  8
SIZE
  6
CONTINUOUS
 62
    30
 10
861.5933129999994
 20
10.0
 30
0.0
 11
861.5933129999994
 21
20.0
 31
0.0
  0
LINE
  5
1F8
  8
SIZE
  6
CONTINUOUS
 62
    30
 10
877.54594799999984
 20
321.00132099999968
 30
0.0
 11
972.67888200000004
 21
372.6849629999997
 31
0.0
  0
CIRCLE
  5
1F9
  8
SIZE
  6
CONTINUOUS
 62
    30
 10
877.54594799999984
 20
307.00264099999998
 30
0.0
 40
5.0
  0
LINE
  5
1FA
  8
SIZE
  6
CONTINUOUS
 62
    30
 10
877.54594799999984
 20
340.0
 30
0.0
 11
877.54594799999984
 21
345.0
 31
0.0
  0
CIRCLE
  5
1FB
  8
SIZE
  6
CONTINUOUS
 62
    30
 10
877.54594799999984
 20
335.0
 30
0.0
 40
5.0
  0
LINE
  5
1FC
  8
SIZE
  6
CONTINUOUS
 62
    30
 10
877.54594799999984
 20
335.0
 30
0.0
 11
877.54594799999984
 21
307.00264099999998
 31
0.0
  0
LINE
  5
1FD
  8
SIZE
  6
CONTINUOUS
 62
    30
 10
877.54594799999984
 20
335.0
 30
0.0
 11
877.54594799999984
 21
307.00264099999998
 31
0.0
  0
LINE
  5
1FE
  8
SIZE
  6
CONTINUOUS
 62
    30
 10
877.54594799999984
 20
345.0
 30
0.0
 11
877.54594799999984
 21
355.0
 31
0.0
  0
LINE
  5
1FF
  8
SIZE
  6
CONTINUOUS
 62
    30
 10
877.54594799999984
 20
340.0
 30
0.0
 11
877.54594799999984
 21
345.0
 31
0.0
  0
CIRCLE
  5
200
  8
SIZE
  6
CONTINUOUS
 62
    30
 10
877.54594799999984
 20
335.0
 30
0.0
 40
5.0
  0
LINE
  5
202
  8
SIZE
  6
CONTINUOUS
 62
    30
 10
673.63956900000005
 20
507.0
 30
0.0
 11
673.63956900000005
 21
670.85714300000006
 31
0.0
  0
CIRCLE
  5
203
  8
SIZE
  6
CONTINUOUS
 62
    30
 10
673.63956900000005
 20
507.0
 30
0.0
 40
5.0
  0
CIRCLE
  5
204
  8
SIZE
  6
CONTINUOUS
 62
    30
 10
673.63956900000005
 20
399.0
 30
0.0
 40
5.0
  0
LINE
  5
205
  8
SIZE
  6
CONTINUOUS
 62
    30
 10
673.63956900000005
 20
502.0
 30
0.0
 11
673.63956900000005
 21
497.0
 31
0.0
  0
LINE
  5
206
  8
SIZE
  6
CONTINUOUS
 62
    30
 10
673.63956900000005
 20
404.0
 30
0.0
 11
673.63956900000005
 21
409.0
 31
0.0
  0
LINE
  5
207
  8
SIZE
  6
CONTINUOUS
 62
    30
 10
673.63956900000005
 20
409.0
 30
0.0
 11
673.63956900000005
 21
497.0
 31
0.0
  0
TEXT
  5
20B
  8
SIZE
  6
CONTINUOUS
 62
    30
 10
655.63956900000017
 20
534.99999957142825
 30
0.0
 40
55.0
  1
108
 50
90.0
 41
0.9
 72
     1
 11
655.63956900000017
 21
593.92857099999981
 31
0.0
  0
TEXT
  5
20D
  8
SIZE
  6
CONTINUOUS
 62
    30
 10
954.67888200000004
 20
390.68496342857139
 30
0.0
 40
55.0
  1
28
 50
90.0
 41
0.9
 72
     1
 11
954.67888200000004
 21
430.75639199999989
 31
0.0
  0
LINE
  5
20E
  8
SIZE
  6
CONTINUOUS
 62
    30
 10
877.54594799999984
 20
502.0
 30
0.0
 11
877.54594799999984
 21
497.0
 31
0.0
  0
CIRCLE
  5
20F
  8
SIZE
  6
CONTINUOUS
 62
    30
 10
877.54594799999984
 20
507.0
 30
0.0
 40
5.0
  0
TEXT
  5
210
  8
SIZE
  6
CONTINUOUS
 62
    30
 10
1149.958627
 20
296.85714285714289
 30
0.0
 40
55.0
  1
293
 50
90.0
 41
0.9
 72
     1
 11
1149.958627
 21
360.5
 31
0.0
  0
LINE
  5
211
  8
SIZE
  6
CONTINUOUS
 62
    30
 10
1167.958627
 20
497.0
 30
0.0
 11
1167.958627
 21
222.0
 31
0.0
  0
LINE
  5
212
  8
SIZE
  6
CONTINUOUS
 62
    30
 10
1068.6851129999991
 20
252.0
 30
0.0
 11
1068.6851129999991
 21
497.0
 31
0.0
  0
LINE
  5
213
  8
SIZE
  6
CONTINUOUS
 62
    30
 10
1167.958627
 20
5.0
 30
0.0
 11
1167.958627
 21
10.0
 31
0.0
  0
LINE
  5
214
  8
SIZE
  6
CONTINUOUS
 62
    30
 10
1167.958627
 20
209.0
 30
0.0
 11
1167.958627
 21
204.0
 31
0.0
  0
CIRCLE
  5
215
  8
SIZE
  6
CONTINUOUS
 62
    30
 10
1167.958627
 20
214.0
 30
0.0
 40
5.0
  0
LINE
  5
216
  8
SIZE
  6
CONTINUOUS
 62
    30
 10
1167.958627
 20
204.0
 30
0.0
 11
1167.958627
 21
10.0
 31
0.0
  0
LINE
  5
217
  8
SIZE
  6
CONTINUOUS
 62
    30
 10
1167.958627
 20
219.0
 30
0.0
 11
1167.958627
 21
224.0
 31
0.0
  0
CIRCLE
  5
218
  8
SIZE
  6
CONTINUOUS
 62
    30
 10
1167.958627
 20
214.0
 30
0.0
 40
5.0
  0
LINE
  5
219
  8
SIZE
  6
CONTINUOUS
 62
    30
 10
1068.6851129999991
 20
247.0
 30
0.0
 11
1068.6851129999991
 21
252.0
 31
0.0
  0
CIRCLE
  5
21A
  8
SIZE
  6
CONTINUOUS
 62
    30
 10
1068.6851129999991
 20
242.0
 30
0.0
 40
5.0
  0
LINE
  5
21B
  8
SIZE
  6
CONTINUOUS
 62
    30
 10
1068.6851129999991
 20
502.0
 30
0.0
 11
1068.6851129999991
 21
497.0
 31
0.0
  0
CIRCLE
  5
21C
  8
SIZE
  6
CONTINUOUS
 62
    30
 10
1068.6851129999991
 20
507.0
 30
0.0
 40
5.0
  0
LINE
  5
21D
  8
SIZE
  6
CONTINUOUS
 62
    30
 10
1167.958627
 20
502.0
 30
0.0
 11
1167.958627
 21
497.0
 31
0.0
  0
CIRCLE
  5
21E
  8
SIZE
  6
CONTINUOUS
 62
    30
 10
1167.958627
 20
507.0
 30
0.0
 40
5.0
  0
TEXT
  5
221
  8
NOTE
  6
CONTINUOUS
 62
     4
 10
-903.54588091263781
 20
749.20442170792865
 30
0.0
 40
60.0
  1
AH M10ボルト用
 50
0.000003
 41
0.7
  7
STANDARD1
  0
LINE
  5
222
  8
DETAIL
  6
CONTINUOUS
 62
     5
 10
119.8553390000006
 20
180.14250399999989
 30
0.0
 11
-400.1446609999993
 21
180.14250399999989
 31
0.0
  0
LINE
  5
223
  8
DETAIL
  6
CONTINUOUS
 62
     5
 10
119.8553390000006
 20
132.931826
 30
0.0
 11
-400.1446609999993
 21
132.931826
 31
0.0
  0
LINE
  5
224
  8
DETAIL
  6
CONTINUOUS
 62
     5
 10
119.8553390000006
 20
85.721148000000028
 30
0.0
 11
-400.1446609999993
 21
85.721148000000028
 31
0.0
  0
LINE
  5
225
  8
DETAIL
  6
CONTINUOUS
 62
     5
 10
84.500000000000909
 20
156.53716500000019
 30
0.0
 11
-364.78932199999957
 21
156.53716500000019
 31
0.0
  0
LINE
  5
226
  8
DETAIL
  6
CONTINUOUS
 62
     5
 10
84.500000000000909
 20
109.3264870000002
 30
0.0
 11
-364.78932199999957
 21
109.3264870000002
 31
0.0
  0
LINE
  5
227
  8
DETAIL
  6
CONTINUOUS
 62
     5
 10
119.8553390000006
 20
180.14250399999989
 30
0.0
 11
84.500000000000909
 21
156.53716500000019
 31
0.0
  0
LINE
  5
228
  8
DETAIL
  6
CONTINUOUS
 62
     5
 10
119.8553390000006
 20
180.14250399999989
 30
0.0
 11
84.500000000000909
 21
203.4978430000001
 31
0.0
  0
LINE
  5
229
  8
DETAIL
  6
CONTINUOUS
 62
     5
 10
119.8553390000006
 20
85.721148000000028
 30
0.0
 11
85.210678000000385
 21
62.115808999999892
 31
0.0
  0
LINE
  5
22A
  8
DETAIL
  6
CONTINUOUS
 62
     5
 10
119.8553390000006
 20
132.931826
 30
0.0
 11
84.500000000000909
 21
156.53716500000019
 31
0.0
  0
LINE
  5
22B
  8
DETAIL
  6
CONTINUOUS
 62
     5
 10
119.8553390000006
 20
132.931826
 30
0.0
 11
84.500000000000909
 21
109.3264870000002
 31
0.0
  0
LINE
  5
22C
  8
DETAIL
  6
CONTINUOUS
 62
     5
 10
119.8553390000006
 20
85.721148000000028
 30
0.0
 11
84.500000000000909
 21
109.3264870000002
 31
0.0
  0
LINE
  5
22D
  8
DETAIL
  6
CONTINUOUS
 62
     5
 10
-365.49999999999909
 20
203.4978430000001
 30
0.0
 11
-400.1446609999993
 21
180.14250399999989
 31
0.0
  0
LINE
  5
22E
  8
DETAIL
  6
CONTINUOUS
 62
     5
 10
-400.1446609999993
 20
180.14250399999989
 30
0.0
 11
-364.78932199999957
 21
156.53716500000019
 31
0.0
  0
LINE
  5
22F
  8
DETAIL
  6
CONTINUOUS
 62
     5
 10
-400.1446609999993
 20
85.721148000000028
 30
0.0
 11
-364.78932199999957
 21
62.115808999999892
 31
0.0
  0
LINE
  5
230
  8
DETAIL
  6
CONTINUOUS
 62
     5
 10
-400.1446609999993
 20
132.931826
 30
0.0
 11
-364.78932199999957
 21
156.53716500000019
 31
0.0
  0
LINE
  5
231
  8
DETAIL
  6
CONTINUOUS
 62
     5
 10
-400.1446609999993
 20
132.931826
 30
0.0
 11
-364.78932199999957
 21
109.3264870000002
 31
0.0
  0
LINE
  5
232
  8
DETAIL
  6
CONTINUOUS
 62
     5
 10
-400.1446609999993
 20
85.721148000000028
 30
0.0
 11
-364.78932199999957
 21
109.3264870000002
 31
0.0
  0
LINE
  5
233
  8
DETAIL
  6
CONTINUOUS
 62
     5
 10
85.210678000000385
 20
62.115808999999892
 30
0.0
 11
85.210678000000385
 21
47.115808999999892
 31
0.0
  0
LINE
  5
234
  8
DETAIL
  6
CONTINUOUS
 62
     5
 10
85.210678000000385
 20
62.115808999999892
 30
0.0
 11
-364.78932199999957
 21
62.115808999999892
 31
0.0
  0
LINE
  5
235
  8
DETAIL
  6
CONTINUOUS
 62
     5
 10
-364.78932199999957
 20
62.115808999999892
 30
0.0
 11
-364.78932199999957
 21
47.115808999999892
 31
0.0
  0
LINE
  5
236
  8
DETAIL
  6
CONTINUOUS
 62
     5
 10
84.500000000000909
 20
203.4978430000001
 30
0.0
 11
-365.49999999999909
 21
203.4978430000001
 31
0.0
  0
LINE
  5
237
  8
DETAIL
  6
CONTINUOUS
 62
     5
 10
84.500000000000909
 20
203.4978430000001
 30
0.0
 11
84.500000000000909
 21
214.0
 31
0.0
  0
LINE
  5
238
  8
DETAIL
  6
CONTINUOUS
 62
     5
 10
-365.49999999999909
 20
203.4978430000001
 30
0.0
 11
-365.49999999999852
 21
214.0
 31
0.0
  0
LINE
  5
239
  8
OUTLINE
  6
CONTINUOUS
 62
     3
 10
-365.49999999999909
 20
203.4978430000001
 30
0.0
 11
-365.49999999999852
 21
214.0
 31
0.0
  0
LINE
  5
23A
  8
OUTLINE
  6
CONTINUOUS
 62
     3
 10
84.500000000000909
 20
203.4978430000001
 30
0.0
 11
84.500000000000909
 21
214.0
 31
0.0
  0
LINE
  5
23B
  8
OUTLINE
  6
CONTINUOUS
 62
     3
 10
-364.78932199999957
 20
62.115808999999892
 30
0.0
 11
-364.78932199999957
 21
47.115808999999892
 31
0.0
  0
LINE
  5
23C
  8
OUTLINE
  6
CONTINUOUS
 62
     3
 10
85.210678000000385
 20
62.115808999999892
 30
0.0
 11
85.210678000000385
 21
47.115808999999892
 31
0.0
  0
LINE
  5
23D
  8
OUTLINE
  6
CONTINUOUS
 62
     3
 10
-400.1446609999993
 20
85.721148000000028
 30
0.0
 11
-364.78932199999957
 21
109.3264870000002
 31
0.0
  0
LINE
  5
23E
  8
OUTLINE
  6
CONTINUOUS
 62
     3
 10
-400.1446609999993
 20
132.931826
 30
0.0
 11
-364.78932199999957
 21
109.3264870000002
 31
0.0
  0
LINE
  5
23F
  8
OUTLINE
  6
CONTINUOUS
 62
     3
 10
-400.1446609999993
 20
132.931826
 30
0.0
 11
-364.78932199999957
 21
156.53716500000019
 31
0.0
  0
LINE
  5
240
  8
OUTLINE
  6
CONTINUOUS
 62
     3
 10
-400.1446609999993
 20
85.721148000000028
 30
0.0
 11
-364.78932199999957
 21
62.115808999999892
 31
0.0
  0
LINE
  5
241
  8
OUTLINE
  6
CONTINUOUS
 62
     3
 10
-400.1446609999993
 20
180.14250399999989
 30
0.0
 11
-364.78932199999957
 21
156.53716500000019
 31
0.0
  0
LINE
  5
242
  8
OUTLINE
  6
CONTINUOUS
 62
     3
 10
-365.49999999999909
 20
203.4978430000001
 30
0.0
 11
-400.1446609999993
 21
180.14250399999989
 31
0.0
  0
LINE
  5
243
  8
OUTLINE
  6
CONTINUOUS
 62
     3
 10
119.8553390000006
 20
85.721148000000028
 30
0.0
 11
84.500000000000909
 21
109.3264870000002
 31
0.0
  0
LINE
  5
244
  8
OUTLINE
  6
CONTINUOUS
 62
     3
 10
119.8553390000006
 20
132.931826
 30
0.0
 11
84.500000000000909
 21
109.3264870000002
 31
0.0
  0
LINE
  5
245
  8
OUTLINE
  6
CONTINUOUS
 62
     3
 10
119.8553390000006
 20
132.931826
 30
0.0
 11
84.500000000000909
 21
156.53716500000019
 31
0.0
  0
LINE
  5
246
  8
OUTLINE
  6
CONTINUOUS
 62
     3
 10
119.8553390000006
 20
85.721148000000028
 30
0.0
 11
85.210678000000385
 21
62.115808999999892
 31
0.0
  0
LINE
  5
247
  8
OUTLINE
  6
CONTINUOUS
 62
     3
 10
119.8553390000006
 20
180.14250399999989
 30
0.0
 11
84.500000000000909
 21
203.4978430000001
 31
0.0
  0
LINE
  5
248
  8
OUTLINE
  6
CONTINUOUS
 62
     3
 10
119.8553390000006
 20
180.14250399999989
 30
0.0
 11
84.500000000000909
 21
156.53716500000019
 31
0.0
  0
LINE
  5
258
  8
SIZE
  6
CONTINUOUS
 62
    30
 10
111.8037261861427
 20
761.26152054262195
 30
0.0
 11
205.28188135790509
 21
761.26152054262195
 31
0.0
  0
LINE
  5
25E
  8
SIZE
  6
CONTINUOUS
 62
    30
 10
205.2818795278163
 20
761.26151991884296
 30
0.0
 11
207.5
 21
704.56139199999996
 31
0.0
  0
TEXT
  5
26E
  8
SIZE
  6
CONTINUOUS
 62
    30
 10
454.6276888765442
 20
1111.700530738241
 30
0.0
 40
55.0
  1
70
 41
0.9
 72
     1
 11
494.69911744797281
 21
1111.700530738241
 31
0.0
  0
LINE
  5
26F
  8
SIZE
  6
CONTINUOUS
 62
    30
 10
442.49968748394639
 20
1093.700530738241
 30
0.0
 11
546.78309027478463
 21
1093.700530738241
 31
0.0
  0
ENDSEC
  0
EOF
