  0
SECTION
  2
HEADER
  9
$ACADVER
  1
AC1009
  9
$INSBASE
 10
0.0
 20
0.0
 30
0.0
  9
$EXTMIN
 10
-1252.503047266116
 20
-372.15348310620902
 30
-0.0015258207003583
  9
$EXTMAX
 10
1425.0676456046131
 20
1247.649312463818
 30
0.0000000349246037
  9
$LIMMIN
 10
-4267.1522210000003
 20
-2696.0832100000011
  9
$LIMMAX
 10
7190.7174229999991
 20
5141.1553640000002
  9
$ORTHOMODE
 70
     0
  9
$REGENMODE
 70
     1
  9
$FILLMODE
 70
     1
  9
$QTEXTMODE
 70
     0
  9
$MIRRTEXT
 70
     0
  9
$DRAGMODE
 70
     2
  9
$LTSCALE
 40
20.0
  9
$OSMODE
 70
   959
  9
$ATTMODE
 70
     1
  9
$TEXTSIZE
 40
64.0
  9
$TRACEWID
 40
0.05
  9
$TEXTSTYLE
  7
STANDARD
  9
$CLAYER
  8
SYMBOLLINE
  9
$CELTYPE
  6
CONTINUOUS
  9
$CECOLOR
 62
     7
  9
$DIMSCALE
 40
1.0
  9
$DIMASZ
 40
10.0
  9
$DIMEXO
 40
20.0
  9
$DIMDLI
 40
200.0
  9
$DIMRND
 40
0.0
  9
$DIMDLE
 40
0.0
  9
$DIMEXE
 40
30.0
  9
$DIMTP
 40
0.0
  9
$DIMTM
 40
0.0
  9
$DIMTXT
 40
55.0
  9
$DIMCEN
 40
0.0
  9
$DIMTSZ
 40
0.0
  9
$DIMTOL
 70
     0
  9
$DIMLIM
 70
     0
  9
$DIMTIH
 70
     0
  9
$DIMTOH
 70
     0
  9
$DIMSE1
 70
     0
  9
$DIMSE2
 70
     0
  9
$DIMTAD
 70
     1
  9
$DIMZIN
 70
     8
  9
$DIMBLK
  1

  9
$DIMASO
 70
     1
  9
$DIMSHO
 70
     0
  9
$DIMPOST
  1

  9
$DIMAPOST
  1

  9
$DIMALT
 70
     0
  9
$DIMALTD
 70
     2
  9
$DIMALTF
 40
25.399999999999999
  9
$DIMLFAC
 40
1.0
  9
$DIMTOFL
 70
     1
  9
$DIMTVP
 40
0.0
  9
$DIMTIX
 70
     1
  9
$DIMSOXD
 70
     0
  9
$DIMSAH
 70
     1
  9
$DIMBLK1
  1
DOTBLANK
  9
$DIMBLK2
  1
DOTBLANK
  9
$DIMSTYLE
  2
STANDARD
  9
$DIMCLRD
 70
     0
  9
$DIMCLRE
 70
     0
  9
$DIMCLRT
 70
     0
  9
$DIMTFAC
 40
1.0
  9
$DIMGAP
 40
0.09
  9
$LUNITS
 70
     2
  9
$LUPREC
 70
     4
  9
$SKETCHINC
 40
0.1
  9
$FILLETRAD
 40
30.0
  9
$AUNITS
 70
     1
  9
$AUPREC
 70
     3
  9
$MENU
  1
ACAD
  9
$ELEVATION
 40
0.0
  9
$PELEVATION
 40
0.0
  9
$THICKNESS
 40
0.0
  9
$LIMCHECK
 70
     0
  9
$BLIPMODE
 70
     0
  9
$CHAMFERA
 40
0.0
  9
$CHAMFERB
 40
0.0
  9
$SKPOLY
 70
     0
  9
$TDCREATE
 40
2450330.4399309959
  9
$TDUPDATE
 40
2455581.673345556
  9
$TDINDWG
 40
3.5228721181
  9
$TDUSRTIMER
 40
3.5228717593000001
  9
$USRTIMER
 70
     1
  9
$ANGBASE
 50
0.0
  9
$ANGDIR
 70
     0
  9
$PDMODE
 70
     3
  9
$PDSIZE
 40
-2.0
  9
$PLINEWID
 40
0.0
  9
$COORDS
 70
     0
  9
$SPLFRAME
 70
     0
  9
$SPLINETYPE
 70
     6
  9
$SPLINESEGS
 70
     8
  9
$ATTDIA
 70
     0
  9
$ATTREQ
 70
     1
  9
$HANDLING
 70
     1
  9
$HANDSEED
  5
AF7
  9
$SURFTAB1
 70
     6
  9
$SURFTAB2
 70
     6
  9
$SURFTYPE
 70
     6
  9
$SURFU
 70
     6
  9
$SURFV
 70
     6
  9
$UCSNAME
  2

  9
$UCSORG
 10
0.0
 20
0.0
 30
0.0
  9
$UCSXDIR
 10
1.0
 20
0.0
 30
0.0
  9
$UCSYDIR
 10
0.0
 20
1.0
 30
0.0
  9
$PUCSNAME
  2

  9
$PUCSORG
 10
0.0
 20
0.0
 30
0.0
  9
$PUCSXDIR
 10
1.0
 20
0.0
 30
0.0
  9
$PUCSYDIR
 10
0.0
 20
1.0
 30
0.0
  9
$USERI1
 70
     0
  9
$USERI2
 70
     0
  9
$USERI3
 70
     0
  9
$USERI4
 70
     0
  9
$USERI5
 70
     0
  9
$USERR1
 40
20.0
  9
$USERR2
 40
0.0
  9
$USERR3
 40
0.0
  9
$USERR4
 40
0.0
  9
$USERR5
 40
0.0
  9
$WORLDVIEW
 70
     1
  9
$SHADEDGE
 70
     3
  9
$SHADEDIF
 70
    70
  9
$TILEMODE
 70
     1
  9
$MAXACTVP
 70
    48
  9
$PLIMCHECK
 70
     0
  9
$PEXTMIN
 10
1.0000000000000000E+020
 20
1.0000000000000000E+020
 30
1.0000000000000000E+020
  9
$PEXTMAX
 10
-1.0000000000000000E+020
 20
-1.0000000000000000E+020
 30
-1.0000000000000000E+020
  9
$PLIMMIN
 10
0.0
 20
0.0
  9
$PLIMMAX
 10
12.0
 20
9.0
  9
$UNITMODE
 70
     0
  9
$VISRETAIN
 70
     1
  9
$PLINEGEN
 70
     0
  9
$PSLTSCALE
 70
     1
  0
ENDSEC
  0
SECTION
  2
TABLES
  0
TABLE
  2
VPORT
 70
     1
  0
VPORT
  2
*ACTIVE
 70
     0
 10
0.0
 20
0.0
 11
1.0
 21
1.0
 12
1461.7826010000001
 22
1222.536077
 13
0.0
 23
0.0
 14
50.0
 24
50.0
 15
100.0
 25
100.0
 16
0.0
 26
0.0
 36
1.0
 17
0.0
 27
0.0
 37
0.0
 40
7897.2940420000023
 41
1.5639386189258311
 42
50.0
 43
0.0
 44
0.0
 50
0.0
 51
0.0
 71
     0
 72
  1000
 73
     1
 74
     0
 75
     0
 76
     0
 77
     0
 78
     0
  0
ENDTAB
  0
TABLE
  2
LTYPE
 70
     3
  0
LTYPE
  2
CONTINUOUS
 70
     0
  3
実線
 72
    65
 73
     0
 40
0.0
  0
LTYPE
  2
DASHDOT
 70
     0
  3
____ _ ____ _ ____ _ ____ _ ____ _ ____ _ ____
 72
    65
 73
     4
 40
5.5
 49
4.0
 49
-0.6
 49
0.3
 49
-0.6
  0
ENDTAB
  0
TABLE
  2
LAYER
 70
    12
  0
LAYER
  2
0
 70
     0
 62
     7
  6
CONTINUOUS
  0
LAYER
  2
SYMBOLLINE
 70
     0
 62
    15
  6
CONTINUOUS
  0
LAYER
  2
SIZE
 70
     0
 62
    30
  6
CONTINUOUS
  0
LAYER
  2
OUTLINE
 70
     0
 62
     3
  6
CONTINUOUS
  0
LAYER
  2
DETAIL
 70
     0
 62
     5
  6
CONTINUOUS
  0
LAYER
  2
BASIS
 70
     0
 62
     6
  6
DASHDOT
  0
LAYER
  2
NOTE
 70
     0
 62
     4
  6
CONTINUOUS
  0
LAYER
  2
ARRANGE
 70
     0
 62
     1
  6
CONTINUOUS
  0
LAYER
  2
FIX
 70
     0
 62
    11
  6
CONTINUOUS
  0
LAYER
  2
SERVICESPACE
 70
     0
 62
     2
  6
DASHDOT
  0
LAYER
  2
ETC
 70
     0
 62
    61
  6
CONTINUOUS
  0
LAYER
  2
DEFPOINTS
 70
     0
 62
     7
  6
CONTINUOUS
  0
ENDTAB
  0
TABLE
  2
STYLE
 70
     3
  0
STYLE
  2
STANDARD
 70
     0
 40
0.0
 41
0.9
 50
0.0
 71
     0
 42
64.0
  3
SIMPLEX
  4
BIGFONT
  0
STYLE
  2
ANNOTATIVE
 70
     0
 40
0.0
 41
1.0
 50
0.0
 71
     0
 42
0.2
  3
txt
  4

  0
STYLE
  2
STANDARD1
 70
     0
 40
0.0
 41
1.0
 50
0.0
 71
     0
 42
64.0
  3
MONOTXT
  4
BIGFONT
  0
ENDTAB
  0
TABLE
  2
VIEW
 70
     4
  0
VIEW
  2
ALL
 70
     0
 40
9000.0
 10
241.50664699999999
 20
0.0
 41
12483.01
 11
0.0
 21
0.0
 31
1.0
 12
0.0
 22
0.0
 32
0.0
 42
50.0
 43
0.0
 44
0.0
 50
0.0
 71
     0
  0
ENDTAB
  0
TABLE
  2
UCS
 70
     0
  0
ENDTAB
  0
TABLE
  2
APPID
 70
     4
  0
APPID
  2
ACAD
 70
     0
  0
APPID
  2
ACADANNOTATIVE
 70
     0
  0
APPID
  2
ACAD_MLEADERVER
 70
     0
  0
APPID
  2
ACAD_EXEMPT_FROM_CAD_STANDARDS
 70
     0
  0
ENDTAB
  0
TABLE
  2
DIMSTYLE
 70
     3
  0
DIMSTYLE
  2
STANDARD
 70
     0
  3

  4

  5

  6

  7

 40
1.0
 41
0.18
 42
0.0625
 43
0.38
 44
0.18
 45
0.0
 46
0.0
 47
0.0
 48
0.0
140
0.18
141
0.09
142
0.0
143
25.399999999999999
144
1.0
145
0.0
146
1.0
147
0.09
 71
     0
 72
     0
 73
     1
 74
     1
 75
     0
 76
     0
 77
     0
 78
     0
170
     0
171
     2
172
     0
173
     0
174
     0
175
     0
176
     0
177
     0
178
     0
  0
DIMSTYLE
  2
ANNOTATIVE
 70
     0
  3

  4

  5

  6

  7

 40
1.0
 41
0.18
 42
0.0625
 43
0.38
 44
0.18
 45
0.0
 46
0.0
 47
0.0
 48
0.0
140
0.18
141
0.09
142
0.0
143
25.399999999999999
144
1.0
145
0.0
146
1.0
147
0.09
 71
     0
 72
     0
 73
     1
 74
     1
 75
     0
 76
     0
 77
     0
 78
     0
170
     0
171
     2
172
     0
173
     0
174
     0
175
     0
176
     0
177
     0
178
     0
  0
ENDTAB
  0
ENDSEC
  0
SECTION
  2
BLOCKS
  0
BLOCK
  8
0
  2
$MODEL_SPACE
 70
     0
 10
0.0
 20
0.0
 30
0.0
  3
$MODEL_SPACE
  1

  0
ENDBLK
  5
A70
  8
0
  0
BLOCK
 67
     1
  8
0
  2
$PAPER_SPACE
 70
     0
 10
0.0
 20
0.0
 30
0.0
  3
$PAPER_SPACE
  1

  0
ENDBLK
  5
A6C
 67
     1
  8
0
  0
BLOCK
  8
0
  2
_DOTBLANK
 70
     0
 10
0.0
 20
0.0
 30
0.0
  3
_DOTBLANK
  1

  0
CIRCLE
  5
32
  8
0
  6
CONTINUOUS
 62
     7
 10
0.0
 20
0.0
 30
0.0
 40
0.5
  0
LINE
  5
33
  8
0
  6
CONTINUOUS
 62
     7
 10
-0.5
 20
0.0
 30
0.0
 11
-1.0
 21
0.0
 31
0.0
  0
ENDBLK
  5
34
  8
0
  0
BLOCK
  8
0
 62
     7
  2
A$C788550BB
 70
     0
 10
0.0
 20
0.0
 30
0.0
  3
A$C788550BB
  1

  0
LINE
  5
339
  8
OUTLINE
  6
CONTINUOUS
 62
     3
 10
1858.997826
 20
371.937793
 30
0.0
 11
658.99782600000003
 21
371.937793
 31
0.0
  0
TEXT
  5
33A
  8
ETC
  6
CONTINUOUS
 62
    61
 10
0.000016
 20
1461.1586609999999
 30
0.0
 40
80.0
  1
MPD-RP71_80FA3_2
 50
0.000003
 41
0.8
  0
LINE
  5
33B
  8
SIZE
  6
CONTINUOUS
 62
    30
 10
688.99782600000003
 20
193.127904
 30
0.0
 11
1868.997826
 21
193.127904
 31
0.0
  0
TEXT
  5
33C
  8
SIZE
  6
CONTINUOUS
 62
    30
 10
931.79068314285723
 20
1305.5049770000001
 30
0.0
 40
55.0
  1
1146(吊りボルトピッチ)
 41
0.9
 72
     1
 11
1278.997826
 21
1305.5049770000001
 31
0.0
  0
LINE
  5
33D
  8
SIZE
  6
CONTINUOUS
 62
    30
 10
715.99782600000003
 20
1289.1002149999999
 30
0.0
 11
1841.997826
 21
1289.1002149999999
 31
0.0
  0
LINE
  5
33E
  8
SIZE
  6
CONTINUOUS
 62
    30
 10
708.99782600000003
 20
1172.04099
 30
0.0
 11
1848.997826
 21
1172.04099
 31
0.0
  0
LINE
  5
33F
  8
OUTLINE
  6
CONTINUOUS
 62
     3
 10
1858.997826
 20
418.937793
 30
0.0
 11
698.99782600000003
 21
418.937793
 31
0.0
  0
LINE
  5
340
  8
OUTLINE
  6
CONTINUOUS
 62
     3
 10
1845.527826
 20
363.937793
 30
0.0
 11
712.46782599999995
 21
363.937793
 31
0.0
  0
LINE
  5
341
  8
SIZE
  6
CONTINUOUS
 62
    30
 10
668.99782600000003
 20
46.870330999999993
 30
0.0
 11
1888.997826
 21
46.870330999999993
 31
0.0
  0
LINE
  5
342
  8
OUTLINE
  6
CONTINUOUS
 62
     3
 10
1858.997826
 20
511.93779299999989
 30
0.0
 11
698.99782600000003
 21
511.93779299999989
 31
0.0
  0
LINE
  5
343
  8
OUTLINE
  6
CONTINUOUS
 62
     3
 10
698.99782600000003
 20
804.93779300000006
 30
0.0
 11
1858.997826
 21
804.93779300000006
 31
0.0
  0
LINE
  5
344
  8
DETAIL
  6
CONTINUOUS
 62
     5
 10
698.99782600000003
 20
511.93779299999989
 30
0.0
 11
1858.997826
 21
511.93779299999989
 31
0.0
  0
LINE
  5
345
  8
SIZE
  6
CONTINUOUS
 62
    30
 10
692.99782600000003
 20
1401.087567
 30
0.0
 11
1864.997826
 21
1401.087567
 31
0.0
  0
LINE
  5
346
  8
DETAIL
  6
CONTINUOUS
 62
     5
 10
698.99782600000003
 20
804.93779300000006
 30
0.0
 11
1858.997826
 21
804.93779300000006
 31
0.0
  0
LINE
  5
347
  8
DETAIL
  6
CONTINUOUS
 62
     5
 10
698.99782600000003
 20
804.93779300000006
 30
0.0
 11
1858.997826
 21
804.93779300000006
 31
0.0
  0
LINE
  5
348
  8
DETAIL
  6
CONTINUOUS
 62
     5
 10
1853.997826
 20
539.33779299999969
 30
0.0
 11
703.99782600000003
 21
539.33779299999969
 31
0.0
  0
LINE
  5
349
  8
DETAIL
  6
CONTINUOUS
 62
     5
 10
1853.997826
 20
539.33779299999969
 30
0.0
 11
703.99782600000003
 21
539.33779299999969
 31
0.0
  0
LINE
  5
34A
  8
NOTE
  6
CONTINUOUS
 62
     4
 10
1108.997826
 20
668.93779300000006
 30
0.0
 11
868.99782600000003
 21
668.93779300000006
 31
0.0
  0
CIRCLE
  5
34B
  8
DETAIL
  6
CONTINUOUS
 62
     5
 10
988.99782600000015
 20
668.93779300000006
 30
0.0
 40
100.0
  0
CIRCLE
  5
34C
  8
DETAIL
  6
CONTINUOUS
 62
     5
 10
988.99782600000015
 20
668.93779300000006
 30
0.0
 40
85.5
  0
LINE
  5
34D
  8
DETAIL
  6
CONTINUOUS
 62
     5
 10
1816.997826
 20
779.93779299999983
 30
0.0
 11
740.99782600000003
 21
779.93779299999983
 31
0.0
  0
LINE
  5
34E
  8
DETAIL
  6
CONTINUOUS
 62
     5
 10
1816.997826
 20
563.93779300000006
 30
0.0
 11
740.99782600000003
 21
563.93779300000006
 31
0.0
  0
LINE
  5
34F
  8
DETAIL
  6
CONTINUOUS
 62
     5
 10
716.99782600000003
 20
526.93779300000006
 30
0.0
 11
1840.997826
 21
526.93779300000006
 31
0.0
  0
LINE
  5
350
  8
DETAIL
  6
CONTINUOUS
 62
     5
 10
713.99782600000003
 20
511.93779299999989
 30
0.0
 11
1843.997826
 21
511.93779299999989
 31
0.0
  0
LINE
  5
351
  8
DETAIL
  6
CONTINUOUS
 62
     5
 10
716.99782600000003
 20
526.93779300000006
 30
0.0
 11
1840.997826
 21
526.93779300000006
 31
0.0
  0
LINE
  5
352
  8
DETAIL
  6
CONTINUOUS
 62
     5
 10
713.99782600000003
 20
511.93779299999989
 30
0.0
 11
1843.997826
 21
511.93779299999989
 31
0.0
  0
LINE
  5
353
  8
DETAIL
  6
CONTINUOUS
 62
     5
 10
1858.997826
 20
418.937793
 30
0.0
 11
698.99782600000003
 21
418.937793
 31
0.0
  0
LINE
  5
354
  8
DETAIL
  6
CONTINUOUS
 62
     5
 10
1845.527826
 20
363.937793
 30
0.0
 11
712.46782599999995
 21
363.937793
 31
0.0
  0
LINE
  5
355
  8
DETAIL
  6
CONTINUOUS
 62
     5
 10
1858.997826
 20
371.937793
 30
0.0
 11
658.99782600000003
 21
371.937793
 31
0.0
  0
LINE
  5
356
  8
OUTLINE
  6
CONTINUOUS
 62
     3
 10
658.99782600000003
 20
367.931285
 30
0.0
 11
658.99782600000003
 21
371.937793
 31
0.0
  0
LINE
  5
357
  8
NOTE
  6
CONTINUOUS
 62
     4
 10
461.51192800000001
 20
146.44386499999999
 30
0.0
 11
698.99782600000003
 21
539.93779300000006
 31
0.0
  0
LINE
  5
358
  8
NOTE
  6
CONTINUOUS
 62
     4
 10
426.62496499999992
 20
293.11296800000002
 30
0.0
 11
662.99782600000003
 21
604.93779300000006
 31
0.0
  0
LINE
  5
359
  8
DETAIL
  6
CONTINUOUS
 62
     5
 10
658.99782600000003
 20
367.931285
 30
0.0
 11
658.99782600000003
 21
371.937793
 31
0.0
  0
LINE
  5
35A
  8
NOTE
  6
CONTINUOUS
 62
     4
 10
461.51192800000001
 20
146.44386499999999
 30
0.0
 11
26.581129000000001
 21
146.44386499999999
 31
0.0
  0
TEXT
  5
35B
  8
NOTE
  6
CONTINUOUS
 62
     4
 10
48.256399999999992
 20
162.27039500000001
 30
0.0
 40
60.0
  1
D2（自然排水口）
 50
0.000003
 41
0.7
  7
STANDARD1
  0
LINE
  5
35C
  8
NOTE
  6
CONTINUOUS
 62
     4
 10
426.61994800000002
 20
293.10634900000002
 30
0.0
 11
54.326703000000002
 21
293.10634900000002
 31
0.0
  0
TEXT
  5
35D
  8
NOTE
  6
CONTINUOUS
 62
     4
 10
76.001975000000002
 20
308.93288000000001
 30
0.0
 40
60.0
  1
RG %%C15.88
 50
0.000003
 41
0.7
  7
STANDARD1
  0
LINE
  5
35E
  8
SIZE
  6
CONTINUOUS
 62
    30
 10
658.99782600000003
 20
347.931285
 30
0.0
 11
658.99782600000003
 21
16.870331
 31
0.0
  0
LINE
  5
35F
  8
SIZE
  6
CONTINUOUS
 62
    30
 10
663.99782600000003
 20
46.870330999999993
 30
0.0
 11
668.99782600000003
 21
46.870330999999993
 31
0.0
  0
CIRCLE
  5
360
  8
SIZE
  6
CONTINUOUS
 62
    30
 10
658.99782600000003
 20
46.870330999999993
 30
0.0
 40
5.0
  0
LINE
  5
361
  8
SIZE
  6
CONTINUOUS
 62
    30
 10
678.99782600000003
 20
352.937793
 30
0.0
 11
678.99782600000003
 21
163.127904
 31
0.0
  0
TEXT
  5
362
  8
SIZE
  6
CONTINUOUS
 62
    30
 10
540.8549684285714
 20
211.127904
 30
0.0
 40
55.0
  1
20
 41
0.9
 72
     1
 11
580.92639699999995
 21
211.127904
 31
0.0
  0
LINE
  5
363
  8
SIZE
  6
CONTINUOUS
 62
    30
 10
678.99782600000003
 20
352.937793
 30
0.0
 11
678.99782600000003
 21
163.127904
 31
0.0
  0
LINE
  5
364
  8
SIZE
  6
CONTINUOUS
 62
    30
 10
658.99782600000003
 20
347.931285
 30
0.0
 11
658.99782600000003
 21
163.127904
 31
0.0
  0
LINE
  5
365
  8
SIZE
  6
CONTINUOUS
 62
    30
 10
648.99782600000003
 20
193.127904
 30
0.0
 11
522.8549690000001
 21
193.127904
 31
0.0
  0
LINE
  5
366
  8
SIZE
  6
CONTINUOUS
 62
    30
 10
683.99782600000003
 20
193.127904
 30
0.0
 11
688.99782600000003
 21
193.127904
 31
0.0
  0
CIRCLE
  5
367
  8
SIZE
  6
CONTINUOUS
 62
    30
 10
678.99782600000003
 20
193.127904
 30
0.0
 40
5.0
  0
POINT
  5
368
  8
DEFPOINTS
  6
CONTINUOUS
 62
     7
 10
678.99782600000003
 20
193.127904
 30
0.0
  0
LINE
  5
369
  8
SIZE
  6
CONTINUOUS
 62
    30
 10
653.99782600000003
 20
193.127904
 30
0.0
 11
648.99782600000003
 21
193.127904
 31
0.0
  0
CIRCLE
  5
36A
  8
SIZE
  6
CONTINUOUS
 62
    30
 10
658.99782600000003
 20
193.127904
 30
0.0
 40
5.0
  0
LINE
  5
36B
  8
SIZE
  6
CONTINUOUS
 62
    30
 10
683.99782600000003
 20
193.127904
 30
0.0
 11
688.99782600000003
 21
193.127904
 31
0.0
  0
CIRCLE
  5
36C
  8
SIZE
  6
CONTINUOUS
 62
    30
 10
678.99782600000003
 20
193.127904
 30
0.0
 40
5.0
  0
LINE
  5
36D
  8
SIZE
  6
CONTINUOUS
 62
    30
 10
678.99782600000003
 20
193.127904
 30
0.0
 11
658.99782600000003
 21
193.127904
 31
0.0
  0
LINE
  5
36E
  8
SIZE
  6
CONTINUOUS
 62
    30
 10
688.99782600000003
 20
193.127904
 30
0.0
 11
698.99782600000003
 21
193.127904
 31
0.0
  0
POINT
  5
36F
  8
DEFPOINTS
  6
CONTINUOUS
 62
     7
 10
658.99782600000003
 20
367.931285
 30
0.0
  0
LINE
  5
370
  8
OUTLINE
  6
CONTINUOUS
 62
     3
 10
658.99782600000003
 20
367.931285
 30
0.0
 11
712.46782599999995
 21
363.937793
 31
0.0
  0
POINT
  5
371
  8
DEFPOINTS
  6
CONTINUOUS
 62
     7
 10
658.99782600000003
 20
367.931285
 30
0.0
  0
LINE
  5
372
  8
DETAIL
  6
CONTINUOUS
 62
     5
 10
658.99782600000003
 20
367.931285
 30
0.0
 11
712.46782599999995
 21
363.937793
 31
0.0
  0
TEXT
  5
373
  8
SIZE
  6
CONTINUOUS
 62
    30
 10
106.438642
 20
604.20937285714285
 30
0.0
 40
55.0
  1
265
 50
90.0
 41
0.9
 72
     1
 11
106.438642
 21
667.85222999999996
 31
0.0
  0
LINE
  5
374
  8
SIZE
  6
CONTINUOUS
 62
    30
 10
698.99782600000003
 20
824.93779299999971
 30
0.0
 11
698.99782600000003
 21
1003.182878
 31
0.0
  0
LINE
  5
375
  8
SIZE
  6
CONTINUOUS
 62
    30
 10
662.99782600000003
 20
636.18779300000006
 30
0.0
 11
662.99782600000003
 21
1003.182878
 31
0.0
  0
LINE
  5
376
  8
SIZE
  6
CONTINUOUS
 62
    30
 10
705.99782600000003
 20
839.93295899999998
 30
0.0
 11
705.99782600000003
 21
1319.1002149999999
 31
0.0
  0
LINE
  5
377
  8
SIZE
  6
CONTINUOUS
 62
    30
 10
705.99782600000003
 20
839.93295899999998
 30
0.0
 11
705.99782600000003
 21
1319.1002149999999
 31
0.0
  0
LINE
  5
378
  8
SIZE
  6
CONTINUOUS
 62
    30
 10
682.99782600000003
 20
820.63779299999999
 30
0.0
 11
682.99782600000003
 21
1319.1002149999999
 31
0.0
  0
LINE
  5
379
  8
SIZE
  6
CONTINUOUS
 62
    30
 10
698.99782600000003
 20
824.93779299999971
 30
0.0
 11
698.99782600000003
 21
1202.04099
 31
0.0
  0
LINE
  5
37A
  8
SIZE
  6
CONTINUOUS
 62
    30
 10
698.99782600000003
 20
824.93779299999971
 30
0.0
 11
698.99782600000003
 21
1202.04099
 31
0.0
  0
LINE
  5
37B
  8
SIZE
  6
CONTINUOUS
 62
    30
 10
682.99782600000003
 20
820.63779299999999
 30
0.0
 11
682.99782600000003
 21
1202.04099
 31
0.0
  0
LINE
  5
37C
  8
SIZE
  6
CONTINUOUS
 62
    30
 10
659.98867700000005
 20
652.93779300000006
 30
0.0
 11
659.98867700000005
 21
1104.292025
 31
0.0
  0
LINE
  5
37D
  8
SIZE
  6
CONTINUOUS
 62
    30
 10
698.99782600000003
 20
824.93779299999971
 30
0.0
 11
698.99782600000003
 21
1104.292025
 31
0.0
  0
LINE
  5
37E
  8
NOTE
  6
CONTINUOUS
 62
     4
 10
449.08584500000001
 20
1003.890623
 30
0.0
 11
659.99782600000003
 21
632.93779300000006
 31
0.0
  0
LINE
  5
37F
  8
NOTE
  6
CONTINUOUS
 62
     4
 10
448.55666999999988
 20
1125.335282
 30
0.0
 11
664.99782600000003
 21
696.93779300000006
 31
0.0
  0
LINE
  5
380
  8
SIZE
  6
CONTINUOUS
 62
    30
 10
682.99782600000003
 20
819.03779299999985
 30
0.0
 11
682.99782600000003
 21
1431.087567
 31
0.0
  0
LINE
  5
381
  8
SIZE
  6
CONTINUOUS
 62
    30
 10
673.50697500000001
 20
539.93779300000006
 30
0.0
 11
94.438642000000002
 21
539.93779300000006
 31
0.0
  0
LINE
  5
382
  8
SIZE
  6
CONTINUOUS
 62
    30
 10
667.29782599999976
 20
804.93779300000006
 30
0.0
 11
94.438642000000002
 21
804.93779300000006
 31
0.0
  0
LINE
  5
383
  8
SIZE
  6
CONTINUOUS
 62
    30
 10
631.73867700000005
 20
604.93779300000006
 30
0.0
 11
322.27775700000001
 21
604.93779300000006
 31
0.0
  0
LINE
  5
384
  8
SIZE
  6
CONTINUOUS
 62
    30
 10
634.49782600000003
 20
632.93779300000006
 30
0.0
 11
322.27775700000001
 21
632.93779300000006
 31
0.0
  0
LINE
  5
385
  8
SIZE
  6
CONTINUOUS
 62
    30
 10
634.49782600000003
 20
632.93779300000006
 30
0.0
 11
322.27775700000001
 21
632.93779300000006
 31
0.0
  0
LINE
  5
386
  8
SIZE
  6
CONTINUOUS
 62
    30
 10
667.29782599999976
 20
804.93779300000006
 30
0.0
 11
322.27775700000001
 21
804.93779300000006
 31
0.0
  0
LINE
  5
387
  8
SIZE
  6
CONTINUOUS
 62
    30
 10
628.28117399999985
 20
696.93779300000006
 30
0.0
 11
422.476225
 21
696.93779300000006
 31
0.0
  0
LINE
  5
388
  8
SIZE
  6
CONTINUOUS
 62
    30
 10
667.29782599999976
 20
804.93779300000006
 30
0.0
 11
422.476225
 21
804.93779300000006
 31
0.0
  0
LINE
  5
389
  8
SIZE
  6
CONTINUOUS
 62
    30
 10
124.438642
 20
794.93779299999983
 30
0.0
 11
124.438642
 21
549.93779300000006
 31
0.0
  0
TEXT
  5
38A
  8
SIZE
  6
CONTINUOUS
 62
    30
 10
232.07766699999999
 20
660.71725642857143
 30
0.0
 40
55.0
  1
28
 50
90.0
 41
0.9
 72
     1
 11
232.07766699999999
 21
700.78868499999999
 31
0.0
  0
LINE
  5
38B
  8
SIZE
  6
CONTINUOUS
 62
    30
 10
250.07766699999999
 20
642.71725700000002
 30
0.0
 11
250.07766699999999
 21
758.86011399999984
 31
0.0
  0
TEXT
  5
38C
  8
SIZE
  6
CONTINUOUS
 62
    30
 10
334.27775700000001
 20
660.00922157142861
 30
0.0
 40
55.0
  1
172
 50
90.0
 41
0.9
 72
     1
 11
334.27775700000001
 21
718.93779300000006
 31
0.0
  0
LINE
  5
38D
  8
SIZE
  6
CONTINUOUS
 62
    30
 10
352.27775700000001
 20
794.93779299999983
 30
0.0
 11
352.27775700000001
 21
642.93779300000006
 31
0.0
  0
LINE
  5
38E
  8
SIZE
  6
CONTINUOUS
 62
    30
 10
352.27775700000001
 20
618.93779300000006
 30
0.0
 11
250.07766699999999
 21
642.71725700000002
 31
0.0
  0
POINT
  5
38F
  8
DEFPOINTS
  6
CONTINUOUS
 62
     7
 10
124.438642
 20
539.93779300000006
 30
0.0
  0
LINE
  5
390
  8
SIZE
  6
CONTINUOUS
 62
    30
 10
124.438642
 20
544.93779300000006
 30
0.0
 11
124.438642
 21
549.93779300000006
 31
0.0
  0
CIRCLE
  5
391
  8
SIZE
  6
CONTINUOUS
 62
    30
 10
124.438642
 20
539.93779300000006
 30
0.0
 40
5.0
  0
POINT
  5
392
  8
DEFPOINTS
  6
CONTINUOUS
 62
     7
 10
352.27775700000001
 20
604.93779300000006
 30
0.0
  0
LINE
  5
393
  8
SIZE
  6
CONTINUOUS
 62
    30
 10
352.27775700000001
 20
599.93779300000006
 30
0.0
 11
352.27775700000001
 21
594.93779300000006
 31
0.0
  0
CIRCLE
  5
394
  8
SIZE
  6
CONTINUOUS
 62
    30
 10
352.27775700000001
 20
604.93779300000006
 30
0.0
 40
5.0
  0
LINE
  5
395
  8
SIZE
  6
CONTINUOUS
 62
    30
 10
352.27775700000001
 20
637.93779300000006
 30
0.0
 11
352.27775700000001
 21
642.93779300000006
 31
0.0
  0
CIRCLE
  5
396
  8
SIZE
  6
CONTINUOUS
 62
    30
 10
352.27775700000001
 20
632.93779300000006
 30
0.0
 40
5.0
  0
LINE
  5
397
  8
SIZE
  6
CONTINUOUS
 62
    30
 10
352.27775700000001
 20
632.93779300000006
 30
0.0
 11
352.27775700000001
 21
604.93779300000006
 31
0.0
  0
LINE
  5
398
  8
SIZE
  6
CONTINUOUS
 62
    30
 10
352.27775700000001
 20
632.93779300000006
 30
0.0
 11
352.27775700000001
 21
604.93779300000006
 31
0.0
  0
LINE
  5
399
  8
SIZE
  6
CONTINUOUS
 62
    30
 10
352.27775700000001
 20
594.93779300000006
 30
0.0
 11
352.27775700000001
 21
584.93779300000006
 31
0.0
  0
LINE
  5
39A
  8
SIZE
  6
CONTINUOUS
 62
    30
 10
352.27775700000001
 20
642.93779300000006
 30
0.0
 11
352.27775700000001
 21
652.93779300000006
 31
0.0
  0
POINT
  5
39B
  8
DEFPOINTS
  6
CONTINUOUS
 62
     7
 10
352.27775700000001
 20
632.93779300000006
 30
0.0
  0
LINE
  5
39C
  8
SIZE
  6
CONTINUOUS
 62
    30
 10
352.27775700000001
 20
637.93779300000006
 30
0.0
 11
352.27775700000001
 21
642.93779300000006
 31
0.0
  0
CIRCLE
  5
39D
  8
SIZE
  6
CONTINUOUS
 62
    30
 10
352.27775700000001
 20
632.93779300000006
 30
0.0
 40
5.0
  0
LINE
  5
39E
  8
SIZE
  6
CONTINUOUS
 62
    30
 10
124.438642
 20
799.93779299999983
 30
0.0
 11
124.438642
 21
794.93779299999983
 31
0.0
  0
CIRCLE
  5
39F
  8
SIZE
  6
CONTINUOUS
 62
    30
 10
124.438642
 20
804.93779300000006
 30
0.0
 40
5.0
  0
LINE
  5
3A0
  8
SIZE
  6
CONTINUOUS
 62
    30
 10
452.476225
 20
804.93779300000006
 30
0.0
 11
452.476225
 21
968.79493600000012
 31
0.0
  0
LINE
  5
3A1
  8
SIZE
  6
CONTINUOUS
 62
    30
 10
352.27775700000001
 20
799.93779299999983
 30
0.0
 11
352.27775700000001
 21
794.93779299999983
 31
0.0
  0
CIRCLE
  5
3A2
  8
SIZE
  6
CONTINUOUS
 62
    30
 10
352.27775700000001
 20
804.93779300000006
 30
0.0
 40
5.0
  0
POINT
  5
3A3
  8
DEFPOINTS
  6
CONTINUOUS
 62
     7
 10
452.476225
 20
696.93779300000006
 30
0.0
  0
LINE
  5
3A4
  8
SIZE
  6
CONTINUOUS
 62
    30
 10
452.476225
 20
799.93779299999983
 30
0.0
 11
452.476225
 21
794.93779299999983
 31
0.0
  0
CIRCLE
  5
3A5
  8
SIZE
  6
CONTINUOUS
 62
    30
 10
452.476225
 20
804.93779300000006
 30
0.0
 40
5.0
  0
LINE
  5
3A6
  8
SIZE
  6
CONTINUOUS
 62
    30
 10
452.476225
 20
701.93779300000006
 30
0.0
 11
452.476225
 21
706.93779300000006
 31
0.0
  0
CIRCLE
  5
3A7
  8
SIZE
  6
CONTINUOUS
 62
    30
 10
452.476225
 20
696.93779300000006
 30
0.0
 40
5.0
  0
LINE
  5
3A8
  8
SIZE
  6
CONTINUOUS
 62
    30
 10
452.476225
 20
706.93779300000006
 30
0.0
 11
452.476225
 21
794.93779299999983
 31
0.0
  0
TEXT
  5
3A9
  8
SIZE
  6
CONTINUOUS
 62
    30
 10
434.476225
 20
832.93779257142876
 30
0.0
 40
55.0
  1
108
 50
90.0
 41
0.9
 72
     1
 11
434.476225
 21
891.86636400000009
 31
0.0
  0
LINE
  5
3AA
  8
SIZE
  6
CONTINUOUS
 62
    30
 10
682.99782600000003
 20
879.93779300000006
 30
0.0
 11
682.99782600000003
 21
400.70730199999991
 31
0.0
  0
LINE
  5
3AB
  8
OUTLINE
  6
CONTINUOUS
 62
     3
 10
698.99782600000003
 20
511.93779299999989
 30
0.0
 11
698.99782600000003
 21
804.93779300000006
 31
0.0
  0
LINE
  5
3AC
  8
DETAIL
  6
CONTINUOUS
 62
     5
 10
698.99782600000003
 20
801.73779300000001
 30
0.0
 11
698.99782600000003
 21
594.13779299999976
 31
0.0
  0
LINE
  5
3AD
  8
DETAIL
  6
CONTINUOUS
 62
     5
 10
698.99782600000003
 20
801.73779300000001
 30
0.0
 11
698.99782600000003
 21
594.13779299999976
 31
0.0
  0
LINE
  5
3AE
  8
DETAIL
  6
CONTINUOUS
 62
     5
 10
698.99782600000003
 20
544.33779299999992
 30
0.0
 11
698.99782600000003
 21
688.33779299999981
 31
0.0
  0
LINE
  5
3AF
  8
DETAIL
  6
CONTINUOUS
 62
     5
 10
730.99782600000003
 20
573.93779300000006
 30
0.0
 11
730.99782600000003
 21
769.93779299999983
 31
0.0
  0
TEXT
  5
3B0
  8
SIZE
  6
CONTINUOUS
 62
    30
 10
720.99782557142828
 20
448.70730199999991
 30
0.0
 40
55.0
  1
4
 41
0.9
 72
     1
 11
738.67639699999984
 21
448.70730199999991
 31
0.0
  0
LINE
  5
3B1
  8
SIZE
  6
CONTINUOUS
 62
    30
 10
692.99782600000003
 20
430.7073019999998
 30
0.0
 11
774.35496899999998
 21
430.7073019999998
 31
0.0
  0
LINE
  5
3B2
  8
NOTE
  6
CONTINUOUS
 62
     4
 10
698.99782600000003
 20
539.93779300000006
 30
0.0
 11
687.96369200000004
 21
507.37097599999981
 31
0.0
  0
LINE
  5
3B3
  8
NOTE
  6
CONTINUOUS
 62
     4
 10
698.99782600000003
 20
539.93779300000006
 30
0.0
 11
673.1585769999997
 21
517.251169
 31
0.0
  0
LINE
  5
3B4
  8
DETAIL
  6
CONTINUOUS
 62
     5
 10
698.99782600000003
 20
594.13779299999976
 30
0.0
 11
698.99782600000003
 21
511.93779299999989
 31
0.0
  0
LINE
  5
3B5
  8
DETAIL
  6
CONTINUOUS
 62
     5
 10
698.99782600000003
 20
594.13779299999976
 30
0.0
 11
698.99782600000003
 21
512.73779300000001
 31
0.0
  0
LINE
  5
3B6
  8
DETAIL
  6
CONTINUOUS
 62
     5
 10
698.99782600000003
 20
512.23779299999978
 30
0.0
 11
698.99782600000003
 21
597.23779300000001
 31
0.0
  0
LINE
  5
3B7
  8
DETAIL
  6
CONTINUOUS
 62
     5
 10
713.99782600000003
 20
523.93779300000006
 30
0.0
 11
713.99782600000003
 21
511.93779299999989
 31
0.0
  0
LINE
  5
3B8
  8
DETAIL
  6
CONTINUOUS
 62
     5
 10
713.99782600000003
 20
523.93779300000006
 30
0.0
 11
713.99782600000003
 21
511.93779299999989
 31
0.0
  0
LINE
  5
3B9
  8
NOTE
  6
CONTINUOUS
 62
     4
 10
678.99782600000003
 20
372.937793
 30
0.0
 11
577.69037699999967
 21
372.937793
 31
0.0
  0
LINE
  5
3BA
  8
NOTE
  6
CONTINUOUS
 62
     4
 10
678.99782600000003
 20
392.937793
 30
0.0
 11
577.69037699999967
 21
392.937793
 31
0.0
  0
LINE
  5
3BB
  8
NOTE
  6
CONTINUOUS
 62
     4
 10
598.73281799999995
 20
372.937793
 30
0.0
 11
618.73281799999995
 21
392.937793
 31
0.0
  0
LINE
  5
3BC
  8
NOTE
  6
CONTINUOUS
 62
     4
 10
588.73281799999995
 20
372.937793
 30
0.0
 11
608.73281799999995
 21
392.937793
 31
0.0
  0
LINE
  5
3BD
  8
NOTE
  6
CONTINUOUS
 62
     4
 10
593.73281799999995
 20
372.937793
 30
0.0
 11
613.73281799999995
 21
392.937793
 31
0.0
  0
POINT
  5
3BE
  8
DEFPOINTS
  6
CONTINUOUS
 62
     7
 10
678.99782600000003
 20
372.937793
 30
0.0
  0
POINT
  5
3BF
  8
DEFPOINTS
  6
CONTINUOUS
 62
     7
 10
678.99782600000003
 20
372.937793
 30
0.0
  0
LINE
  5
3C0
  8
OUTLINE
  6
CONTINUOUS
 62
     3
 10
698.99782600000003
 20
371.937793
 30
0.0
 11
698.99782600000003
 21
418.937793
 31
0.0
  0
LINE
  5
3C1
  8
OUTLINE
  6
CONTINUOUS
 62
     3
 10
698.99782600000003
 20
371.937793
 30
0.0
 11
693.99782600000003
 21
371.937793
 31
0.0
  0
POINT
  5
3C2
  8
DEFPOINTS
  6
CONTINUOUS
 62
     7
 10
682.99782600000003
 20
430.7073019999998
 30
0.0
  0
POINT
  5
3C3
  8
DEFPOINTS
  6
CONTINUOUS
 62
     7
 10
678.99782600000003
 20
392.937793
 30
0.0
  0
LINE
  5
3C4
  8
SIZE
  6
CONTINUOUS
 62
    30
 10
687.99782600000003
 20
430.7073019999998
 30
0.0
 11
692.99782600000003
 21
430.7073019999998
 31
0.0
  0
CIRCLE
  5
3C5
  8
SIZE
  6
CONTINUOUS
 62
    30
 10
682.99782600000003
 20
430.7073019999998
 30
0.0
 40
5.0
  0
LINE
  5
3C6
  8
SIZE
  6
CONTINUOUS
 62
    30
 10
673.99782600000003
 20
430.7073019999998
 30
0.0
 11
668.99782600000003
 21
430.7073019999998
 31
0.0
  0
CIRCLE
  5
3C7
  8
SIZE
  6
CONTINUOUS
 62
    30
 10
678.99782600000003
 20
430.7073019999998
 30
0.0
 40
5.0
  0
LINE
  5
3C8
  8
SIZE
  6
CONTINUOUS
 62
    30
 10
678.99782600000003
 20
430.7073019999998
 30
0.0
 11
682.99782600000003
 21
430.7073019999998
 31
0.0
  0
LINE
  5
3C9
  8
SIZE
  6
CONTINUOUS
 62
    30
 10
668.99782600000003
 20
430.7073019999998
 30
0.0
 11
658.99782600000003
 21
430.7073019999998
 31
0.0
  0
LINE
  5
3CA
  8
SIZE
  6
CONTINUOUS
 62
    30
 10
678.99782600000003
 20
412.937793
 30
0.0
 11
678.99782600000003
 21
460.70730199999991
 31
0.0
  0
LINE
  5
3CB
  8
NOTE
  6
CONTINUOUS
 62
     4
 10
678.99782600000003
 20
372.937793
 30
0.0
 11
678.99782600000003
 21
392.937793
 31
0.0
  0
LINE
  5
3CC
  8
NOTE
  6
CONTINUOUS
 62
     4
 10
628.73281799999995
 20
372.937793
 30
0.0
 11
648.73281799999995
 21
392.937793
 31
0.0
  0
LINE
  5
3CD
  8
NOTE
  6
CONTINUOUS
 62
     4
 10
633.73281799999995
 20
372.937793
 30
0.0
 11
653.73281799999995
 21
392.937793
 31
0.0
  0
LINE
  5
3CE
  8
NOTE
  6
CONTINUOUS
 62
     4
 10
638.73281799999995
 20
372.937793
 30
0.0
 11
658.73281799999995
 21
392.937793
 31
0.0
  0
LINE
  5
3CF
  8
DETAIL
  6
CONTINUOUS
 62
     5
 10
698.99782600000003
 20
371.937793
 30
0.0
 11
698.99782600000003
 21
418.937793
 31
0.0
  0
LINE
  5
3D0
  8
DETAIL
  6
CONTINUOUS
 62
     5
 10
698.99782600000003
 20
371.937793
 30
0.0
 11
693.99782600000003
 21
371.937793
 31
0.0
  0
POINT
  5
3D1
  8
DEFPOINTS
  6
CONTINUOUS
 62
     7
 10
662.99782600000003
 20
616.18779300000006
 30
0.0
  0
POINT
  5
3D2
  8
DEFPOINTS
  6
CONTINUOUS
 62
     7
 10
659.99782600000003
 20
632.93779300000006
 30
0.0
  0
LINE
  5
3D3
  8
NOTE
  6
CONTINUOUS
 62
     4
 10
665.49782600000003
 20
632.93779300000006
 30
0.0
 11
654.49782600000003
 21
632.93779300000006
 31
0.0
  0
LINE
  5
3D4
  8
NOTE
  6
CONTINUOUS
 62
     4
 10
659.99782600000003
 20
638.43778499999985
 30
0.0
 11
659.99782600000003
 21
627.43780099999981
 31
0.0
  0
LINE
  5
3D5
  8
NOTE
  6
CONTINUOUS
 62
     4
 10
659.99782600000003
 20
632.93779300000006
 30
0.0
 11
636.98276199999975
 21
658.48493599999995
 31
0.0
  0
LINE
  5
3D6
  8
NOTE
  6
CONTINUOUS
 62
     4
 10
659.99782600000003
 20
632.93779300000006
 30
0.0
 11
652.83976800000005
 21
666.56979999999987
 31
0.0
  0
LINE
  5
3D7
  8
DETAIL
  6
CONTINUOUS
 62
     5
 10
678.98867700000005
 20
627.43779300000006
 30
0.0
 11
698.98867700000005
 21
627.43779300000006
 31
0.0
  0
LINE
  5
3D8
  8
DETAIL
  6
CONTINUOUS
 62
     5
 10
679.98867700000005
 20
623.43779300000006
 30
0.0
 11
698.98867700000005
 21
623.43779300000006
 31
0.0
  0
LINE
  5
3D9
  8
DETAIL
  6
CONTINUOUS
 62
     5
 10
679.98867700000005
 20
642.43779300000006
 30
0.0
 11
698.98867700000005
 21
642.43779300000006
 31
0.0
  0
LINE
  5
3DA
  8
DETAIL
  6
CONTINUOUS
 62
     5
 10
678.98867700000005
 20
638.43779300000006
 30
0.0
 11
698.98867700000005
 21
638.43779300000006
 31
0.0
  0
LINE
  5
3DB
  8
DETAIL
  6
CONTINUOUS
 62
     5
 10
662.98867700000005
 20
622.43779300000006
 30
0.0
 11
675.98867700000005
 21
622.43779300000006
 31
0.0
  0
LINE
  5
3DC
  8
DETAIL
  6
CONTINUOUS
 62
     5
 10
663.98867700000005
 20
627.43779300000006
 30
0.0
 11
676.98867700000005
 21
627.43779300000006
 31
0.0
  0
LINE
  5
3DD
  8
DETAIL
  6
CONTINUOUS
 62
     5
 10
676.98867700000005
 20
623.43779300000006
 30
0.0
 11
675.98867700000005
 21
622.43779300000006
 31
0.0
  0
LINE
  5
3DE
  8
DETAIL
  6
CONTINUOUS
 62
     5
 10
678.98867700000005
 20
624.43779300000006
 30
0.0
 11
679.98867700000005
 21
623.43779300000006
 31
0.0
  0
LINE
  5
3DF
  8
DETAIL
  6
CONTINUOUS
 62
     5
 10
663.98867700000005
 20
627.43779300000006
 30
0.0
 11
662.98867700000005
 21
628.43779300000006
 31
0.0
  0
LINE
  5
3E0
  8
DETAIL
  6
CONTINUOUS
 62
     5
 10
663.98867700000005
 20
627.43779300000006
 30
0.0
 11
662.98867700000005
 21
626.43779300000006
 31
0.0
  0
LINE
  5
3E1
  8
DETAIL
  6
CONTINUOUS
 62
     5
 10
676.98867700000005
 20
628.18779300000006
 30
0.0
 11
678.98867700000005
 21
628.18779300000006
 31
0.0
  0
LINE
  5
3E2
  8
DETAIL
  6
CONTINUOUS
 62
     5
 10
678.98867700000005
 20
624.43779300000006
 30
0.0
 11
678.98867700000005
 21
641.43779300000006
 31
0.0
  0
LINE
  5
3E3
  8
DETAIL
  6
CONTINUOUS
 62
     5
 10
676.98867700000005
 20
623.43779300000006
 30
0.0
 11
676.98867700000005
 21
642.43779300000006
 31
0.0
  0
LINE
  5
3E4
  8
DETAIL
  6
CONTINUOUS
 62
     5
 10
662.98867700000005
 20
643.43779300000006
 30
0.0
 11
675.98867700000005
 21
643.43779300000006
 31
0.0
  0
LINE
  5
3E5
  8
DETAIL
  6
CONTINUOUS
 62
     5
 10
662.98867700000005
 20
622.43779300000006
 30
0.0
 11
662.98867700000005
 21
643.43779300000006
 31
0.0
  0
LINE
  5
3E6
  8
DETAIL
  6
CONTINUOUS
 62
     5
 10
663.98867700000005
 20
638.43779300000006
 30
0.0
 11
676.98867700000005
 21
638.43779300000006
 31
0.0
  0
LINE
  5
3E7
  8
DETAIL
  6
CONTINUOUS
 62
     5
 10
675.98867700000005
 20
643.43779300000006
 30
0.0
 11
676.98867700000005
 21
642.43779300000006
 31
0.0
  0
LINE
  5
3E8
  8
DETAIL
  6
CONTINUOUS
 62
     5
 10
678.98867700000005
 20
641.43779300000006
 30
0.0
 11
679.98867700000005
 21
642.43779300000006
 31
0.0
  0
LINE
  5
3E9
  8
DETAIL
  6
CONTINUOUS
 62
     5
 10
663.98867700000005
 20
638.43779300000006
 30
0.0
 11
662.98867700000005
 21
639.43779300000006
 31
0.0
  0
LINE
  5
3EA
  8
DETAIL
  6
CONTINUOUS
 62
     5
 10
663.98867700000005
 20
638.43779300000006
 30
0.0
 11
662.98867700000005
 21
637.43779300000006
 31
0.0
  0
LINE
  5
3EB
  8
DETAIL
  6
CONTINUOUS
 62
     5
 10
676.98867700000005
 20
637.68779300000006
 30
0.0
 11
678.98867700000005
 21
637.68779300000006
 31
0.0
  0
LINE
  5
3EC
  8
DETAIL
  6
CONTINUOUS
 62
     5
 10
678.98867700000005
 20
638.43779300000006
 30
0.0
 11
695.99782600000003
 21
638.43779300000006
 31
0.0
  0
LINE
  5
3ED
  8
DETAIL
  6
CONTINUOUS
 62
     5
 10
679.98867700000005
 20
642.43779300000006
 30
0.0
 11
695.99782600000003
 21
642.43779300000006
 31
0.0
  0
LINE
  5
3EE
  8
DETAIL
  6
CONTINUOUS
 62
     5
 10
679.98867700000005
 20
623.43779300000006
 30
0.0
 11
695.99782600000003
 21
623.43779300000006
 31
0.0
  0
LINE
  5
3EF
  8
DETAIL
  6
CONTINUOUS
 62
     5
 10
662.98867700000005
 20
622.43779300000006
 30
0.0
 11
675.98867700000005
 21
622.43779300000006
 31
0.0
  0
LINE
  5
3F0
  8
DETAIL
  6
CONTINUOUS
 62
     5
 10
678.98867700000005
 20
627.43779300000006
 30
0.0
 11
695.99782600000003
 21
627.43779300000006
 31
0.0
  0
LINE
  5
3F1
  8
DETAIL
  6
CONTINUOUS
 62
     5
 10
663.98867700000005
 20
627.43779300000006
 30
0.0
 11
676.98867700000005
 21
627.43779300000006
 31
0.0
  0
LINE
  5
3F2
  8
DETAIL
  6
CONTINUOUS
 62
     5
 10
659.99782600000003
 20
627.43779300000006
 30
0.0
 11
659.99782600000003
 21
638.43779300000006
 31
0.0
  0
LINE
  5
3F3
  8
DETAIL
  6
CONTINUOUS
 62
     5
 10
659.99782600000003
 20
627.43779300000006
 30
0.0
 11
662.98867700000005
 21
622.43779300000006
 31
0.0
  0
LINE
  5
3F4
  8
DETAIL
  6
CONTINUOUS
 62
     5
 10
676.98867700000005
 20
623.43779300000006
 30
0.0
 11
675.98867700000005
 21
622.43779300000006
 31
0.0
  0
LINE
  5
3F5
  8
DETAIL
  6
CONTINUOUS
 62
     5
 10
678.98867700000005
 20
624.43779300000006
 30
0.0
 11
679.98867700000005
 21
623.43779300000006
 31
0.0
  0
LINE
  5
3F6
  8
DETAIL
  6
CONTINUOUS
 62
     5
 10
663.98867700000005
 20
627.43779300000006
 30
0.0
 11
662.98867700000005
 21
628.43779300000006
 31
0.0
  0
LINE
  5
3F7
  8
DETAIL
  6
CONTINUOUS
 62
     5
 10
663.98867700000005
 20
627.43779300000006
 30
0.0
 11
662.98867700000005
 21
626.43779300000006
 31
0.0
  0
LINE
  5
3F8
  8
DETAIL
  6
CONTINUOUS
 62
     5
 10
676.98867700000005
 20
628.18779300000006
 30
0.0
 11
678.98867700000005
 21
628.18779300000006
 31
0.0
  0
LINE
  5
3F9
  8
DETAIL
  6
CONTINUOUS
 62
     5
 10
678.98867700000005
 20
624.43779300000006
 30
0.0
 11
678.98867700000005
 21
641.43779300000006
 31
0.0
  0
LINE
  5
3FA
  8
DETAIL
  6
CONTINUOUS
 62
     5
 10
676.98867700000005
 20
623.43779300000006
 30
0.0
 11
676.98867700000005
 21
642.43779300000006
 31
0.0
  0
LINE
  5
3FB
  8
DETAIL
  6
CONTINUOUS
 62
     5
 10
662.98867700000005
 20
643.43779300000006
 30
0.0
 11
675.98867700000005
 21
643.43779300000006
 31
0.0
  0
LINE
  5
3FC
  8
DETAIL
  6
CONTINUOUS
 62
     5
 10
662.98867700000005
 20
622.43779300000006
 30
0.0
 11
662.98867700000005
 21
643.43779300000006
 31
0.0
  0
LINE
  5
3FD
  8
DETAIL
  6
CONTINUOUS
 62
     5
 10
663.98867700000005
 20
638.43779300000006
 30
0.0
 11
676.98867700000005
 21
638.43779300000006
 31
0.0
  0
LINE
  5
3FE
  8
DETAIL
  6
CONTINUOUS
 62
     5
 10
659.99782600000003
 20
638.43779300000006
 30
0.0
 11
662.98867700000005
 21
643.43779300000006
 31
0.0
  0
LINE
  5
3FF
  8
DETAIL
  6
CONTINUOUS
 62
     5
 10
675.98867700000005
 20
643.43779300000006
 30
0.0
 11
676.98867700000005
 21
642.43779300000006
 31
0.0
  0
LINE
  5
400
  8
DETAIL
  6
CONTINUOUS
 62
     5
 10
678.98867700000005
 20
641.43779300000006
 30
0.0
 11
679.98867700000005
 21
642.43779300000006
 31
0.0
  0
LINE
  5
401
  8
DETAIL
  6
CONTINUOUS
 62
     5
 10
663.98867700000005
 20
638.43779300000006
 30
0.0
 11
662.98867700000005
 21
639.43779300000006
 31
0.0
  0
LINE
  5
402
  8
DETAIL
  6
CONTINUOUS
 62
     5
 10
663.98867700000005
 20
638.43779300000006
 30
0.0
 11
662.98867700000005
 21
637.43779300000006
 31
0.0
  0
LINE
  5
403
  8
DETAIL
  6
CONTINUOUS
 62
     5
 10
676.98867700000005
 20
637.68779300000006
 30
0.0
 11
678.98867700000005
 21
637.68779300000006
 31
0.0
  0
POINT
  5
404
  8
DEFPOINTS
  6
CONTINUOUS
 62
     7
 10
693.50697500000001
 20
539.93779300000006
 30
0.0
  0
POINT
  5
405
  8
DEFPOINTS
  6
CONTINUOUS
 62
     7
 10
651.73867700000005
 20
604.93779300000006
 30
0.0
  0
POINT
  5
406
  8
DEFPOINTS
  6
CONTINUOUS
 62
     7
 10
654.49782600000003
 20
632.93779300000006
 30
0.0
  0
POINT
  5
407
  8
DEFPOINTS
  6
CONTINUOUS
 62
     7
 10
654.49782600000003
 20
632.93779300000006
 30
0.0
  0
LINE
  5
408
  8
NOTE
  6
CONTINUOUS
 62
     4
 10
704.50697500000001
 20
539.93779300000006
 30
0.0
 11
693.50697500000001
 21
539.93779300000006
 31
0.0
  0
LINE
  5
409
  8
NOTE
  6
CONTINUOUS
 62
     4
 10
698.99782600000003
 20
545.43778499999985
 30
0.0
 11
698.99782600000003
 21
534.43780099999981
 31
0.0
  0
LINE
  5
40A
  8
NOTE
  6
CONTINUOUS
 62
     4
 10
674.23867700000005
 20
604.93779300000006
 30
0.0
 11
651.73867700000005
 21
604.93779300000006
 31
0.0
  0
LINE
  5
40B
  8
NOTE
  6
CONTINUOUS
 62
     4
 10
662.99782600000003
 20
616.18778899999995
 30
0.0
 11
662.99782600000003
 21
593.68779699999982
 31
0.0
  0
LINE
  5
40C
  8
NOTE
  6
CONTINUOUS
 62
     4
 10
662.99782600000003
 20
604.93779300000006
 30
0.0
 11
648.59220500000004
 21
573.71556099999998
 31
0.0
  0
LINE
  5
40D
  8
NOTE
  6
CONTINUOUS
 62
     4
 10
662.99782600000003
 20
604.93779300000006
 30
0.0
 11
634.91107599999998
 21
585.101358
 31
0.0
  0
LINE
  5
40E
  8
DETAIL
  6
CONTINUOUS
 62
     5
 10
662.99782600000003
 20
616.18779300000006
 30
0.0
 11
662.99782600000003
 21
593.68779300000006
 31
0.0
  0
LINE
  5
40F
  8
DETAIL
  6
CONTINUOUS
 62
     5
 10
698.99782600000003
 20
593.43779300000006
 30
0.0
 11
687.98867700000005
 21
593.43779300000006
 31
0.0
  0
LINE
  5
410
  8
DETAIL
  6
CONTINUOUS
 62
     5
 10
698.98867700000005
 20
616.43779300000006
 30
0.0
 11
687.98867700000005
 21
616.43779300000006
 31
0.0
  0
LINE
  5
411
  8
DETAIL
  6
CONTINUOUS
 62
     5
 10
667.98867700000005
 20
597.93779300000006
 30
0.0
 11
665.98867700000005
 21
595.93779300000006
 31
0.0
  0
LINE
  5
412
  8
DETAIL
  6
CONTINUOUS
 62
     5
 10
667.98867700000005
 20
597.93779300000006
 30
0.0
 11
665.98867700000005
 21
595.93779300000006
 31
0.0
  0
LINE
  5
413
  8
DETAIL
  6
CONTINUOUS
 62
     5
 10
667.98867700000005
 20
597.93779300000006
 30
0.0
 11
665.98867700000005
 21
599.93779300000006
 31
0.0
  0
LINE
  5
414
  8
DETAIL
  6
CONTINUOUS
 62
     5
 10
667.98867700000005
 20
597.93779300000006
 30
0.0
 11
665.98867700000005
 21
599.93779300000006
 31
0.0
  0
LINE
  5
415
  8
DETAIL
  6
CONTINUOUS
 62
     5
 10
667.98867700000005
 20
611.93779300000006
 30
0.0
 11
665.98867700000005
 21
609.93779300000006
 31
0.0
  0
LINE
  5
416
  8
DETAIL
  6
CONTINUOUS
 62
     5
 10
667.98867700000005
 20
611.93779300000006
 30
0.0
 11
665.98867700000005
 21
609.93779300000006
 31
0.0
  0
LINE
  5
417
  8
DETAIL
  6
CONTINUOUS
 62
     5
 10
667.98867700000005
 20
611.93779300000006
 30
0.0
 11
665.98867700000005
 21
613.93779300000006
 31
0.0
  0
LINE
  5
418
  8
DETAIL
  6
CONTINUOUS
 62
     5
 10
667.98867700000005
 20
611.93779300000006
 30
0.0
 11
665.98867700000005
 21
613.93779300000006
 31
0.0
  0
LINE
  5
419
  8
DETAIL
  6
CONTINUOUS
 62
     5
 10
679.98867700000005
 20
611.93779300000006
 30
0.0
 11
681.98867700000005
 21
613.93779300000006
 31
0.0
  0
LINE
  5
41A
  8
DETAIL
  6
CONTINUOUS
 62
     5
 10
679.98867700000005
 20
611.93779300000006
 30
0.0
 11
681.98867700000005
 21
613.93779300000006
 31
0.0
  0
LINE
  5
41B
  8
DETAIL
  6
CONTINUOUS
 62
     5
 10
679.98867700000005
 20
611.93779300000006
 30
0.0
 11
681.98867700000005
 21
609.93779300000006
 31
0.0
  0
LINE
  5
41C
  8
DETAIL
  6
CONTINUOUS
 62
     5
 10
679.98867700000005
 20
611.93779300000006
 30
0.0
 11
681.98867700000005
 21
609.93779300000006
 31
0.0
  0
LINE
  5
41D
  8
DETAIL
  6
CONTINUOUS
 62
     5
 10
679.98867700000005
 20
597.93779300000006
 30
0.0
 11
681.98867700000005
 21
599.93779300000006
 31
0.0
  0
LINE
  5
41E
  8
DETAIL
  6
CONTINUOUS
 62
     5
 10
679.98867700000005
 20
597.93779300000006
 30
0.0
 11
681.98867700000005
 21
599.93779300000006
 31
0.0
  0
LINE
  5
41F
  8
DETAIL
  6
CONTINUOUS
 62
     5
 10
679.98867700000005
 20
597.93779300000006
 30
0.0
 11
681.98867700000005
 21
595.93779300000006
 31
0.0
  0
LINE
  5
420
  8
DETAIL
  6
CONTINUOUS
 62
     5
 10
679.98867700000005
 20
597.93779300000006
 30
0.0
 11
681.98867700000005
 21
595.93779300000006
 31
0.0
  0
LINE
  5
421
  8
DETAIL
  6
CONTINUOUS
 62
     5
 10
679.98867700000005
 20
597.93779300000006
 30
0.0
 11
667.98867700000005
 21
597.93779300000006
 31
0.0
  0
LINE
  5
422
  8
DETAIL
  6
CONTINUOUS
 62
     5
 10
679.98867700000005
 20
597.93779300000006
 30
0.0
 11
667.98867700000005
 21
597.93779300000006
 31
0.0
  0
LINE
  5
423
  8
DETAIL
  6
CONTINUOUS
 62
     5
 10
679.98867700000005
 20
611.93779300000006
 30
0.0
 11
667.98867700000005
 21
611.93779300000006
 31
0.0
  0
LINE
  5
424
  8
DETAIL
  6
CONTINUOUS
 62
     5
 10
679.98867700000005
 20
611.93779300000006
 30
0.0
 11
667.98867700000005
 21
611.93779300000006
 31
0.0
  0
LINE
  5
425
  8
DETAIL
  6
CONTINUOUS
 62
     5
 10
681.98867700000005
 20
593.93779300000006
 30
0.0
 11
679.98867700000005
 21
591.93779300000006
 31
0.0
  0
LINE
  5
426
  8
DETAIL
  6
CONTINUOUS
 62
     5
 10
681.98867700000005
 20
593.93779300000006
 30
0.0
 11
679.98867700000005
 21
591.93779300000006
 31
0.0
  0
LINE
  5
427
  8
DETAIL
  6
CONTINUOUS
 62
     5
 10
681.98867700000005
 20
615.93779300000006
 30
0.0
 11
679.98867700000005
 21
617.93779300000006
 31
0.0
  0
LINE
  5
428
  8
DETAIL
  6
CONTINUOUS
 62
     5
 10
681.98867700000005
 20
615.93779300000006
 30
0.0
 11
679.98867700000005
 21
617.93779300000006
 31
0.0
  0
LINE
  5
429
  8
DETAIL
  6
CONTINUOUS
 62
     5
 10
662.99782600000003
 20
593.68779300000006
 30
0.0
 11
665.98867700000005
 21
591.93779300000006
 31
0.0
  0
LINE
  5
42A
  8
DETAIL
  6
CONTINUOUS
 62
     5
 10
665.98867700000005
 20
617.93779300000006
 30
0.0
 11
662.99782600000003
 21
616.18778899999995
 31
0.0
  0
LINE
  5
42B
  8
DETAIL
  6
CONTINUOUS
 62
     5
 10
665.98867700000005
 20
617.93779300000006
 30
0.0
 11
665.98867700000005
 21
591.93779300000006
 31
0.0
  0
LINE
  5
42C
  8
DETAIL
  6
CONTINUOUS
 62
     5
 10
665.98867700000005
 20
617.93779300000006
 30
0.0
 11
665.98867700000005
 21
591.93779300000006
 31
0.0
  0
LINE
  5
42D
  8
DETAIL
  6
CONTINUOUS
 62
     5
 10
681.98867700000005
 20
615.93779300000006
 30
0.0
 11
681.98867700000005
 21
593.93779300000006
 31
0.0
  0
LINE
  5
42E
  8
DETAIL
  6
CONTINUOUS
 62
     5
 10
681.98867700000005
 20
615.93779300000006
 30
0.0
 11
681.98867700000005
 21
593.93779300000006
 31
0.0
  0
LINE
  5
42F
  8
DETAIL
  6
CONTINUOUS
 62
     5
 10
679.98867700000005
 20
591.93779300000006
 30
0.0
 11
665.98867700000005
 21
591.93779300000006
 31
0.0
  0
LINE
  5
430
  8
DETAIL
  6
CONTINUOUS
 62
     5
 10
679.98867700000005
 20
591.93779300000006
 30
0.0
 11
665.98867700000005
 21
591.93779300000006
 31
0.0
  0
LINE
  5
431
  8
DETAIL
  6
CONTINUOUS
 62
     5
 10
679.98867700000005
 20
617.93779300000006
 30
0.0
 11
665.98867700000005
 21
617.93779300000006
 31
0.0
  0
LINE
  5
432
  8
DETAIL
  6
CONTINUOUS
 62
     5
 10
679.98867700000005
 20
617.93779300000006
 30
0.0
 11
665.98867700000005
 21
617.93779300000006
 31
0.0
  0
LINE
  5
433
  8
DETAIL
  6
CONTINUOUS
 62
     5
 10
681.98867700000005
 20
612.93779300000006
 30
0.0
 11
681.98867700000005
 21
596.93779300000006
 31
0.0
  0
LINE
  5
434
  8
DETAIL
  6
CONTINUOUS
 62
     5
 10
681.98867700000005
 20
596.93779300000006
 30
0.0
 11
685.98867700000005
 21
596.93779300000006
 31
0.0
  0
LINE
  5
435
  8
DETAIL
  6
CONTINUOUS
 62
     5
 10
681.98867700000005
 20
612.93779300000006
 30
0.0
 11
685.98867700000005
 21
612.93779300000006
 31
0.0
  0
LINE
  5
436
  8
DETAIL
  6
CONTINUOUS
 62
     5
 10
685.98867700000005
 20
614.43779300000006
 30
0.0
 11
687.98867700000005
 21
616.43779300000006
 31
0.0
  0
LINE
  5
437
  8
DETAIL
  6
CONTINUOUS
 62
     5
 10
685.98867700000005
 20
595.43779300000006
 30
0.0
 11
687.98867700000005
 21
593.43779300000006
 31
0.0
  0
LINE
  5
438
  8
DETAIL
  6
CONTINUOUS
 62
     5
 10
685.98867700000005
 20
614.43779300000006
 30
0.0
 11
685.98867700000005
 21
595.43779300000006
 31
0.0
  0
LINE
  5
439
  8
DETAIL
  6
CONTINUOUS
 62
     5
 10
667.98867700000005
 20
597.93779300000006
 30
0.0
 11
665.98867700000005
 21
595.93779300000006
 31
0.0
  0
LINE
  5
43A
  8
DETAIL
  6
CONTINUOUS
 62
     5
 10
667.98867700000005
 20
597.93779300000006
 30
0.0
 11
665.98867700000005
 21
595.93779300000006
 31
0.0
  0
LINE
  5
43B
  8
DETAIL
  6
CONTINUOUS
 62
     5
 10
667.98867700000005
 20
597.93779300000006
 30
0.0
 11
665.98867700000005
 21
599.93779300000006
 31
0.0
  0
LINE
  5
43C
  8
DETAIL
  6
CONTINUOUS
 62
     5
 10
667.98867700000005
 20
597.93779300000006
 30
0.0
 11
665.98867700000005
 21
599.93779300000006
 31
0.0
  0
LINE
  5
43D
  8
DETAIL
  6
CONTINUOUS
 62
     5
 10
667.98867700000005
 20
611.93779300000006
 30
0.0
 11
665.98867700000005
 21
609.93779300000006
 31
0.0
  0
LINE
  5
43E
  8
DETAIL
  6
CONTINUOUS
 62
     5
 10
667.98867700000005
 20
611.93779300000006
 30
0.0
 11
665.98867700000005
 21
609.93779300000006
 31
0.0
  0
LINE
  5
43F
  8
DETAIL
  6
CONTINUOUS
 62
     5
 10
667.98867700000005
 20
611.93779300000006
 30
0.0
 11
665.98867700000005
 21
613.93779300000006
 31
0.0
  0
LINE
  5
440
  8
DETAIL
  6
CONTINUOUS
 62
     5
 10
667.98867700000005
 20
611.93779300000006
 30
0.0
 11
665.98867700000005
 21
613.93779300000006
 31
0.0
  0
LINE
  5
441
  8
DETAIL
  6
CONTINUOUS
 62
     5
 10
679.98867700000005
 20
611.93779300000006
 30
0.0
 11
681.98867700000005
 21
613.93779300000006
 31
0.0
  0
LINE
  5
442
  8
DETAIL
  6
CONTINUOUS
 62
     5
 10
679.98867700000005
 20
611.93779300000006
 30
0.0
 11
681.98867700000005
 21
613.93779300000006
 31
0.0
  0
LINE
  5
443
  8
DETAIL
  6
CONTINUOUS
 62
     5
 10
679.98867700000005
 20
611.93779300000006
 30
0.0
 11
681.98867700000005
 21
609.93779300000006
 31
0.0
  0
LINE
  5
444
  8
DETAIL
  6
CONTINUOUS
 62
     5
 10
679.98867700000005
 20
611.93779300000006
 30
0.0
 11
681.98867700000005
 21
609.93779300000006
 31
0.0
  0
LINE
  5
445
  8
DETAIL
  6
CONTINUOUS
 62
     5
 10
679.98867700000005
 20
597.93779300000006
 30
0.0
 11
681.98867700000005
 21
599.93779300000006
 31
0.0
  0
LINE
  5
446
  8
DETAIL
  6
CONTINUOUS
 62
     5
 10
679.98867700000005
 20
597.93779300000006
 30
0.0
 11
681.98867700000005
 21
599.93779300000006
 31
0.0
  0
LINE
  5
447
  8
DETAIL
  6
CONTINUOUS
 62
     5
 10
679.98867700000005
 20
597.93779300000006
 30
0.0
 11
681.98867700000005
 21
595.93779300000006
 31
0.0
  0
LINE
  5
448
  8
DETAIL
  6
CONTINUOUS
 62
     5
 10
679.98867700000005
 20
597.93779300000006
 30
0.0
 11
681.98867700000005
 21
595.93779300000006
 31
0.0
  0
LINE
  5
449
  8
DETAIL
  6
CONTINUOUS
 62
     5
 10
679.98867700000005
 20
597.93779300000006
 30
0.0
 11
667.98867700000005
 21
597.93779300000006
 31
0.0
  0
LINE
  5
44A
  8
DETAIL
  6
CONTINUOUS
 62
     5
 10
679.98867700000005
 20
597.93779300000006
 30
0.0
 11
667.98867700000005
 21
597.93779300000006
 31
0.0
  0
LINE
  5
44B
  8
DETAIL
  6
CONTINUOUS
 62
     5
 10
679.98867700000005
 20
611.93779300000006
 30
0.0
 11
667.98867700000005
 21
611.93779300000006
 31
0.0
  0
LINE
  5
44C
  8
DETAIL
  6
CONTINUOUS
 62
     5
 10
679.98867700000005
 20
611.93779300000006
 30
0.0
 11
667.98867700000005
 21
611.93779300000006
 31
0.0
  0
LINE
  5
44D
  8
DETAIL
  6
CONTINUOUS
 62
     5
 10
681.98867700000005
 20
593.93779300000006
 30
0.0
 11
679.98867700000005
 21
591.93779300000006
 31
0.0
  0
LINE
  5
44E
  8
DETAIL
  6
CONTINUOUS
 62
     5
 10
681.98867700000005
 20
593.93779300000006
 30
0.0
 11
679.98867700000005
 21
591.93779300000006
 31
0.0
  0
LINE
  5
44F
  8
DETAIL
  6
CONTINUOUS
 62
     5
 10
681.98867700000005
 20
615.93779300000006
 30
0.0
 11
679.98867700000005
 21
617.93779300000006
 31
0.0
  0
LINE
  5
450
  8
DETAIL
  6
CONTINUOUS
 62
     5
 10
681.98867700000005
 20
615.93779300000006
 30
0.0
 11
679.98867700000005
 21
617.93779300000006
 31
0.0
  0
LINE
  5
451
  8
DETAIL
  6
CONTINUOUS
 62
     5
 10
665.98867700000005
 20
617.93779300000006
 30
0.0
 11
665.98867700000005
 21
591.93779300000006
 31
0.0
  0
LINE
  5
452
  8
DETAIL
  6
CONTINUOUS
 62
     5
 10
665.98867700000005
 20
617.93779300000006
 30
0.0
 11
665.98867700000005
 21
591.93779300000006
 31
0.0
  0
LINE
  5
453
  8
DETAIL
  6
CONTINUOUS
 62
     5
 10
681.98867700000005
 20
615.93779300000006
 30
0.0
 11
681.98867700000005
 21
593.93779300000006
 31
0.0
  0
LINE
  5
454
  8
DETAIL
  6
CONTINUOUS
 62
     5
 10
681.98867700000005
 20
615.93779300000006
 30
0.0
 11
681.98867700000005
 21
593.93779300000006
 31
0.0
  0
LINE
  5
455
  8
DETAIL
  6
CONTINUOUS
 62
     5
 10
679.98867700000005
 20
591.93779300000006
 30
0.0
 11
665.98867700000005
 21
591.93779300000006
 31
0.0
  0
LINE
  5
456
  8
DETAIL
  6
CONTINUOUS
 62
     5
 10
679.98867700000005
 20
591.93779300000006
 30
0.0
 11
665.98867700000005
 21
591.93779300000006
 31
0.0
  0
LINE
  5
457
  8
DETAIL
  6
CONTINUOUS
 62
     5
 10
679.98867700000005
 20
617.93779300000006
 30
0.0
 11
665.98867700000005
 21
617.93779300000006
 31
0.0
  0
LINE
  5
458
  8
DETAIL
  6
CONTINUOUS
 62
     5
 10
679.98867700000005
 20
617.93779300000006
 30
0.0
 11
665.98867700000005
 21
617.93779300000006
 31
0.0
  0
LINE
  5
459
  8
DETAIL
  6
CONTINUOUS
 62
     5
 10
681.98867700000005
 20
612.93779300000006
 30
0.0
 11
681.98867700000005
 21
596.93779300000006
 31
0.0
  0
LINE
  5
45A
  8
DETAIL
  6
CONTINUOUS
 62
     5
 10
681.98867700000005
 20
596.93779300000006
 30
0.0
 11
685.98867700000005
 21
596.93779300000006
 31
0.0
  0
LINE
  5
45B
  8
DETAIL
  6
CONTINUOUS
 62
     5
 10
681.98867700000005
 20
612.93779300000006
 30
0.0
 11
685.98867700000005
 21
612.93779300000006
 31
0.0
  0
LINE
  5
45C
  8
DETAIL
  6
CONTINUOUS
 62
     5
 10
685.98867700000005
 20
614.43779300000006
 30
0.0
 11
687.98867700000005
 21
616.43779300000006
 31
0.0
  0
LINE
  5
45D
  8
DETAIL
  6
CONTINUOUS
 62
     5
 10
685.98867700000005
 20
595.43779300000006
 30
0.0
 11
687.98867700000005
 21
593.43779300000006
 31
0.0
  0
LINE
  5
45E
  8
DETAIL
  6
CONTINUOUS
 62
     5
 10
685.98867700000005
 20
614.43779300000006
 30
0.0
 11
685.98867700000005
 21
595.43779300000006
 31
0.0
  0
LINE
  5
45F
  8
DETAIL
  6
CONTINUOUS
 62
     5
 10
698.98867700000005
 20
616.43779300000006
 30
0.0
 11
687.98867700000005
 21
616.43779300000006
 31
0.0
  0
LINE
  5
460
  8
DETAIL
  6
CONTINUOUS
 62
     5
 10
698.98867700000005
 20
593.43779300000006
 30
0.0
 11
687.98867700000005
 21
593.43779300000006
 31
0.0
  0
ARC
  5
461
  8
DETAIL
  6
CONTINUOUS
 62
     5
 10
703.99782600000003
 20
544.33779299999992
 30
0.0
 40
5.0
 50
180.0
 51
270.0
  0
LINE
  5
462
  8
DETAIL
  6
CONTINUOUS
 62
     5
 10
716.99782600000003
 20
526.93779300000006
 30
0.0
 11
713.99782600000003
 21
523.93779300000006
 31
0.0
  0
LINE
  5
463
  8
DETAIL
  6
CONTINUOUS
 62
     5
 10
716.99782600000003
 20
526.93779300000006
 30
0.0
 11
713.99782600000003
 21
523.93779300000006
 31
0.0
  0
LINE
  5
464
  8
DETAIL
  6
CONTINUOUS
 62
     5
 10
730.99782600000003
 20
600.33779299999981
 30
0.0
 11
730.99782600000003
 21
599.73779299999978
 31
0.0
  0
ARC
  5
465
  8
DETAIL
  6
CONTINUOUS
 62
     5
 10
740.99782600000003
 20
573.93779300000006
 30
0.0
 40
10.0
 50
180.0
 51
270.0
  0
LINE
  5
466
  8
SIZE
  6
CONTINUOUS
 62
    30
 10
708.99782600000003
 20
973.18287799999985
 30
0.0
 11
832.7835399999999
 21
973.18287799999985
 31
0.0
  0
LINE
  5
467
  8
SIZE
  6
CONTINUOUS
 62
    30
 10
708.99782600000003
 20
887.58261400000004
 30
0.0
 11
837.49782600000003
 21
887.58261400000004
 31
0.0
  0
LINE
  5
468
  8
DETAIL
  6
CONTINUOUS
 62
     5
 10
701.99782600000003
 20
775.53779299999985
 30
0.0
 11
732.71289999999999
 21
775.53779299999985
 31
0.0
  0
LINE
  5
469
  8
SIZE
  6
CONTINUOUS
 62
    30
 10
698.99782600000003
 20
824.93779299999971
 30
0.0
 11
698.99782600000003
 21
917.58261399999992
 31
0.0
  0
LINE
  5
46A
  8
SIZE
  6
CONTINUOUS
 62
    30
 10
664.99782600000003
 20
733.65444499999978
 30
0.0
 11
664.99782600000003
 21
917.58261399999992
 31
0.0
  0
POINT
  5
46B
  8
DEFPOINTS
  6
CONTINUOUS
 62
     7
 10
698.99782600000003
 20
804.93779300000006
 30
0.0
  0
POINT
  5
46C
  8
DEFPOINTS
  6
CONTINUOUS
 62
     7
 10
705.99782600000003
 20
819.93295899999987
 30
0.0
  0
POINT
  5
46D
  8
DEFPOINTS
  6
CONTINUOUS
 62
     7
 10
705.99782600000003
 20
819.93295899999987
 30
0.0
  0
POINT
  5
46E
  8
DEFPOINTS
  6
CONTINUOUS
 62
     7
 10
682.99782600000003
 20
800.63779299999987
 30
0.0
  0
POINT
  5
46F
  8
DEFPOINTS
  6
CONTINUOUS
 62
     7
 10
698.99782600000003
 20
804.93779300000006
 30
0.0
  0
POINT
  5
470
  8
DEFPOINTS
  6
CONTINUOUS
 62
     7
 10
698.99782600000003
 20
804.93779300000006
 30
0.0
  0
POINT
  5
471
  8
DEFPOINTS
  6
CONTINUOUS
 62
     7
 10
682.99782600000003
 20
800.63779299999987
 30
0.0
  0
POINT
  5
472
  8
DEFPOINTS
  6
CONTINUOUS
 62
     7
 10
698.99782600000003
 20
804.93779300000006
 30
0.0
  0
POINT
  5
473
  8
DEFPOINTS
  6
CONTINUOUS
 62
     7
 10
698.99782600000003
 20
804.93779300000006
 30
0.0
  0
POINT
  5
474
  8
DEFPOINTS
  6
CONTINUOUS
 62
     7
 10
664.99782600000003
 20
713.65444500000001
 30
0.0
  0
POINT
  5
475
  8
DEFPOINTS
  6
CONTINUOUS
 62
     7
 10
687.29782599999999
 20
804.93779300000006
 30
0.0
  0
POINT
  5
476
  8
DEFPOINTS
  6
CONTINUOUS
 62
     7
 10
687.29782599999999
 20
804.93779300000006
 30
0.0
  0
POINT
  5
477
  8
DEFPOINTS
  6
CONTINUOUS
 62
     7
 10
648.28117399999985
 20
696.93779300000006
 30
0.0
  0
POINT
  5
478
  8
DEFPOINTS
  6
CONTINUOUS
 62
     7
 10
687.29782599999999
 20
804.93779300000006
 30
0.0
  0
LINE
  5
479
  8
NOTE
  6
CONTINUOUS
 62
     4
 10
681.71447799999976
 20
696.93779300000006
 30
0.0
 11
648.28117399999985
 21
696.93779300000006
 31
0.0
  0
LINE
  5
47A
  8
NOTE
  6
CONTINUOUS
 62
     4
 10
664.99782600000003
 20
713.65444500000001
 30
0.0
 11
664.99782600000003
 21
680.22114099999988
 31
0.0
  0
LINE
  5
47B
  8
NOTE
  6
CONTINUOUS
 62
     4
 10
664.99782600000003
 20
696.93779300000006
 30
0.0
 11
641.98276199999975
 21
722.48493599999983
 31
0.0
  0
LINE
  5
47C
  8
NOTE
  6
CONTINUOUS
 62
     4
 10
664.99782600000003
 20
696.93779300000006
 30
0.0
 11
657.83976800000005
 21
730.56979999999976
 31
0.0
  0
CIRCLE
  5
47D
  8
FIX
  6
CONTINUOUS
 62
    11
 10
705.99782600000003
 20
804.93779300000006
 30
0.0
 40
12.421498
  0
LINE
  5
47E
  8
NOTE
  6
CONTINUOUS
 62
     4
 10
705.99782600000003
 20
789.9426269999999
 30
0.0
 11
705.99782600000003
 21
819.93295899999987
 31
0.0
  0
LINE
  5
47F
  8
NOTE
  6
CONTINUOUS
 62
     4
 10
691.00265999999999
 20
804.93779300000006
 30
0.0
 11
720.99299199999984
 21
804.93779300000006
 31
0.0
  0
POINT
  5
480
  8
DEFPOINTS
  6
CONTINUOUS
 62
     7
 10
682.99782600000003
 20
799.03779299999985
 30
0.0
  0
LINE
  5
481
  8
DETAIL
  6
CONTINUOUS
 62
     5
 10
698.99782600000003
 20
778.53779299999985
 30
0.0
 11
701.99782600000003
 21
775.53779299999985
 31
0.0
  0
LINE
  5
482
  8
DETAIL
  6
CONTINUOUS
 62
     5
 10
698.99782600000003
 20
778.53779299999985
 30
0.0
 11
698.99782600000003
 21
804.93779300000006
 31
0.0
  0
LINE
  5
483
  8
DETAIL
  6
CONTINUOUS
 62
     5
 10
698.99782600000003
 20
778.53779299999985
 30
0.0
 11
698.99782600000003
 21
804.93779300000006
 31
0.0
  0
LINE
  5
484
  8
DETAIL
  6
CONTINUOUS
 62
     5
 10
698.99782600000003
 20
802.63779299999999
 30
0.0
 11
687.29782599999999
 21
802.63779299999999
 31
0.0
  0
LINE
  5
485
  8
DETAIL
  6
CONTINUOUS
 62
     5
 10
698.99782600000003
 20
804.93779300000006
 30
0.0
 11
687.29782599999999
 21
804.93779300000006
 31
0.0
  0
LINE
  5
486
  8
DETAIL
  6
CONTINUOUS
 62
     5
 10
698.99782600000003
 20
803.33779299999981
 30
0.0
 11
698.99782600000003
 21
801.03779299999985
 31
0.0
  0
LINE
  5
487
  8
DETAIL
  6
CONTINUOUS
 62
     5
 10
685.29782599999999
 20
792.93779299999983
 30
0.0
 11
682.99782600000003
 21
792.93779299999983
 31
0.0
  0
LINE
  5
488
  8
DETAIL
  6
CONTINUOUS
 62
     5
 10
685.29782599999999
 20
800.63779299999987
 30
0.0
 11
685.29782599999999
 21
792.93779299999983
 31
0.0
  0
ARC
  5
489
  8
DETAIL
  6
CONTINUOUS
 62
     5
 10
687.29782599999999
 20
800.63779299999987
 30
0.0
 40
2.0
 50
90.0
 51
180.0
  0
LINE
  5
48A
  8
DETAIL
  6
CONTINUOUS
 62
     5
 10
682.99782600000003
 20
800.63779299999987
 30
0.0
 11
682.99782600000003
 21
792.93779299999983
 31
0.0
  0
ARC
  5
48B
  8
DETAIL
  6
CONTINUOUS
 62
     5
 10
687.29782599999999
 20
800.63779299999987
 30
0.0
 40
4.299999999999998
 50
90.0
 51
180.0
  0
LINE
  5
48C
  8
DETAIL
  6
CONTINUOUS
 62
     5
 10
698.99782600000003
 20
803.33779299999981
 30
0.0
 11
698.99782600000003
 21
801.03779299999985
 31
0.0
  0
LINE
  5
48D
  8
DETAIL
  6
CONTINUOUS
 62
     5
 10
685.29782599999999
 20
792.93779299999983
 30
0.0
 11
682.99782600000003
 21
792.93779299999983
 31
0.0
  0
LINE
  5
48E
  8
DETAIL
  6
CONTINUOUS
 62
     5
 10
685.29782599999999
 20
800.63779299999987
 30
0.0
 11
685.29782599999999
 21
792.93779299999983
 31
0.0
  0
ARC
  5
48F
  8
DETAIL
  6
CONTINUOUS
 62
     5
 10
687.29782599999999
 20
800.63779299999987
 30
0.0
 40
2.0
 50
90.0
 51
180.0
  0
LINE
  5
490
  8
DETAIL
  6
CONTINUOUS
 62
     5
 10
698.99782600000003
 20
802.63779299999999
 30
0.0
 11
687.29782599999999
 21
802.63779299999999
 31
0.0
  0
LINE
  5
491
  8
DETAIL
  6
CONTINUOUS
 62
     5
 10
698.99782600000003
 20
804.93779300000006
 30
0.0
 11
687.29782599999999
 21
804.93779300000006
 31
0.0
  0
LINE
  5
492
  8
DETAIL
  6
CONTINUOUS
 62
     5
 10
682.99782600000003
 20
800.63779299999987
 30
0.0
 11
682.99782600000003
 21
792.93779299999983
 31
0.0
  0
ARC
  5
493
  8
DETAIL
  6
CONTINUOUS
 62
     5
 10
687.29782599999999
 20
800.63779299999987
 30
0.0
 40
4.299999999999998
 50
90.0
 51
180.0
  0
LINE
  5
494
  8
DETAIL
  6
CONTINUOUS
 62
     5
 10
698.99782600000003
 20
698.33779299999969
 30
0.0
 11
698.99782600000003
 21
794.33779299999969
 31
0.0
  0
LINE
  5
495
  8
DETAIL
  6
CONTINUOUS
 62
     5
 10
689.99782600000003
 20
713.13779299999999
 30
0.0
 11
698.99782600000003
 21
713.29488900000001
 31
0.0
  0
ARC
  5
496
  8
DETAIL
  6
CONTINUOUS
 62
     5
 10
665.49782600000003
 20
712.43779300000006
 30
0.0
 40
0.5
 50
90.0
 51
180.0
  0
LINE
  5
497
  8
DETAIL
  6
CONTINUOUS
 62
     5
 10
689.99782600000003
 20
712.93779300000006
 30
0.0
 11
665.49782600000003
 21
712.93779300000006
 31
0.0
  0
LINE
  5
498
  8
DETAIL
  6
CONTINUOUS
 62
     5
 10
689.99782600000003
 20
680.73779300000001
 30
0.0
 11
698.99782600000003
 21
680.58069699999987
 31
0.0
  0
ARC
  5
499
  8
DETAIL
  6
CONTINUOUS
 62
     5
 10
665.49782600000003
 20
681.43779300000006
 30
0.0
 40
0.5
 50
180.0
 51
270.0
  0
LINE
  5
49A
  8
DETAIL
  6
CONTINUOUS
 62
     5
 10
689.99782600000003
 20
680.93779300000006
 30
0.0
 11
665.49782600000003
 21
680.93779300000006
 31
0.0
  0
LINE
  5
49B
  8
DETAIL
  6
CONTINUOUS
 62
     5
 10
689.99782600000003
 20
713.13779299999999
 30
0.0
 11
689.99782600000003
 21
680.73779300000001
 31
0.0
  0
LINE
  5
49C
  8
DETAIL
  6
CONTINUOUS
 62
     5
 10
664.99782600000003
 20
712.43779300000006
 30
0.0
 11
664.99782600000003
 21
681.43779300000006
 31
0.0
  0
LINE
  5
49D
  8
DETAIL
  6
CONTINUOUS
 62
     5
 10
689.99782600000003
 20
713.13779299999999
 30
0.0
 11
698.99782600000003
 21
713.29488900000001
 31
0.0
  0
LINE
  5
49E
  8
DETAIL
  6
CONTINUOUS
 62
     5
 10
689.99782600000003
 20
680.73779300000001
 30
0.0
 11
698.99782600000003
 21
680.58069699999987
 31
0.0
  0
ARC
  5
49F
  8
DETAIL
  6
CONTINUOUS
 62
     5
 10
665.49782600000003
 20
681.43779300000006
 30
0.0
 40
0.5
 50
180.0
 51
270.0
  0
ARC
  5
4A0
  8
DETAIL
  6
CONTINUOUS
 62
     5
 10
665.49782600000003
 20
712.43779300000006
 30
0.0
 40
0.5
 50
90.0
 51
180.0
  0
LINE
  5
4A1
  8
DETAIL
  6
CONTINUOUS
 62
     5
 10
689.99782600000003
 20
713.13779299999999
 30
0.0
 11
689.99782600000003
 21
680.73779300000001
 31
0.0
  0
LINE
  5
4A2
  8
DETAIL
  6
CONTINUOUS
 62
     5
 10
689.99782600000003
 20
680.93779300000006
 30
0.0
 11
665.49782600000003
 21
680.93779300000006
 31
0.0
  0
LINE
  5
4A3
  8
DETAIL
  6
CONTINUOUS
 62
     5
 10
689.99782600000003
 20
712.93779300000006
 30
0.0
 11
665.49782600000003
 21
712.93779300000006
 31
0.0
  0
LINE
  5
4A4
  8
DETAIL
  6
CONTINUOUS
 62
     5
 10
664.99782600000003
 20
712.43779300000006
 30
0.0
 11
664.99782600000003
 21
681.43779300000006
 31
0.0
  0
LINE
  5
4A5
  8
DETAIL
  6
CONTINUOUS
 62
     5
 10
698.99782600000003
 20
804.93779300000006
 30
0.0
 11
698.99782600000003
 21
775.63779299999999
 31
0.0
  0
POINT
  5
4A6
  8
DEFPOINTS
  6
CONTINUOUS
 62
     7
 10
698.99782600000003
 20
973.18287799999985
 30
0.0
  0
LINE
  5
4A7
  8
SIZE
  6
CONTINUOUS
 62
    30
 10
703.99782600000003
 20
973.18287799999985
 30
0.0
 11
708.99782600000003
 21
973.18287799999985
 31
0.0
  0
CIRCLE
  5
4A8
  8
SIZE
  6
CONTINUOUS
 62
    30
 10
698.99782600000003
 20
973.18287799999985
 30
0.0
 40
5.0
  0
LINE
  5
4A9
  8
SIZE
  6
CONTINUOUS
 62
    30
 10
657.99782600000003
 20
973.18287799999985
 30
0.0
 11
652.99782600000003
 21
973.18287799999985
 31
0.0
  0
CIRCLE
  5
4AA
  8
SIZE
  6
CONTINUOUS
 62
    30
 10
662.99782600000003
 20
973.18287799999985
 30
0.0
 40
5.0
  0
LINE
  5
4AB
  8
SIZE
  6
CONTINUOUS
 62
    30
 10
662.99782600000003
 20
973.18287799999985
 30
0.0
 11
698.99782600000003
 21
973.18287799999985
 31
0.0
  0
LINE
  5
4AC
  8
SIZE
  6
CONTINUOUS
 62
    30
 10
652.99782600000003
 20
973.18287799999985
 30
0.0
 11
642.99782600000003
 21
973.18287799999985
 31
0.0
  0
POINT
  5
4AD
  8
DEFPOINTS
  6
CONTINUOUS
 62
     7
 10
698.99782600000003
 20
887.58261400000004
 30
0.0
  0
LINE
  5
4AE
  8
SIZE
  6
CONTINUOUS
 62
    30
 10
703.99782600000003
 20
887.58261400000004
 30
0.0
 11
708.99782600000003
 21
887.58261400000004
 31
0.0
  0
CIRCLE
  5
4AF
  8
SIZE
  6
CONTINUOUS
 62
    30
 10
698.99782600000003
 20
887.58261400000004
 30
0.0
 40
5.0
  0
LINE
  5
4B0
  8
SIZE
  6
CONTINUOUS
 62
    30
 10
659.99782600000003
 20
887.58261400000004
 30
0.0
 11
654.99782600000003
 21
887.58261400000004
 31
0.0
  0
CIRCLE
  5
4B1
  8
SIZE
  6
CONTINUOUS
 62
    30
 10
664.99782600000003
 20
887.58261400000004
 30
0.0
 40
5.0
  0
LINE
  5
4B2
  8
SIZE
  6
CONTINUOUS
 62
    30
 10
664.99782600000003
 20
887.58261400000004
 30
0.0
 11
698.99782600000003
 21
887.58261400000004
 31
0.0
  0
LINE
  5
4B3
  8
SIZE
  6
CONTINUOUS
 62
    30
 10
654.99782600000003
 20
887.58261400000004
 30
0.0
 11
644.99782600000003
 21
887.58261400000004
 31
0.0
  0
POINT
  5
4B4
  8
DEFPOINTS
  6
CONTINUOUS
 62
     7
 10
682.99782600000003
 20
899.93779299999971
 30
0.0
  0
ARC
  5
4B5
  8
DETAIL
  6
CONTINUOUS
 62
     5
 10
740.99782600000003
 20
769.93779299999983
 30
0.0
 40
10.0
 50
90.0
 51
180.0
  0
TEXT
  5
4B6
  8
SIZE
  6
CONTINUOUS
 62
    30
 10
736.99782600000003
 20
905.58261400000004
 30
0.0
 40
55.0
  1
34
 41
0.9
 72
     1
 11
778.24782600000003
 21
905.58261400000004
 31
0.0
  0
LINE
  5
4B7
  8
NOTE
  6
CONTINUOUS
 62
     4
 10
449.08584500000001
 20
1003.890623
 30
0.0
 11
105.372263
 21
1003.890623
 31
0.0
  0
TEXT
  5
4B8
  8
NOTE
  6
CONTINUOUS
 62
     4
 10
127.047535
 20
1019.7171540000001
 30
0.0
 40
60.0
  1
RL %%C9.52
 50
0.000003
 41
0.7
  7
STANDARD1
  0
LINE
  5
4B9
  8
NOTE
  6
CONTINUOUS
 62
     4
 10
448.55666999999988
 20
1125.335282
 30
0.0
 11
101.74280899999999
 21
1125.335282
 31
0.0
  0
TEXT
  5
4BA
  8
NOTE
  6
CONTINUOUS
 62
     4
 10
123.41808
 20
1141.1618129999999
 30
0.0
 40
60.0
  1
D1 VP-25
 50
0.000003
 41
0.7
  7
STANDARD1
  0
CIRCLE
  5
4BB
  8
SIZE
  6
CONTINUOUS
 62
    30
 10
705.99782600000003
 20
1289.1002149999999
 30
0.0
 40
5.0
  0
CIRCLE
  5
4BC
  8
SIZE
  6
CONTINUOUS
 62
    30
 10
682.99782600000003
 20
1289.1002149999999
 30
0.0
 40
5.0
  0
CIRCLE
  5
4BD
  8
SIZE
  6
CONTINUOUS
 62
    30
 10
705.99782600000003
 20
1289.1002149999999
 30
0.0
 40
5.0
  0
LINE
  5
4BE
  8
SIZE
  6
CONTINUOUS
 62
    30
 10
708.99782600000003
 20
1074.292025
 30
0.0
 11
832.7835399999999
 21
1074.292025
 31
0.0
  0
POINT
  5
4BF
  8
DEFPOINTS
  6
CONTINUOUS
 62
     7
 10
659.98867700000005
 20
1074.292025
 30
0.0
  0
LINE
  5
4C0
  8
SIZE
  6
CONTINUOUS
 62
    30
 10
703.99782600000003
 20
1074.292025
 30
0.0
 11
708.99782600000003
 21
1074.292025
 31
0.0
  0
CIRCLE
  5
4C1
  8
SIZE
  6
CONTINUOUS
 62
    30
 10
698.99782600000003
 20
1074.292025
 30
0.0
 40
5.0
  0
LINE
  5
4C2
  8
SIZE
  6
CONTINUOUS
 62
    30
 10
654.98867700000005
 20
1074.292025
 30
0.0
 11
649.98867700000005
 21
1074.292025
 31
0.0
  0
CIRCLE
  5
4C3
  8
SIZE
  6
CONTINUOUS
 62
    30
 10
659.98867700000005
 20
1074.292025
 30
0.0
 40
5.0
  0
LINE
  5
4C4
  8
SIZE
  6
CONTINUOUS
 62
    30
 10
659.98867700000005
 20
1074.292025
 30
0.0
 11
698.99782600000003
 21
1074.292025
 31
0.0
  0
LINE
  5
4C5
  8
SIZE
  6
CONTINUOUS
 62
    30
 10
649.98867700000005
 20
1074.292025
 30
0.0
 11
639.98867700000005
 21
1074.292025
 31
0.0
  0
TEXT
  5
4C6
  8
SIZE
  6
CONTINUOUS
 62
    30
 10
576.64068357142855
 20
1190.04099
 30
0.0
 40
55.0
  1
16
 41
0.9
 72
     1
 11
610.819255
 21
1190.04099
 31
0.0
  0
LINE
  5
4C7
  8
SIZE
  6
CONTINUOUS
 62
    30
 10
672.99782600000003
 20
1172.04099
 30
0.0
 11
558.64068299999985
 21
1172.04099
 31
0.0
  0
LINE
  5
4C8
  8
SIZE
  6
CONTINUOUS
 62
    30
 10
703.99782600000003
 20
1172.04099
 30
0.0
 11
708.99782600000003
 21
1172.04099
 31
0.0
  0
CIRCLE
  5
4C9
  8
SIZE
  6
CONTINUOUS
 62
    30
 10
698.99782600000003
 20
1172.04099
 30
0.0
 40
5.0
  0
POINT
  5
4CA
  8
DEFPOINTS
  6
CONTINUOUS
 62
     7
 10
698.99782600000003
 20
1172.04099
 30
0.0
  0
LINE
  5
4CB
  8
SIZE
  6
CONTINUOUS
 62
    30
 10
677.99782600000003
 20
1172.04099
 30
0.0
 11
672.99782600000003
 21
1172.04099
 31
0.0
  0
CIRCLE
  5
4CC
  8
SIZE
  6
CONTINUOUS
 62
    30
 10
682.99782600000003
 20
1172.04099
 30
0.0
 40
5.0
  0
LINE
  5
4CD
  8
SIZE
  6
CONTINUOUS
 62
    30
 10
703.99782600000003
 20
1172.04099
 30
0.0
 11
708.99782600000003
 21
1172.04099
 31
0.0
  0
CIRCLE
  5
4CE
  8
SIZE
  6
CONTINUOUS
 62
    30
 10
698.99782600000003
 20
1172.04099
 30
0.0
 40
5.0
  0
LINE
  5
4CF
  8
SIZE
  6
CONTINUOUS
 62
    30
 10
698.99782600000003
 20
1172.04099
 30
0.0
 11
682.99782600000003
 21
1172.04099
 31
0.0
  0
LINE
  5
4D0
  8
SIZE
  6
CONTINUOUS
 62
    30
 10
708.99782600000003
 20
1172.04099
 30
0.0
 11
718.99782600000003
 21
1172.04099
 31
0.0
  0
TEXT
  5
4D1
  8
SIZE
  6
CONTINUOUS
 62
    30
 10
736.99782585714274
 20
1092.292025
 30
0.0
 40
55.0
  1
39
 41
0.9
 72
     1
 11
775.89068299999985
 21
1092.292025
 31
0.0
  0
TEXT
  5
4D2
  8
SIZE
  6
CONTINUOUS
 62
    30
 10
736.99782585714274
 20
991.18287799999996
 30
0.0
 40
55.0
  1
36
 41
0.9
 72
     1
 11
775.89068299999985
 21
991.18287799999996
 31
0.0
  0
TEXT
  5
4D3
  8
SIZE
  6
CONTINUOUS
 62
    30
 10
564.8549684285714
 20
1307.1002149999999
 30
0.0
 40
55.0
  1
23
 41
0.9
 72
     1
 11
604.92639699999995
 21
1307.1002149999999
 31
0.0
  0
LINE
  5
4D4
  8
SIZE
  6
CONTINUOUS
 62
    30
 10
672.99782600000003
 20
1289.1002149999999
 30
0.0
 11
546.8549690000001
 21
1289.1002149999999
 31
0.0
  0
LINE
  5
4D5
  8
SIZE
  6
CONTINUOUS
 62
    30
 10
710.99782600000003
 20
1289.1002149999999
 30
0.0
 11
715.99782600000003
 21
1289.1002149999999
 31
0.0
  0
POINT
  5
4D6
  8
DEFPOINTS
  6
CONTINUOUS
 62
     7
 10
705.99782600000003
 20
1289.1002149999999
 30
0.0
  0
LINE
  5
4D7
  8
SIZE
  6
CONTINUOUS
 62
    30
 10
677.99782600000003
 20
1289.1002149999999
 30
0.0
 11
672.99782600000003
 21
1289.1002149999999
 31
0.0
  0
LINE
  5
4D8
  8
SIZE
  6
CONTINUOUS
 62
    30
 10
710.99782600000003
 20
1289.1002149999999
 30
0.0
 11
715.99782600000003
 21
1289.1002149999999
 31
0.0
  0
LINE
  5
4D9
  8
SIZE
  6
CONTINUOUS
 62
    30
 10
705.99782600000003
 20
1289.1002149999999
 30
0.0
 11
682.99782600000003
 21
1289.1002149999999
 31
0.0
  0
LINE
  5
4DA
  8
SIZE
  6
CONTINUOUS
 62
    30
 10
715.99782600000003
 20
1289.1002149999999
 30
0.0
 11
725.99782600000003
 21
1289.1002149999999
 31
0.0
  0
LINE
  5
4DB
  8
SIZE
  6
CONTINUOUS
 62
    30
 10
687.99782600000003
 20
1401.087567
 30
0.0
 11
692.99782600000003
 21
1401.087567
 31
0.0
  0
CIRCLE
  5
4DC
  8
SIZE
  6
CONTINUOUS
 62
    30
 10
682.99782600000003
 20
1401.087567
 30
0.0
 40
5.0
  0
LINE
  5
4DD
  8
BASIS
  6
DASHDOT
 62
     6
 10
1278.997826
 20
840.50950599999999
 30
0.0
 11
1278.997826
 21
318.05162200000001
 31
0.0
  0
CIRCLE
  5
4DE
  8
ARRANGE
  6
CONTINUOUS
 62
     1
 10
1278.997826
 20
371.937793
 30
0.0
 40
50.0
  0
CIRCLE
  5
4DF
  8
SIZE
  6
CONTINUOUS
 62
    30
 10
2345.154004
 20
371.937793
 30
0.0
 40
5.0
  0
LINE
  5
4E0
  8
SIZE
  6
CONTINUOUS
 62
    30
 10
2345.154004
 20
371.937793
 30
0.0
 11
2345.154004
 21
7.2520789999999984
 31
0.0
  0
CIRCLE
  5
4E1
  8
SIZE
  6
CONTINUOUS
 62
    30
 10
2120.6422040000011
 20
371.937793
 30
0.0
 40
5.0
  0
LINE
  5
4E2
  8
SIZE
  6
CONTINUOUS
 62
    30
 10
2120.6422040000011
 20
395.437793
 30
0.0
 11
2221.6654659999999
 21
354.41874999999999
 31
0.0
  0
CIRCLE
  5
4E3
  8
SIZE
  6
CONTINUOUS
 62
    30
 10
2120.6422040000011
 20
371.937793
 30
0.0
 40
5.0
  0
LINE
  5
4E4
  8
SIZE
  6
CONTINUOUS
 62
    30
 10
2120.6422040000011
 20
371.937793
 30
0.0
 11
2120.6422040000011
 21
363.937793
 31
0.0
  0
LINE
  5
4E5
  8
OUTLINE
  6
CONTINUOUS
 62
     3
 10
1898.997826
 20
367.931285
 30
0.0
 11
1898.997826
 21
371.937793
 31
0.0
  0
LINE
  5
4E6
  8
ARRANGE
  6
CONTINUOUS
 62
     1
 10
1328.961589
 20
421.53438799999981
 30
0.0
 11
1229.0340630000001
 21
322.34119800000002
 31
0.0
  0
LINE
  5
4E7
  8
ARRANGE
  6
CONTINUOUS
 62
     1
 10
1329.0351760000001
 20
322.41543999999999
 30
0.0
 11
1228.960476
 21
421.46014599999978
 31
0.0
  0
TEXT
  5
4E8
  8
SIZE
  6
CONTINUOUS
 62
    30
 10
2459.937414
 20
40.283176999999938
 30
0.0
 40
55.0
  1
パネル直付時
 50
90.0
 41
0.9
 72
     1
 11
2459.937414
 21
211.88317699999999
 31
0.0
  0
LINE
  5
4E9
  8
DETAIL
  6
CONTINUOUS
 62
     5
 10
1898.997826
 20
367.931285
 30
0.0
 11
1898.997826
 21
371.937793
 31
0.0
  0
LINE
  5
4EA
  8
OUTLINE
  6
CONTINUOUS
 62
     3
 10
1845.527826
 20
363.937793
 30
0.0
 11
1898.997826
 21
367.931285
 31
0.0
  0
LINE
  5
4EB
  8
DETAIL
  6
CONTINUOUS
 62
     5
 10
1845.527826
 20
363.937793
 30
0.0
 11
1898.997826
 21
367.931285
 31
0.0
  0
TEXT
  5
4EC
  8
SIZE
  6
CONTINUOUS
 62
    30
 10
971.62639742857141
 20
211.127904
 30
0.0
 40
55.0
  1
1200（天井開口寸法）
 41
0.9
 72
     1
 11
1278.997826
 21
211.127904
 31
0.0
  0
TEXT
  5
4ED
  8
SIZE
  6
CONTINUOUS
 62
    30
 10
1191.9281800000001
 20
64.870331000000007
 30
0.0
 40
55.0
  1
1240
 41
0.9
 72
     1
 11
1274.4281800000001
 21
64.870331000000007
 31
0.0
  0
POINT
  5
4EE
  8
DEFPOINTS
  6
CONTINUOUS
 62
     7
 10
1845.527826
 20
363.937793
 30
0.0
  0
TEXT
  5
4EF
  8
SIZE
  6
CONTINUOUS
 62
    30
 10
2327.154004
 20
25.252078857142891
 30
0.0
 40
55.0
  1
140～300
 50
90.0
 41
0.9
 72
     1
 11
2327.154004
 21
184.59493599999999
 31
0.0
  0
LINE
  5
4F0
  8
SIZE
  6
CONTINUOUS
 62
    30
 10
1898.997826
 20
347.931285
 30
0.0
 11
1898.997826
 21
16.870331
 31
0.0
  0
POINT
  5
4F1
  8
DEFPOINTS
  6
CONTINUOUS
 62
     7
 10
1898.997826
 20
46.870330999999993
 30
0.0
  0
LINE
  5
4F2
  8
SIZE
  6
CONTINUOUS
 62
    30
 10
1893.997826
 20
46.870330999999993
 30
0.0
 11
1888.997826
 21
46.870330999999993
 31
0.0
  0
CIRCLE
  5
4F3
  8
SIZE
  6
CONTINUOUS
 62
    30
 10
1898.997826
 20
46.870330999999993
 30
0.0
 40
5.0
  0
TEXT
  5
4F4
  8
SIZE
  6
CONTINUOUS
 62
    30
 10
2102.6422040000002
 20
292.937793
 30
0.0
 40
55.0
  1
8
 50
90.0
 41
0.9
 72
     1
 11
2102.6422040000002
 21
309.437793
 31
0.0
  0
LINE
  5
4F5
  8
SIZE
  6
CONTINUOUS
 62
    30
 10
1865.527826
 20
363.937793
 30
0.0
 11
2150.6422040000002
 21
363.937793
 31
0.0
  0
TEXT
  5
4F6
  8
SIZE
  6
CONTINUOUS
 62
    30
 10
1969.4703574285711
 20
211.127904
 30
0.0
 40
55.0
  1
20
 41
0.9
 72
     1
 11
2009.541786
 21
211.127904
 31
0.0
  0
LINE
  5
4F7
  8
SIZE
  6
CONTINUOUS
 62
    30
 10
1898.997826
 20
347.931285
 30
0.0
 11
1898.997826
 21
163.127904
 31
0.0
  0
LINE
  5
4F8
  8
SIZE
  6
CONTINUOUS
 62
    30
 10
1878.997826
 20
352.937793
 30
0.0
 11
1878.997826
 21
163.127904
 31
0.0
  0
LINE
  5
4F9
  8
SIZE
  6
CONTINUOUS
 62
    30
 10
1878.997826
 20
352.937793
 30
0.0
 11
1878.997826
 21
163.127904
 31
0.0
  0
LINE
  5
4FA
  8
SIZE
  6
CONTINUOUS
 62
    30
 10
2067.613214
 20
193.127904
 30
0.0
 11
1898.997826
 21
193.127904
 31
0.0
  0
POINT
  5
4FB
  8
DEFPOINTS
  6
CONTINUOUS
 62
     7
 10
1898.997826
 20
193.127904
 30
0.0
  0
LINE
  5
4FC
  8
SIZE
  6
CONTINUOUS
 62
    30
 10
1903.997826
 20
193.127904
 30
0.0
 11
1908.997826
 21
193.127904
 31
0.0
  0
CIRCLE
  5
4FD
  8
SIZE
  6
CONTINUOUS
 62
    30
 10
1898.997826
 20
193.127904
 30
0.0
 40
5.0
  0
LINE
  5
4FE
  8
SIZE
  6
CONTINUOUS
 62
    30
 10
1873.997826
 20
193.127904
 30
0.0
 11
1868.997826
 21
193.127904
 31
0.0
  0
CIRCLE
  5
4FF
  8
SIZE
  6
CONTINUOUS
 62
    30
 10
1878.997826
 20
193.127904
 30
0.0
 40
5.0
  0
LINE
  5
500
  8
SIZE
  6
CONTINUOUS
 62
    30
 10
1878.997826
 20
193.127904
 30
0.0
 11
1898.997826
 21
193.127904
 31
0.0
  0
LINE
  5
501
  8
SIZE
  6
CONTINUOUS
 62
    30
 10
1878.997826
 20
193.127904
 30
0.0
 11
1898.997826
 21
193.127904
 31
0.0
  0
LINE
  5
502
  8
SIZE
  6
CONTINUOUS
 62
    30
 10
1908.997826
 20
193.127904
 30
0.0
 11
1918.997826
 21
193.127904
 31
0.0
  0
LINE
  5
503
  8
SIZE
  6
CONTINUOUS
 62
    30
 10
1868.997826
 20
193.127904
 30
0.0
 11
1858.997826
 21
193.127904
 31
0.0
  0
POINT
  5
504
  8
DEFPOINTS
  6
CONTINUOUS
 62
     7
 10
1878.997826
 20
193.127904
 30
0.0
  0
LINE
  5
505
  8
SIZE
  6
CONTINUOUS
 62
    30
 10
1873.997826
 20
193.127904
 30
0.0
 11
1868.997826
 21
193.127904
 31
0.0
  0
CIRCLE
  5
506
  8
SIZE
  6
CONTINUOUS
 62
    30
 10
1878.997826
 20
193.127904
 30
0.0
 40
5.0
  0
POINT
  5
507
  8
DEFPOINTS
  6
CONTINUOUS
 62
     7
 10
1898.997826
 20
367.931285
 30
0.0
  0
POINT
  5
508
  8
DEFPOINTS
  6
CONTINUOUS
 62
     7
 10
1898.997826
 20
367.931285
 30
0.0
  0
TEXT
  5
509
  8
SIZE
  6
CONTINUOUS
 62
    30
 10
2203.6654659999999
 20
256.27589242857152
 30
0.0
 40
55.0
  1
47
 50
90.0
 41
0.9
 72
     1
 11
2203.6654659999999
 21
296.34732100000002
 31
0.0
  0
LINE
  5
50A
  8
SIZE
  6
CONTINUOUS
 62
    30
 10
2120.6422040000011
 20
366.937793
 30
0.0
 11
2120.6422040000011
 21
361.937793
 31
0.0
  0
LINE
  5
50B
  8
SIZE
  6
CONTINUOUS
 62
    30
 10
2120.6422040000011
 20
361.937793
 30
0.0
 11
2120.6422040000011
 21
351.937793
 31
0.0
  0
LINE
  5
50C
  8
SIZE
  6
CONTINUOUS
 62
    30
 10
2120.6422040000011
 20
358.937793
 30
0.0
 11
2120.6422040000011
 21
353.937793
 31
0.0
  0
CIRCLE
  5
50D
  8
SIZE
  6
CONTINUOUS
 62
    30
 10
2120.6422040000011
 20
363.937793
 30
0.0
 40
5.0
  0
LINE
  5
50E
  8
SIZE
  6
CONTINUOUS
 62
    30
 10
2120.6422040000011
 20
353.937793
 30
0.0
 11
2120.6422040000011
 21
274.937793
 31
0.0
  0
LINE
  5
50F
  8
SIZE
  6
CONTINUOUS
 62
    30
 10
2221.6654659999999
 20
354.41874999999999
 30
0.0
 11
2221.6654659999999
 21
238.275893
 31
0.0
  0
POLYLINE
  5
510
  8
SIZE
  6
CONTINUOUS
 62
    30
 66
     1
 10
0.0
 20
0.0
 30
0.0
  0
VERTEX
  5
ABE
  8
SIZE
  6
CONTINUOUS
 62
    30
 10
2383.7449489999999
 20
46.844481999999999
 30
0.0
 42
0.186174
  0
VERTEX
  5
ABF
  8
SIZE
  6
CONTINUOUS
 62
    30
 10
2392.5947980000001
 20
25.894994000000001
 30
0.0
 42
0.082105
  0
VERTEX
  5
AC0
  8
SIZE
  6
CONTINUOUS
 62
    30
 10
2408.2973000000002
 20
13.720433
 30
0.0
 42
0.058826
  0
VERTEX
  5
AC1
  8
SIZE
  6
CONTINUOUS
 62
    30
 10
2430.0833579999999
 20
4.9455059999999991
 30
0.0
 42
0.067494
  0
VERTEX
  5
AC2
  8
SIZE
  6
CONTINUOUS
 62
    30
 10
2467.5719180000001
 20
0.000003
 30
0.0
 42
0.067494
  0
VERTEX
  5
AC3
  8
SIZE
  6
CONTINUOUS
 62
    30
 10
2505.060477
 20
4.9455059999999991
 30
0.0
 42
0.058826
  0
VERTEX
  5
AC4
  8
SIZE
  6
CONTINUOUS
 62
    30
 10
2526.846535000001
 20
13.720433
 30
0.0
 42
0.082105
  0
VERTEX
  5
AC5
  8
SIZE
  6
CONTINUOUS
 62
    30
 10
2542.5490370000011
 20
25.894994000000001
 30
0.0
 42
0.186174
  0
VERTEX
  5
AC6
  8
SIZE
  6
CONTINUOUS
 62
    30
 10
2551.3988859999999
 20
46.844481999999999
 30
0.0
 42
0.186174
  0
VERTEX
  5
AC7
  8
SIZE
  6
CONTINUOUS
 62
    30
 10
2551.3988859999999
 20
46.844481999999999
 30
0.0
 42
0.186174
  0
SEQEND
  5
AC8
  8
SIZE
  6
CONTINUOUS
 62
    30
  0
TEXT
  5
51C
  8
SIZE
  6
CONTINUOUS
 62
    30
 10
2543.6871920000008
 20
97.141827285714328
 30
0.0
 40
55.0
  1
50～60
 50
90.0
 41
0.9
 72
     1
 11
2543.6871920000008
 21
214.05611300000001
 31
0.0
  0
LINE
  5
51D
  8
SIZE
  6
CONTINUOUS
 62
    30
 10
1864.997826
 20
430.7073019999998
 30
0.0
 11
1783.6406829999989
 21
430.7073019999998
 31
0.0
  0
LINE
  5
51E
  8
SIZE
  6
CONTINUOUS
 62
    30
 10
1846.997826
 20
1289.1002149999999
 30
0.0
 11
1841.997826
 21
1289.1002149999999
 31
0.0
  0
LINE
  5
51F
  8
SIZE
  6
CONTINUOUS
 62
    30
 10
1846.997826
 20
1289.1002149999999
 30
0.0
 11
1841.997826
 21
1289.1002149999999
 31
0.0
  0
LINE
  5
520
  8
SIZE
  6
CONTINUOUS
 62
    30
 10
1848.997826
 20
1172.04099
 30
0.0
 11
1838.997826
 21
1172.04099
 31
0.0
  0
LINE
  5
521
  8
SIZE
  6
CONTINUOUS
 62
    30
 10
1768.997826
 20
668.93779300000006
 30
0.0
 11
2209.881664
 21
668.93779300000006
 31
0.0
  0
LINE
  5
522
  8
NOTE
  6
CONTINUOUS
 62
     4
 10
1993.6002960000001
 20
827.62293299999988
 30
0.0
 11
1628.997826
 21
668.93779300000006
 31
0.0
  0
CIRCLE
  5
523
  8
FIX
  6
CONTINUOUS
 62
    11
 10
1851.997826
 20
804.93779300000006
 30
0.0
 40
12.421498
  0
LINE
  5
524
  8
NOTE
  6
CONTINUOUS
 62
     4
 10
1866.992992
 20
804.93779300000006
 30
0.0
 11
1837.0026600000001
 21
804.93779300000006
 31
0.0
  0
LINE
  5
525
  8
DETAIL
  6
CONTINUOUS
 62
     5
 10
1825.2827520000001
 20
775.53779299999985
 30
0.0
 11
1855.997826
 21
775.53779299999985
 31
0.0
  0
LINE
  5
526
  8
SIZE
  6
CONTINUOUS
 62
    30
 10
1638.99782
 20
882.5136399999999
 30
0.0
 11
1848.99782
 21
882.5136399999999
 31
0.0
  0
CIRCLE
  5
527
  8
DETAIL
  6
CONTINUOUS
 62
     5
 10
1308.997826
 20
668.93779300000006
 30
0.0
 40
100.0
  0
LINE
  5
528
  8
NOTE
  6
CONTINUOUS
 62
     4
 10
1428.997826
 20
668.93779300000006
 30
0.0
 11
1188.997826
 21
668.93779300000006
 31
0.0
  0
LINE
  5
529
  8
SIZE
  6
CONTINUOUS
 62
    30
 10
1318.9978269999999
 20
882.51367100000004
 30
0.0
 11
1618.99782
 21
882.51367100000004
 31
0.0
  0
LINE
  5
52A
  8
NOTE
  6
CONTINUOUS
 62
     4
 10
988.99782600000015
 20
788.93779299999983
 30
0.0
 11
988.99782600000015
 21
548.93779300000006
 31
0.0
  0
CIRCLE
  5
52B
  8
DETAIL
  6
CONTINUOUS
 62
     5
 10
1308.997826
 20
668.93779300000006
 30
0.0
 40
85.5
  0
LINE
  5
52C
  8
NOTE
  6
CONTINUOUS
 62
     4
 10
1308.997826
 20
788.93779299999983
 30
0.0
 11
1308.997826
 21
548.93779300000006
 31
0.0
  0
TEXT
  5
52D
  8
SIZE
  6
CONTINUOUS
 62
    30
 10
1085.3549698571419
 20
900.5136399999999
 30
0.0
 40
55.0
  1
320
 41
0.9
 72
     1
 11
1148.9978269999999
 21
900.5136399999999
 31
0.0
  0
LINE
  5
52E
  8
SIZE
  6
CONTINUOUS
 62
    30
 10
998.99782000000005
 20
882.5136399999999
 30
0.0
 11
1298.9978269999999
 21
882.5136399999999
 31
0.0
  0
LINE
  5
52F
  8
SIZE
  6
CONTINUOUS
 62
    30
 10
988.99781999999993
 20
808.93779199999983
 30
0.0
 11
988.99781999999993
 21
912.51364000000001
 31
0.0
  0
POINT
  5
530
  8
DEFPOINTS
  6
CONTINUOUS
 62
     7
 10
988.99781999999993
 20
788.93779199999983
 30
0.0
  0
LINE
  5
531
  8
SIZE
  6
CONTINUOUS
 62
    30
 10
993.99781999999982
 20
882.5136399999999
 30
0.0
 11
998.99782000000005
 21
882.5136399999999
 31
0.0
  0
CIRCLE
  5
532
  8
SIZE
  6
CONTINUOUS
 62
    30
 10
988.99781999999993
 20
882.5136399999999
 30
0.0
 40
5.0
  0
LINE
  5
533
  8
SIZE
  6
CONTINUOUS
 62
    30
 10
1308.9978269999999
 20
808.93779199999983
 30
0.0
 11
1308.9978269999999
 21
912.51364000000001
 31
0.0
  0
LINE
  5
534
  8
SIZE
  6
CONTINUOUS
 62
    30
 10
1308.9978269999999
 20
808.93779199999983
 30
0.0
 11
1308.9978269999999
 21
912.51367100000004
 31
0.0
  0
POINT
  5
535
  8
DEFPOINTS
  6
CONTINUOUS
 62
     7
 10
1308.9978269999999
 20
788.93779199999983
 30
0.0
  0
POINT
  5
536
  8
DEFPOINTS
  6
CONTINUOUS
 62
     7
 10
1308.9978269999999
 20
788.93779199999983
 30
0.0
  0
POINT
  5
537
  8
DEFPOINTS
  6
CONTINUOUS
 62
     7
 10
1308.9978269999999
 20
882.5136399999999
 30
0.0
  0
LINE
  5
538
  8
SIZE
  6
CONTINUOUS
 62
    30
 10
1303.9978269999999
 20
882.5136399999999
 30
0.0
 11
1298.9978269999999
 21
882.5136399999999
 31
0.0
  0
CIRCLE
  5
539
  8
SIZE
  6
CONTINUOUS
 62
    30
 10
1308.9978269999999
 20
882.5136399999999
 30
0.0
 40
5.0
  0
LINE
  5
53A
  8
SIZE
  6
CONTINUOUS
 62
    30
 10
1313.9978269999999
 20
882.51367100000004
 30
0.0
 11
1318.9978269999999
 21
882.51367100000004
 31
0.0
  0
CIRCLE
  5
53B
  8
SIZE
  6
CONTINUOUS
 62
    30
 10
1308.9978269999999
 20
882.51367100000004
 30
0.0
 40
5.0
  0
LINE
  5
53C
  8
NOTE
  6
CONTINUOUS
 62
     4
 10
1628.997826
 20
668.93779300000006
 30
0.0
 11
1656.846028999998
 21
689.107753
 31
0.0
  0
CIRCLE
  5
53D
  8
DETAIL
  6
CONTINUOUS
 62
     5
 10
1628.997826
 20
668.93779300000006
 30
0.0
 40
100.0
  0
CIRCLE
  5
53E
  8
DETAIL
  6
CONTINUOUS
 62
     5
 10
1628.997826
 20
668.93779300000006
 30
0.0
 40
85.5
  0
LINE
  5
53F
  8
NOTE
  6
CONTINUOUS
 62
     4
 10
1628.997826
 20
788.93779299999983
 30
0.0
 11
1628.997826
 21
548.93779300000006
 31
0.0
  0
LINE
  5
540
  8
DETAIL
  6
CONTINUOUS
 62
     5
 10
1826.997826
 20
573.93779300000006
 30
0.0
 11
1826.997826
 21
769.93779299999983
 31
0.0
  0
LINE
  5
541
  8
NOTE
  6
CONTINUOUS
 62
     4
 10
1748.997826
 20
668.93779300000006
 30
0.0
 11
1508.997826
 21
668.93779300000006
 31
0.0
  0
LINE
  5
542
  8
DETAIL
  6
CONTINUOUS
 62
     5
 10
1843.997826
 20
523.93779300000006
 30
0.0
 11
1843.997826
 21
511.93779299999989
 31
0.0
  0
LINE
  5
543
  8
DETAIL
  6
CONTINUOUS
 62
     5
 10
1843.997826
 20
523.93779300000006
 30
0.0
 11
1843.997826
 21
511.93779299999989
 31
0.0
  0
TEXT
  5
544
  8
SIZE
  6
CONTINUOUS
 62
    30
 10
1801.640683571429
 20
448.70730199999991
 30
0.0
 40
55.0
  1
4
 41
0.9
 72
     1
 11
1819.3192550000001
 21
448.70730199999991
 31
0.0
  0
LINE
  5
545
  8
NOTE
  6
CONTINUOUS
 62
     4
 10
1628.997826
 20
668.93779300000006
 30
0.0
 11
1663.200057
 21
672.48138800000004
 31
0.0
  0
POINT
  5
546
  8
DEFPOINTS
  6
CONTINUOUS
 62
     7
 10
1748.997826
 20
668.93779300000006
 30
0.0
  0
LINE
  5
547
  8
DETAIL
  6
CONTINUOUS
 62
     5
 10
1826.997826
 20
600.33779299999981
 30
0.0
 11
1826.997826
 21
599.73779299999978
 31
0.0
  0
ARC
  5
548
  8
DETAIL
  6
CONTINUOUS
 62
     5
 10
1816.997826
 20
573.93779300000006
 30
0.0
 40
10.0
 50
270.0
 51
0.0
  0
LINE
  5
549
  8
DETAIL
  6
CONTINUOUS
 62
     5
 10
1843.997826
 20
523.93779300000006
 30
0.0
 11
1840.997826
 21
526.93779300000006
 31
0.0
  0
LINE
  5
54A
  8
DETAIL
  6
CONTINUOUS
 62
     5
 10
1843.997826
 20
523.93779300000006
 30
0.0
 11
1840.997826
 21
526.93779300000006
 31
0.0
  0
LINE
  5
54B
  8
SIZE
  6
CONTINUOUS
 62
    30
 10
1623.99782
 20
882.51367100000004
 30
0.0
 11
1618.99782
 21
882.51367100000004
 31
0.0
  0
TEXT
  5
54C
  8
SIZE
  6
CONTINUOUS
 62
    30
 10
1405.3549618571431
 20
900.51367100000004
 30
0.0
 40
55.0
  1
320
 41
0.9
 72
     1
 11
1468.9978189999999
 21
900.51367100000004
 31
0.0
  0
LINE
  5
54D
  8
SIZE
  6
CONTINUOUS
 62
    30
 10
1628.99782
 20
808.93779199999983
 30
0.0
 11
1628.99782
 21
912.51367100000004
 31
0.0
  0
LINE
  5
54E
  8
SIZE
  6
CONTINUOUS
 62
    30
 10
1628.99782
 20
808.93779199999983
 30
0.0
 11
1628.99782
 21
912.51364000000001
 31
0.0
  0
POINT
  5
54F
  8
DEFPOINTS
  6
CONTINUOUS
 62
     7
 10
1628.99782
 20
788.93779199999983
 30
0.0
  0
POINT
  5
550
  8
DEFPOINTS
  6
CONTINUOUS
 62
     7
 10
1628.99782
 20
788.93779199999983
 30
0.0
  0
ARC
  5
551
  8
DETAIL
  6
CONTINUOUS
 62
     5
 10
1816.997826
 20
769.93779299999983
 30
0.0
 40
10.0
 50
0.0
 51
90.0
  0
TEXT
  5
552
  8
SIZE
  6
CONTINUOUS
 62
    30
 10
1680.3549618571419
 20
900.5136399999999
 30
0.0
 40
55.0
  1
230
 41
0.9
 72
     1
 11
1743.9978189999999
 21
900.5136399999999
 31
0.0
  0
POINT
  5
553
  8
DEFPOINTS
  6
CONTINUOUS
 62
     7
 10
1628.99782
 20
882.51367100000004
 30
0.0
  0
CIRCLE
  5
554
  8
SIZE
  6
CONTINUOUS
 62
    30
 10
1628.99782
 20
882.51367100000004
 30
0.0
 40
5.0
  0
LINE
  5
555
  8
SIZE
  6
CONTINUOUS
 62
    30
 10
1633.99782
 20
882.5136399999999
 30
0.0
 11
1638.99782
 21
882.5136399999999
 31
0.0
  0
CIRCLE
  5
556
  8
SIZE
  6
CONTINUOUS
 62
    30
 10
1628.99782
 20
882.5136399999999
 30
0.0
 40
5.0
  0
TEXT
  5
557
  8
SIZE
  6
CONTINUOUS
 62
    30
 10
1201.2121117142849
 20
1190.04099
 30
0.0
 40
55.0
  1
1160
 41
0.9
 72
     1
 11
1278.997826
 21
1190.04099
 31
0.0
  0
TEXT
  5
558
  8
SIZE
  6
CONTINUOUS
 62
    30
 10
1199.0616467142861
 20
1419.087567
 30
0.0
 40
55.0
  1
1192
 41
0.9
 72
     1
 11
1276.8473610000001
 21
1419.087567
 31
0.0
  0
LINE
  5
559
  8
SIZE
  6
CONTINUOUS
 62
    30
 10
1841.997826
 20
1289.1002149999999
 30
0.0
 11
1831.997826
 21
1289.1002149999999
 31
0.0
  0
LINE
  5
55A
  8
SIZE
  6
CONTINUOUS
 62
    30
 10
1874.997826
 20
820.63779299999999
 30
0.0
 11
1874.997826
 21
1319.1002149999999
 31
0.0
  0
LINE
  5
55B
  8
SIZE
  6
CONTINUOUS
 62
    30
 10
1851.997826
 20
839.93295899999998
 30
0.0
 11
1851.997826
 21
1319.1002149999999
 31
0.0
  0
LINE
  5
55C
  8
SIZE
  6
CONTINUOUS
 62
    30
 10
1851.997826
 20
839.93295899999998
 30
0.0
 11
1851.997826
 21
1319.1002149999999
 31
0.0
  0
LINE
  5
55D
  8
SIZE
  6
CONTINUOUS
 62
    30
 10
1874.997826
 20
820.63779299999999
 30
0.0
 11
1874.997826
 21
1202.04099
 31
0.0
  0
LINE
  5
55E
  8
SIZE
  6
CONTINUOUS
 62
    30
 10
1858.997826
 20
824.93779299999971
 30
0.0
 11
1858.997826
 21
1202.04099
 31
0.0
  0
LINE
  5
55F
  8
SIZE
  6
CONTINUOUS
 62
    30
 10
1858.997826
 20
824.93779299999971
 30
0.0
 11
1858.997826
 21
1202.04099
 31
0.0
  0
LINE
  5
560
  8
NOTE
  6
CONTINUOUS
 62
     4
 10
1962.901451
 20
994.61586199999965
 30
0.0
 11
1851.9978719999999
 21
804.93776300000002
 31
0.0
  0
LINE
  5
561
  8
SIZE
  6
CONTINUOUS
 62
    30
 10
1874.997826
 20
819.03779299999985
 30
0.0
 11
1874.997826
 21
1431.087567
 31
0.0
  0
LINE
  5
562
  8
SIZE
  6
CONTINUOUS
 62
    30
 10
1918.7565119999999
 20
371.937793
 30
0.0
 11
2375.154004
 21
371.937793
 31
0.0
  0
LINE
  5
563
  8
SIZE
  6
CONTINUOUS
 62
    30
 10
1878.7565119999999
 20
511.93779299999989
 30
0.0
 11
2375.154004
 21
511.93779299999989
 31
0.0
  0
TEXT
  5
564
  8
NOTE
  6
CONTINUOUS
 62
     4
 10
2011.5161880000001
 20
842.41859999999986
 30
0.0
 40
60.0
  1
%%C200 吹出円形フランジ
 50
0.000003
 41
0.7
  7
STANDARD1
  0
LINE
  5
565
  8
NOTE
  6
CONTINUOUS
 62
     4
 10
2589.4598799999999
 20
827.62293299999988
 30
0.0
 11
1993.6002960000001
 21
827.62293299999988
 31
0.0
  0
TEXT
  5
566
  8
SIZE
  6
CONTINUOUS
 62
    30
 10
2327.154004
 20
594.79493585714295
 30
0.0
 40
55.0
  1
293
 50
90.0
 41
0.9
 72
     1
 11
2327.154004
 21
658.43779300000006
 31
0.0
  0
LINE
  5
567
  8
SIZE
  6
CONTINUOUS
 62
    30
 10
1890.6978260000001
 20
804.93779300000006
 30
0.0
 11
2375.154004
 21
804.93779300000006
 31
0.0
  0
LINE
  5
568
  8
SIZE
  6
CONTINUOUS
 62
    30
 10
1878.997826
 20
511.93779299999989
 30
0.0
 11
2375.154004
 21
511.93779299999989
 31
0.0
  0
LINE
  5
569
  8
SIZE
  6
CONTINUOUS
 62
    30
 10
1874.997826
 20
879.93779300000006
 30
0.0
 11
1874.997826
 21
400.70730199999991
 31
0.0
  0
LINE
  5
56A
  8
SIZE
  6
CONTINUOUS
 62
    30
 10
2179.881664
 20
804.93779300000006
 30
0.0
 11
2179.881664
 21
668.93779300000006
 31
0.0
  0
LINE
  5
56B
  8
OUTLINE
  6
CONTINUOUS
 62
     3
 10
1858.997826
 20
804.93779300000006
 30
0.0
 11
1858.997826
 21
511.93779299999989
 31
0.0
  0
LINE
  5
56C
  8
DETAIL
  6
CONTINUOUS
 62
     5
 10
1858.997826
 20
544.33779299999992
 30
0.0
 11
1858.997826
 21
802.33779299999981
 31
0.0
  0
LINE
  5
56D
  8
SIZE
  6
CONTINUOUS
 62
    30
 10
1878.997826
 20
418.937793
 30
0.0
 11
2150.6422040000002
 21
418.937793
 31
0.0
  0
LINE
  5
56E
  8
SIZE
  6
CONTINUOUS
 62
    30
 10
1918.997826
 20
371.937793
 30
0.0
 11
2150.6422040000002
 21
371.937793
 31
0.0
  0
LINE
  5
56F
  8
SIZE
  6
CONTINUOUS
 62
    30
 10
1918.997826
 20
371.937793
 30
0.0
 11
2150.6422040000002
 21
371.937793
 31
0.0
  0
LINE
  5
570
  8
DETAIL
  6
CONTINUOUS
 62
     5
 10
1858.997826
 20
594.13779299999976
 30
0.0
 11
1858.997826
 21
511.93779299999989
 31
0.0
  0
LINE
  5
571
  8
DETAIL
  6
CONTINUOUS
 62
     5
 10
1858.997826
 20
594.13779299999976
 30
0.0
 11
1858.997826
 21
512.73779300000001
 31
0.0
  0
LINE
  5
572
  8
DETAIL
  6
CONTINUOUS
 62
     5
 10
1858.997826
 20
594.13779299999976
 30
0.0
 11
1858.997826
 21
512.73779300000001
 31
0.0
  0
LINE
  5
573
  8
NOTE
  6
CONTINUOUS
 62
     4
 10
1940.040266
 20
372.937793
 30
0.0
 11
1960.040266
 21
392.937793
 31
0.0
  0
LINE
  5
574
  8
NOTE
  6
CONTINUOUS
 62
     4
 10
1878.997826
 20
372.937793
 30
0.0
 11
1980.3052749999999
 21
372.937793
 31
0.0
  0
LINE
  5
575
  8
NOTE
  6
CONTINUOUS
 62
     4
 10
1878.997826
 20
392.937793
 30
0.0
 11
1980.3052749999999
 21
392.937793
 31
0.0
  0
POINT
  5
576
  8
DEFPOINTS
  6
CONTINUOUS
 62
     7
 10
1898.7565119999999
 20
371.937793
 30
0.0
  0
POINT
  5
577
  8
DEFPOINTS
  6
CONTINUOUS
 62
     7
 10
1858.7565119999999
 20
511.93779299999989
 30
0.0
  0
POINT
  5
578
  8
DEFPOINTS
  6
CONTINUOUS
 62
     7
 10
1858.997826
 20
418.937793
 30
0.0
  0
POINT
  5
579
  8
DEFPOINTS
  6
CONTINUOUS
 62
     7
 10
1898.997826
 20
371.937793
 30
0.0
  0
POINT
  5
57A
  8
DEFPOINTS
  6
CONTINUOUS
 62
     7
 10
1898.997826
 20
371.937793
 30
0.0
  0
POINT
  5
57B
  8
DEFPOINTS
  6
CONTINUOUS
 62
     7
 10
1874.997826
 20
430.7073019999998
 30
0.0
  0
POINT
  5
57C
  8
DEFPOINTS
  6
CONTINUOUS
 62
     7
 10
1878.997826
 20
392.937793
 30
0.0
  0
LINE
  5
57D
  8
SIZE
  6
CONTINUOUS
 62
    30
 10
1869.997826
 20
430.7073019999998
 30
0.0
 11
1864.997826
 21
430.7073019999998
 31
0.0
  0
CIRCLE
  5
57E
  8
SIZE
  6
CONTINUOUS
 62
    30
 10
1874.997826
 20
430.7073019999998
 30
0.0
 40
5.0
  0
LINE
  5
57F
  8
SIZE
  6
CONTINUOUS
 62
    30
 10
1883.997826
 20
430.7073019999998
 30
0.0
 11
1888.997826
 21
430.7073019999998
 31
0.0
  0
CIRCLE
  5
580
  8
SIZE
  6
CONTINUOUS
 62
    30
 10
1878.997826
 20
430.7073019999998
 30
0.0
 40
5.0
  0
LINE
  5
581
  8
SIZE
  6
CONTINUOUS
 62
    30
 10
1878.997826
 20
430.7073019999998
 30
0.0
 11
1874.997826
 21
430.7073019999998
 31
0.0
  0
LINE
  5
582
  8
SIZE
  6
CONTINUOUS
 62
    30
 10
1888.997826
 20
430.7073019999998
 30
0.0
 11
1898.997826
 21
430.7073019999998
 31
0.0
  0
LINE
  5
583
  8
SIZE
  6
CONTINUOUS
 62
    30
 10
1878.997826
 20
412.937793
 30
0.0
 11
1878.997826
 21
460.70730199999991
 31
0.0
  0
POINT
  5
584
  8
DEFPOINTS
  6
CONTINUOUS
 62
     7
 10
1878.997826
 20
372.937793
 30
0.0
  0
POINT
  5
585
  8
DEFPOINTS
  6
CONTINUOUS
 62
     7
 10
1878.997826
 20
372.937793
 30
0.0
  0
LINE
  5
586
  8
OUTLINE
  6
CONTINUOUS
 62
     3
 10
1858.997826
 20
371.937793
 30
0.0
 11
1898.997826
 21
371.937793
 31
0.0
  0
LINE
  5
587
  8
OUTLINE
  6
CONTINUOUS
 62
     3
 10
1858.997826
 20
371.937793
 30
0.0
 11
1863.997826
 21
371.937793
 31
0.0
  0
LINE
  5
588
  8
OUTLINE
  6
CONTINUOUS
 62
     3
 10
1858.997826
 20
371.937793
 30
0.0
 11
1858.997826
 21
418.937793
 31
0.0
  0
POINT
  5
589
  8
DEFPOINTS
  6
CONTINUOUS
 62
     7
 10
1858.997826
 20
511.93779299999989
 30
0.0
  0
LINE
  5
58A
  8
NOTE
  6
CONTINUOUS
 62
     4
 10
1890.040266
 20
372.937793
 30
0.0
 11
1910.040266
 21
392.937793
 31
0.0
  0
LINE
  5
58B
  8
NOTE
  6
CONTINUOUS
 62
     4
 10
1930.040266
 20
372.937793
 30
0.0
 11
1950.040266
 21
392.937793
 31
0.0
  0
LINE
  5
58C
  8
NOTE
  6
CONTINUOUS
 62
     4
 10
1895.040266
 20
372.937793
 30
0.0
 11
1915.040266
 21
392.937793
 31
0.0
  0
LINE
  5
58D
  8
NOTE
  6
CONTINUOUS
 62
     4
 10
1935.040266
 20
372.937793
 30
0.0
 11
1955.040266
 21
392.937793
 31
0.0
  0
LINE
  5
58E
  8
NOTE
  6
CONTINUOUS
 62
     4
 10
1900.040266
 20
372.937793
 30
0.0
 11
1920.040266
 21
392.937793
 31
0.0
  0
LINE
  5
58F
  8
NOTE
  6
CONTINUOUS
 62
     4
 10
1878.997826
 20
372.937793
 30
0.0
 11
1878.997826
 21
392.937793
 31
0.0
  0
LINE
  5
590
  8
DETAIL
  6
CONTINUOUS
 62
     5
 10
1858.997826
 20
371.937793
 30
0.0
 11
1898.997826
 21
371.937793
 31
0.0
  0
LINE
  5
591
  8
DETAIL
  6
CONTINUOUS
 62
     5
 10
1858.997826
 20
371.937793
 30
0.0
 11
1863.997826
 21
371.937793
 31
0.0
  0
LINE
  5
592
  8
DETAIL
  6
CONTINUOUS
 62
     5
 10
1858.997826
 20
371.937793
 30
0.0
 11
1858.997826
 21
418.937793
 31
0.0
  0
ARC
  5
593
  8
DETAIL
  6
CONTINUOUS
 62
     5
 10
1853.997826
 20
544.33779299999992
 30
0.0
 40
5.0
 50
270.0
 51
0.0
  0
POINT
  5
594
  8
DEFPOINTS
  6
CONTINUOUS
 62
     7
 10
2120.6422040000011
 20
418.937793
 30
0.0
  0
LINE
  5
595
  8
SIZE
  6
CONTINUOUS
 62
    30
 10
2120.6422040000011
 20
423.93779299999989
 30
0.0
 11
2120.6422040000011
 21
428.93779299999989
 31
0.0
  0
CIRCLE
  5
596
  8
SIZE
  6
CONTINUOUS
 62
    30
 10
2120.6422040000011
 20
418.937793
 30
0.0
 40
5.0
  0
LINE
  5
597
  8
SIZE
  6
CONTINUOUS
 62
    30
 10
2120.6422040000011
 20
371.937793
 30
0.0
 11
2120.6422040000011
 21
418.937793
 31
0.0
  0
LINE
  5
598
  8
SIZE
  6
CONTINUOUS
 62
    30
 10
2120.6422040000011
 20
371.937793
 30
0.0
 11
2120.6422040000011
 21
418.937793
 31
0.0
  0
LINE
  5
599
  8
SIZE
  6
CONTINUOUS
 62
    30
 10
2120.6422040000011
 20
428.93779299999989
 30
0.0
 11
2120.6422040000011
 21
438.93779299999989
 31
0.0
  0
POINT
  5
59A
  8
DEFPOINTS
  6
CONTINUOUS
 62
     7
 10
2120.6422040000011
 20
371.937793
 30
0.0
  0
LINE
  5
59B
  8
SIZE
  6
CONTINUOUS
 62
    30
 10
2120.6422040000011
 20
376.937793
 30
0.0
 11
2120.6422040000011
 21
381.937793
 31
0.0
  0
LINE
  5
59C
  8
SIZE
  6
CONTINUOUS
 62
    30
 10
2120.6422040000011
 20
381.937793
 30
0.0
 11
2120.6422040000011
 21
391.937793
 31
0.0
  0
CIRCLE
  5
59D
  8
SIZE
  6
CONTINUOUS
 62
    30
 10
2179.881664
 20
668.93779300000006
 30
0.0
 40
5.0
  0
POINT
  5
59E
  8
DEFPOINTS
  6
CONTINUOUS
 62
     7
 10
2179.881664
 20
668.93779300000006
 30
0.0
  0
LINE
  5
59F
  8
SIZE
  6
CONTINUOUS
 62
    30
 10
2179.881664
 20
663.93779300000006
 30
0.0
 11
2179.881664
 21
658.93779300000006
 31
0.0
  0
LINE
  5
5A0
  8
SIZE
  6
CONTINUOUS
 62
    30
 10
2179.881664
 20
658.93779300000006
 30
0.0
 11
2179.881664
 21
648.93779300000006
 31
0.0
  0
LINE
  5
5A1
  8
SIZE
  6
CONTINUOUS
 62
    30
 10
1890.6978260000001
 20
804.93779300000006
 30
0.0
 11
2209.881664
 21
804.93779300000006
 31
0.0
  0
LINE
  5
5A2
  8
NOTE
  6
CONTINUOUS
 62
     4
 10
1851.9981869999999
 20
804.9382619999999
 30
0.0
 11
1861.0090929999999
 21
838.12189099999989
 31
0.0
  0
LINE
  5
5A3
  8
NOTE
  6
CONTINUOUS
 62
     4
 10
1851.9981869999999
 20
804.9382619999999
 30
0.0
 11
1876.3936759999999
 21
829.17067499999985
 31
0.0
  0
LINE
  5
5A4
  8
SIZE
  6
CONTINUOUS
 62
    30
 10
1858.99782
 20
821.93779199999972
 30
0.0
 11
1858.99782
 21
912.51364000000001
 31
0.0
  0
POINT
  5
5A5
  8
DEFPOINTS
  6
CONTINUOUS
 62
     7
 10
1874.997826
 20
800.63779299999987
 30
0.0
  0
POINT
  5
5A6
  8
DEFPOINTS
  6
CONTINUOUS
 62
     7
 10
1851.997826
 20
819.93295899999987
 30
0.0
  0
POINT
  5
5A7
  8
DEFPOINTS
  6
CONTINUOUS
 62
     7
 10
1851.997826
 20
819.93295899999987
 30
0.0
  0
POINT
  5
5A8
  8
DEFPOINTS
  6
CONTINUOUS
 62
     7
 10
1874.997826
 20
800.63779299999987
 30
0.0
  0
POINT
  5
5A9
  8
DEFPOINTS
  6
CONTINUOUS
 62
     7
 10
1858.997826
 20
804.93779300000006
 30
0.0
  0
POINT
  5
5AA
  8
DEFPOINTS
  6
CONTINUOUS
 62
     7
 10
1858.997826
 20
804.93779300000006
 30
0.0
  0
POINT
  5
5AB
  8
DEFPOINTS
  6
CONTINUOUS
 62
     7
 10
1870.6978260000001
 20
804.93779300000006
 30
0.0
  0
POINT
  5
5AC
  8
DEFPOINTS
  6
CONTINUOUS
 62
     7
 10
1870.6978260000001
 20
804.93779300000006
 30
0.0
  0
LINE
  5
5AD
  8
NOTE
  6
CONTINUOUS
 62
     4
 10
1851.997826
 20
789.9426269999999
 30
0.0
 11
1851.997826
 21
819.93295899999987
 31
0.0
  0
POINT
  5
5AE
  8
DEFPOINTS
  6
CONTINUOUS
 62
     7
 10
1874.997826
 20
799.03779299999985
 30
0.0
  0
LINE
  5
5AF
  8
DETAIL
  6
CONTINUOUS
 62
     5
 10
1858.997826
 20
802.63779299999999
 30
0.0
 11
1870.6978260000001
 21
802.63779299999999
 31
0.0
  0
LINE
  5
5B0
  8
DETAIL
  6
CONTINUOUS
 62
     5
 10
1858.997826
 20
804.93779300000006
 30
0.0
 11
1870.6978260000001
 21
804.93779300000006
 31
0.0
  0
LINE
  5
5B1
  8
DETAIL
  6
CONTINUOUS
 62
     5
 10
1872.6978260000001
 20
792.93779299999983
 30
0.0
 11
1874.997826
 21
792.93779299999983
 31
0.0
  0
LINE
  5
5B2
  8
DETAIL
  6
CONTINUOUS
 62
     5
 10
1872.6978260000001
 20
800.63779299999987
 30
0.0
 11
1872.6978260000001
 21
792.93779299999983
 31
0.0
  0
ARC
  5
5B3
  8
DETAIL
  6
CONTINUOUS
 62
     5
 10
1870.6978260000001
 20
800.63779299999987
 30
0.0
 40
2.0
 50
0.0
 51
90.0
  0
LINE
  5
5B4
  8
DETAIL
  6
CONTINUOUS
 62
     5
 10
1874.997826
 20
800.63779299999987
 30
0.0
 11
1874.997826
 21
792.93779299999983
 31
0.0
  0
ARC
  5
5B5
  8
DETAIL
  6
CONTINUOUS
 62
     5
 10
1870.6978260000001
 20
800.63779299999987
 30
0.0
 40
4.299999999999998
 50
0.0
 51
90.0
  0
LINE
  5
5B6
  8
DETAIL
  6
CONTINUOUS
 62
     5
 10
1872.6978260000001
 20
792.93779299999983
 30
0.0
 11
1874.997826
 21
792.93779299999983
 31
0.0
  0
LINE
  5
5B7
  8
DETAIL
  6
CONTINUOUS
 62
     5
 10
1872.6978260000001
 20
800.63779299999987
 30
0.0
 11
1872.6978260000001
 21
792.93779299999983
 31
0.0
  0
ARC
  5
5B8
  8
DETAIL
  6
CONTINUOUS
 62
     5
 10
1870.6978260000001
 20
800.63779299999987
 30
0.0
 40
2.0
 50
0.0
 51
90.0
  0
LINE
  5
5B9
  8
DETAIL
  6
CONTINUOUS
 62
     5
 10
1858.997826
 20
802.63779299999999
 30
0.0
 11
1870.6978260000001
 21
802.63779299999999
 31
0.0
  0
LINE
  5
5BA
  8
DETAIL
  6
CONTINUOUS
 62
     5
 10
1858.997826
 20
804.93779300000006
 30
0.0
 11
1870.6978260000001
 21
804.93779300000006
 31
0.0
  0
LINE
  5
5BB
  8
DETAIL
  6
CONTINUOUS
 62
     5
 10
1874.997826
 20
800.63779299999987
 30
0.0
 11
1874.997826
 21
792.93779299999983
 31
0.0
  0
ARC
  5
5BC
  8
DETAIL
  6
CONTINUOUS
 62
     5
 10
1870.6978260000001
 20
800.63779299999987
 30
0.0
 40
4.299999999999998
 50
0.0
 51
90.0
  0
LINE
  5
5BD
  8
DETAIL
  6
CONTINUOUS
 62
     5
 10
1855.997826
 20
775.53779299999985
 30
0.0
 11
1858.997826
 21
778.53779299999985
 31
0.0
  0
LINE
  5
5BE
  8
DETAIL
  6
CONTINUOUS
 62
     5
 10
1858.997826
 20
804.93779300000006
 30
0.0
 11
1858.997826
 21
778.53779299999985
 31
0.0
  0
LINE
  5
5BF
  8
DETAIL
  6
CONTINUOUS
 62
     5
 10
1858.997826
 20
804.93779300000006
 30
0.0
 11
1858.997826
 21
778.53779299999985
 31
0.0
  0
POINT
  5
5C0
  8
DEFPOINTS
  6
CONTINUOUS
 62
     7
 10
1858.99782
 20
801.93779199999983
 30
0.0
  0
POINT
  5
5C1
  8
DEFPOINTS
  6
CONTINUOUS
 62
     7
 10
1874.997826
 20
899.93779299999971
 30
0.0
  0
POINT
  5
5C2
  8
DEFPOINTS
  6
CONTINUOUS
 62
     7
 10
1858.99782
 20
882.5136399999999
 30
0.0
  0
LINE
  5
5C3
  8
SIZE
  6
CONTINUOUS
 62
    30
 10
1853.99782
 20
882.5136399999999
 30
0.0
 11
1848.99782
 21
882.5136399999999
 31
0.0
  0
CIRCLE
  5
5C4
  8
SIZE
  6
CONTINUOUS
 62
    30
 10
1858.99782
 20
882.5136399999999
 30
0.0
 40
5.0
  0
CIRCLE
  5
5C5
  8
SIZE
  6
CONTINUOUS
 62
    30
 10
2179.881664
 20
804.93779300000006
 30
0.0
 40
5.0
  0
TEXT
  5
5C6
  8
SIZE
  6
CONTINUOUS
 62
    30
 10
2161.881664
 20
679.18779299999983
 30
0.0
 40
55.0
  1
136
 50
90.0
 41
0.9
 72
     1
 11
2161.881664
 21
736.93779299999983
 31
0.0
  0
LINE
  5
5C7
  8
SIZE
  6
CONTINUOUS
 62
    30
 10
2179.881664
 20
809.93779299999994
 30
0.0
 11
2179.881664
 21
814.93779299999983
 31
0.0
  0
LINE
  5
5C8
  8
SIZE
  6
CONTINUOUS
 62
    30
 10
2179.881664
 20
814.93779299999983
 30
0.0
 11
2179.881664
 21
824.93779299999971
 31
0.0
  0
LINE
  5
5C9
  8
SIZE
  6
CONTINUOUS
 62
    30
 10
2345.154004
 20
521.93779300000006
 30
0.0
 11
2345.154004
 21
794.93779299999983
 31
0.0
  0
POLYLINE
  5
5CA
  8
SIZE
  6
CONTINUOUS
 62
    30
 66
     1
 10
0.0
 20
0.0
 30
0.0
  0
VERTEX
  5
AC9
  8
SIZE
  6
CONTINUOUS
 62
    30
 10
2551.3988859999999
 20
374.59010799999999
 30
0.0
 42
0.186174
  0
VERTEX
  5
ACA
  8
SIZE
  6
CONTINUOUS
 62
    30
 10
2542.5490370000011
 20
395.53959600000002
 30
0.0
 42
0.082105
  0
VERTEX
  5
ACB
  8
SIZE
  6
CONTINUOUS
 62
    30
 10
2526.846535000001
 20
407.714157
 30
0.0
 42
0.058826
  0
VERTEX
  5
ACC
  8
SIZE
  6
CONTINUOUS
 62
    30
 10
2505.060477
 20
416.48908399999988
 30
0.0
 42
0.067494
  0
VERTEX
  5
ACD
  8
SIZE
  6
CONTINUOUS
 62
    30
 10
2467.5719180000001
 20
421.43458799999979
 30
0.0
 42
0.067494
  0
VERTEX
  5
ACE
  8
SIZE
  6
CONTINUOUS
 62
    30
 10
2430.0833579999999
 20
416.48908399999988
 30
0.0
 42
0.058826
  0
VERTEX
  5
ACF
  8
SIZE
  6
CONTINUOUS
 62
    30
 10
2408.2973000000002
 20
407.714157
 30
0.0
 42
0.082105
  0
VERTEX
  5
AD0
  8
SIZE
  6
CONTINUOUS
 62
    30
 10
2392.5947980000001
 20
395.53959600000002
 30
0.0
 42
0.186174
  0
VERTEX
  5
AD1
  8
SIZE
  6
CONTINUOUS
 62
    30
 10
2383.7449489999999
 20
374.59010799999999
 30
0.0
 42
0.186174
  0
SEQEND
  5
AD2
  8
SIZE
  6
CONTINUOUS
 62
    30
  0
POINT
  5
5D5
  8
DEFPOINTS
  6
CONTINUOUS
 62
     7
 10
2345.154004
 20
371.937793
 30
0.0
  0
LINE
  5
5D6
  8
SIZE
  6
CONTINUOUS
 62
    30
 10
2345.154004
 20
376.937793
 30
0.0
 11
2345.154004
 21
381.937793
 31
0.0
  0
LINE
  5
5D7
  8
SIZE
  6
CONTINUOUS
 62
    30
 10
2345.154004
 20
506.93779299999989
 30
0.0
 11
2345.154004
 21
501.93779299999989
 31
0.0
  0
CIRCLE
  5
5D8
  8
SIZE
  6
CONTINUOUS
 62
    30
 10
2345.154004
 20
511.93779299999989
 30
0.0
 40
5.0
  0
LINE
  5
5D9
  8
SIZE
  6
CONTINUOUS
 62
    30
 10
2345.154004
 20
501.93779299999989
 30
0.0
 11
2345.154004
 21
381.937793
 31
0.0
  0
LINE
  5
5DA
  8
SIZE
  6
CONTINUOUS
 62
    30
 10
2345.154004
 20
516.93779300000006
 30
0.0
 11
2345.154004
 21
521.93779300000006
 31
0.0
  0
CIRCLE
  5
5DB
  8
SIZE
  6
CONTINUOUS
 62
    30
 10
2345.154004
 20
511.93779299999989
 30
0.0
 40
5.0
  0
POINT
  5
5DC
  8
DEFPOINTS
  6
CONTINUOUS
 62
     7
 10
2345.154004
 20
804.93779300000006
 30
0.0
  0
LINE
  5
5DD
  8
SIZE
  6
CONTINUOUS
 62
    30
 10
2345.154004
 20
799.93779299999983
 30
0.0
 11
2345.154004
 21
794.93779299999983
 31
0.0
  0
CIRCLE
  5
5DE
  8
SIZE
  6
CONTINUOUS
 62
    30
 10
2345.154004
 20
804.93779300000006
 30
0.0
 40
5.0
  0
LINE
  5
5DF
  8
NOTE
  6
CONTINUOUS
 62
     4
 10
2675.91606
 20
994.61586199999965
 30
0.0
 11
1962.901451
 21
994.61586199999965
 31
0.0
  0
TEXT
  5
5E0
  8
NOTE
  6
CONTINUOUS
 62
     4
 10
1984.576722
 20
1010.442393
 30
0.0
 40
60.0
  1
AH 4-14×30長穴(M10)
 50
0.000003
 41
0.7
  7
STANDARD1
  0
CIRCLE
  5
5E1
  8
SIZE
  6
CONTINUOUS
 62
    30
 10
1874.997826
 20
1289.1002149999999
 30
0.0
 40
5.0
  0
CIRCLE
  5
5E2
  8
SIZE
  6
CONTINUOUS
 62
    30
 10
1851.997826
 20
1289.1002149999999
 30
0.0
 40
5.0
  0
CIRCLE
  5
5E3
  8
SIZE
  6
CONTINUOUS
 62
    30
 10
1851.997826
 20
1289.1002149999999
 30
0.0
 40
5.0
  0
TEXT
  5
5E4
  8
SIZE
  6
CONTINUOUS
 62
    30
 10
1907.0557135714289
 20
1185.76503
 30
0.0
 40
55.0
  1
16
 41
0.9
 72
     1
 11
1941.234285
 21
1185.76503
 31
0.0
  0
POINT
  5
5E5
  8
DEFPOINTS
  6
CONTINUOUS
 62
     7
 10
1874.997826
 20
1172.04099
 30
0.0
  0
LINE
  5
5E6
  8
SIZE
  6
CONTINUOUS
 62
    30
 10
1879.997826
 20
1172.04099
 30
0.0
 11
1884.997826
 21
1172.04099
 31
0.0
  0
CIRCLE
  5
5E7
  8
SIZE
  6
CONTINUOUS
 62
    30
 10
1874.997826
 20
1172.04099
 30
0.0
 40
5.0
  0
LINE
  5
5E8
  8
SIZE
  6
CONTINUOUS
 62
    30
 10
1853.997826
 20
1172.04099
 30
0.0
 11
1848.997826
 21
1172.04099
 31
0.0
  0
CIRCLE
  5
5E9
  8
SIZE
  6
CONTINUOUS
 62
    30
 10
1858.997826
 20
1172.04099
 30
0.0
 40
5.0
  0
LINE
  5
5EA
  8
SIZE
  6
CONTINUOUS
 62
    30
 10
1858.997826
 20
1172.04099
 30
0.0
 11
1874.997826
 21
1172.04099
 31
0.0
  0
LINE
  5
5EB
  8
SIZE
  6
CONTINUOUS
 62
    30
 10
1884.997826
 20
1172.04099
 30
0.0
 11
1894.997826
 21
1172.04099
 31
0.0
  0
POINT
  5
5EC
  8
DEFPOINTS
  6
CONTINUOUS
 62
     7
 10
1858.997826
 20
1172.04099
 30
0.0
  0
LINE
  5
5ED
  8
SIZE
  6
CONTINUOUS
 62
    30
 10
1853.997826
 20
1172.04099
 30
0.0
 11
1848.997826
 21
1172.04099
 31
0.0
  0
CIRCLE
  5
5EE
  8
SIZE
  6
CONTINUOUS
 62
    30
 10
1858.997826
 20
1172.04099
 30
0.0
 40
5.0
  0
TEXT
  5
5EF
  8
SIZE
  6
CONTINUOUS
 62
    30
 10
1917.5111274285709
 20
1307.1002149999999
 30
0.0
 40
55.0
  1
23
 41
0.9
 72
     1
 11
1957.5825560000001
 21
1307.1002149999999
 31
0.0
  0
LINE
  5
5F0
  8
SIZE
  6
CONTINUOUS
 62
    30
 10
2015.6539849999999
 20
1289.1002149999999
 30
0.0
 11
1874.997826
 21
1289.1002149999999
 31
0.0
  0
POINT
  5
5F1
  8
DEFPOINTS
  6
CONTINUOUS
 62
     7
 10
1874.997826
 20
1289.1002149999999
 30
0.0
  0
LINE
  5
5F2
  8
SIZE
  6
CONTINUOUS
 62
    30
 10
1879.997826
 20
1289.1002149999999
 30
0.0
 11
1884.997826
 21
1289.1002149999999
 31
0.0
  0
LINE
  5
5F3
  8
SIZE
  6
CONTINUOUS
 62
    30
 10
1851.997826
 20
1289.1002149999999
 30
0.0
 11
1874.997826
 21
1289.1002149999999
 31
0.0
  0
LINE
  5
5F4
  8
SIZE
  6
CONTINUOUS
 62
    30
 10
1851.997826
 20
1289.1002149999999
 30
0.0
 11
1874.997826
 21
1289.1002149999999
 31
0.0
  0
LINE
  5
5F5
  8
SIZE
  6
CONTINUOUS
 62
    30
 10
1884.997826
 20
1289.1002149999999
 30
0.0
 11
1894.997826
 21
1289.1002149999999
 31
0.0
  0
POINT
  5
5F6
  8
DEFPOINTS
  6
CONTINUOUS
 62
     7
 10
1851.997826
 20
1289.1002149999999
 30
0.0
  0
POINT
  5
5F7
  8
DEFPOINTS
  6
CONTINUOUS
 62
     7
 10
1874.997826
 20
1401.087567
 30
0.0
  0
LINE
  5
5F8
  8
SIZE
  6
CONTINUOUS
 62
    30
 10
1869.997826
 20
1401.087567
 30
0.0
 11
1864.997826
 21
1401.087567
 31
0.0
  0
CIRCLE
  5
5F9
  8
SIZE
  6
CONTINUOUS
 62
    30
 10
1874.997826
 20
1401.087567
 30
0.0
 40
5.0
  0
ENDBLK
  5
5FB
  8
0
 62
     7
  0
ENDSEC
  0
SECTION
  2
ENTITIES
  0
LINE
  5
5FD
  8
OUTLINE
  6
CONTINUOUS
 62
     3
 10
620.0
 20
0.0
 30
0.0
 11
-620.0
 21
0.0
 31
0.0
  0
TEXT
  5
5FE
  8
ETC
  6
CONTINUOUS
 62
    61
 10
400.87633763115809
 20
1167.0574119167279
 30
0.0
 40
80.0
  1
PDFY-P71_90M-G_2
 50
0.000003
 41
0.8
  0
LINE
  5
5FF
  8
SIZE
  6
CONTINUOUS
 62
    30
 10
-590.0
 20
-178.809889
 30
0.0
 11
590.0
 21
-178.809889
 31
0.0
  0
TEXT
  5
600
  8
SIZE
  6
CONTINUOUS
 62
    30
 10
-347.20714285714268
 20
933.56718399999988
 30
0.0
 40
55.0
  1
1146(吊りボルトピッチ)
 41
0.9
 72
     1
 11
0.0
 21
933.56718399999988
 31
0.0
  0
LINE
  5
601
  8
SIZE
  6
CONTINUOUS
 62
    30
 10
-563.0
 20
917.16242199999988
 30
0.0
 11
563.0
 21
917.16242199999988
 31
0.0
  0
LINE
  5
602
  8
SIZE
  6
CONTINUOUS
 62
    30
 10
-570.0
 20
800.10319699999968
 30
0.0
 11
570.0
 21
800.10319699999968
 31
0.0
  0
LINE
  5
603
  8
OUTLINE
  6
CONTINUOUS
 62
     3
 10
580.0
 20
47.0
 30
0.0
 11
-580.0
 21
47.0
 31
0.0
  0
LINE
  5
604
  8
OUTLINE
  6
CONTINUOUS
 62
     3
 10
566.52999999999997
 20
-8.0
 30
0.0
 11
-566.52999999999997
 21
-8.0
 31
0.0
  0
LINE
  5
605
  8
SIZE
  6
CONTINUOUS
 62
    30
 10
-610.0
 20
-325.06746199999998
 30
0.0
 11
610.0
 21
-325.06746199999998
 31
0.0
  0
LINE
  5
606
  8
OUTLINE
  6
CONTINUOUS
 62
     3
 10
580.0
 20
140.0
 30
0.0
 11
-580.0
 21
140.0
 31
0.0
  0
LINE
  5
607
  8
OUTLINE
  6
CONTINUOUS
 62
     3
 10
-580.0
 20
433.0
 30
0.0
 11
580.0
 21
433.0
 31
0.0
  0
LINE
  5
609
  8
SIZE
  6
CONTINUOUS
 62
    30
 10
-586.0
 20
1029.149774
 30
0.0
 11
586.0
 21
1029.149774
 31
0.0
  0
LINE
  5
60A
  8
DETAIL
  6
CONTINUOUS
 62
     5
 10
-591.70000000000005
 20
433.0
 30
0.0
 11
591.70000000000005
 21
433.0
 31
0.0
  0
LINE
  5
60C
  8
DETAIL
  6
CONTINUOUS
 62
     5
 10
575.0
 20
167.40000000000001
 30
0.0
 11
-575.0
 21
167.40000000000001
 31
0.0
  0
LINE
  5
60D
  8
DETAIL
  6
CONTINUOUS
 62
     5
 10
575.0
 20
167.40000000000001
 30
0.0
 11
-575.0
 21
167.40000000000001
 31
0.0
  0
LINE
  5
60E
  8
NOTE
  6
CONTINUOUS
 62
     4
 10
-170.0
 20
297.0
 30
0.0
 11
-410.0
 21
297.0
 31
0.0
  0
CIRCLE
  5
60F
  8
DETAIL
  6
CONTINUOUS
 62
     5
 10
-290.0
 20
297.0
 30
0.0
 40
100.0
  0
CIRCLE
  5
610
  8
DETAIL
  6
CONTINUOUS
 62
     5
 10
-290.0
 20
297.0
 30
0.0
 40
85.5
  0
LINE
  5
611
  8
DETAIL
  6
CONTINUOUS
 62
     5
 10
538.0
 20
408.0
 30
0.0
 11
-538.0
 21
408.0
 31
0.0
  0
LINE
  5
612
  8
DETAIL
  6
CONTINUOUS
 62
     5
 10
538.0
 20
192.0
 30
0.0
 11
-538.0
 21
192.0
 31
0.0
  0
LINE
  5
613
  8
DETAIL
  6
CONTINUOUS
 62
     5
 10
-562.0
 20
155.0
 30
0.0
 11
562.0
 21
155.0
 31
0.0
  0
LINE
  5
614
  8
DETAIL
  6
CONTINUOUS
 62
     5
 10
-580.0
 20
140.0
 30
0.0
 11
580.0
 21
140.0
 31
0.0
  0
LINE
  5
617
  8
DETAIL
  6
CONTINUOUS
 62
     5
 10
580.0
 20
47.0
 30
0.0
 11
-580.0
 21
47.0
 31
0.0
  0
LINE
  5
618
  8
DETAIL
  6
CONTINUOUS
 62
     5
 10
566.52999999999997
 20
-8.0
 30
0.0
 11
-566.52999999999997
 21
-8.0
 31
0.0
  0
LINE
  5
61A
  8
OUTLINE
  6
CONTINUOUS
 62
     3
 10
-620.0
 20
-4.0065080000000002
 30
0.0
 11
-620.0
 21
0.0
 31
0.0
  0
LINE
  5
61B
  8
NOTE
  6
CONTINUOUS
 62
     4
 10
-817.48589799999968
 20
-225.49392800000001
 30
0.0
 11
-580.0
 21
168.0
 31
0.0
  0
LINE
  5
61C
  8
NOTE
  6
CONTINUOUS
 62
     4
 10
-852.37286099999994
 20
-78.824825000000004
 30
0.0
 11
-619.0
 21
233.0
 31
0.0
  0
LINE
  5
61D
  8
DETAIL
  6
CONTINUOUS
 62
     5
 10
-620.0
 20
-4.0065080000000002
 30
0.0
 11
-620.0
 21
0.0
 31
0.0
  0
LINE
  5
61E
  8
NOTE
  6
CONTINUOUS
 62
     4
 10
-817.48589799999968
 20
-225.49392800000001
 30
0.0
 11
-1252.4166970000001
 21
-225.49392800000001
 31
0.0
  0
TEXT
  5
61F
  8
NOTE
  6
CONTINUOUS
 62
     4
 10
-1230.741426
 20
-209.66739799999999
 30
0.0
 40
60.0
  1
D2（自然排水口）
 50
0.000003
 41
0.7
  7
STANDARD1
  0
LINE
  5
620
  8
NOTE
  6
CONTINUOUS
 62
     4
 10
-852.37787799999967
 20
-78.831443999999976
 30
0.0
 11
-1224.6711230000001
 21
-78.831443999999976
 31
0.0
  0
TEXT
  5
621
  8
NOTE
  6
CONTINUOUS
 62
     4
 10
-1202.9958509999999
 20
-63.004913000000002
 30
0.0
 40
60.0
  1
RG %%C15.88
 50
0.000003
 41
0.7
  7
STANDARD1
  0
LINE
  5
622
  8
SIZE
  6
CONTINUOUS
 62
    30
 10
-620.0
 20
-24.006508
 30
0.0
 11
-620.0
 21
-355.06746200000009
 31
0.0
  0
LINE
  5
623
  8
SIZE
  6
CONTINUOUS
 62
    30
 10
-615.0
 20
-325.06746199999998
 30
0.0
 11
-610.0
 21
-325.06746199999998
 31
0.0
  0
CIRCLE
  5
624
  8
SIZE
  6
CONTINUOUS
 62
    30
 10
-620.0
 20
-325.06746199999998
 30
0.0
 40
5.0
  0
LINE
  5
625
  8
SIZE
  6
CONTINUOUS
 62
    30
 10
-600.0
 20
-19.0
 30
0.0
 11
-600.0
 21
-208.809889
 31
0.0
  0
TEXT
  5
626
  8
SIZE
  6
CONTINUOUS
 62
    30
 10
-738.14285757142829
 20
-160.809889
 30
0.0
 40
55.0
  1
20
 41
0.9
 72
     1
 11
-698.07142899999985
 21
-160.809889
 31
0.0
  0
LINE
  5
627
  8
SIZE
  6
CONTINUOUS
 62
    30
 10
-600.0
 20
-19.0
 30
0.0
 11
-600.0
 21
-208.809889
 31
0.0
  0
LINE
  5
628
  8
SIZE
  6
CONTINUOUS
 62
    30
 10
-620.0
 20
-24.006508
 30
0.0
 11
-620.0
 21
-208.809889
 31
0.0
  0
LINE
  5
629
  8
SIZE
  6
CONTINUOUS
 62
    30
 10
-630.0
 20
-178.809889
 30
0.0
 11
-756.14285700000005
 21
-178.809889
 31
0.0
  0
LINE
  5
62A
  8
SIZE
  6
CONTINUOUS
 62
    30
 10
-595.0
 20
-178.809889
 30
0.0
 11
-590.0
 21
-178.809889
 31
0.0
  0
CIRCLE
  5
62B
  8
SIZE
  6
CONTINUOUS
 62
    30
 10
-600.0
 20
-178.809889
 30
0.0
 40
5.0
  0
POINT
  5
62C
  8
DEFPOINTS
  6
CONTINUOUS
 62
     7
 10
-600.0
 20
-178.809889
 30
0.0
  0
LINE
  5
62D
  8
SIZE
  6
CONTINUOUS
 62
    30
 10
-625.0
 20
-178.809889
 30
0.0
 11
-630.0
 21
-178.809889
 31
0.0
  0
CIRCLE
  5
62E
  8
SIZE
  6
CONTINUOUS
 62
    30
 10
-620.0
 20
-178.809889
 30
0.0
 40
5.0
  0
LINE
  5
62F
  8
SIZE
  6
CONTINUOUS
 62
    30
 10
-595.0
 20
-178.809889
 30
0.0
 11
-590.0
 21
-178.809889
 31
0.0
  0
CIRCLE
  5
630
  8
SIZE
  6
CONTINUOUS
 62
    30
 10
-600.0
 20
-178.809889
 30
0.0
 40
5.0
  0
LINE
  5
631
  8
SIZE
  6
CONTINUOUS
 62
    30
 10
-600.0
 20
-178.809889
 30
0.0
 11
-620.0
 21
-178.809889
 31
0.0
  0
LINE
  5
632
  8
SIZE
  6
CONTINUOUS
 62
    30
 10
-590.0
 20
-178.809889
 30
0.0
 11
-580.0
 21
-178.809889
 31
0.0
  0
POINT
  5
633
  8
DEFPOINTS
  6
CONTINUOUS
 62
     7
 10
-620.0
 20
-4.0065080000000002
 30
0.0
  0
LINE
  5
634
  8
OUTLINE
  6
CONTINUOUS
 62
     3
 10
-620.0
 20
-4.0065080000000002
 30
0.0
 11
-566.52999999999997
 21
-8.0
 31
0.0
  0
POINT
  5
635
  8
DEFPOINTS
  6
CONTINUOUS
 62
     7
 10
-620.0
 20
-4.0065080000000002
 30
0.0
  0
LINE
  5
636
  8
DETAIL
  6
CONTINUOUS
 62
     5
 10
-620.0
 20
-4.0065080000000002
 30
0.0
 11
-566.52999999999997
 21
-8.0
 31
0.0
  0
TEXT
  5
637
  8
SIZE
  6
CONTINUOUS
 62
    30
 10
-1172.559184
 20
232.27157985714291
 30
0.0
 40
55.0
  1
265
 50
90.0
 41
0.9
 72
     1
 11
-1172.559184
 21
295.91443700000002
 31
0.0
  0
LINE
  5
638
  8
SIZE
  6
CONTINUOUS
 62
    30
 10
-580.0
 20
453.0
 30
0.0
 11
-580.0
 21
631.24508500000002
 31
0.0
  0
LINE
  5
639
  8
SIZE
  6
CONTINUOUS
 62
    30
 10
-616.0
 20
271.13219278178082
 30
0.0
 11
-616.0
 21
631.24508500000002
 31
0.0
  0
LINE
  5
63A
  8
SIZE
  6
CONTINUOUS
 62
    30
 10
-573.0
 20
467.99516599999993
 30
0.0
 11
-573.0
 21
947.16242199999999
 31
0.0
  0
LINE
  5
63B
  8
SIZE
  6
CONTINUOUS
 62
    30
 10
-573.0
 20
467.99516599999993
 30
0.0
 11
-573.0
 21
947.16242199999999
 31
0.0
  0
LINE
  5
63C
  8
SIZE
  6
CONTINUOUS
 62
    30
 10
-596.0
 20
447.10000000000002
 30
0.0
 11
-596.0
 21
947.16242199999999
 31
0.0
  0
LINE
  5
63D
  8
SIZE
  6
CONTINUOUS
 62
    30
 10
-580.0
 20
453.0
 30
0.0
 11
-580.0
 21
830.10319700000002
 31
0.0
  0
LINE
  5
63E
  8
SIZE
  6
CONTINUOUS
 62
    30
 10
-580.0
 20
453.0
 30
0.0
 11
-580.0
 21
830.10319700000002
 31
0.0
  0
LINE
  5
63F
  8
SIZE
  6
CONTINUOUS
 62
    30
 10
-596.0
 20
447.10000000000002
 30
0.0
 11
-596.0
 21
830.10319700000002
 31
0.0
  0
LINE
  5
640
  8
SIZE
  6
CONTINUOUS
 62
    30
 10
-619.00914899999998
 20
246.53749666543439
 30
0.0
 11
-619.00914899999998
 21
732.35423200000002
 31
0.0
  0
LINE
  5
641
  8
SIZE
  6
CONTINUOUS
 62
    30
 10
-580.0
 20
453.0
 30
0.0
 11
-580.0
 21
732.35423200000002
 31
0.0
  0
LINE
  5
642
  8
NOTE
  6
CONTINUOUS
 62
     4
 10
-829.91198099999986
 20
631.95282999999995
 30
0.0
 11
-616.0
 21
261.0
 31
0.0
  0
LINE
  5
643
  8
NOTE
  6
CONTINUOUS
 62
     4
 10
-830.44115599999998
 20
753.39748899999984
 30
0.0
 11
-614.0
 21
325.0
 31
0.0
  0
LINE
  5
644
  8
SIZE
  6
CONTINUOUS
 62
    30
 10
-596.0
 20
447.10000000000002
 30
0.0
 11
-596.0
 21
1059.149774
 31
0.0
  0
LINE
  5
645
  8
SIZE
  6
CONTINUOUS
 62
    30
 10
-605.49085100000002
 20
168.0
 30
0.0
 11
-1184.559184
 21
168.0
 31
0.0
  0
LINE
  5
646
  8
SIZE
  6
CONTINUOUS
 62
    30
 10
-611.70000000000005
 20
433.0
 30
0.0
 11
-1184.559184
 21
433.0
 31
0.0
  0
LINE
  5
647
  8
SIZE
  6
CONTINUOUS
 62
    30
 10
-647.25914899999998
 20
233.0
 30
0.0
 11
-956.72006899999985
 21
233.0
 31
0.0
  0
LINE
  5
648
  8
SIZE
  6
CONTINUOUS
 62
    30
 10
-644.5
 20
261.0
 30
0.0
 11
-956.72006899999985
 21
261.0
 31
0.0
  0
LINE
  5
649
  8
SIZE
  6
CONTINUOUS
 62
    30
 10
-644.5
 20
261.0
 30
0.0
 11
-956.72006899999985
 21
261.0
 31
0.0
  0
LINE
  5
64A
  8
SIZE
  6
CONTINUOUS
 62
    30
 10
-611.70000000000005
 20
433.0
 30
0.0
 11
-956.72006899999985
 21
433.0
 31
0.0
  0
LINE
  5
64B
  8
SIZE
  6
CONTINUOUS
 62
    30
 10
-650.71665199999995
 20
325.0
 30
0.0
 11
-856.52160100000003
 21
325.0
 31
0.0
  0
LINE
  5
64C
  8
SIZE
  6
CONTINUOUS
 62
    30
 10
-611.70000000000005
 20
433.0
 30
0.0
 11
-856.52160100000003
 21
433.0
 31
0.0
  0
LINE
  5
64D
  8
SIZE
  6
CONTINUOUS
 62
    30
 10
-1154.559184
 20
423.0
 30
0.0
 11
-1154.559184
 21
178.0
 31
0.0
  0
TEXT
  5
64E
  8
SIZE
  6
CONTINUOUS
 62
    30
 10
-1046.920159
 20
288.77946342857149
 30
0.0
 40
55.0
  1
28
 50
90.0
 41
0.9
 72
     1
 11
-1046.920159
 21
328.85089199999999
 31
0.0
  0
LINE
  5
64F
  8
SIZE
  6
CONTINUOUS
 62
    30
 10
-1028.920159
 20
270.77946400000002
 30
0.0
 11
-1028.920159
 21
386.92232100000001
 31
0.0
  0
TEXT
  5
650
  8
SIZE
  6
CONTINUOUS
 62
    30
 10
-944.72006899999997
 20
288.07142857142861
 30
0.0
 40
55.0
  1
172
 50
90.0
 41
0.9
 72
     1
 11
-944.72006899999997
 21
347.0
 31
0.0
  0
LINE
  5
651
  8
SIZE
  6
CONTINUOUS
 62
    30
 10
-926.72006899999985
 20
423.0
 30
0.0
 11
-926.72006899999985
 21
271.0
 31
0.0
  0
LINE
  5
652
  8
SIZE
  6
CONTINUOUS
 62
    30
 10
-926.72006899999985
 20
247.0
 30
0.0
 11
-1028.920159
 21
270.77946400000002
 31
0.0
  0
POINT
  5
653
  8
DEFPOINTS
  6
CONTINUOUS
 62
     7
 10
-1154.559184
 20
168.0
 30
0.0
  0
LINE
  5
654
  8
SIZE
  6
CONTINUOUS
 62
    30
 10
-1154.559184
 20
173.0
 30
0.0
 11
-1154.559184
 21
178.0
 31
0.0
  0
CIRCLE
  5
655
  8
SIZE
  6
CONTINUOUS
 62
    30
 10
-1154.559184
 20
168.0
 30
0.0
 40
5.0
  0
POINT
  5
656
  8
DEFPOINTS
  6
CONTINUOUS
 62
     7
 10
-926.72006899999985
 20
233.0
 30
0.0
  0
LINE
  5
657
  8
SIZE
  6
CONTINUOUS
 62
    30
 10
-926.72006899999985
 20
228.0
 30
0.0
 11
-926.72006899999985
 21
223.0
 31
0.0
  0
CIRCLE
  5
658
  8
SIZE
  6
CONTINUOUS
 62
    30
 10
-926.72006899999985
 20
233.0
 30
0.0
 40
5.0
  0
LINE
  5
659
  8
SIZE
  6
CONTINUOUS
 62
    30
 10
-926.72006899999985
 20
266.0
 30
0.0
 11
-926.72006899999985
 21
271.0
 31
0.0
  0
CIRCLE
  5
65A
  8
SIZE
  6
CONTINUOUS
 62
    30
 10
-926.72006899999985
 20
261.0
 30
0.0
 40
5.0
  0
LINE
  5
65B
  8
SIZE
  6
CONTINUOUS
 62
    30
 10
-926.72006899999985
 20
261.0
 30
0.0
 11
-926.72006899999985
 21
233.0
 31
0.0
  0
LINE
  5
65C
  8
SIZE
  6
CONTINUOUS
 62
    30
 10
-926.72006899999985
 20
261.0
 30
0.0
 11
-926.72006899999985
 21
233.0
 31
0.0
  0
LINE
  5
65D
  8
SIZE
  6
CONTINUOUS
 62
    30
 10
-926.72006899999985
 20
223.0
 30
0.0
 11
-926.72006899999985
 21
213.0
 31
0.0
  0
LINE
  5
65E
  8
SIZE
  6
CONTINUOUS
 62
    30
 10
-926.72006899999985
 20
271.0
 30
0.0
 11
-926.72006899999985
 21
281.0
 31
0.0
  0
POINT
  5
65F
  8
DEFPOINTS
  6
CONTINUOUS
 62
     7
 10
-926.72006899999985
 20
261.0
 30
0.0
  0
LINE
  5
660
  8
SIZE
  6
CONTINUOUS
 62
    30
 10
-926.72006899999985
 20
266.0
 30
0.0
 11
-926.72006899999985
 21
271.0
 31
0.0
  0
CIRCLE
  5
661
  8
SIZE
  6
CONTINUOUS
 62
    30
 10
-926.72006899999985
 20
261.0
 30
0.0
 40
5.0
  0
LINE
  5
662
  8
SIZE
  6
CONTINUOUS
 62
    30
 10
-1154.559184
 20
428.0
 30
0.0
 11
-1154.559184
 21
423.0
 31
0.0
  0
CIRCLE
  5
663
  8
SIZE
  6
CONTINUOUS
 62
    30
 10
-1154.559184
 20
433.0
 30
0.0
 40
5.0
  0
LINE
  5
664
  8
SIZE
  6
CONTINUOUS
 62
    30
 10
-826.52160099999969
 20
433.0
 30
0.0
 11
-826.52160099999969
 21
596.85714299999995
 31
0.0
  0
LINE
  5
665
  8
SIZE
  6
CONTINUOUS
 62
    30
 10
-926.72006899999985
 20
428.0
 30
0.0
 11
-926.72006899999985
 21
423.0
 31
0.0
  0
CIRCLE
  5
666
  8
SIZE
  6
CONTINUOUS
 62
    30
 10
-926.72006899999985
 20
433.0
 30
0.0
 40
5.0
  0
POINT
  5
667
  8
DEFPOINTS
  6
CONTINUOUS
 62
     7
 10
-826.52160099999969
 20
325.0
 30
0.0
  0
LINE
  5
668
  8
SIZE
  6
CONTINUOUS
 62
    30
 10
-826.52160099999969
 20
428.0
 30
0.0
 11
-826.52160099999969
 21
423.0
 31
0.0
  0
CIRCLE
  5
669
  8
SIZE
  6
CONTINUOUS
 62
    30
 10
-826.52160099999969
 20
433.0
 30
0.0
 40
5.0
  0
LINE
  5
66A
  8
SIZE
  6
CONTINUOUS
 62
    30
 10
-826.52160099999969
 20
330.0
 30
0.0
 11
-826.52160099999969
 21
335.0
 31
0.0
  0
CIRCLE
  5
66B
  8
SIZE
  6
CONTINUOUS
 62
    30
 10
-826.52160099999969
 20
325.0
 30
0.0
 40
5.0
  0
LINE
  5
66C
  8
SIZE
  6
CONTINUOUS
 62
    30
 10
-826.52160099999969
 20
335.0
 30
0.0
 11
-826.52160099999969
 21
423.0
 31
0.0
  0
TEXT
  5
66D
  8
SIZE
  6
CONTINUOUS
 62
    30
 10
-844.52160100000015
 20
460.99999957142859
 30
0.0
 40
55.0
  1
108
 50
90.0
 41
0.9
 72
     1
 11
-844.52160100000015
 21
519.92857100000003
 31
0.0
  0
LINE
  5
66E
  8
SIZE
  6
CONTINUOUS
 62
    30
 10
-596.0
 20
411.78008087669508
 30
0.0
 11
-596.0
 21
28.769508999999999
 31
0.0
  0
LINE
  5
66F
  8
OUTLINE
  6
CONTINUOUS
 62
     3
 10
-580.0
 20
140.0
 30
0.0
 11
-580.0
 21
433.0
 31
0.0
  0
LINE
  5
673
  8
DETAIL
  6
CONTINUOUS
 62
     5
 10
-548.0
 20
202.0
 30
0.0
 11
-548.0
 21
398.0
 31
0.0
  0
TEXT
  5
674
  8
SIZE
  6
CONTINUOUS
 62
    30
 10
-558.00000042857141
 20
76.769508999999999
 30
0.0
 40
55.0
  1
4
 41
0.9
 72
     1
 11
-540.32142899999997
 21
76.769508999999999
 31
0.0
  0
LINE
  5
675
  8
SIZE
  6
CONTINUOUS
 62
    30
 10
-586.0
 20
58.769508999999999
 30
0.0
 11
-504.64285699999988
 21
58.769508999999999
 31
0.0
  0
LINE
  5
676
  8
NOTE
  6
CONTINUOUS
 62
     4
 10
-580.0
 20
168.0
 30
0.0
 11
-591.03413399999999
 21
135.43318300000001
 31
0.0
  0
LINE
  5
677
  8
NOTE
  6
CONTINUOUS
 62
     4
 10
-580.0
 20
168.0
 30
0.0
 11
-605.839249
 21
145.31337600000001
 31
0.0
  0
LINE
  5
67B
  8
DETAIL
  6
CONTINUOUS
 62
     5
 10
-565.0
 20
152.0
 30
0.0
 11
-565.0
 21
140.0
 31
0.0
  0
LINE
  5
67D
  8
NOTE
  6
CONTINUOUS
 62
     4
 10
-600.0
 20
1.0
 30
0.0
 11
-701.30744900000002
 21
1.0
 31
0.0
  0
LINE
  5
67E
  8
NOTE
  6
CONTINUOUS
 62
     4
 10
-600.0
 20
21.0
 30
0.0
 11
-701.30744900000002
 21
21.0
 31
0.0
  0
LINE
  5
67F
  8
NOTE
  6
CONTINUOUS
 62
     4
 10
-680.26500799999985
 20
1.0
 30
0.0
 11
-660.26500799999997
 21
21.0
 31
0.0
  0
LINE
  5
680
  8
NOTE
  6
CONTINUOUS
 62
     4
 10
-690.26500799999985
 20
1.0
 30
0.0
 11
-670.26500799999985
 21
21.0
 31
0.0
  0
LINE
  5
681
  8
NOTE
  6
CONTINUOUS
 62
     4
 10
-685.26500799999997
 20
1.0
 30
0.0
 11
-665.26500799999985
 21
21.0
 31
0.0
  0
POINT
  5
682
  8
DEFPOINTS
  6
CONTINUOUS
 62
     7
 10
-600.0
 20
1.0
 30
0.0
  0
POINT
  5
683
  8
DEFPOINTS
  6
CONTINUOUS
 62
     7
 10
-600.0
 20
1.0
 30
0.0
  0
LINE
  5
684
  8
OUTLINE
  6
CONTINUOUS
 62
     3
 10
-580.0
 20
0.0
 30
0.0
 11
-580.0
 21
47.0
 31
0.0
  0
POINT
  5
686
  8
DEFPOINTS
  6
CONTINUOUS
 62
     7
 10
-596.0
 20
58.769508999999999
 30
0.0
  0
POINT
  5
687
  8
DEFPOINTS
  6
CONTINUOUS
 62
     7
 10
-600.0
 20
21.0
 30
0.0
  0
LINE
  5
688
  8
SIZE
  6
CONTINUOUS
 62
    30
 10
-591.0
 20
58.769508999999999
 30
0.0
 11
-586.0
 21
58.769508999999999
 31
0.0
  0
CIRCLE
  5
689
  8
SIZE
  6
CONTINUOUS
 62
    30
 10
-596.0
 20
58.769508999999999
 30
0.0
 40
5.0
  0
LINE
  5
68A
  8
SIZE
  6
CONTINUOUS
 62
    30
 10
-605.0
 20
58.769508999999999
 30
0.0
 11
-610.0
 21
58.769508999999999
 31
0.0
  0
CIRCLE
  5
68B
  8
SIZE
  6
CONTINUOUS
 62
    30
 10
-600.0
 20
58.769508999999999
 30
0.0
 40
5.0
  0
LINE
  5
68C
  8
SIZE
  6
CONTINUOUS
 62
    30
 10
-600.0
 20
58.769508999999999
 30
0.0
 11
-596.0
 21
58.769508999999999
 31
0.0
  0
LINE
  5
68D
  8
SIZE
  6
CONTINUOUS
 62
    30
 10
-610.0
 20
58.769508999999999
 30
0.0
 11
-620.0
 21
58.769508999999999
 31
0.0
  0
LINE
  5
68E
  8
SIZE
  6
CONTINUOUS
 62
    30
 10
-600.0
 20
41.0
 30
0.0
 11
-600.0
 21
88.769508999999999
 31
0.0
  0
LINE
  5
68F
  8
NOTE
  6
CONTINUOUS
 62
     4
 10
-600.0
 20
1.0
 30
0.0
 11
-600.0
 21
21.0
 31
0.0
  0
LINE
  5
690
  8
NOTE
  6
CONTINUOUS
 62
     4
 10
-650.26500799999985
 20
1.0
 30
0.0
 11
-630.26500799999985
 21
21.0
 31
0.0
  0
LINE
  5
691
  8
NOTE
  6
CONTINUOUS
 62
     4
 10
-645.26500799999985
 20
1.0
 30
0.0
 11
-625.26500799999985
 21
21.0
 31
0.0
  0
LINE
  5
692
  8
NOTE
  6
CONTINUOUS
 62
     4
 10
-640.26500799999985
 20
1.0
 30
0.0
 11
-620.26500799999985
 21
21.0
 31
0.0
  0
LINE
  5
693
  8
DETAIL
  6
CONTINUOUS
 62
     5
 10
-580.0
 20
0.0
 30
0.0
 11
-580.0
 21
47.0
 31
0.0
  0
POINT
  5
695
  8
DEFPOINTS
  6
CONTINUOUS
 62
     7
 10
-619.0
 20
244.25
 30
0.0
  0
POINT
  5
696
  8
DEFPOINTS
  6
CONTINUOUS
 62
     7
 10
-616.0
 20
261.0
 30
0.0
  0
LINE
  5
697
  8
NOTE
  6
CONTINUOUS
 62
     4
 10
-610.49999999999977
 20
261.0
 30
0.0
 11
-621.49999999999989
 21
261.0
 31
0.0
  0
LINE
  5
698
  8
NOTE
  6
CONTINUOUS
 62
     4
 10
-616.0
 20
266.49999200000002
 30
0.0
 11
-616.0
 21
255.50000800000001
 31
0.0
  0
LINE
  5
699
  8
NOTE
  6
CONTINUOUS
 62
     4
 10
-616.0
 20
261.0
 30
0.0
 11
-639.01506400000005
 21
286.54714300000001
 31
0.0
  0
LINE
  5
69A
  8
NOTE
  6
CONTINUOUS
 62
     4
 10
-616.0
 20
261.0
 30
0.0
 11
-623.15805799999998
 21
294.63200699999999
 31
0.0
  0
LINE
  5
69B
  8
DETAIL
  6
CONTINUOUS
 62
     5
 10
-597.00914899999975
 20
255.5
 30
0.0
 11
-580.0
 21
255.5
 31
0.0
  0
LINE
  5
69C
  8
DETAIL
  6
CONTINUOUS
 62
     5
 10
-596.00914899999987
 20
251.5
 30
0.0
 11
-579.99999999999977
 21
251.5
 31
0.0
  0
LINE
  5
69D
  8
DETAIL
  6
CONTINUOUS
 62
     5
 10
-596.00914899999987
 20
270.5
 30
0.0
 11
-579.99999999999977
 21
270.5
 31
0.0
  0
LINE
  5
69E
  8
DETAIL
  6
CONTINUOUS
 62
     5
 10
-597.00914899999975
 20
266.5
 30
0.0
 11
-580.0
 21
266.5
 31
0.0
  0
LINE
  5
69F
  8
DETAIL
  6
CONTINUOUS
 62
     5
 10
-613.00914899999987
 20
250.5
 30
0.0
 11
-600.00914899999987
 21
250.5
 31
0.0
  0
LINE
  5
6A0
  8
DETAIL
  6
CONTINUOUS
 62
     5
 10
-612.00914899999998
 20
255.5
 30
0.0
 11
-599.00914899999975
 21
255.5
 31
0.0
  0
LINE
  5
6A1
  8
DETAIL
  6
CONTINUOUS
 62
     5
 10
-599.00914899999975
 20
251.5
 30
0.0
 11
-600.00914899999987
 21
250.5
 31
0.0
  0
LINE
  5
6A2
  8
DETAIL
  6
CONTINUOUS
 62
     5
 10
-597.00914899999975
 20
252.5
 30
0.0
 11
-596.00914899999987
 21
251.5
 31
0.0
  0
LINE
  5
6A3
  8
DETAIL
  6
CONTINUOUS
 62
     5
 10
-612.00914899999998
 20
255.5
 30
0.0
 11
-613.00914899999987
 21
256.5
 31
0.0
  0
LINE
  5
6A4
  8
DETAIL
  6
CONTINUOUS
 62
     5
 10
-612.00914899999998
 20
255.5
 30
0.0
 11
-613.00914899999987
 21
254.5
 31
0.0
  0
LINE
  5
6A5
  8
DETAIL
  6
CONTINUOUS
 62
     5
 10
-599.00914899999975
 20
256.24000000000001
 30
0.0
 11
-597.00914899999975
 21
256.24000000000001
 31
0.0
  0
LINE
  5
6A6
  8
DETAIL
  6
CONTINUOUS
 62
     5
 10
-597.00914899999975
 20
252.5
 30
0.0
 11
-597.00914899999975
 21
269.5
 31
0.0
  0
LINE
  5
6A7
  8
DETAIL
  6
CONTINUOUS
 62
     5
 10
-599.00914899999975
 20
251.5
 30
0.0
 11
-599.00914899999975
 21
270.5
 31
0.0
  0
LINE
  5
6A8
  8
DETAIL
  6
CONTINUOUS
 62
     5
 10
-613.00914899999987
 20
271.5
 30
0.0
 11
-600.00914899999987
 21
271.5
 31
0.0
  0
LINE
  5
6A9
  8
DETAIL
  6
CONTINUOUS
 62
     5
 10
-613.00914899999987
 20
250.5
 30
0.0
 11
-613.00914899999987
 21
271.5
 31
0.0
  0
LINE
  5
6AA
  8
DETAIL
  6
CONTINUOUS
 62
     5
 10
-612.00914899999998
 20
266.5
 30
0.0
 11
-599.00914899999975
 21
266.5
 31
0.0
  0
LINE
  5
6AB
  8
DETAIL
  6
CONTINUOUS
 62
     5
 10
-600.00914899999987
 20
271.5
 30
0.0
 11
-599.00914899999975
 21
270.5
 31
0.0
  0
LINE
  5
6AC
  8
DETAIL
  6
CONTINUOUS
 62
     5
 10
-597.00914899999975
 20
269.5
 30
0.0
 11
-596.00914899999987
 21
270.5
 31
0.0
  0
LINE
  5
6AD
  8
DETAIL
  6
CONTINUOUS
 62
     5
 10
-612.00914899999998
 20
266.5
 30
0.0
 11
-613.00914899999987
 21
267.5
 31
0.0
  0
LINE
  5
6AE
  8
DETAIL
  6
CONTINUOUS
 62
     5
 10
-612.00914899999998
 20
266.5
 30
0.0
 11
-613.00914899999987
 21
265.5
 31
0.0
  0
LINE
  5
6AF
  8
DETAIL
  6
CONTINUOUS
 62
     5
 10
-599.00914899999975
 20
265.75999999999999
 30
0.0
 11
-597.00914899999975
 21
265.75999999999999
 31
0.0
  0
LINE
  5
6B6
  8
DETAIL
  6
CONTINUOUS
 62
     5
 10
-616.0
 20
255.5
 30
0.0
 11
-616.0
 21
266.5
 31
0.0
  0
LINE
  5
6B7
  8
DETAIL
  6
CONTINUOUS
 62
     5
 10
-616.0
 20
255.5
 30
0.0
 11
-613.00914899999987
 21
250.5
 31
0.0
  0
LINE
  5
6C2
  8
DETAIL
  6
CONTINUOUS
 62
     5
 10
-616.0
 20
266.5
 30
0.0
 11
-613.00914899999987
 21
271.5
 31
0.0
  0
POINT
  5
6C8
  8
DEFPOINTS
  6
CONTINUOUS
 62
     7
 10
-585.49085100000002
 20
168.0
 30
0.0
  0
POINT
  5
6C9
  8
DEFPOINTS
  6
CONTINUOUS
 62
     7
 10
-627.25914899999987
 20
233.0
 30
0.0
  0
POINT
  5
6CA
  8
DEFPOINTS
  6
CONTINUOUS
 62
     7
 10
-621.49999999999989
 20
261.0
 30
0.0
  0
POINT
  5
6CB
  8
DEFPOINTS
  6
CONTINUOUS
 62
     7
 10
-621.49999999999989
 20
261.0
 30
0.0
  0
LINE
  5
6CC
  8
NOTE
  6
CONTINUOUS
 62
     4
 10
-574.5
 20
168.0
 30
0.0
 11
-585.5
 21
168.0
 31
0.0
  0
LINE
  5
6CD
  8
NOTE
  6
CONTINUOUS
 62
     4
 10
-580.0
 20
173.49999199999999
 30
0.0
 11
-580.0
 21
162.50000800000001
 31
0.0
  0
LINE
  5
6CE
  8
NOTE
  6
CONTINUOUS
 62
     4
 10
-607.75
 20
233.0
 30
0.0
 11
-630.24999999999989
 21
233.0
 31
0.0
  0
LINE
  5
6CF
  8
NOTE
  6
CONTINUOUS
 62
     4
 10
-619.0
 20
244.24999600000001
 30
0.0
 11
-619.0
 21
221.75000399999999
 31
0.0
  0
LINE
  5
6D0
  8
NOTE
  6
CONTINUOUS
 62
     4
 10
-619.0
 20
233.0
 30
0.0
 11
-633.40562099999988
 21
201.77776800000001
 31
0.0
  0
LINE
  5
6D1
  8
NOTE
  6
CONTINUOUS
 62
     4
 10
-619.0
 20
233.0
 30
0.0
 11
-647.08675000000005
 21
213.16356500000001
 31
0.0
  0
LINE
  5
6D2
  8
DETAIL
  6
CONTINUOUS
 62
     5
 10
-619.0
 20
244.25
 30
0.0
 11
-619.0
 21
221.75
 31
0.0
  0
LINE
  5
6D3
  8
DETAIL
  6
CONTINUOUS
 62
     5
 10
-580.0
 20
221.5
 30
0.0
 11
-594.00914899999987
 21
221.5
 31
0.0
  0
LINE
  5
6D4
  8
DETAIL
  6
CONTINUOUS
 62
     5
 10
-580.0
 20
244.5
 30
0.0
 11
-594.00914899999987
 21
244.5
 31
0.0
  0
LINE
  5
6D5
  8
DETAIL
  6
CONTINUOUS
 62
     5
 10
-614.00914899999987
 20
226.0
 30
0.0
 11
-616.00914899999987
 21
224.0
 31
0.0
  0
LINE
  5
6D7
  8
DETAIL
  6
CONTINUOUS
 62
     5
 10
-614.00914899999987
 20
226.0
 30
0.0
 11
-616.00914899999987
 21
228.0
 31
0.0
  0
LINE
  5
6D9
  8
DETAIL
  6
CONTINUOUS
 62
     5
 10
-614.00914899999987
 20
240.0
 30
0.0
 11
-616.00914899999987
 21
238.0
 31
0.0
  0
LINE
  5
6DB
  8
DETAIL
  6
CONTINUOUS
 62
     5
 10
-614.00914899999987
 20
240.0
 30
0.0
 11
-616.00914899999987
 21
242.0
 31
0.0
  0
LINE
  5
6DD
  8
DETAIL
  6
CONTINUOUS
 62
     5
 10
-602.00914899999987
 20
240.0
 30
0.0
 11
-600.00914899999987
 21
242.0
 31
0.0
  0
LINE
  5
6DF
  8
DETAIL
  6
CONTINUOUS
 62
     5
 10
-602.00914899999987
 20
240.0
 30
0.0
 11
-600.00914899999987
 21
238.0
 31
0.0
  0
LINE
  5
6E1
  8
DETAIL
  6
CONTINUOUS
 62
     5
 10
-602.00914899999987
 20
226.0
 30
0.0
 11
-600.00914899999987
 21
228.0
 31
0.0
  0
LINE
  5
6E3
  8
DETAIL
  6
CONTINUOUS
 62
     5
 10
-602.00914899999987
 20
226.0
 30
0.0
 11
-600.00914899999987
 21
224.0
 31
0.0
  0
LINE
  5
6E5
  8
DETAIL
  6
CONTINUOUS
 62
     5
 10
-602.00914899999987
 20
226.0
 30
0.0
 11
-614.00914899999987
 21
226.0
 31
0.0
  0
LINE
  5
6E7
  8
DETAIL
  6
CONTINUOUS
 62
     5
 10
-602.00914899999987
 20
240.0
 30
0.0
 11
-614.00914899999987
 21
240.0
 31
0.0
  0
LINE
  5
6E9
  8
DETAIL
  6
CONTINUOUS
 62
     5
 10
-600.00914899999987
 20
222.0
 30
0.0
 11
-602.00914899999987
 21
220.0
 31
0.0
  0
LINE
  5
6EB
  8
DETAIL
  6
CONTINUOUS
 62
     5
 10
-600.00914899999987
 20
244.0
 30
0.0
 11
-602.00914899999987
 21
246.0
 31
0.0
  0
LINE
  5
6ED
  8
DETAIL
  6
CONTINUOUS
 62
     5
 10
-619.0
 20
221.75
 30
0.0
 11
-616.00914899999987
 21
220.0
 31
0.0
  0
LINE
  5
6EE
  8
DETAIL
  6
CONTINUOUS
 62
     5
 10
-616.00914899999987
 20
246.0
 30
0.0
 11
-619.0
 21
244.24999600000001
 31
0.0
  0
LINE
  5
6EF
  8
DETAIL
  6
CONTINUOUS
 62
     5
 10
-616.00914899999987
 20
246.0
 30
0.0
 11
-616.00914899999987
 21
220.0
 31
0.0
  0
LINE
  5
6F1
  8
DETAIL
  6
CONTINUOUS
 62
     5
 10
-600.00914899999987
 20
244.0
 30
0.0
 11
-600.00914899999987
 21
222.0
 31
0.0
  0
LINE
  5
6F3
  8
DETAIL
  6
CONTINUOUS
 62
     5
 10
-602.00914899999987
 20
220.0
 30
0.0
 11
-616.00914899999987
 21
220.0
 31
0.0
  0
LINE
  5
6F5
  8
DETAIL
  6
CONTINUOUS
 62
     5
 10
-602.00914899999987
 20
246.0
 30
0.0
 11
-616.00914899999987
 21
246.0
 31
0.0
  0
LINE
  5
6F8
  8
DETAIL
  6
CONTINUOUS
 62
     5
 10
-600.00914899999987
 20
225.06
 30
0.0
 11
-596.00914899999987
 21
225.06
 31
0.0
  0
LINE
  5
6F9
  8
DETAIL
  6
CONTINUOUS
 62
     5
 10
-600.00914899999987
 20
240.94
 30
0.0
 11
-596.00914899999987
 21
240.94
 31
0.0
  0
LINE
  5
6FA
  8
DETAIL
  6
CONTINUOUS
 62
     5
 10
-596.00914899999987
 20
242.5
 30
0.0
 11
-594.00914899999987
 21
244.5
 31
0.0
  0
LINE
  5
6FB
  8
DETAIL
  6
CONTINUOUS
 62
     5
 10
-596.00914899999987
 20
223.5
 30
0.0
 11
-594.00914899999987
 21
221.5
 31
0.0
  0
LINE
  5
6FC
  8
DETAIL
  6
CONTINUOUS
 62
     5
 10
-596.00914899999987
 20
242.5
 30
0.0
 11
-596.00914899999987
 21
223.5
 31
0.0
  0
ARC
  5
725
  8
DETAIL
  6
CONTINUOUS
 62
     5
 10
-575.0
 20
172.40000000000001
 30
0.0
 40
5.0
 50
180.0
 51
270.0
  0
LINE
  5
726
  8
DETAIL
  6
CONTINUOUS
 62
     5
 10
-562.0
 20
155.0
 30
0.0
 11
-565.0
 21
152.0
 31
0.0
  0
ARC
  5
729
  8
DETAIL
  6
CONTINUOUS
 62
     5
 10
-538.0
 20
202.0
 30
0.0
 40
10.0
 50
180.0
 51
270.0
  0
LINE
  5
72A
  8
SIZE
  6
CONTINUOUS
 62
    30
 10
-570.0
 20
601.24508500000002
 30
0.0
 11
-446.21428600000002
 21
601.24508500000002
 31
0.0
  0
LINE
  5
72B
  8
SIZE
  6
CONTINUOUS
 62
    30
 10
-570.0
 20
515.64482099999987
 30
0.0
 11
-441.5
 21
515.64482099999987
 31
0.0
  0
LINE
  5
72C
  8
DETAIL
  6
CONTINUOUS
 62
     5
 10
-577.0
 20
403.60000000000002
 30
0.0
 11
-546.28492599999993
 21
403.60000000000002
 31
0.0
  0
LINE
  5
72D
  8
SIZE
  6
CONTINUOUS
 62
    30
 10
-580.0
 20
453.0
 30
0.0
 11
-580.0
 21
545.64482099999987
 31
0.0
  0
LINE
  5
72E
  8
SIZE
  6
CONTINUOUS
 62
    30
 10
-614.0
 20
361.71665200000001
 30
0.0
 11
-614.0
 21
545.64482099999987
 31
0.0
  0
POINT
  5
730
  8
DEFPOINTS
  6
CONTINUOUS
 62
     7
 10
-573.0
 20
447.99516599999998
 30
0.0
  0
POINT
  5
731
  8
DEFPOINTS
  6
CONTINUOUS
 62
     7
 10
-573.0
 20
447.99516599999998
 30
0.0
  0
POINT
  5
732
  8
DEFPOINTS
  6
CONTINUOUS
 62
     7
 10
-596.0
 20
428.69999999999987
 30
0.0
  0
POINT
  5
735
  8
DEFPOINTS
  6
CONTINUOUS
 62
     7
 10
-596.0
 20
428.69999999999987
 30
0.0
  0
POINT
  5
738
  8
DEFPOINTS
  6
CONTINUOUS
 62
     7
 10
-614.0
 20
341.71665200000001
 30
0.0
  0
POINT
  5
739
  8
DEFPOINTS
  6
CONTINUOUS
 62
     7
 10
-591.70000000000005
 20
433.0
 30
0.0
  0
POINT
  5
73A
  8
DEFPOINTS
  6
CONTINUOUS
 62
     7
 10
-591.70000000000005
 20
433.0
 30
0.0
  0
POINT
  5
73B
  8
DEFPOINTS
  6
CONTINUOUS
 62
     7
 10
-630.71665199999995
 20
325.0
 30
0.0
  0
POINT
  5
73C
  8
DEFPOINTS
  6
CONTINUOUS
 62
     7
 10
-591.70000000000005
 20
433.0
 30
0.0
  0
LINE
  5
73D
  8
NOTE
  6
CONTINUOUS
 62
     4
 10
-597.28334800000016
 20
325.0
 30
0.0
 11
-630.71665199999995
 21
325.0
 31
0.0
  0
LINE
  5
73E
  8
NOTE
  6
CONTINUOUS
 62
     4
 10
-614.0
 20
341.71665200000001
 30
0.0
 11
-614.0
 21
308.28334799999999
 31
0.0
  0
LINE
  5
73F
  8
NOTE
  6
CONTINUOUS
 62
     4
 10
-614.0
 20
325.0
 30
0.0
 11
-637.01506400000005
 21
350.54714300000001
 31
0.0
  0
LINE
  5
740
  8
NOTE
  6
CONTINUOUS
 62
     4
 10
-614.0
 20
325.0
 30
0.0
 11
-621.15805799999976
 21
358.63200699999999
 31
0.0
  0
CIRCLE
  5
741
  8
FIX
  6
CONTINUOUS
 62
    11
 10
-573.0
 20
433.0
 30
0.0
 40
12.421498
  0
LINE
  5
742
  8
NOTE
  6
CONTINUOUS
 62
     4
 10
-573.0
 20
418.00483399999979
 30
0.0
 11
-573.0
 21
447.99516599999998
 31
0.0
  0
LINE
  5
743
  8
NOTE
  6
CONTINUOUS
 62
     4
 10
-587.99516600000004
 20
433.0
 30
0.0
 11
-558.00483399999985
 21
433.0
 31
0.0
  0
POINT
  5
744
  8
DEFPOINTS
  6
CONTINUOUS
 62
     7
 10
-596.0
 20
427.09999999999991
 30
0.0
  0
LINE
  5
745
  8
DETAIL
  6
CONTINUOUS
 62
     5
 10
-580.0
 20
406.60000000000002
 30
0.0
 11
-577.0
 21
403.60000000000002
 31
0.0
  0
LINE
  5
746
  8
DETAIL
  6
CONTINUOUS
 62
     5
 10
-580.0
 20
140.0
 30
0.0
 11
-580.0
 21
433.0
 31
0.0
  0
LINE
  5
748
  8
DETAIL
  6
CONTINUOUS
 62
     5
 10
-580.0
 20
430.69999999999999
 30
0.0
 11
-591.70000000000005
 21
430.69999999999999
 31
0.0
  0
LINE
  5
74B
  8
DETAIL
  6
CONTINUOUS
 62
     5
 10
-593.70000000000016
 20
421.0
 30
0.0
 11
-596.0
 21
421.0
 31
0.0
  0
LINE
  5
74C
  8
DETAIL
  6
CONTINUOUS
 62
     5
 10
-593.70000000000016
 20
428.69999999999987
 30
0.0
 11
-593.70000000000016
 21
421.0
 31
0.0
  0
ARC
  5
74D
  8
DETAIL
  6
CONTINUOUS
 62
     5
 10
-591.70000000000005
 20
428.69999999999987
 30
0.0
 40
2.0
 50
90.0
 51
180.0
  0
LINE
  5
74E
  8
DETAIL
  6
CONTINUOUS
 62
     5
 10
-596.0
 20
428.69999999999987
 30
0.0
 11
-596.0
 21
421.0
 31
0.0
  0
ARC
  5
74F
  8
DETAIL
  6
CONTINUOUS
 62
     5
 10
-591.70000000000005
 20
428.69999999999987
 30
0.0
 40
4.299999999999998
 50
90.0
 51
180.0
  0
LINE
  5
759
  8
DETAIL
  6
CONTINUOUS
 62
     5
 10
-589.0
 20
341.19999999999999
 30
0.0
 11
-580.0
 21
341.35709600000001
 31
0.0
  0
ARC
  5
75A
  8
DETAIL
  6
CONTINUOUS
 62
     5
 10
-613.49999999999977
 20
340.5
 30
0.0
 40
0.5
 50
90.0
 51
180.0
  0
LINE
  5
75B
  8
DETAIL
  6
CONTINUOUS
 62
     5
 10
-589.0
 20
341.0
 30
0.0
 11
-613.49999999999977
 21
341.0
 31
0.0
  0
LINE
  5
75C
  8
DETAIL
  6
CONTINUOUS
 62
     5
 10
-589.0
 20
308.80000000000001
 30
0.0
 11
-580.0
 21
308.64290399999999
 31
0.0
  0
ARC
  5
75D
  8
DETAIL
  6
CONTINUOUS
 62
     5
 10
-613.49999999999977
 20
309.5
 30
0.0
 40
0.5
 50
180.0
 51
270.0
  0
LINE
  5
75E
  8
DETAIL
  6
CONTINUOUS
 62
     5
 10
-589.0
 20
309.0
 30
0.0
 11
-613.49999999999977
 21
309.0
 31
0.0
  0
LINE
  5
75F
  8
DETAIL
  6
CONTINUOUS
 62
     5
 10
-589.0
 20
341.19999999999999
 30
0.0
 11
-589.0
 21
308.80000000000001
 31
0.0
  0
LINE
  5
760
  8
DETAIL
  6
CONTINUOUS
 62
     5
 10
-614.0
 20
340.5
 30
0.0
 11
-614.0
 21
309.5
 31
0.0
  0
POINT
  5
76A
  8
DEFPOINTS
  6
CONTINUOUS
 62
     7
 10
-580.0
 20
601.24508500000002
 30
0.0
  0
LINE
  5
76B
  8
SIZE
  6
CONTINUOUS
 62
    30
 10
-575.0
 20
601.24508500000002
 30
0.0
 11
-570.0
 21
601.24508500000002
 31
0.0
  0
CIRCLE
  5
76C
  8
SIZE
  6
CONTINUOUS
 62
    30
 10
-580.0
 20
601.24508500000002
 30
0.0
 40
5.0
  0
LINE
  5
76D
  8
SIZE
  6
CONTINUOUS
 62
    30
 10
-621.0
 20
601.24508500000002
 30
0.0
 11
-626.0
 21
601.24508500000002
 31
0.0
  0
CIRCLE
  5
76E
  8
SIZE
  6
CONTINUOUS
 62
    30
 10
-616.0
 20
601.24508500000002
 30
0.0
 40
5.0
  0
LINE
  5
76F
  8
SIZE
  6
CONTINUOUS
 62
    30
 10
-616.0
 20
601.24508500000002
 30
0.0
 11
-580.0
 21
601.24508500000002
 31
0.0
  0
LINE
  5
770
  8
SIZE
  6
CONTINUOUS
 62
    30
 10
-626.0
 20
601.24508500000002
 30
0.0
 11
-636.0
 21
601.24508500000002
 31
0.0
  0
POINT
  5
771
  8
DEFPOINTS
  6
CONTINUOUS
 62
     7
 10
-580.0
 20
515.64482099999987
 30
0.0
  0
LINE
  5
772
  8
SIZE
  6
CONTINUOUS
 62
    30
 10
-575.0
 20
515.64482099999987
 30
0.0
 11
-570.0
 21
515.64482099999987
 31
0.0
  0
CIRCLE
  5
773
  8
SIZE
  6
CONTINUOUS
 62
    30
 10
-580.0
 20
515.64482099999987
 30
0.0
 40
5.0
  0
LINE
  5
774
  8
SIZE
  6
CONTINUOUS
 62
    30
 10
-619.0
 20
515.64482099999987
 30
0.0
 11
-624.0
 21
515.64482099999987
 31
0.0
  0
CIRCLE
  5
775
  8
SIZE
  6
CONTINUOUS
 62
    30
 10
-614.0
 20
515.64482099999987
 30
0.0
 40
5.0
  0
LINE
  5
776
  8
SIZE
  6
CONTINUOUS
 62
    30
 10
-614.0
 20
515.64482099999987
 30
0.0
 11
-580.0
 21
515.64482099999987
 31
0.0
  0
LINE
  5
777
  8
SIZE
  6
CONTINUOUS
 62
    30
 10
-624.0
 20
515.64482099999987
 30
0.0
 11
-634.0
 21
515.64482099999987
 31
0.0
  0
POINT
  5
778
  8
DEFPOINTS
  6
CONTINUOUS
 62
     7
 10
-596.0
 20
528.0
 30
0.0
  0
ARC
  5
779
  8
DETAIL
  6
CONTINUOUS
 62
     5
 10
-538.0
 20
398.0
 30
0.0
 40
10.0
 50
90.0
 51
180.0
  0
TEXT
  5
77A
  8
SIZE
  6
CONTINUOUS
 62
    30
 10
-542.0
 20
533.64482099999987
 30
0.0
 40
55.0
  1
34
 41
0.9
 72
     1
 11
-500.75
 21
533.64482099999987
 31
0.0
  0
LINE
  5
77B
  8
NOTE
  6
CONTINUOUS
 62
     4
 10
-829.91198099999986
 20
631.95282999999995
 30
0.0
 11
-1173.6255630000001
 21
631.95282999999995
 31
0.0
  0
TEXT
  5
77C
  8
NOTE
  6
CONTINUOUS
 62
     4
 10
-1151.9502910000001
 20
647.77936099999988
 30
0.0
 40
60.0
  1
RL %%C9.52
 50
0.000003
 41
0.7
  7
STANDARD1
  0
LINE
  5
77D
  8
NOTE
  6
CONTINUOUS
 62
     4
 10
-830.44115599999998
 20
753.39748899999984
 30
0.0
 11
-1177.255017
 21
753.39748899999984
 31
0.0
  0
TEXT
  5
77E
  8
NOTE
  6
CONTINUOUS
 62
     4
 10
-1155.5797459999999
 20
769.22402
 30
0.0
 40
60.0
  1
D1 VP-25
 50
0.000003
 41
0.7
  7
STANDARD1
  0
CIRCLE
  5
77F
  8
SIZE
  6
CONTINUOUS
 62
    30
 10
-573.0
 20
917.16242199999988
 30
0.0
 40
5.0
  0
CIRCLE
  5
780
  8
SIZE
  6
CONTINUOUS
 62
    30
 10
-596.0
 20
917.16242199999988
 30
0.0
 40
5.0
  0
CIRCLE
  5
781
  8
SIZE
  6
CONTINUOUS
 62
    30
 10
-573.0
 20
917.16242199999988
 30
0.0
 40
5.0
  0
LINE
  5
782
  8
SIZE
  6
CONTINUOUS
 62
    30
 10
-570.0
 20
702.35423200000002
 30
0.0
 11
-446.21428600000002
 21
702.35423200000002
 31
0.0
  0
POINT
  5
783
  8
DEFPOINTS
  6
CONTINUOUS
 62
     7
 10
-619.00914899999998
 20
702.35423200000002
 30
0.0
  0
LINE
  5
784
  8
SIZE
  6
CONTINUOUS
 62
    30
 10
-575.0
 20
702.35423200000002
 30
0.0
 11
-570.0
 21
702.35423200000002
 31
0.0
  0
CIRCLE
  5
785
  8
SIZE
  6
CONTINUOUS
 62
    30
 10
-580.0
 20
702.35423200000002
 30
0.0
 40
5.0
  0
LINE
  5
786
  8
SIZE
  6
CONTINUOUS
 62
    30
 10
-624.00914899999998
 20
702.35423200000002
 30
0.0
 11
-629.00914899999998
 21
702.35423200000002
 31
0.0
  0
CIRCLE
  5
787
  8
SIZE
  6
CONTINUOUS
 62
    30
 10
-619.00914899999998
 20
702.35423200000002
 30
0.0
 40
5.0
  0
LINE
  5
788
  8
SIZE
  6
CONTINUOUS
 62
    30
 10
-619.00914899999998
 20
702.35423200000002
 30
0.0
 11
-580.0
 21
702.35423200000002
 31
0.0
  0
LINE
  5
789
  8
SIZE
  6
CONTINUOUS
 62
    30
 10
-629.00914899999998
 20
702.35423200000002
 30
0.0
 11
-639.00914899999975
 21
702.35423200000002
 31
0.0
  0
TEXT
  5
78A
  8
SIZE
  6
CONTINUOUS
 62
    30
 10
-702.35714242857136
 20
818.10319700000014
 30
0.0
 40
55.0
  1
16
 41
0.9
 72
     1
 11
-668.17857100000003
 21
818.10319700000014
 31
0.0
  0
LINE
  5
78B
  8
SIZE
  6
CONTINUOUS
 62
    30
 10
-606.0
 20
800.10319699999968
 30
0.0
 11
-720.35714299999995
 21
800.10319699999968
 31
0.0
  0
LINE
  5
78C
  8
SIZE
  6
CONTINUOUS
 62
    30
 10
-575.0
 20
800.10319699999968
 30
0.0
 11
-570.0
 21
800.10319699999968
 31
0.0
  0
CIRCLE
  5
78D
  8
SIZE
  6
CONTINUOUS
 62
    30
 10
-580.0
 20
800.10319699999968
 30
0.0
 40
5.0
  0
POINT
  5
78E
  8
DEFPOINTS
  6
CONTINUOUS
 62
     7
 10
-580.0
 20
800.10319699999968
 30
0.0
  0
LINE
  5
78F
  8
SIZE
  6
CONTINUOUS
 62
    30
 10
-601.0
 20
800.10319699999968
 30
0.0
 11
-606.0
 21
800.10319699999968
 31
0.0
  0
CIRCLE
  5
790
  8
SIZE
  6
CONTINUOUS
 62
    30
 10
-596.0
 20
800.10319699999968
 30
0.0
 40
5.0
  0
LINE
  5
791
  8
SIZE
  6
CONTINUOUS
 62
    30
 10
-575.0
 20
800.10319699999968
 30
0.0
 11
-570.0
 21
800.10319699999968
 31
0.0
  0
CIRCLE
  5
792
  8
SIZE
  6
CONTINUOUS
 62
    30
 10
-580.0
 20
800.10319699999968
 30
0.0
 40
5.0
  0
LINE
  5
793
  8
SIZE
  6
CONTINUOUS
 62
    30
 10
-580.0
 20
800.10319699999968
 30
0.0
 11
-596.0
 21
800.10319699999968
 31
0.0
  0
LINE
  5
794
  8
SIZE
  6
CONTINUOUS
 62
    30
 10
-570.0
 20
800.10319699999968
 30
0.0
 11
-560.0
 21
800.10319699999968
 31
0.0
  0
TEXT
  5
795
  8
SIZE
  6
CONTINUOUS
 62
    30
 10
-542.00000014285695
 20
720.35423200000002
 30
0.0
 40
55.0
  1
39
 41
0.9
 72
     1
 11
-503.10714299999989
 21
720.35423200000002
 31
0.0
  0
TEXT
  5
796
  8
SIZE
  6
CONTINUOUS
 62
    30
 10
-542.00000014285695
 20
619.24508500000002
 30
0.0
 40
55.0
  1
36
 41
0.9
 72
     1
 11
-503.10714299999989
 21
619.24508500000002
 31
0.0
  0
TEXT
  5
797
  8
SIZE
  6
CONTINUOUS
 62
    30
 10
-714.14285757142841
 20
935.16242199999988
 30
0.0
 40
55.0
  1
23
 41
0.9
 72
     1
 11
-674.07142899999985
 21
935.16242199999988
 31
0.0
  0
LINE
  5
798
  8
SIZE
  6
CONTINUOUS
 62
    30
 10
-606.0
 20
917.16242199999988
 30
0.0
 11
-732.14285700000005
 21
917.16242199999988
 31
0.0
  0
LINE
  5
799
  8
SIZE
  6
CONTINUOUS
 62
    30
 10
-568.0
 20
917.16242199999988
 30
0.0
 11
-563.0
 21
917.16242199999988
 31
0.0
  0
POINT
  5
79A
  8
DEFPOINTS
  6
CONTINUOUS
 62
     7
 10
-573.0
 20
917.16242199999988
 30
0.0
  0
LINE
  5
79B
  8
SIZE
  6
CONTINUOUS
 62
    30
 10
-601.0
 20
917.16242199999988
 30
0.0
 11
-606.0
 21
917.16242199999988
 31
0.0
  0
LINE
  5
79C
  8
SIZE
  6
CONTINUOUS
 62
    30
 10
-568.0
 20
917.16242199999988
 30
0.0
 11
-563.0
 21
917.16242199999988
 31
0.0
  0
LINE
  5
79D
  8
SIZE
  6
CONTINUOUS
 62
    30
 10
-573.0
 20
917.16242199999988
 30
0.0
 11
-596.0
 21
917.16242199999988
 31
0.0
  0
LINE
  5
79E
  8
SIZE
  6
CONTINUOUS
 62
    30
 10
-563.0
 20
917.16242199999988
 30
0.0
 11
-553.0
 21
917.16242199999988
 31
0.0
  0
LINE
  5
79F
  8
SIZE
  6
CONTINUOUS
 62
    30
 10
-591.0
 20
1029.149774
 30
0.0
 11
-586.0
 21
1029.149774
 31
0.0
  0
CIRCLE
  5
7A0
  8
SIZE
  6
CONTINUOUS
 62
    30
 10
-596.0
 20
1029.149774
 30
0.0
 40
5.0
  0
LINE
  5
7A1
  8
BASIS
  6
DASHDOT
 62
     6
 10
0.0
 20
468.57171299999987
 30
0.0
 11
0.0
 21
-53.886170999999997
 31
0.0
  0
CIRCLE
  5
7A2
  8
ARRANGE
  6
CONTINUOUS
 62
     1
 10
0.0
 20
0.0
 30
0.0
 40
50.0
  0
CIRCLE
  5
7A3
  8
SIZE
  6
CONTINUOUS
 62
    30
 10
1066.156178
 20
0.0
 30
0.0
 40
5.0
  0
LINE
  5
7A4
  8
SIZE
  6
CONTINUOUS
 62
    30
 10
1066.156178
 20
0.0
 30
0.0
 11
1066.156178
 21
-364.68571400000002
 31
0.0
  0
CIRCLE
  5
7A5
  8
SIZE
  6
CONTINUOUS
 62
    30
 10
841.64437799999985
 20
0.0
 30
0.0
 40
5.0
  0
LINE
  5
7A6
  8
SIZE
  6
CONTINUOUS
 62
    30
 10
841.64437799999985
 20
23.5
 30
0.0
 11
942.66763999999989
 21
-17.519043
 31
0.0
  0
CIRCLE
  5
7A7
  8
SIZE
  6
CONTINUOUS
 62
    30
 10
841.64437799999985
 20
0.0
 30
0.0
 40
5.0
  0
LINE
  5
7A8
  8
SIZE
  6
CONTINUOUS
 62
    30
 10
841.64437799999985
 20
0.0
 30
0.0
 11
841.64437799999985
 21
-8.0
 31
0.0
  0
LINE
  5
7A9
  8
OUTLINE
  6
CONTINUOUS
 62
     3
 10
620.0
 20
-4.0065080000000002
 30
0.0
 11
620.0
 21
0.0
 31
0.0
  0
LINE
  5
7AA
  8
ARRANGE
  6
CONTINUOUS
 62
     1
 10
49.963763
 20
49.596595000000001
 30
0.0
 11
-49.963763
 21
-49.596595000000001
 31
0.0
  0
LINE
  5
7AB
  8
ARRANGE
  6
CONTINUOUS
 62
     1
 10
50.037350000000004
 20
-49.522353000000003
 30
0.0
 11
-50.037350000000004
 21
49.522353000000003
 31
0.0
  0
TEXT
  5
7AC
  8
SIZE
  6
CONTINUOUS
 62
    30
 10
1180.939588
 20
-331.65461600000009
 30
0.0
 40
55.0
  1
パネル直付時
 50
90.0
 41
0.9
 72
     1
 11
1180.939588
 21
-160.05461600000001
 31
0.0
  0
LINE
  5
7AD
  8
DETAIL
  6
CONTINUOUS
 62
     5
 10
620.0
 20
-4.0065080000000002
 30
0.0
 11
620.0
 21
0.0
 31
0.0
  0
LINE
  5
7AE
  8
OUTLINE
  6
CONTINUOUS
 62
     3
 10
566.52999999999997
 20
-8.0
 30
0.0
 11
620.0
 21
-4.0065080000000002
 31
0.0
  0
LINE
  5
7AF
  8
DETAIL
  6
CONTINUOUS
 62
     5
 10
566.52999999999997
 20
-8.0
 30
0.0
 11
620.0
 21
-4.0065080000000002
 31
0.0
  0
TEXT
  5
7B0
  8
SIZE
  6
CONTINUOUS
 62
    30
 10
-307.37142857142862
 20
-160.809889
 30
0.0
 40
55.0
  1
1200（天井開口寸法）
 41
0.9
 72
     1
 11
0.0
 21
-160.809889
 31
0.0
  0
TEXT
  5
7B1
  8
SIZE
  6
CONTINUOUS
 62
    30
 10
-82.497146451933091
 20
-305.59470366055029
 30
0.0
 40
55.0
  1
1240
 41
0.9
 72
     1
 11
0.0028535480669234
 21
-305.59470366055029
 31
0.0
  0
POINT
  5
7B2
  8
DEFPOINTS
  6
CONTINUOUS
 62
     7
 10
566.52999999999997
 20
-8.0
 30
0.0
  0
TEXT
  5
7B3
  8
SIZE
  6
CONTINUOUS
 62
    30
 10
1048.156178
 20
-346.68571414285719
 30
0.0
 40
55.0
  1
140～300
 50
90.0
 41
0.9
 72
     1
 11
1048.156178
 21
-187.34285700000001
 31
0.0
  0
LINE
  5
7B4
  8
SIZE
  6
CONTINUOUS
 62
    30
 10
620.0
 20
-24.006508
 30
0.0
 11
620.0
 21
-355.06746200000009
 31
0.0
  0
POINT
  5
7B5
  8
DEFPOINTS
  6
CONTINUOUS
 62
     7
 10
620.0
 20
-325.06746199999998
 30
0.0
  0
LINE
  5
7B6
  8
SIZE
  6
CONTINUOUS
 62
    30
 10
615.0
 20
-325.06746199999998
 30
0.0
 11
610.0
 21
-325.06746199999998
 31
0.0
  0
CIRCLE
  5
7B7
  8
SIZE
  6
CONTINUOUS
 62
    30
 10
620.0
 20
-325.06746199999998
 30
0.0
 40
5.0
  0
TEXT
  5
7B8
  8
SIZE
  6
CONTINUOUS
 62
    30
 10
823.64437799999985
 20
-79.0
 30
0.0
 40
55.0
  1
8
 50
90.0
 41
0.9
 72
     1
 11
823.64437799999985
 21
-62.5
 31
0.0
  0
LINE
  5
7B9
  8
SIZE
  6
CONTINUOUS
 62
    30
 10
586.52999999999975
 20
-8.0
 30
0.0
 11
871.64437799999985
 21
-8.0
 31
0.0
  0
TEXT
  5
7BA
  8
SIZE
  6
CONTINUOUS
 62
    30
 10
690.4725314285713
 20
-160.809889
 30
0.0
 40
55.0
  1
20
 41
0.9
 72
     1
 11
730.54395999999986
 21
-160.809889
 31
0.0
  0
LINE
  5
7BB
  8
SIZE
  6
CONTINUOUS
 62
    30
 10
620.0
 20
-24.006508
 30
0.0
 11
620.0
 21
-208.809889
 31
0.0
  0
LINE
  5
7BC
  8
SIZE
  6
CONTINUOUS
 62
    30
 10
600.0
 20
-19.0
 30
0.0
 11
600.0
 21
-208.809889
 31
0.0
  0
LINE
  5
7BD
  8
SIZE
  6
CONTINUOUS
 62
    30
 10
600.0
 20
-19.0
 30
0.0
 11
600.0
 21
-208.809889
 31
0.0
  0
LINE
  5
7BE
  8
SIZE
  6
CONTINUOUS
 62
    30
 10
788.61538799999983
 20
-178.809889
 30
0.0
 11
620.0
 21
-178.809889
 31
0.0
  0
POINT
  5
7BF
  8
DEFPOINTS
  6
CONTINUOUS
 62
     7
 10
620.0
 20
-178.809889
 30
0.0
  0
LINE
  5
7C0
  8
SIZE
  6
CONTINUOUS
 62
    30
 10
625.0
 20
-178.809889
 30
0.0
 11
630.0
 21
-178.809889
 31
0.0
  0
CIRCLE
  5
7C1
  8
SIZE
  6
CONTINUOUS
 62
    30
 10
620.0
 20
-178.809889
 30
0.0
 40
5.0
  0
LINE
  5
7C2
  8
SIZE
  6
CONTINUOUS
 62
    30
 10
595.0
 20
-178.809889
 30
0.0
 11
590.0
 21
-178.809889
 31
0.0
  0
CIRCLE
  5
7C3
  8
SIZE
  6
CONTINUOUS
 62
    30
 10
600.0
 20
-178.809889
 30
0.0
 40
5.0
  0
LINE
  5
7C4
  8
SIZE
  6
CONTINUOUS
 62
    30
 10
600.0
 20
-178.809889
 30
0.0
 11
620.0
 21
-178.809889
 31
0.0
  0
LINE
  5
7C5
  8
SIZE
  6
CONTINUOUS
 62
    30
 10
600.0
 20
-178.809889
 30
0.0
 11
620.0
 21
-178.809889
 31
0.0
  0
LINE
  5
7C6
  8
SIZE
  6
CONTINUOUS
 62
    30
 10
630.0
 20
-178.809889
 30
0.0
 11
640.0
 21
-178.809889
 31
0.0
  0
LINE
  5
7C7
  8
SIZE
  6
CONTINUOUS
 62
    30
 10
590.0
 20
-178.809889
 30
0.0
 11
580.0
 21
-178.809889
 31
0.0
  0
POINT
  5
7C8
  8
DEFPOINTS
  6
CONTINUOUS
 62
     7
 10
600.0
 20
-178.809889
 30
0.0
  0
LINE
  5
7C9
  8
SIZE
  6
CONTINUOUS
 62
    30
 10
595.0
 20
-178.809889
 30
0.0
 11
590.0
 21
-178.809889
 31
0.0
  0
CIRCLE
  5
7CA
  8
SIZE
  6
CONTINUOUS
 62
    30
 10
600.0
 20
-178.809889
 30
0.0
 40
5.0
  0
POINT
  5
7CB
  8
DEFPOINTS
  6
CONTINUOUS
 62
     7
 10
620.0
 20
-4.0065080000000002
 30
0.0
  0
POINT
  5
7CC
  8
DEFPOINTS
  6
CONTINUOUS
 62
     7
 10
620.0
 20
-4.0065080000000002
 30
0.0
  0
TEXT
  5
7CD
  8
SIZE
  6
CONTINUOUS
 62
    30
 10
924.66764000000001
 20
-115.6619005714285
 30
0.0
 40
55.0
  1
47
 50
90.0
 41
0.9
 72
     1
 11
924.66764000000001
 21
-75.590471999999977
 31
0.0
  0
LINE
  5
7CE
  8
SIZE
  6
CONTINUOUS
 62
    30
 10
841.64437799999985
 20
-5.0
 30
0.0
 11
841.64437799999985
 21
-10.0
 31
0.0
  0
LINE
  5
7CF
  8
SIZE
  6
CONTINUOUS
 62
    30
 10
841.64437799999985
 20
-10.0
 30
0.0
 11
841.64437799999985
 21
-20.0
 31
0.0
  0
LINE
  5
7D0
  8
SIZE
  6
CONTINUOUS
 62
    30
 10
841.64437799999985
 20
-13.0
 30
0.0
 11
841.64437799999985
 21
-18.0
 31
0.0
  0
CIRCLE
  5
7D1
  8
SIZE
  6
CONTINUOUS
 62
    30
 10
841.64437799999985
 20
-8.0
 30
0.0
 40
5.0
  0
LINE
  5
7D2
  8
SIZE
  6
CONTINUOUS
 62
    30
 10
841.64437799999985
 20
-18.0
 30
0.0
 11
841.64437799999985
 21
-97.0
 31
0.0
  0
LINE
  5
7D3
  8
SIZE
  6
CONTINUOUS
 62
    30
 10
942.66763999999989
 20
-17.519043
 30
0.0
 11
942.66763999999989
 21
-133.6619
 31
0.0
  0
POLYLINE
  5
7D4
  8
SIZE
  6
CONTINUOUS
 62
    30
 66
     1
 10
0.0
 20
0.0
 30
0.0
  0
VERTEX
  5
AD3
  8
SIZE
  6
CONTINUOUS
 62
    30
 10
1104.7471230000001
 20
-325.09331100000009
 30
0.0
 42
0.186174
  0
VERTEX
  5
AD4
  8
SIZE
  6
CONTINUOUS
 62
    30
 10
1113.5969720000001
 20
-346.042799
 30
0.0
 42
0.082105
  0
VERTEX
  5
AD5
  8
SIZE
  6
CONTINUOUS
 62
    30
 10
1129.2994739999999
 20
-358.21735999999999
 30
0.0
 42
0.058826
  0
VERTEX
  5
AD6
  8
SIZE
  6
CONTINUOUS
 62
    30
 10
1151.0855320000001
 20
-366.99228700000009
 30
0.0
 42
0.067494
  0
VERTEX
  5
AD7
  8
SIZE
  6
CONTINUOUS
 62
    30
 10
1188.5740920000001
 20
-371.93779000000001
 30
0.0
 42
0.067494
  0
VERTEX
  5
AD8
  8
SIZE
  6
CONTINUOUS
 62
    30
 10
1226.062651
 20
-366.99228700000009
 30
0.0
 42
0.058826
  0
VERTEX
  5
AD9
  8
SIZE
  6
CONTINUOUS
 62
    30
 10
1247.8487090000001
 20
-358.21735999999999
 30
0.0
 42
0.082105
  0
VERTEX
  5
ADA
  8
SIZE
  6
CONTINUOUS
 62
    30
 10
1263.551211
 20
-346.042799
 30
0.0
 42
0.186174
  0
VERTEX
  5
ADB
  8
SIZE
  6
CONTINUOUS
 62
    30
 10
1272.4010599999999
 20
-325.09331100000009
 30
0.0
 42
0.186174
  0
VERTEX
  5
ADC
  8
SIZE
  6
CONTINUOUS
 62
    30
 10
1272.4010599999999
 20
-325.09331100000009
 30
0.0
 42
0.186174
  0
SEQEND
  5
ADD
  8
SIZE
  6
CONTINUOUS
 62
    30
  0
TEXT
  5
7E0
  8
SIZE
  6
CONTINUOUS
 62
    30
 10
1264.6893660000001
 20
-274.79596571428573
 30
0.0
 40
55.0
  1
50～60
 50
90.0
 41
0.9
 72
     1
 11
1264.6893660000001
 21
-157.88167999999999
 31
0.0
  0
LINE
  5
7E1
  8
SIZE
  6
CONTINUOUS
 62
    30
 10
586.0
 20
58.769508999999999
 30
0.0
 11
504.64285699999988
 21
58.769508999999999
 31
0.0
  0
LINE
  5
7E2
  8
SIZE
  6
CONTINUOUS
 62
    30
 10
568.0
 20
917.16242199999988
 30
0.0
 11
563.0
 21
917.16242199999988
 31
0.0
  0
LINE
  5
7E3
  8
SIZE
  6
CONTINUOUS
 62
    30
 10
568.0
 20
917.16242199999988
 30
0.0
 11
563.0
 21
917.16242199999988
 31
0.0
  0
LINE
  5
7E4
  8
SIZE
  6
CONTINUOUS
 62
    30
 10
570.0
 20
800.10319699999968
 30
0.0
 11
560.0
 21
800.10319699999968
 31
0.0
  0
LINE
  5
7E5
  8
SIZE
  6
CONTINUOUS
 62
    30
 10
490.0
 20
297.0
 30
0.0
 11
930.88383799999986
 21
297.0
 31
0.0
  0
LINE
  5
7E6
  8
NOTE
  6
CONTINUOUS
 62
     4
 10
714.60247000000004
 20
455.68513999999999
 30
0.0
 11
350.0
 21
297.0
 31
0.0
  0
CIRCLE
  5
7E7
  8
FIX
  6
CONTINUOUS
 62
    11
 10
573.0
 20
433.0
 30
0.0
 40
12.421498
  0
LINE
  5
7E8
  8
NOTE
  6
CONTINUOUS
 62
     4
 10
587.99516600000004
 20
433.0
 30
0.0
 11
558.00483399999985
 21
433.0
 31
0.0
  0
LINE
  5
7E9
  8
DETAIL
  6
CONTINUOUS
 62
     5
 10
546.28492599999993
 20
403.60000000000002
 30
0.0
 11
577.0
 21
403.60000000000002
 31
0.0
  0
LINE
  5
7EA
  8
SIZE
  6
CONTINUOUS
 62
    30
 10
359.99999400000002
 20
510.57584699999978
 30
0.0
 11
569.99999400000002
 21
510.57584699999978
 31
0.0
  0
CIRCLE
  5
7EB
  8
DETAIL
  6
CONTINUOUS
 62
     5
 10
30.0
 20
297.0
 30
0.0
 40
100.0
  0
LINE
  5
7EC
  8
NOTE
  6
CONTINUOUS
 62
     4
 10
150.0
 20
297.0
 30
0.0
 11
-90.0
 21
297.0
 31
0.0
  0
LINE
  5
7ED
  8
SIZE
  6
CONTINUOUS
 62
    30
 10
40.000000999999997
 20
510.57587799999999
 30
0.0
 11
339.99999400000002
 21
510.57587799999999
 31
0.0
  0
LINE
  5
7EE
  8
NOTE
  6
CONTINUOUS
 62
     4
 10
-290.0
 20
417.0
 30
0.0
 11
-290.0
 21
177.0
 31
0.0
  0
CIRCLE
  5
7EF
  8
DETAIL
  6
CONTINUOUS
 62
     5
 10
30.0
 20
297.0
 30
0.0
 40
85.5
  0
LINE
  5
7F0
  8
NOTE
  6
CONTINUOUS
 62
     4
 10
30.0
 20
417.0
 30
0.0
 11
30.0
 21
177.0
 31
0.0
  0
TEXT
  5
7F1
  8
SIZE
  6
CONTINUOUS
 62
    30
 10
-193.64285614285711
 20
528.57584699999995
 30
0.0
 40
55.0
  1
320
 41
0.9
 72
     1
 11
-129.999999
 21
528.57584699999995
 31
0.0
  0
LINE
  5
7F2
  8
SIZE
  6
CONTINUOUS
 62
    30
 10
-280.00000599999998
 20
510.57584699999978
 30
0.0
 11
20.000001000000001
 21
510.57584699999978
 31
0.0
  0
LINE
  5
7F3
  8
SIZE
  6
CONTINUOUS
 62
    30
 10
-290.00000599999998
 20
436.999999
 30
0.0
 11
-290.00000599999998
 21
540.57584699999995
 31
0.0
  0
POINT
  5
7F4
  8
DEFPOINTS
  6
CONTINUOUS
 62
     7
 10
-290.00000599999998
 20
416.99999899999989
 30
0.0
  0
LINE
  5
7F5
  8
SIZE
  6
CONTINUOUS
 62
    30
 10
-285.00000599999998
 20
510.57584699999978
 30
0.0
 11
-280.00000599999998
 21
510.57584699999978
 31
0.0
  0
CIRCLE
  5
7F6
  8
SIZE
  6
CONTINUOUS
 62
    30
 10
-290.00000599999998
 20
510.57584699999978
 30
0.0
 40
5.0
  0
LINE
  5
7F7
  8
SIZE
  6
CONTINUOUS
 62
    30
 10
30.000001000000001
 20
436.999999
 30
0.0
 11
30.000001000000001
 21
540.57584699999995
 31
0.0
  0
LINE
  5
7F8
  8
SIZE
  6
CONTINUOUS
 62
    30
 10
30.000001000000001
 20
436.999999
 30
0.0
 11
30.000001000000001
 21
540.57587799999999
 31
0.0
  0
POINT
  5
7F9
  8
DEFPOINTS
  6
CONTINUOUS
 62
     7
 10
30.000001000000001
 20
416.99999899999989
 30
0.0
  0
POINT
  5
7FA
  8
DEFPOINTS
  6
CONTINUOUS
 62
     7
 10
30.000001000000001
 20
416.99999899999989
 30
0.0
  0
POINT
  5
7FB
  8
DEFPOINTS
  6
CONTINUOUS
 62
     7
 10
30.000001000000001
 20
510.57584699999978
 30
0.0
  0
LINE
  5
7FC
  8
SIZE
  6
CONTINUOUS
 62
    30
 10
25.000001000000001
 20
510.57584699999978
 30
0.0
 11
20.000001000000001
 21
510.57584699999978
 31
0.0
  0
CIRCLE
  5
7FD
  8
SIZE
  6
CONTINUOUS
 62
    30
 10
30.000001000000001
 20
510.57584699999978
 30
0.0
 40
5.0
  0
LINE
  5
7FE
  8
SIZE
  6
CONTINUOUS
 62
    30
 10
35.000000999999997
 20
510.57587799999999
 30
0.0
 11
40.000000999999997
 21
510.57587799999999
 31
0.0
  0
CIRCLE
  5
7FF
  8
SIZE
  6
CONTINUOUS
 62
    30
 10
30.000001000000001
 20
510.57587799999999
 30
0.0
 40
5.0
  0
LINE
  5
800
  8
NOTE
  6
CONTINUOUS
 62
     4
 10
350.0
 20
297.0
 30
0.0
 11
377.84820300000001
 21
317.16996
 31
0.0
  0
CIRCLE
  5
801
  8
DETAIL
  6
CONTINUOUS
 62
     5
 10
350.0
 20
297.0
 30
0.0
 40
100.0
  0
CIRCLE
  5
802
  8
DETAIL
  6
CONTINUOUS
 62
     5
 10
350.0
 20
297.0
 30
0.0
 40
85.5
  0
LINE
  5
803
  8
NOTE
  6
CONTINUOUS
 62
     4
 10
350.0
 20
417.0
 30
0.0
 11
350.0
 21
177.0
 31
0.0
  0
LINE
  5
804
  8
DETAIL
  6
CONTINUOUS
 62
     5
 10
548.0
 20
202.0
 30
0.0
 11
548.0
 21
398.0
 31
0.0
  0
LINE
  5
805
  8
NOTE
  6
CONTINUOUS
 62
     4
 10
470.0
 20
297.0
 30
0.0
 11
230.0
 21
297.0
 31
0.0
  0
LINE
  5
806
  8
DETAIL
  6
CONTINUOUS
 62
     5
 10
565.0
 20
152.0
 30
0.0
 11
565.0
 21
140.0
 31
0.0
  0
TEXT
  5
808
  8
SIZE
  6
CONTINUOUS
 62
    30
 10
522.64285757142852
 20
76.769508999999999
 30
0.0
 40
55.0
  1
4
 41
0.9
 72
     1
 11
540.32142899999997
 21
76.769508999999999
 31
0.0
  0
LINE
  5
809
  8
NOTE
  6
CONTINUOUS
 62
     4
 10
350.0
 20
297.0
 30
0.0
 11
384.20223099999998
 21
300.54359499999998
 31
0.0
  0
POINT
  5
80A
  8
DEFPOINTS
  6
CONTINUOUS
 62
     7
 10
470.0
 20
297.0
 30
0.0
  0
ARC
  5
80C
  8
DETAIL
  6
CONTINUOUS
 62
     5
 10
538.0
 20
202.0
 30
0.0
 40
10.0
 50
270.0
 51
0.0
  0
LINE
  5
80D
  8
DETAIL
  6
CONTINUOUS
 62
     5
 10
565.0
 20
152.0
 30
0.0
 11
562.0
 21
155.0
 31
0.0
  0
LINE
  5
80F
  8
SIZE
  6
CONTINUOUS
 62
    30
 10
344.99999400000002
 20
510.57587799999999
 30
0.0
 11
339.99999400000002
 21
510.57587799999999
 31
0.0
  0
TEXT
  5
810
  8
SIZE
  6
CONTINUOUS
 62
    30
 10
126.35713585714279
 20
528.57587799999999
 30
0.0
 40
55.0
  1
320
 41
0.9
 72
     1
 11
189.99999299999999
 21
528.57587799999999
 31
0.0
  0
LINE
  5
811
  8
SIZE
  6
CONTINUOUS
 62
    30
 10
349.99999400000002
 20
436.999999
 30
0.0
 11
349.99999400000002
 21
540.57587799999999
 31
0.0
  0
LINE
  5
812
  8
SIZE
  6
CONTINUOUS
 62
    30
 10
349.99999400000002
 20
436.999999
 30
0.0
 11
349.99999400000002
 21
540.57584699999995
 31
0.0
  0
POINT
  5
813
  8
DEFPOINTS
  6
CONTINUOUS
 62
     7
 10
349.99999400000002
 20
416.99999899999989
 30
0.0
  0
POINT
  5
814
  8
DEFPOINTS
  6
CONTINUOUS
 62
     7
 10
349.99999400000002
 20
416.99999899999989
 30
0.0
  0
ARC
  5
815
  8
DETAIL
  6
CONTINUOUS
 62
     5
 10
538.0
 20
398.0
 30
0.0
 40
10.0
 50
0.0
 51
90.0
  0
TEXT
  5
816
  8
SIZE
  6
CONTINUOUS
 62
    30
 10
401.35713585714262
 20
528.57584699999995
 30
0.0
 40
55.0
  1
230
 41
0.9
 72
     1
 11
464.9999929999999
 21
528.57584699999995
 31
0.0
  0
POINT
  5
817
  8
DEFPOINTS
  6
CONTINUOUS
 62
     7
 10
349.99999400000002
 20
510.57587799999999
 30
0.0
  0
CIRCLE
  5
818
  8
SIZE
  6
CONTINUOUS
 62
    30
 10
349.99999400000002
 20
510.57587799999999
 30
0.0
 40
5.0
  0
LINE
  5
819
  8
SIZE
  6
CONTINUOUS
 62
    30
 10
354.99999400000002
 20
510.57584699999978
 30
0.0
 11
359.99999400000002
 21
510.57584699999978
 31
0.0
  0
CIRCLE
  5
81A
  8
SIZE
  6
CONTINUOUS
 62
    30
 10
349.99999400000002
 20
510.57584699999978
 30
0.0
 40
5.0
  0
TEXT
  5
81B
  8
SIZE
  6
CONTINUOUS
 62
    30
 10
-77.785714285714292
 20
818.10319700000014
 30
0.0
 40
55.0
  1
1160
 41
0.9
 72
     1
 11
0.0
 21
818.10319700000014
 31
0.0
  0
TEXT
  5
81C
  8
SIZE
  6
CONTINUOUS
 62
    30
 10
-79.936179285714275
 20
1047.149774
 30
0.0
 40
55.0
  1
1192
 41
0.9
 72
     1
 11
-2.1504650000000001
 21
1047.149774
 31
0.0
  0
LINE
  5
81D
  8
SIZE
  6
CONTINUOUS
 62
    30
 10
563.0
 20
917.16242199999988
 30
0.0
 11
553.0
 21
917.16242199999988
 31
0.0
  0
LINE
  5
81E
  8
SIZE
  6
CONTINUOUS
 62
    30
 10
596.0
 20
447.10000000000002
 30
0.0
 11
596.0
 21
947.16242199999999
 31
0.0
  0
LINE
  5
81F
  8
SIZE
  6
CONTINUOUS
 62
    30
 10
573.0
 20
467.99516599999993
 30
0.0
 11
573.0
 21
947.16242199999999
 31
0.0
  0
LINE
  5
820
  8
SIZE
  6
CONTINUOUS
 62
    30
 10
573.0
 20
467.99516599999993
 30
0.0
 11
573.0
 21
947.16242199999999
 31
0.0
  0
LINE
  5
821
  8
SIZE
  6
CONTINUOUS
 62
    30
 10
596.0
 20
447.10000000000002
 30
0.0
 11
596.0
 21
830.10319700000002
 31
0.0
  0
LINE
  5
822
  8
SIZE
  6
CONTINUOUS
 62
    30
 10
579.99999400000002
 20
449.999999
 30
0.0
 11
580.0
 21
830.10319700000002
 31
0.0
  0
LINE
  5
823
  8
SIZE
  6
CONTINUOUS
 62
    30
 10
579.99999400000002
 20
449.999999
 30
0.0
 11
580.0
 21
830.10319700000002
 31
0.0
  0
LINE
  5
824
  8
NOTE
  6
CONTINUOUS
 62
     4
 10
683.90362500000003
 20
622.67806900000005
 30
0.0
 11
573.0
 21
433.0
 31
0.0
  0
LINE
  5
825
  8
SIZE
  6
CONTINUOUS
 62
    30
 10
596.0
 20
447.10000000000002
 30
0.0
 11
596.0
 21
1059.149774
 31
0.0
  0
LINE
  5
826
  8
SIZE
  6
CONTINUOUS
 62
    30
 10
639.75868600000001
 20
0.0
 30
0.0
 11
1096.156178
 21
0.0
 31
0.0
  0
LINE
  5
827
  8
SIZE
  6
CONTINUOUS
 62
    30
 10
599.75868600000001
 20
140.0
 30
0.0
 11
1096.156178
 21
140.0
 31
0.0
  0
TEXT
  5
828
  8
NOTE
  6
CONTINUOUS
 62
     4
 10
732.51836200000002
 20
470.48080700000003
 30
0.0
 40
60.0
  1
%%C200 吹出円形フランジ
 50
0.000003
 41
0.7
  7
STANDARD1
  0
LINE
  5
829
  8
NOTE
  6
CONTINUOUS
 62
     4
 10
1310.4620540000001
 20
455.68513999999999
 30
0.0
 11
714.60247000000004
 21
455.68513999999999
 31
0.0
  0
TEXT
  5
82A
  8
SIZE
  6
CONTINUOUS
 62
    30
 10
1048.156178
 20
222.85714285714289
 30
0.0
 40
55.0
  1
293
 50
90.0
 41
0.9
 72
     1
 11
1048.156178
 21
286.5
 31
0.0
  0
LINE
  5
82B
  8
SIZE
  6
CONTINUOUS
 62
    30
 10
611.70000000000005
 20
433.0
 30
0.0
 11
1096.156178
 21
433.0
 31
0.0
  0
LINE
  5
82C
  8
SIZE
  6
CONTINUOUS
 62
    30
 10
599.75868600000001
 20
140.0
 30
0.0
 11
1096.156178
 21
140.0
 31
0.0
  0
LINE
  5
82D
  8
SIZE
  6
CONTINUOUS
 62
    30
 10
596.0
 20
412.91096925744921
 30
0.0
 11
596.0
 21
28.769508999999999
 31
0.0
  0
LINE
  5
82E
  8
SIZE
  6
CONTINUOUS
 62
    30
 10
900.88383799999997
 20
433.0
 30
0.0
 11
900.88383799999997
 21
297.0
 31
0.0
  0
LINE
  5
82F
  8
OUTLINE
  6
CONTINUOUS
 62
     3
 10
580.0
 20
433.0
 30
0.0
 11
580.0
 21
140.0
 31
0.0
  0
LINE
  5
831
  8
SIZE
  6
CONTINUOUS
 62
    30
 10
600.0
 20
47.0
 30
0.0
 11
871.64437799999985
 21
47.0
 31
0.0
  0
LINE
  5
832
  8
SIZE
  6
CONTINUOUS
 62
    30
 10
640.0
 20
0.0
 30
0.0
 11
871.64437799999985
 21
0.0
 31
0.0
  0
LINE
  5
833
  8
SIZE
  6
CONTINUOUS
 62
    30
 10
640.0
 20
0.0
 30
0.0
 11
871.64437799999985
 21
0.0
 31
0.0
  0
LINE
  5
834
  8
DETAIL
  6
CONTINUOUS
 62
     5
 10
580.0
 20
433.0
 30
0.0
 11
580.0
 21
140.0
 31
0.0
  0
LINE
  5
837
  8
NOTE
  6
CONTINUOUS
 62
     4
 10
661.04244000000017
 20
1.0
 30
0.0
 11
681.04244000000017
 21
21.0
 31
0.0
  0
LINE
  5
838
  8
NOTE
  6
CONTINUOUS
 62
     4
 10
600.0
 20
1.0
 30
0.0
 11
701.30744900000002
 21
1.0
 31
0.0
  0
LINE
  5
839
  8
NOTE
  6
CONTINUOUS
 62
     4
 10
600.0
 20
21.0
 30
0.0
 11
701.30744900000002
 21
21.0
 31
0.0
  0
POINT
  5
83A
  8
DEFPOINTS
  6
CONTINUOUS
 62
     7
 10
619.75868600000001
 20
0.0
 30
0.0
  0
POINT
  5
83C
  8
DEFPOINTS
  6
CONTINUOUS
 62
     7
 10
580.0
 20
47.0
 30
0.0
  0
POINT
  5
83D
  8
DEFPOINTS
  6
CONTINUOUS
 62
     7
 10
620.0
 20
0.0
 30
0.0
  0
POINT
  5
83E
  8
DEFPOINTS
  6
CONTINUOUS
 62
     7
 10
620.0
 20
0.0
 30
0.0
  0
POINT
  5
83F
  8
DEFPOINTS
  6
CONTINUOUS
 62
     7
 10
596.0
 20
58.769508999999999
 30
0.0
  0
POINT
  5
840
  8
DEFPOINTS
  6
CONTINUOUS
 62
     7
 10
600.0
 20
21.0
 30
0.0
  0
LINE
  5
841
  8
SIZE
  6
CONTINUOUS
 62
    30
 10
591.0
 20
58.769508999999999
 30
0.0
 11
586.0
 21
58.769508999999999
 31
0.0
  0
CIRCLE
  5
842
  8
SIZE
  6
CONTINUOUS
 62
    30
 10
596.0
 20
58.769508999999999
 30
0.0
 40
5.0
  0
LINE
  5
843
  8
SIZE
  6
CONTINUOUS
 62
    30
 10
605.0
 20
58.769508999999999
 30
0.0
 11
610.0
 21
58.769508999999999
 31
0.0
  0
CIRCLE
  5
844
  8
SIZE
  6
CONTINUOUS
 62
    30
 10
600.0
 20
58.769508999999999
 30
0.0
 40
5.0
  0
LINE
  5
845
  8
SIZE
  6
CONTINUOUS
 62
    30
 10
600.0
 20
58.769508999999999
 30
0.0
 11
596.0
 21
58.769508999999999
 31
0.0
  0
LINE
  5
846
  8
SIZE
  6
CONTINUOUS
 62
    30
 10
610.0
 20
58.769508999999999
 30
0.0
 11
620.0
 21
58.769508999999999
 31
0.0
  0
LINE
  5
847
  8
SIZE
  6
CONTINUOUS
 62
    30
 10
600.0
 20
41.0
 30
0.0
 11
600.0
 21
88.769508999999999
 31
0.0
  0
POINT
  5
848
  8
DEFPOINTS
  6
CONTINUOUS
 62
     7
 10
600.0
 20
1.0
 30
0.0
  0
POINT
  5
849
  8
DEFPOINTS
  6
CONTINUOUS
 62
     7
 10
600.0
 20
1.0
 30
0.0
  0
LINE
  5
84C
  8
OUTLINE
  6
CONTINUOUS
 62
     3
 10
580.0
 20
0.0
 30
0.0
 11
580.0
 21
47.0
 31
0.0
  0
LINE
  5
84E
  8
NOTE
  6
CONTINUOUS
 62
     4
 10
611.04244000000017
 20
1.0
 30
0.0
 11
631.04244000000017
 21
21.0
 31
0.0
  0
LINE
  5
84F
  8
NOTE
  6
CONTINUOUS
 62
     4
 10
651.04244000000006
 20
1.0
 30
0.0
 11
671.04244000000006
 21
21.0
 31
0.0
  0
LINE
  5
850
  8
NOTE
  6
CONTINUOUS
 62
     4
 10
616.04244000000006
 20
1.0
 30
0.0
 11
636.04244000000017
 21
21.0
 31
0.0
  0
LINE
  5
851
  8
NOTE
  6
CONTINUOUS
 62
     4
 10
656.04244000000017
 20
1.0
 30
0.0
 11
676.04244000000006
 21
21.0
 31
0.0
  0
LINE
  5
852
  8
NOTE
  6
CONTINUOUS
 62
     4
 10
621.04244000000006
 20
1.0
 30
0.0
 11
641.04244000000006
 21
21.0
 31
0.0
  0
LINE
  5
853
  8
NOTE
  6
CONTINUOUS
 62
     4
 10
600.0
 20
1.0
 30
0.0
 11
600.0
 21
21.0
 31
0.0
  0
LINE
  5
854
  8
DETAIL
  6
CONTINUOUS
 62
     5
 10
-620.0
 20
0.0
 30
0.0
 11
620.0
 21
0.0
 31
0.0
  0
LINE
  5
856
  8
DETAIL
  6
CONTINUOUS
 62
     5
 10
580.0
 20
0.0
 30
0.0
 11
580.0
 21
47.0
 31
0.0
  0
ARC
  5
857
  8
DETAIL
  6
CONTINUOUS
 62
     5
 10
575.0
 20
172.40000000000001
 30
0.0
 40
5.0
 50
270.0
 51
0.0
  0
POINT
  5
858
  8
DEFPOINTS
  6
CONTINUOUS
 62
     7
 10
841.64437799999985
 20
47.0
 30
0.0
  0
LINE
  5
859
  8
SIZE
  6
CONTINUOUS
 62
    30
 10
841.64437799999985
 20
52.0
 30
0.0
 11
841.64437799999985
 21
57.0
 31
0.0
  0
CIRCLE
  5
85A
  8
SIZE
  6
CONTINUOUS
 62
    30
 10
841.64437799999985
 20
47.0
 30
0.0
 40
5.0
  0
LINE
  5
85B
  8
SIZE
  6
CONTINUOUS
 62
    30
 10
841.64437799999985
 20
0.0
 30
0.0
 11
841.64437799999985
 21
47.0
 31
0.0
  0
LINE
  5
85C
  8
SIZE
  6
CONTINUOUS
 62
    30
 10
841.64437799999985
 20
0.0
 30
0.0
 11
841.64437799999985
 21
47.0
 31
0.0
  0
LINE
  5
85D
  8
SIZE
  6
CONTINUOUS
 62
    30
 10
841.64437799999985
 20
57.0
 30
0.0
 11
841.64437799999985
 21
67.0
 31
0.0
  0
POINT
  5
85E
  8
DEFPOINTS
  6
CONTINUOUS
 62
     7
 10
841.64437799999985
 20
0.0
 30
0.0
  0
LINE
  5
85F
  8
SIZE
  6
CONTINUOUS
 62
    30
 10
841.64437799999985
 20
5.0
 30
0.0
 11
841.64437799999985
 21
10.0
 31
0.0
  0
LINE
  5
860
  8
SIZE
  6
CONTINUOUS
 62
    30
 10
841.64437799999985
 20
10.0
 30
0.0
 11
841.64437799999985
 21
20.0
 31
0.0
  0
CIRCLE
  5
861
  8
SIZE
  6
CONTINUOUS
 62
    30
 10
900.88383799999997
 20
297.0
 30
0.0
 40
5.0
  0
POINT
  5
862
  8
DEFPOINTS
  6
CONTINUOUS
 62
     7
 10
900.88383799999997
 20
297.0
 30
0.0
  0
LINE
  5
863
  8
SIZE
  6
CONTINUOUS
 62
    30
 10
900.88383799999997
 20
292.0
 30
0.0
 11
900.88383799999997
 21
287.0
 31
0.0
  0
LINE
  5
864
  8
SIZE
  6
CONTINUOUS
 62
    30
 10
900.88383799999997
 20
287.0
 30
0.0
 11
900.88383799999997
 21
277.0
 31
0.0
  0
LINE
  5
865
  8
SIZE
  6
CONTINUOUS
 62
    30
 10
611.70000000000005
 20
433.0
 30
0.0
 11
930.88383799999986
 21
433.0
 31
0.0
  0
LINE
  5
866
  8
NOTE
  6
CONTINUOUS
 62
     4
 10
573.0
 20
433.0
 30
0.0
 11
582.01090599999998
 21
466.183629
 31
0.0
  0
LINE
  5
867
  8
NOTE
  6
CONTINUOUS
 62
     4
 10
573.0
 20
433.0
 30
0.0
 11
597.39548899999988
 21
457.23241299999989
 31
0.0
  0
LINE
  5
868
  8
SIZE
  6
CONTINUOUS
 62
    30
 10
579.99999400000002
 20
449.999999
 30
0.0
 11
579.99999400000002
 21
540.57584699999995
 31
0.0
  0
POINT
  5
869
  8
DEFPOINTS
  6
CONTINUOUS
 62
     7
 10
596.0
 20
428.69999999999987
 30
0.0
  0
POINT
  5
86A
  8
DEFPOINTS
  6
CONTINUOUS
 62
     7
 10
573.0
 20
447.99516599999998
 30
0.0
  0
POINT
  5
86B
  8
DEFPOINTS
  6
CONTINUOUS
 62
     7
 10
573.0
 20
447.99516599999998
 30
0.0
  0
POINT
  5
86C
  8
DEFPOINTS
  6
CONTINUOUS
 62
     7
 10
596.0
 20
428.69999999999987
 30
0.0
  0
POINT
  5
86F
  8
DEFPOINTS
  6
CONTINUOUS
 62
     7
 10
591.70000000000005
 20
433.0
 30
0.0
  0
POINT
  5
870
  8
DEFPOINTS
  6
CONTINUOUS
 62
     7
 10
591.70000000000005
 20
433.0
 30
0.0
  0
LINE
  5
871
  8
NOTE
  6
CONTINUOUS
 62
     4
 10
573.0
 20
418.00483399999979
 30
0.0
 11
573.0
 21
447.99516599999998
 31
0.0
  0
POINT
  5
872
  8
DEFPOINTS
  6
CONTINUOUS
 62
     7
 10
596.0
 20
427.09999999999991
 30
0.0
  0
LINE
  5
873
  8
DETAIL
  6
CONTINUOUS
 62
     5
 10
580.0
 20
430.69999999999999
 30
0.0
 11
591.70000000000005
 21
430.69999999999999
 31
0.0
  0
LINE
  5
875
  8
DETAIL
  6
CONTINUOUS
 62
     5
 10
593.70000000000016
 20
421.0
 30
0.0
 11
596.0
 21
421.0
 31
0.0
  0
LINE
  5
876
  8
DETAIL
  6
CONTINUOUS
 62
     5
 10
593.70000000000016
 20
428.69999999999987
 30
0.0
 11
593.70000000000016
 21
421.0
 31
0.0
  0
ARC
  5
877
  8
DETAIL
  6
CONTINUOUS
 62
     5
 10
591.70000000000005
 20
428.69999999999987
 30
0.0
 40
2.0
 50
0.0
 51
90.0
  0
LINE
  5
878
  8
DETAIL
  6
CONTINUOUS
 62
     5
 10
596.0
 20
428.69999999999987
 30
0.0
 11
596.0
 21
421.0
 31
0.0
  0
ARC
  5
879
  8
DETAIL
  6
CONTINUOUS
 62
     5
 10
591.70000000000005
 20
428.69999999999987
 30
0.0
 40
4.299999999999998
 50
0.0
 51
90.0
  0
LINE
  5
881
  8
DETAIL
  6
CONTINUOUS
 62
     5
 10
577.0
 20
403.60000000000002
 30
0.0
 11
580.0
 21
406.60000000000002
 31
0.0
  0
POINT
  5
885
  8
DEFPOINTS
  6
CONTINUOUS
 62
     7
 10
596.0
 20
528.0
 30
0.0
  0
POINT
  5
886
  8
DEFPOINTS
  6
CONTINUOUS
 62
     7
 10
579.99999400000002
 20
510.57584699999978
 30
0.0
  0
LINE
  5
887
  8
SIZE
  6
CONTINUOUS
 62
    30
 10
574.99999400000002
 20
510.57584699999978
 30
0.0
 11
569.99999400000002
 21
510.57584699999978
 31
0.0
  0
CIRCLE
  5
888
  8
SIZE
  6
CONTINUOUS
 62
    30
 10
579.99999400000002
 20
510.57584699999978
 30
0.0
 40
5.0
  0
CIRCLE
  5
889
  8
SIZE
  6
CONTINUOUS
 62
    30
 10
900.88383799999997
 20
433.0
 30
0.0
 40
5.0
  0
TEXT
  5
88A
  8
SIZE
  6
CONTINUOUS
 62
    30
 10
882.88383799999986
 20
307.25
 30
0.0
 40
55.0
  1
136
 50
90.0
 41
0.9
 72
     1
 11
882.88383799999986
 21
365.0
 31
0.0
  0
LINE
  5
88B
  8
SIZE
  6
CONTINUOUS
 62
    30
 10
900.88383799999997
 20
438.0
 30
0.0
 11
900.88383799999997
 21
443.0
 31
0.0
  0
LINE
  5
88C
  8
SIZE
  6
CONTINUOUS
 62
    30
 10
900.88383799999997
 20
443.0
 30
0.0
 11
900.88383799999997
 21
453.0
 31
0.0
  0
LINE
  5
88D
  8
SIZE
  6
CONTINUOUS
 62
    30
 10
1066.156178
 20
150.0
 30
0.0
 11
1066.156178
 21
423.0
 31
0.0
  0
POLYLINE
  5
88E
  8
SIZE
  6
CONTINUOUS
 62
    30
 66
     1
 10
0.0
 20
0.0
 30
0.0
  0
VERTEX
  5
ADE
  8
SIZE
  6
CONTINUOUS
 62
    30
 10
1272.4010599999999
 20
2.6523150000000002
 30
0.0
 42
0.186174
  0
VERTEX
  5
ADF
  8
SIZE
  6
CONTINUOUS
 62
    30
 10
1263.551211
 20
23.601803
 30
0.0
 42
0.082105
  0
VERTEX
  5
AE0
  8
SIZE
  6
CONTINUOUS
 62
    30
 10
1247.8487090000001
 20
35.776364000000001
 30
0.0
 42
0.058826
  0
VERTEX
  5
AE1
  8
SIZE
  6
CONTINUOUS
 62
    30
 10
1226.062651
 20
44.551290999999992
 30
0.0
 42
0.067494
  0
VERTEX
  5
AE2
  8
SIZE
  6
CONTINUOUS
 62
    30
 10
1188.5740920000001
 20
49.496794999999999
 30
0.0
 42
0.067494
  0
VERTEX
  5
AE3
  8
SIZE
  6
CONTINUOUS
 62
    30
 10
1151.0855320000001
 20
44.551290999999992
 30
0.0
 42
0.058826
  0
VERTEX
  5
AE4
  8
SIZE
  6
CONTINUOUS
 62
    30
 10
1129.2994739999999
 20
35.776364000000001
 30
0.0
 42
0.082105
  0
VERTEX
  5
AE5
  8
SIZE
  6
CONTINUOUS
 62
    30
 10
1113.5969720000001
 20
23.601803
 30
0.0
 42
0.186174
  0
VERTEX
  5
AE6
  8
SIZE
  6
CONTINUOUS
 62
    30
 10
1104.7471230000001
 20
2.6523150000000002
 30
0.0
 42
0.186174
  0
SEQEND
  5
AE7
  8
SIZE
  6
CONTINUOUS
 62
    30
  0
POINT
  5
899
  8
DEFPOINTS
  6
CONTINUOUS
 62
     7
 10
1066.156178
 20
0.0
 30
0.0
  0
LINE
  5
89A
  8
SIZE
  6
CONTINUOUS
 62
    30
 10
1066.156178
 20
5.0
 30
0.0
 11
1066.156178
 21
10.0
 31
0.0
  0
LINE
  5
89B
  8
SIZE
  6
CONTINUOUS
 62
    30
 10
1066.156178
 20
135.0
 30
0.0
 11
1066.156178
 21
130.0
 31
0.0
  0
CIRCLE
  5
89C
  8
SIZE
  6
CONTINUOUS
 62
    30
 10
1066.156178
 20
140.0
 30
0.0
 40
5.0
  0
LINE
  5
89D
  8
SIZE
  6
CONTINUOUS
 62
    30
 10
1066.156178
 20
130.0
 30
0.0
 11
1066.156178
 21
10.0
 31
0.0
  0
LINE
  5
89E
  8
SIZE
  6
CONTINUOUS
 62
    30
 10
1066.156178
 20
145.0
 30
0.0
 11
1066.156178
 21
150.0
 31
0.0
  0
CIRCLE
  5
89F
  8
SIZE
  6
CONTINUOUS
 62
    30
 10
1066.156178
 20
140.0
 30
0.0
 40
5.0
  0
POINT
  5
8A0
  8
DEFPOINTS
  6
CONTINUOUS
 62
     7
 10
1066.156178
 20
433.0
 30
0.0
  0
LINE
  5
8A1
  8
SIZE
  6
CONTINUOUS
 62
    30
 10
1066.156178
 20
428.0
 30
0.0
 11
1066.156178
 21
423.0
 31
0.0
  0
CIRCLE
  5
8A2
  8
SIZE
  6
CONTINUOUS
 62
    30
 10
1066.156178
 20
433.0
 30
0.0
 40
5.0
  0
LINE
  5
8A3
  8
NOTE
  6
CONTINUOUS
 62
     4
 10
1396.918234
 20
622.67806900000005
 30
0.0
 11
683.90362500000003
 21
622.67806900000005
 31
0.0
  0
TEXT
  5
8A4
  8
NOTE
  6
CONTINUOUS
 62
     4
 10
705.57889599999999
 20
638.50459999999987
 30
0.0
 40
60.0
  1
AH 4-14×30長穴(M10)
 50
0.000003
 41
0.7
  7
STANDARD1
  0
CIRCLE
  5
8A5
  8
SIZE
  6
CONTINUOUS
 62
    30
 10
596.0
 20
917.16242199999988
 30
0.0
 40
5.0
  0
CIRCLE
  5
8A6
  8
SIZE
  6
CONTINUOUS
 62
    30
 10
573.0
 20
917.16242199999988
 30
0.0
 40
5.0
  0
CIRCLE
  5
8A7
  8
SIZE
  6
CONTINUOUS
 62
    30
 10
573.0
 20
917.16242199999988
 30
0.0
 40
5.0
  0
TEXT
  5
8A8
  8
SIZE
  6
CONTINUOUS
 62
    30
 10
628.05788757142852
 20
813.82723699999985
 30
0.0
 40
55.0
  1
16
 41
0.9
 72
     1
 11
662.23645899999997
 21
813.82723699999985
 31
0.0
  0
POINT
  5
8A9
  8
DEFPOINTS
  6
CONTINUOUS
 62
     7
 10
596.0
 20
800.10319699999968
 30
0.0
  0
LINE
  5
8AA
  8
SIZE
  6
CONTINUOUS
 62
    30
 10
601.0
 20
800.10319699999968
 30
0.0
 11
606.0
 21
800.10319699999968
 31
0.0
  0
CIRCLE
  5
8AB
  8
SIZE
  6
CONTINUOUS
 62
    30
 10
596.0
 20
800.10319699999968
 30
0.0
 40
5.0
  0
LINE
  5
8AC
  8
SIZE
  6
CONTINUOUS
 62
    30
 10
575.0
 20
800.10319699999968
 30
0.0
 11
570.0
 21
800.10319699999968
 31
0.0
  0
CIRCLE
  5
8AD
  8
SIZE
  6
CONTINUOUS
 62
    30
 10
580.0
 20
800.10319699999968
 30
0.0
 40
5.0
  0
LINE
  5
8AE
  8
SIZE
  6
CONTINUOUS
 62
    30
 10
580.0
 20
800.10319699999968
 30
0.0
 11
596.0
 21
800.10319699999968
 31
0.0
  0
LINE
  5
8AF
  8
SIZE
  6
CONTINUOUS
 62
    30
 10
606.0
 20
800.10319699999968
 30
0.0
 11
616.0
 21
800.10319699999968
 31
0.0
  0
POINT
  5
8B0
  8
DEFPOINTS
  6
CONTINUOUS
 62
     7
 10
580.0
 20
800.10319699999968
 30
0.0
  0
LINE
  5
8B1
  8
SIZE
  6
CONTINUOUS
 62
    30
 10
575.0
 20
800.10319699999968
 30
0.0
 11
570.0
 21
800.10319699999968
 31
0.0
  0
CIRCLE
  5
8B2
  8
SIZE
  6
CONTINUOUS
 62
    30
 10
580.0
 20
800.10319699999968
 30
0.0
 40
5.0
  0
TEXT
  5
8B3
  8
SIZE
  6
CONTINUOUS
 62
    30
 10
638.51330142857137
 20
935.16242199999988
 30
0.0
 40
55.0
  1
23
 41
0.9
 72
     1
 11
678.58473000000004
 21
935.16242199999988
 31
0.0
  0
LINE
  5
8B4
  8
SIZE
  6
CONTINUOUS
 62
    30
 10
736.65615899999989
 20
917.16242199999988
 30
0.0
 11
596.0
 21
917.16242199999988
 31
0.0
  0
POINT
  5
8B5
  8
DEFPOINTS
  6
CONTINUOUS
 62
     7
 10
596.0
 20
917.16242199999988
 30
0.0
  0
LINE
  5
8B6
  8
SIZE
  6
CONTINUOUS
 62
    30
 10
601.0
 20
917.16242199999988
 30
0.0
 11
606.0
 21
917.16242199999988
 31
0.0
  0
LINE
  5
8B7
  8
SIZE
  6
CONTINUOUS
 62
    30
 10
573.0
 20
917.16242199999988
 30
0.0
 11
596.0
 21
917.16242199999988
 31
0.0
  0
LINE
  5
8B8
  8
SIZE
  6
CONTINUOUS
 62
    30
 10
573.0
 20
917.16242199999988
 30
0.0
 11
596.0
 21
917.16242199999988
 31
0.0
  0
LINE
  5
8B9
  8
SIZE
  6
CONTINUOUS
 62
    30
 10
606.0
 20
917.16242199999988
 30
0.0
 11
616.0
 21
917.16242199999988
 31
0.0
  0
POINT
  5
8BA
  8
DEFPOINTS
  6
CONTINUOUS
 62
     7
 10
573.0
 20
917.16242199999988
 30
0.0
  0
POINT
  5
8BB
  8
DEFPOINTS
  6
CONTINUOUS
 62
     7
 10
596.0
 20
1029.149774
 30
0.0
  0
LINE
  5
8BC
  8
SIZE
  6
CONTINUOUS
 62
    30
 10
591.0
 20
1029.149774
 30
0.0
 11
586.0
 21
1029.149774
 31
0.0
  0
CIRCLE
  5
8BD
  8
SIZE
  6
CONTINUOUS
 62
    30
 10
596.0
 20
1029.149774
 30
0.0
 40
5.0
  0
ENDSEC
  0
EOF
