  0
SECTION
  2
HEADER
  9
$ACADVER
  1
AC1009
  9
$INSBASE
 10
0.0
 20
0.0
 30
0.0
  9
$EXTMIN
 10
-1194.8080859178219
 20
-436.73033910728918
 30
-0.0000000349181948
  9
$EXTMAX
 10
1371.7435146614951
 20
1258.4121217973329
 30
0.0000000814935747
  9
$LIMMIN
 10
-4267.1522210000003
 20
-2696.0832100000011
  9
$LIMMAX
 10
7190.7174229999991
 20
5141.1553640000002
  9
$ORTHOMODE
 70
     0
  9
$REGENMODE
 70
     1
  9
$FILLMODE
 70
     1
  9
$QTEXTMODE
 70
     0
  9
$MIRRTEXT
 70
     0
  9
$DRAGMODE
 70
     2
  9
$LTSCALE
 40
20.0
  9
$OSMODE
 70
   959
  9
$ATTMODE
 70
     1
  9
$TEXTSIZE
 40
64.0
  9
$TRACEWID
 40
0.05
  9
$TEXTSTYLE
  7
STANDARD
  9
$CLAYER
  8
SYMBOLLINE
  9
$CELTYPE
  6
CONTINUOUS
  9
$CECOLOR
 62
     7
  9
$DIMSCALE
 40
1.0
  9
$DIMASZ
 40
10.0
  9
$DIMEXO
 40
20.0
  9
$DIMDLI
 40
200.0
  9
$DIMRND
 40
0.0
  9
$DIMDLE
 40
0.0
  9
$DIMEXE
 40
30.0
  9
$DIMTP
 40
0.0
  9
$DIMTM
 40
0.0
  9
$DIMTXT
 40
55.0
  9
$DIMCEN
 40
0.0
  9
$DIMTSZ
 40
0.0
  9
$DIMTOL
 70
     0
  9
$DIMLIM
 70
     0
  9
$DIMTIH
 70
     0
  9
$DIMTOH
 70
     0
  9
$DIMSE1
 70
     0
  9
$DIMSE2
 70
     0
  9
$DIMTAD
 70
     1
  9
$DIMZIN
 70
     8
  9
$DIMBLK
  1

  9
$DIMASO
 70
     1
  9
$DIMSHO
 70
     0
  9
$DIMPOST
  1

  9
$DIMAPOST
  1

  9
$DIMALT
 70
     0
  9
$DIMALTD
 70
     2
  9
$DIMALTF
 40
25.399999999999999
  9
$DIMLFAC
 40
1.0
  9
$DIMTOFL
 70
     1
  9
$DIMTVP
 40
0.0
  9
$DIMTIX
 70
     1
  9
$DIMSOXD
 70
     0
  9
$DIMSAH
 70
     1
  9
$DIMBLK1
  1
DOTBLANK
  9
$DIMBLK2
  1
DOTBLANK
  9
$DIMSTYLE
  2
STANDARD
  9
$DIMCLRD
 70
     0
  9
$DIMCLRE
 70
     0
  9
$DIMCLRT
 70
     0
  9
$DIMTFAC
 40
1.0
  9
$DIMGAP
 40
0.09
  9
$LUNITS
 70
     2
  9
$LUPREC
 70
     4
  9
$SKETCHINC
 40
0.1
  9
$FILLETRAD
 40
30.0
  9
$AUNITS
 70
     1
  9
$AUPREC
 70
     3
  9
$MENU
  1
ACAD
  9
$ELEVATION
 40
0.0
  9
$PELEVATION
 40
0.0
  9
$THICKNESS
 40
0.0
  9
$LIMCHECK
 70
     0
  9
$BLIPMODE
 70
     0
  9
$CHAMFERA
 40
0.0
  9
$CHAMFERB
 40
0.0
  9
$SKPOLY
 70
     0
  9
$TDCREATE
 40
2450330.4399309959
  9
$TDUPDATE
 40
2455581.688085672
  9
$TDINDWG
 40
3.6120715161999999
  9
$TDUSRTIMER
 40
3.6120689815000002
  9
$USRTIMER
 70
     1
  9
$ANGBASE
 50
0.0
  9
$ANGDIR
 70
     0
  9
$PDMODE
 70
     3
  9
$PDSIZE
 40
-2.0
  9
$PLINEWID
 40
0.0
  9
$COORDS
 70
     0
  9
$SPLFRAME
 70
     0
  9
$SPLINETYPE
 70
     6
  9
$SPLINESEGS
 70
     8
  9
$ATTDIA
 70
     0
  9
$ATTREQ
 70
     1
  9
$HANDLING
 70
     1
  9
$HANDSEED
  5
94F
  9
$SURFTAB1
 70
     6
  9
$SURFTAB2
 70
     6
  9
$SURFTYPE
 70
     6
  9
$SURFU
 70
     6
  9
$SURFV
 70
     6
  9
$UCSNAME
  2

  9
$UCSORG
 10
0.0
 20
0.0
 30
0.0
  9
$UCSXDIR
 10
1.0
 20
0.0
 30
0.0
  9
$UCSYDIR
 10
0.0
 20
1.0
 30
0.0
  9
$PUCSNAME
  2

  9
$PUCSORG
 10
0.0
 20
0.0
 30
0.0
  9
$PUCSXDIR
 10
1.0
 20
0.0
 30
0.0
  9
$PUCSYDIR
 10
0.0
 20
1.0
 30
0.0
  9
$USERI1
 70
     0
  9
$USERI2
 70
     0
  9
$USERI3
 70
     0
  9
$USERI4
 70
     0
  9
$USERI5
 70
     0
  9
$USERR1
 40
20.0
  9
$USERR2
 40
0.0
  9
$USERR3
 40
0.0
  9
$USERR4
 40
0.0
  9
$USERR5
 40
0.0
  9
$WORLDVIEW
 70
     1
  9
$SHADEDGE
 70
     3
  9
$SHADEDIF
 70
    70
  9
$TILEMODE
 70
     1
  9
$MAXACTVP
 70
    48
  9
$PLIMCHECK
 70
     0
  9
$PEXTMIN
 10
1.0000000000000000E+020
 20
1.0000000000000000E+020
 30
1.0000000000000000E+020
  9
$PEXTMAX
 10
-1.0000000000000000E+020
 20
-1.0000000000000000E+020
 30
-1.0000000000000000E+020
  9
$PLIMMIN
 10
0.0
 20
0.0
  9
$PLIMMAX
 10
12.0
 20
9.0
  9
$UNITMODE
 70
     0
  9
$VISRETAIN
 70
     1
  9
$PLINEGEN
 70
     0
  9
$PSLTSCALE
 70
     1
  0
ENDSEC
  0
SECTION
  2
TABLES
  0
TABLE
  2
VPORT
 70
     1
  0
VPORT
  2
*ACTIVE
 70
     0
 10
0.0
 20
0.0
 11
1.0
 21
1.0
 12
1461.7826010000001
 22
1222.536077
 13
0.0
 23
0.0
 14
50.0
 24
50.0
 15
100.0
 25
100.0
 16
0.0
 26
0.0
 36
1.0
 17
0.0
 27
0.0
 37
0.0
 40
7897.2940420000023
 41
1.5639386189258311
 42
50.0
 43
0.0
 44
0.0
 50
0.0
 51
0.0
 71
     0
 72
  1000
 73
     1
 74
     0
 75
     0
 76
     0
 77
     0
 78
     0
  0
ENDTAB
  0
TABLE
  2
LTYPE
 70
     3
  0
LTYPE
  2
CONTINUOUS
 70
     0
  3
実線
 72
    65
 73
     0
 40
0.0
  0
LTYPE
  2
DASHDOT
 70
     0
  3
____ _ ____ _ ____ _ ____ _ ____ _ ____ _ ____
 72
    65
 73
     4
 40
5.5
 49
4.0
 49
-0.6
 49
0.3
 49
-0.6
  0
ENDTAB
  0
TABLE
  2
LAYER
 70
    12
  0
LAYER
  2
0
 70
     0
 62
     7
  6
CONTINUOUS
  0
LAYER
  2
SYMBOLLINE
 70
     0
 62
    15
  6
CONTINUOUS
  0
LAYER
  2
SIZE
 70
     0
 62
    30
  6
CONTINUOUS
  0
LAYER
  2
OUTLINE
 70
     0
 62
     3
  6
CONTINUOUS
  0
LAYER
  2
DETAIL
 70
     0
 62
     5
  6
CONTINUOUS
  0
LAYER
  2
BASIS
 70
     0
 62
     6
  6
DASHDOT
  0
LAYER
  2
NOTE
 70
     0
 62
     4
  6
CONTINUOUS
  0
LAYER
  2
ARRANGE
 70
     0
 62
     1
  6
CONTINUOUS
  0
LAYER
  2
FIX
 70
     0
 62
    11
  6
CONTINUOUS
  0
LAYER
  2
SERVICESPACE
 70
     0
 62
     2
  6
DASHDOT
  0
LAYER
  2
ETC
 70
     0
 62
    61
  6
CONTINUOUS
  0
LAYER
  2
DEFPOINTS
 70
     0
 62
     7
  6
CONTINUOUS
  0
ENDTAB
  0
TABLE
  2
STYLE
 70
     3
  0
STYLE
  2
STANDARD
 70
     0
 40
0.0
 41
0.9
 50
0.0
 71
     0
 42
64.0
  3
SIMPLEX
  4
BIGFONT
  0
STYLE
  2
ANNOTATIVE
 70
     0
 40
0.0
 41
1.0
 50
0.0
 71
     0
 42
0.2
  3
txt
  4

  0
STYLE
  2
STANDARD1
 70
     0
 40
0.0
 41
1.0
 50
0.0
 71
     0
 42
64.0
  3
MONOTXT
  4
BIGFONT
  0
ENDTAB
  0
TABLE
  2
VIEW
 70
     5
  0
VIEW
  2
ALL
 70
     0
 40
9000.0
 10
241.50664699999999
 20
0.0
 41
12483.01
 11
0.0
 21
0.0
 31
1.0
 12
0.0
 22
0.0
 32
0.0
 42
50.0
 43
0.0
 44
0.0
 50
0.0
 71
     0
  0
ENDTAB
  0
TABLE
  2
UCS
 70
     0
  0
ENDTAB
  0
TABLE
  2
APPID
 70
     4
  0
APPID
  2
ACAD
 70
     0
  0
APPID
  2
ACADANNOTATIVE
 70
     0
  0
APPID
  2
ACAD_MLEADERVER
 70
     0
  0
APPID
  2
ACAD_EXEMPT_FROM_CAD_STANDARDS
 70
     0
  0
ENDTAB
  0
TABLE
  2
DIMSTYLE
 70
     3
  0
DIMSTYLE
  2
STANDARD
 70
     0
  3

  4

  5

  6

  7

 40
1.0
 41
0.18
 42
0.0625
 43
0.38
 44
0.18
 45
0.0
 46
0.0
 47
0.0
 48
0.0
140
0.18
141
0.09
142
0.0
143
25.399999999999999
144
1.0
145
0.0
146
1.0
147
0.09
 71
     0
 72
     0
 73
     1
 74
     1
 75
     0
 76
     0
 77
     0
 78
     0
170
     0
171
     2
172
     0
173
     0
174
     0
175
     0
176
     0
177
     0
178
     0
  0
DIMSTYLE
  2
ANNOTATIVE
 70
     0
  3

  4

  5

  6

  7

 40
1.0
 41
0.18
 42
0.0625
 43
0.38
 44
0.18
 45
0.0
 46
0.0
 47
0.0
 48
0.0
140
0.18
141
0.09
142
0.0
143
25.399999999999999
144
1.0
145
0.0
146
1.0
147
0.09
 71
     0
 72
     0
 73
     1
 74
     1
 75
     0
 76
     0
 77
     0
 78
     0
170
     0
171
     2
172
     0
173
     0
174
     0
175
     0
176
     0
177
     0
178
     0
  0
ENDTAB
  0
ENDSEC
  0
SECTION
  2
BLOCKS
  0
BLOCK
  8
0
  2
$MODEL_SPACE
 70
     0
 10
0.0
 20
0.0
 30
0.0
  3
$MODEL_SPACE
  1

  0
ENDBLK
  5
8C5
  8
0
  0
BLOCK
 67
     1
  8
0
  2
$PAPER_SPACE
 70
     0
 10
0.0
 20
0.0
 30
0.0
  3
$PAPER_SPACE
  1

  0
ENDBLK
  5
8C1
 67
     1
  8
0
  0
BLOCK
  8
0
  2
_DOTBLANK
 70
     0
 10
0.0
 20
0.0
 30
0.0
  3
_DOTBLANK
  1

  0
CIRCLE
  5
32
  8
0
  6
CONTINUOUS
 62
     7
 10
0.0
 20
0.0
 30
0.0
 40
0.5
  0
LINE
  5
33
  8
0
  6
CONTINUOUS
 62
     7
 10
-0.5
 20
0.0
 30
0.0
 11
-1.0
 21
0.0
 31
0.0
  0
ENDBLK
  5
34
  8
0
  0
BLOCK
  8
0
 62
     7
  2
A$C57321B86
 70
     0
 10
0.0
 20
0.0
 30
0.0
  3
A$C57321B86
  1

  0
TEXT
  5
2AB
  8
ETC
  6
CONTINUOUS
 62
    61
 10
1712.271913
 20
1381.0836240000001
 30
0.0
 40
80.0
  1
MPD-RP40_50FA3_5
 50
0.000003
 41
0.8
  0
LINE
  5
2AC
  8
OUTLINE
  6
CONTINUOUS
 62
     3
 10
1351.5727549999999
 20
436.71809000000002
 30
0.0
 11
751.57275500000003
 21
436.71809000000002
 31
0.0
  0
TEXT
  5
2AD
  8
SIZE
  6
CONTINUOUS
 62
    30
 10
806.57275514285709
 20
305.40156200000001
 30
0.0
 40
55.0
  1
17
 41
0.9
 72
     1
 11
841.92989799999998
 21
305.40156200000001
 31
0.0
  0
LINE
  5
2AE
  8
SIZE
  6
CONTINUOUS
 62
    30
 10
778.57275500000003
 20
287.40156200000001
 30
0.0
 11
895.28704100000004
 21
287.40156200000001
 31
0.0
  0
TEXT
  5
2AF
  8
SIZE
  6
CONTINUOUS
 62
    30
 10
779.52649028571432
 20
46.404754999999987
 30
0.0
 40
55.0
  1
566(天井開口寸法)
 41
0.9
 72
     1
 11
1053.1907759999999
 21
46.404754999999987
 31
0.0
  0
LINE
  5
2B0
  8
SIZE
  6
CONTINUOUS
 62
    30
 10
778.57275500000003
 20
29.999993
 30
0.0
 11
1324.5727549999999
 21
29.999993
 31
0.0
  0
LINE
  5
2B1
  8
NOTE
  6
CONTINUOUS
 62
     4
 10
747.0248650000002
 20
749.55474600000002
 30
0.0
 11
1054.960008
 21
646.71808999999985
 31
0.0
  0
LINE
  5
2B2
  8
NOTE
  6
CONTINUOUS
 62
     4
 10
671.32368199999985
 20
848.40407300000004
 30
0.0
 11
1295.0727549999999
 21
684.51629300000002
 31
0.0
  0
LINE
  5
2B3
  8
SIZE
  6
CONTINUOUS
 62
    30
 10
761.57275500000003
 20
186.09143399999999
 30
0.0
 11
1341.5727549999999
 21
186.09143399999999
 31
0.0
  0
LINE
  5
2B4
  8
SIZE
  6
CONTINUOUS
 62
    30
 10
836.57275500000003
 20
1456.4745230000001
 30
0.0
 11
1551.5727549999999
 21
1456.4745230000001
 31
0.0
  0
LINE
  5
2B5
  8
SIZE
  6
CONTINUOUS
 62
    30
 10
862.57275500000003
 20
1330.706173
 30
0.0
 11
867.57275500000014
 21
1330.706173
 31
0.0
  0
LINE
  5
2B6
  8
SIZE
  6
CONTINUOUS
 62
    30
 10
862.57275500000003
 20
1330.706173
 30
0.0
 11
867.57275500000014
 21
1330.706173
 31
0.0
  0
LINE
  5
2B7
  8
OUTLINE
  6
CONTINUOUS
 62
     3
 10
1320.8727550000001
 20
428.71809000000002
 30
0.0
 11
782.27275499999985
 21
428.71809000000002
 31
0.0
  0
LINE
  5
2B8
  8
OUTLINE
  6
CONTINUOUS
 62
     3
 10
783.10275499999989
 20
483.7180899999999
 30
0.0
 11
1320.0427549999999
 21
483.7180899999999
 31
0.0
  0
LINE
  5
2B9
  8
OUTLINE
  6
CONTINUOUS
 62
     3
 10
1561.5727549999999
 20
576.71808999999985
 30
0.0
 11
826.57275500000014
 21
576.71808999999985
 31
0.0
  0
LINE
  5
2BA
  8
OUTLINE
  6
CONTINUOUS
 62
     3
 10
826.57275500000014
 20
869.71808999999985
 30
0.0
 11
1561.5727549999999
 21
869.71808999999985
 31
0.0
  0
LINE
  5
2BB
  8
NOTE
  6
CONTINUOUS
 62
     4
 10
782.310743
 20
661.87090299999977
 30
0.0
 11
874.96000800000002
 21
646.71808999999985
 31
0.0
  0
LINE
  5
2BC
  8
NOTE
  6
CONTINUOUS
 62
     4
 10
885.46915699999988
 20
646.71808999999985
 30
0.0
 11
864.469157
 21
646.71808999999985
 31
0.0
  0
LINE
  5
2BD
  8
NOTE
  6
CONTINUOUS
 62
     4
 10
874.96000800000002
 20
646.71808999999985
 30
0.0
 11
840.62522899999988
 21
644.854601
 31
0.0
  0
LINE
  5
2BE
  8
NOTE
  6
CONTINUOUS
 62
     4
 10
874.96000800000002
 20
646.71808999999985
 30
0.0
 11
843.32412599999986
 21
660.19104900000002
 31
0.0
  0
CIRCLE
  5
2BF
  8
FIX
  6
CONTINUOUS
 62
    11
 10
857.5727549999998
 20
869.71808999999985
 30
0.0
 40
12.421498
  0
LINE
  5
2C0
  8
NOTE
  6
CONTINUOUS
 62
     4
 10
842.57758899999999
 20
869.71808999999985
 30
0.0
 11
872.56792099999996
 21
869.71808999999985
 31
0.0
  0
LINE
  5
2C1
  8
DETAIL
  6
CONTINUOUS
 62
     5
 10
826.57275500000014
 20
869.71808999999985
 30
0.0
 11
1561.5727549999999
 21
869.71808999999985
 31
0.0
  0
CIRCLE
  5
2C2
  8
DETAIL
  6
CONTINUOUS
 62
     5
 10
874.96000800000002
 20
646.71808999999985
 30
0.0
 40
13.0
  0
LINE
  5
2C3
  8
DETAIL
  6
CONTINUOUS
 62
     5
 10
1350.9627559999999
 20
576.71808999999985
 30
0.0
 11
826.57275500000014
 21
576.71808999999985
 31
0.0
  0
LINE
  5
2C4
  8
DETAIL
  6
CONTINUOUS
 62
     5
 10
868.57275500000014
 20
831.71808999999985
 30
0.0
 11
829.57275500000003
 21
831.71808999999985
 31
0.0
  0
LINE
  5
2C5
  8
DETAIL
  6
CONTINUOUS
 62
     5
 10
865.07275500000003
 20
857.71808999999985
 30
0.0
 11
883.07275500000003
 21
857.71808999999985
 31
0.0
  0
LINE
  5
2C6
  8
DETAIL
  6
CONTINUOUS
 62
     5
 10
1320.0427549999999
 20
483.7180899999999
 30
0.0
 11
783.10275499999989
 21
483.7180899999999
 31
0.0
  0
LINE
  5
2C7
  8
DETAIL
  6
CONTINUOUS
 62
     5
 10
1320.8727550000001
 20
428.71809000000002
 30
0.0
 11
782.27275499999985
 21
428.71809000000002
 31
0.0
  0
LINE
  5
2C8
  8
DETAIL
  6
CONTINUOUS
 62
     5
 10
783.10275499999989
 20
436.71809000000002
 30
0.0
 11
1325.0427549999999
 21
436.71809000000002
 31
0.0
  0
LINE
  5
2C9
  8
OUTLINE
  6
CONTINUOUS
 62
     3
 10
751.57275500000003
 20
436.71809000000002
 30
0.0
 11
751.57275500000003
 21
432.71158200000002
 31
0.0
  0
LINE
  5
2CA
  8
DETAIL
  6
CONTINUOUS
 62
     5
 10
751.57275500000003
 20
432.71158200000002
 30
0.0
 11
751.57275500000003
 21
436.71809000000002
 31
0.0
  0
LINE
  5
2CB
  8
SIZE
  6
CONTINUOUS
 62
    30
 10
768.57275500000003
 20
417.71809000000002
 30
0.0
 11
768.57275500000003
 21
-0.000007
 31
0.0
  0
LINE
  5
2CC
  8
SIZE
  6
CONTINUOUS
 62
    30
 10
773.57275500000003
 20
29.999993
 30
0.0
 11
778.57275500000003
 21
29.999993
 31
0.0
  0
CIRCLE
  5
2CD
  8
SIZE
  6
CONTINUOUS
 62
    30
 10
768.57275500000003
 20
29.999993
 30
0.0
 40
5.0
  0
LINE
  5
2CE
  8
SIZE
  6
CONTINUOUS
 62
    30
 10
768.57275500000003
 20
417.71809000000002
 30
0.0
 11
768.57275500000003
 21
257.40156200000001
 31
0.0
  0
LINE
  5
2CF
  8
SIZE
  6
CONTINUOUS
 62
    30
 10
751.57275500000003
 20
412.71158199999991
 30
0.0
 11
751.57275500000003
 21
257.40156200000001
 31
0.0
  0
LINE
  5
2D0
  8
SIZE
  6
CONTINUOUS
 62
    30
 10
751.57275500000003
 20
412.71158199999991
 30
0.0
 11
751.57275500000003
 21
156.09143399999999
 31
0.0
  0
CIRCLE
  5
2D1
  8
SIZE
  6
CONTINUOUS
 62
    30
 10
751.57275500000003
 20
186.09143399999999
 30
0.0
 40
5.0
  0
LINE
  5
2D2
  8
SIZE
  6
CONTINUOUS
 62
    30
 10
756.57275500000003
 20
186.09143399999999
 30
0.0
 11
761.57275500000003
 21
186.09143399999999
 31
0.0
  0
CIRCLE
  5
2D3
  8
SIZE
  6
CONTINUOUS
 62
    30
 10
751.57275500000003
 20
287.40156200000001
 30
0.0
 40
5.0
  0
LINE
  5
2D4
  8
SIZE
  6
CONTINUOUS
 62
    30
 10
751.57275500000003
 20
287.40156200000001
 30
0.0
 11
768.57275500000003
 21
287.40156200000001
 31
0.0
  0
ARC
  5
2D5
  8
OUTLINE
  6
CONTINUOUS
 62
     3
 10
782.27275499999985
 20
548.71809000000007
 30
0.0
 40
120.0
 50
255.17703
 51
270.0
  0
ARC
  5
2D6
  8
DETAIL
  6
CONTINUOUS
 62
     5
 10
782.27275499999985
 20
548.71809000000007
 30
0.0
 40
120.0
 50
255.17703
 51
270.0
  0
POINT
  5
2D7
  8
DEFPOINTS
  6
CONTINUOUS
 62
     7
 10
751.57275500000003
 20
432.71158200000002
 30
0.0
  0
LINE
  5
2D8
  8
SIZE
  6
CONTINUOUS
 62
    30
 10
746.57275500000003
 20
287.40156200000001
 30
0.0
 11
741.57275500000003
 21
287.40156200000001
 31
0.0
  0
LINE
  5
2D9
  8
SIZE
  6
CONTINUOUS
 62
    30
 10
741.57275500000003
 20
287.40156200000001
 30
0.0
 11
731.57275500000003
 21
287.40156200000001
 31
0.0
  0
POINT
  5
2DA
  8
DEFPOINTS
  6
CONTINUOUS
 62
     7
 10
751.57275500000003
 20
432.71158200000002
 30
0.0
  0
POINT
  5
2DB
  8
DEFPOINTS
  6
CONTINUOUS
 62
     7
 10
768.57275500000003
 20
287.40156200000001
 30
0.0
  0
LINE
  5
2DC
  8
SIZE
  6
CONTINUOUS
 62
    30
 10
773.57275500000003
 20
287.40156200000001
 30
0.0
 11
778.57275500000003
 21
287.40156200000001
 31
0.0
  0
CIRCLE
  5
2DD
  8
SIZE
  6
CONTINUOUS
 62
    30
 10
768.57275500000003
 20
287.40156200000001
 30
0.0
 40
5.0
  0
LINE
  5
2DE
  8
NOTE
  6
CONTINUOUS
 62
     4
 10
729.10062400000004
 20
1095.6851869999989
 30
0.0
 11
857.5727549999998
 21
869.71808999999985
 31
0.0
  0
LINE
  5
2DF
  8
SIZE
  6
CONTINUOUS
 62
    30
 10
826.57275500000014
 20
889.71808999999985
 30
0.0
 11
826.57275500000014
 21
1486.4745230000001
 31
0.0
  0
LINE
  5
2E0
  8
SIZE
  6
CONTINUOUS
 62
    30
 10
857.5727549999998
 20
904.71325599999989
 30
0.0
 11
857.5727549999998
 21
1360.706173
 31
0.0
  0
LINE
  5
2E1
  8
SIZE
  6
CONTINUOUS
 62
    30
 10
857.5727549999998
 20
904.71325599999989
 30
0.0
 11
857.5727549999998
 21
1360.706173
 31
0.0
  0
LINE
  5
2E2
  8
SIZE
  6
CONTINUOUS
 62
    30
 10
826.57275500000014
 20
889.71808999999985
 30
0.0
 11
826.57275500000014
 21
1360.706173
 31
0.0
  0
LINE
  5
2E3
  8
NOTE
  6
CONTINUOUS
 62
     4
 10
671.32368199999985
 20
848.40407300000004
 30
0.0
 11
153.78657200000001
 21
848.40407300000004
 31
0.0
  0
TEXT
  5
2E4
  8
NOTE
  6
CONTINUOUS
 62
     4
 10
148.85932600000001
 20
857.14017299999989
 30
0.0
 40
60.0
  1
ドレン排水確認用給水口
 50
0.000003
 41
0.65
  7
STANDARD1
  0
LINE
  5
2E5
  8
OUTLINE
  6
CONTINUOUS
 62
     3
 10
826.57275500000014
 20
576.71808999999985
 30
0.0
 11
826.57275500000014
 21
869.71808999999985
 31
0.0
  0
LINE
  5
2E6
  8
DETAIL
  6
CONTINUOUS
 62
     5
 10
826.57275500000014
 20
869.71808999999985
 30
0.0
 11
826.57275500000014
 21
576.71808999999985
 31
0.0
  0
TEXT
  5
2E7
  8
SIZE
  6
CONTINUOUS
 62
    30
 10
660.42989742857139
 20
538.163321
 30
0.0
 40
55.0
  1
58
 41
0.9
 72
     1
 11
700.50132599999995
 21
538.163321
 31
0.0
  0
LINE
  5
2E8
  8
SIZE
  6
CONTINUOUS
 62
    30
 10
768.57275500000003
 20
520.16332099999977
 30
0.0
 11
642.42989800000021
 21
520.16332099999977
 31
0.0
  0
LINE
  5
2E9
  8
NOTE
  6
CONTINUOUS
 62
     4
 10
736.91110100000003
 20
437.71808999999979
 30
0.0
 11
756.91110100000003
 21
457.71809000000002
 31
0.0
  0
LINE
  5
2EA
  8
NOTE
  6
CONTINUOUS
 62
     4
 10
768.57275500000003
 20
457.71809000000002
 30
0.0
 11
675.86866099999986
 21
457.71809000000002
 31
0.0
  0
LINE
  5
2EB
  8
NOTE
  6
CONTINUOUS
 62
     4
 10
768.57275500000003
 20
437.71808999999979
 30
0.0
 11
675.86866099999986
 21
437.71808999999979
 31
0.0
  0
LINE
  5
2EC
  8
DETAIL
  6
CONTINUOUS
 62
     5
 10
783.10275499999989
 20
436.71809000000002
 30
0.0
 11
751.57275500000003
 21
436.71809000000002
 31
0.0
  0
LINE
  5
2ED
  8
NOTE
  6
CONTINUOUS
 62
     4
 10
696.91110100000003
 20
437.71808999999979
 30
0.0
 11
716.91110100000003
 21
457.71809000000002
 31
0.0
  0
LINE
  5
2EE
  8
NOTE
  6
CONTINUOUS
 62
     4
 10
691.91110100000003
 20
437.71808999999979
 30
0.0
 11
711.91110100000003
 21
457.71809000000002
 31
0.0
  0
LINE
  5
2EF
  8
NOTE
  6
CONTINUOUS
 62
     4
 10
686.91110100000003
 20
437.71808999999979
 30
0.0
 11
706.91110100000003
 21
457.71809000000002
 31
0.0
  0
LINE
  5
2F0
  8
NOTE
  6
CONTINUOUS
 62
     4
 10
726.91110100000003
 20
437.71808999999979
 30
0.0
 11
746.91110100000003
 21
457.71809000000002
 31
0.0
  0
LINE
  5
2F1
  8
NOTE
  6
CONTINUOUS
 62
     4
 10
731.91110100000003
 20
437.71808999999979
 30
0.0
 11
751.91110100000003
 21
457.71809000000002
 31
0.0
  0
POINT
  5
2F2
  8
DEFPOINTS
  6
CONTINUOUS
 62
     7
 10
768.57275500000003
 20
520.16332099999977
 30
0.0
  0
POINT
  5
2F3
  8
DEFPOINTS
  6
CONTINUOUS
 62
     7
 10
768.57275500000003
 20
457.71809000000002
 30
0.0
  0
POINT
  5
2F4
  8
DEFPOINTS
  6
CONTINUOUS
 62
     7
 10
826.57275500000014
 20
576.71808999999985
 30
0.0
  0
LINE
  5
2F5
  8
SIZE
  6
CONTINUOUS
 62
    30
 10
773.57275500000003
 20
520.16332099999977
 30
0.0
 11
778.57275500000003
 21
520.16332099999977
 31
0.0
  0
CIRCLE
  5
2F6
  8
SIZE
  6
CONTINUOUS
 62
    30
 10
768.57275500000003
 20
520.16332099999977
 30
0.0
 40
5.0
  0
LINE
  5
2F7
  8
SIZE
  6
CONTINUOUS
 62
    30
 10
821.57275500000003
 20
520.16332099999977
 30
0.0
 11
816.57275499999969
 21
520.16332099999977
 31
0.0
  0
CIRCLE
  5
2F8
  8
SIZE
  6
CONTINUOUS
 62
    30
 10
826.57275500000014
 20
520.16332099999977
 30
0.0
 40
5.0
  0
LINE
  5
2F9
  8
SIZE
  6
CONTINUOUS
 62
    30
 10
816.57275499999969
 20
520.16332099999977
 30
0.0
 11
778.57275500000003
 21
520.16332099999977
 31
0.0
  0
LINE
  5
2FA
  8
SIZE
  6
CONTINUOUS
 62
    30
 10
768.57275500000003
 20
477.71809000000002
 30
0.0
 11
768.57275500000003
 21
550.163321
 31
0.0
  0
LINE
  5
2FB
  8
SIZE
  6
CONTINUOUS
 62
    30
 10
826.57275500000014
 20
556.71809000000007
 30
0.0
 11
826.57275500000014
 21
490.16332099999988
 31
0.0
  0
POINT
  5
2FC
  8
DEFPOINTS
  6
CONTINUOUS
 62
     7
 10
768.57275500000003
 20
437.71808999999979
 30
0.0
  0
POINT
  5
2FD
  8
DEFPOINTS
  6
CONTINUOUS
 62
     7
 10
768.57275500000003
 20
437.71808999999979
 30
0.0
  0
LINE
  5
2FE
  8
OUTLINE
  6
CONTINUOUS
 62
     3
 10
783.10275499999989
 20
436.71809000000002
 30
0.0
 11
783.10275499999989
 21
483.7180899999999
 31
0.0
  0
LINE
  5
2FF
  8
NOTE
  6
CONTINUOUS
 62
     4
 10
768.57275500000003
 20
437.71808999999979
 30
0.0
 11
768.57275500000003
 21
457.71809000000002
 31
0.0
  0
LINE
  5
300
  8
DETAIL
  6
CONTINUOUS
 62
     5
 10
783.10275499999989
 20
436.71809000000002
 30
0.0
 11
783.10275499999989
 21
483.7180899999999
 31
0.0
  0
LINE
  5
301
  8
DETAIL
  6
CONTINUOUS
 62
     5
 10
783.10275499999989
 20
436.71809000000002
 30
0.0
 11
778.102755
 21
436.71809000000002
 31
0.0
  0
LINE
  5
302
  8
NOTE
  6
CONTINUOUS
 62
     4
 10
782.310743
 20
661.87090299999977
 30
0.0
 11
649.39784400000019
 21
661.87090299999977
 31
0.0
  0
TEXT
  5
303
  8
NOTE
  6
CONTINUOUS
 62
     4
 10
671.07311600000003
 20
677.69743300000005
 30
0.0
 40
60.0
  1
CL
 50
0.000003
 41
0.7
  7
STANDARD1
  0
LINE
  5
304
  8
NOTE
  6
CONTINUOUS
 62
     4
 10
857.5727549999998
 20
869.71808999999985
 30
0.0
 11
834.55769099999998
 21
895.26523299999985
 31
0.0
  0
LINE
  5
305
  8
NOTE
  6
CONTINUOUS
 62
     4
 10
857.5727549999998
 20
869.71808999999985
 30
0.0
 11
850.41469700000005
 21
903.35009700000023
 31
0.0
  0
LINE
  5
306
  8
NOTE
  6
CONTINUOUS
 62
     4
 10
747.0248650000002
 20
749.55474600000002
 30
0.0
 11
649.50318899999979
 21
749.55474600000002
 31
0.0
  0
TEXT
  5
307
  8
NOTE
  6
CONTINUOUS
 62
     4
 10
671.1784610000002
 20
765.38127699999984
 30
0.0
 40
60.0
  1
EL
 50
0.000003
 41
0.7
  7
STANDARD1
  0
POINT
  5
308
  8
DEFPOINTS
  6
CONTINUOUS
 62
     7
 10
826.57275500000014
 20
869.71808999999985
 30
0.0
  0
POINT
  5
309
  8
DEFPOINTS
  6
CONTINUOUS
 62
     7
 10
857.5727549999998
 20
884.713256
 30
0.0
  0
POINT
  5
30A
  8
DEFPOINTS
  6
CONTINUOUS
 62
     7
 10
857.5727549999998
 20
884.713256
 30
0.0
  0
POINT
  5
30B
  8
DEFPOINTS
  6
CONTINUOUS
 62
     7
 10
826.57275500000014
 20
869.71808999999985
 30
0.0
  0
LINE
  5
30C
  8
NOTE
  6
CONTINUOUS
 62
     4
 10
857.5727549999998
 20
884.713256
 30
0.0
 11
857.5727549999998
 21
854.72292400000003
 31
0.0
  0
LINE
  5
30D
  8
DETAIL
  6
CONTINUOUS
 62
     5
 10
826.57275500000014
 20
869.71808999999985
 30
0.0
 11
826.57275500000014
 21
834.71808999999985
 31
0.0
  0
ARC
  5
30E
  8
DETAIL
  6
CONTINUOUS
 62
     5
 10
829.57275500000003
 20
834.71808999999985
 30
0.0
 40
3.0
 50
180.0
 51
270.0
  0
LINE
  5
30F
  8
DETAIL
  6
CONTINUOUS
 62
     5
 10
847.07275500000014
 20
857.71808999999985
 30
0.0
 11
829.07275499999969
 21
857.71808999999985
 31
0.0
  0
LINE
  5
310
  8
DETAIL
  6
CONTINUOUS
 62
     5
 10
850.07275500000003
 20
869.71808999999985
 30
0.0
 11
850.07275500000003
 21
860.71808999999985
 31
0.0
  0
ARC
  5
311
  8
DETAIL
  6
CONTINUOUS
 62
     5
 10
829.57275500000003
 20
860.71808999999985
 30
0.0
 40
3.0
 50
180.0
 51
270.0
  0
ARC
  5
312
  8
DETAIL
  6
CONTINUOUS
 62
     5
 10
847.07275500000014
 20
860.71808999999985
 30
0.0
 40
3.0
 50
270.0
 51
0.0
  0
ARC
  5
313
  8
DETAIL
  6
CONTINUOUS
 62
     5
 10
865.07275500000003
 20
860.71808999999985
 30
0.0
 40
3.0
 50
180.0
 51
270.0
  0
LINE
  5
314
  8
DETAIL
  6
CONTINUOUS
 62
     5
 10
862.0727549999998
 20
869.71808999999985
 30
0.0
 11
862.0727549999998
 21
860.71808999999985
 31
0.0
  0
LINE
  5
315
  8
NOTE
  6
CONTINUOUS
 62
     4
 10
729.10062400000004
 20
1095.6851869999989
 30
0.0
 11
-0.000004
 21
1095.6851869999989
 31
0.0
  0
TEXT
  5
316
  8
NOTE
  6
CONTINUOUS
 62
     4
 10
21.675267999999999
 20
1111.5117170000001
 30
0.0
 40
60.0
  1
AH 4-14×30長穴(M10)
 50
0.000003
 41
0.7
  7
STANDARD1
  0
TEXT
  5
317
  8
SIZE
  6
CONTINUOUS
 62
    30
 10
729.64418328571435
 20
1348.706173
 30
0.0
 40
55.0
  1
31
 41
0.9
 72
     1
 11
759.10846900000001
 21
1348.706173
 31
0.0
  0
LINE
  5
318
  8
SIZE
  6
CONTINUOUS
 62
    30
 10
816.57275499999969
 20
1330.706173
 30
0.0
 11
711.644184
 21
1330.706173
 31
0.0
  0
CIRCLE
  5
319
  8
SIZE
  6
CONTINUOUS
 62
    30
 10
857.5727549999998
 20
1330.706173
 30
0.0
 40
5.0
  0
POINT
  5
31A
  8
DEFPOINTS
  6
CONTINUOUS
 62
     7
 10
857.5727549999998
 20
1330.706173
 30
0.0
  0
LINE
  5
31B
  8
SIZE
  6
CONTINUOUS
 62
    30
 10
821.57275500000003
 20
1330.706173
 30
0.0
 11
816.57275499999969
 21
1330.706173
 31
0.0
  0
CIRCLE
  5
31C
  8
SIZE
  6
CONTINUOUS
 62
    30
 10
826.57275500000014
 20
1330.706173
 30
0.0
 40
5.0
  0
CIRCLE
  5
31D
  8
SIZE
  6
CONTINUOUS
 62
    30
 10
857.5727549999998
 20
1330.706173
 30
0.0
 40
5.0
  0
LINE
  5
31E
  8
SIZE
  6
CONTINUOUS
 62
    30
 10
857.5727549999998
 20
1330.706173
 30
0.0
 11
826.57275500000014
 21
1330.706173
 31
0.0
  0
LINE
  5
31F
  8
SIZE
  6
CONTINUOUS
 62
    30
 10
831.57275500000003
 20
1456.4745230000001
 30
0.0
 11
836.57275500000003
 21
1456.4745230000001
 31
0.0
  0
CIRCLE
  5
320
  8
SIZE
  6
CONTINUOUS
 62
    30
 10
826.57275500000014
 20
1456.4745230000001
 30
0.0
 40
5.0
  0
LINE
  5
321
  8
BASIS
  6
DASHDOT
 62
     6
 10
1194.0727549999999
 20
905.28980299999989
 30
0.0
 11
1194.0727549999999
 21
382.83191900000003
 31
0.0
  0
CIRCLE
  5
322
  8
ARRANGE
  6
CONTINUOUS
 62
     1
 10
1194.0727549999999
 20
436.71809000000002
 30
0.0
 40
50.0
  0
CIRCLE
  5
323
  8
SIZE
  6
CONTINUOUS
 62
    30
 10
2362.0313820000001
 20
436.71809000000002
 30
0.0
 40
5.0
  0
LINE
  5
324
  8
SIZE
  6
CONTINUOUS
 62
    30
 10
2362.0313820000001
 20
436.71809000000002
 30
0.0
 11
2362.0313820000001
 21
72.032375999999999
 31
0.0
  0
CIRCLE
  5
325
  8
SIZE
  6
CONTINUOUS
 62
    30
 10
2055.666068
 20
436.71809000000002
 30
0.0
 40
5.0
  0
LINE
  5
326
  8
SIZE
  6
CONTINUOUS
 62
    30
 10
2055.666068
 20
460.21809000000002
 30
0.0
 11
2182.140394
 21
426.68311599999993
 31
0.0
  0
CIRCLE
  5
327
  8
SIZE
  6
CONTINUOUS
 62
    30
 10
2055.666068
 20
436.71809000000002
 30
0.0
 40
5.0
  0
LINE
  5
328
  8
SIZE
  6
CONTINUOUS
 62
    30
 10
2055.666068
 20
436.71809000000002
 30
0.0
 11
2055.666068
 21
428.71809000000002
 31
0.0
  0
LINE
  5
329
  8
SIZE
  6
CONTINUOUS
 62
    30
 10
1561.5727549999999
 20
643.71809000000019
 30
0.0
 11
1561.5727549999999
 21
-0.000007
 31
0.0
  0
LINE
  5
32A
  8
NOTE
  6
CONTINUOUS
 62
     4
 10
1615.8936819999999
 20
189.85842
 30
0.0
 11
1369.5727549999999
 21
604.71808999999985
 31
0.0
  0
TEXT
  5
32B
  8
SIZE
  6
CONTINUOUS
 62
    30
 10
2474.1399670000001
 20
135.3046479999999
 30
0.0
 40
55.0
  1
パネル直付時
 50
90.0
 41
0.9
 72
     1
 11
2474.1399670000001
 21
306.90464800000001
 31
0.0
  0
LINE
  5
32C
  8
SIZE
  6
CONTINUOUS
 62
    30
 10
1369.5727549999999
 20
681.21809800000005
 30
0.0
 11
1369.5727549999999
 21
154.933122
 31
0.0
  0
LINE
  5
32D
  8
SIZE
  6
CONTINUOUS
 62
    30
 10
1561.5727549999999
 20
663.71808999999985
 30
0.0
 11
1561.5727549999999
 21
154.933122
 31
0.0
  0
LINE
  5
32E
  8
OUTLINE
  6
CONTINUOUS
 62
     3
 10
1351.5727549999999
 20
436.71809000000002
 30
0.0
 11
1351.5727549999999
 21
432.71158200000002
 31
0.0
  0
LINE
  5
32F
  8
NOTE
  6
CONTINUOUS
 62
     4
 10
1601.2480539999999
 20
319.24900600000001
 30
0.0
 11
1433.5727549999999
 21
669.720731
 31
0.0
  0
LINE
  5
330
  8
ARRANGE
  6
CONTINUOUS
 62
     1
 10
1244.0365179999999
 20
486.31468499999988
 30
0.0
 11
1144.1089919999999
 21
387.12149499999998
 31
0.0
  0
LINE
  5
331
  8
ARRANGE
  6
CONTINUOUS
 62
     1
 10
1244.110105
 20
387.19573700000001
 30
0.0
 11
1144.0354050000001
 21
486.2404429999998
 31
0.0
  0
LINE
  5
332
  8
DETAIL
  6
CONTINUOUS
 62
     5
 10
1351.5727549999999
 20
432.71158200000002
 30
0.0
 11
1351.5727549999999
 21
436.71809000000002
 31
0.0
  0
LINE
  5
333
  8
SIZE
  6
CONTINUOUS
 62
    30
 10
1340.8727550000001
 20
428.71809000000002
 30
0.0
 11
2085.666068
 21
428.71809000000002
 31
0.0
  0
LINE
  5
334
  8
NOTE
  6
CONTINUOUS
 62
     4
 10
2050.824482
 20
189.85842
 30
0.0
 11
1615.8936819999999
 21
189.85842
 31
0.0
  0
TEXT
  5
335
  8
NOTE
  6
CONTINUOUS
 62
     4
 10
1627.5893880000001
 20
204.42696100000001
 30
0.0
 40
60.0
  1
D2（自然排水口）
 50
0.000003
 41
0.7
  7
STANDARD1
  0
LINE
  5
336
  8
NOTE
  6
CONTINUOUS
 62
     4
 10
1963.3911800000001
 20
319.24900600000001
 30
0.0
 11
1601.2480539999999
 21
319.24900600000001
 31
0.0
  0
TEXT
  5
337
  8
NOTE
  6
CONTINUOUS
 62
     4
 10
1617.162722
 20
330.01802900000001
 30
0.0
 40
60.0
  1
RG %%C12.7
 50
0.000003
 41
0.7
  7
STANDARD1
  0
LINE
  5
338
  8
SIZE
  6
CONTINUOUS
 62
    30
 10
1324.5727549999999
 20
287.40156200000001
 30
0.0
 11
1207.858469
 21
287.40156200000001
 31
0.0
  0
TEXT
  5
339
  8
SIZE
  6
CONTINUOUS
 62
    30
 10
980.25204185714267
 20
204.09143399999999
 30
0.0
 40
55.0
  1
600
 41
0.9
 72
     1
 11
1043.8948989999999
 21
204.09143399999999
 31
0.0
  0
TEXT
  5
33A
  8
SIZE
  6
CONTINUOUS
 62
    30
 10
1225.8584691428571
 20
305.40156200000001
 30
0.0
 40
55.0
  1
17
 41
0.9
 72
     1
 11
1261.215612
 21
305.40156200000001
 31
0.0
  0
LINE
  5
33B
  8
SIZE
  6
CONTINUOUS
 62
    30
 10
1334.5727549999999
 20
417.71809000000002
 30
0.0
 11
1334.5727549999999
 21
-0.000007
 31
0.0
  0
LINE
  5
33C
  8
SIZE
  6
CONTINUOUS
 62
    30
 10
1334.5727549999999
 20
417.71809000000002
 30
0.0
 11
1334.5727549999999
 21
-0.000007
 31
0.0
  0
LINE
  5
33D
  8
SIZE
  6
CONTINUOUS
 62
    30
 10
1551.5727549999999
 20
29.999993
 30
0.0
 11
1344.5727549999999
 21
29.999993
 31
0.0
  0
TEXT
  5
33E
  8
SIZE
  6
CONTINUOUS
 62
    30
 10
1384.429897857143
 20
47.999992999999982
 30
0.0
 40
55.0
  1
227
 41
0.9
 72
     1
 11
1448.0727549999999
 21
47.999992999999982
 31
0.0
  0
POINT
  5
33F
  8
DEFPOINTS
  6
CONTINUOUS
 62
     7
 10
1334.5727549999999
 20
29.999993
 30
0.0
  0
LINE
  5
340
  8
SIZE
  6
CONTINUOUS
 62
    30
 10
1339.5727549999999
 20
29.999993
 30
0.0
 11
1344.5727549999999
 21
29.999993
 31
0.0
  0
CIRCLE
  5
341
  8
SIZE
  6
CONTINUOUS
 62
    30
 10
1334.5727549999999
 20
29.999993
 30
0.0
 40
5.0
  0
POINT
  5
342
  8
DEFPOINTS
  6
CONTINUOUS
 62
     7
 10
1334.5727549999999
 20
29.999993
 30
0.0
  0
LINE
  5
343
  8
SIZE
  6
CONTINUOUS
 62
    30
 10
1329.5727549999999
 20
29.999993
 30
0.0
 11
1324.5727549999999
 21
29.999993
 31
0.0
  0
CIRCLE
  5
344
  8
SIZE
  6
CONTINUOUS
 62
    30
 10
1334.5727549999999
 20
29.999993
 30
0.0
 40
5.0
  0
LINE
  5
345
  8
SIZE
  6
CONTINUOUS
 62
    30
 10
1556.5727549999999
 20
29.999993
 30
0.0
 11
1551.5727549999999
 21
29.999993
 31
0.0
  0
CIRCLE
  5
346
  8
SIZE
  6
CONTINUOUS
 62
    30
 10
1561.5727549999999
 20
29.999993
 30
0.0
 40
5.0
  0
TEXT
  5
347
  8
SIZE
  6
CONTINUOUS
 62
    30
 10
1420.4338445714291
 20
202.933122
 30
0.0
 40
55.0
  1
192
 41
0.9
 72
     1
 11
1479.3624159999999
 21
202.933122
 31
0.0
  0
LINE
  5
348
  8
SIZE
  6
CONTINUOUS
 62
    30
 10
1551.5727549999999
 20
184.933122
 30
0.0
 11
1379.5727549999999
 21
184.933122
 31
0.0
  0
LINE
  5
349
  8
SIZE
  6
CONTINUOUS
 62
    30
 10
1334.5727549999999
 20
417.71809000000002
 30
0.0
 11
1334.5727549999999
 21
257.40156200000001
 31
0.0
  0
LINE
  5
34A
  8
SIZE
  6
CONTINUOUS
 62
    30
 10
1351.5727549999999
 20
412.71158199999991
 30
0.0
 11
1351.5727549999999
 21
257.40156200000001
 31
0.0
  0
LINE
  5
34B
  8
SIZE
  6
CONTINUOUS
 62
    30
 10
1351.5727549999999
 20
412.71158199999991
 30
0.0
 11
1351.5727549999999
 21
156.09143399999999
 31
0.0
  0
POINT
  5
34C
  8
DEFPOINTS
  6
CONTINUOUS
 62
     7
 10
1351.5727549999999
 20
186.09143399999999
 30
0.0
  0
LINE
  5
34D
  8
SIZE
  6
CONTINUOUS
 62
    30
 10
1346.5727549999999
 20
186.09143399999999
 30
0.0
 11
1341.5727549999999
 21
186.09143399999999
 31
0.0
  0
CIRCLE
  5
34E
  8
SIZE
  6
CONTINUOUS
 62
    30
 10
1351.5727549999999
 20
186.09143399999999
 30
0.0
 40
5.0
  0
POINT
  5
34F
  8
DEFPOINTS
  6
CONTINUOUS
 62
     7
 10
1369.5727549999999
 20
184.933122
 30
0.0
  0
LINE
  5
350
  8
SIZE
  6
CONTINUOUS
 62
    30
 10
1374.5727549999999
 20
184.933122
 30
0.0
 11
1379.5727549999999
 21
184.933122
 31
0.0
  0
CIRCLE
  5
351
  8
SIZE
  6
CONTINUOUS
 62
    30
 10
1369.5727549999999
 20
184.933122
 30
0.0
 40
5.0
  0
POINT
  5
352
  8
DEFPOINTS
  6
CONTINUOUS
 62
     7
 10
1320.8727550000001
 20
428.71809000000002
 30
0.0
  0
POINT
  5
353
  8
DEFPOINTS
  6
CONTINUOUS
 62
     7
 10
1334.5727549999999
 20
287.40156200000001
 30
0.0
  0
POINT
  5
354
  8
DEFPOINTS
  6
CONTINUOUS
 62
     7
 10
1351.5727549999999
 20
432.71158200000002
 30
0.0
  0
LINE
  5
355
  8
SIZE
  6
CONTINUOUS
 62
    30
 10
1329.5727549999999
 20
287.40156200000001
 30
0.0
 11
1324.5727549999999
 21
287.40156200000001
 31
0.0
  0
CIRCLE
  5
356
  8
SIZE
  6
CONTINUOUS
 62
    30
 10
1334.5727549999999
 20
287.40156200000001
 30
0.0
 40
5.0
  0
LINE
  5
357
  8
SIZE
  6
CONTINUOUS
 62
    30
 10
1356.5727549999999
 20
287.40156200000001
 30
0.0
 11
1361.5727549999999
 21
287.40156200000001
 31
0.0
  0
CIRCLE
  5
358
  8
SIZE
  6
CONTINUOUS
 62
    30
 10
1351.5727549999999
 20
287.40156200000001
 30
0.0
 40
5.0
  0
LINE
  5
359
  8
SIZE
  6
CONTINUOUS
 62
    30
 10
1351.5727549999999
 20
287.40156200000001
 30
0.0
 11
1334.5727549999999
 21
287.40156200000001
 31
0.0
  0
LINE
  5
35A
  8
SIZE
  6
CONTINUOUS
 62
    30
 10
1361.5727549999999
 20
287.40156200000001
 30
0.0
 11
1371.5727549999999
 21
287.40156200000001
 31
0.0
  0
POINT
  5
35B
  8
DEFPOINTS
  6
CONTINUOUS
 62
     7
 10
1351.5727549999999
 20
432.71158200000002
 30
0.0
  0
ARC
  5
35C
  8
OUTLINE
  6
CONTINUOUS
 62
     3
 10
1320.8727550000001
 20
548.71809000000007
 30
0.0
 40
120.0
 50
270.0
 51
284.82297
  0
ARC
  5
35D
  8
DETAIL
  6
CONTINUOUS
 62
     5
 10
1320.8727550000001
 20
548.71809000000007
 30
0.0
 40
120.0
 50
270.0
 51
284.82297
  0
LINE
  5
35E
  8
SIZE
  6
CONTINUOUS
 62
    30
 10
1556.5727549999999
 20
184.933122
 30
0.0
 11
1551.5727549999999
 21
184.933122
 31
0.0
  0
CIRCLE
  5
35F
  8
SIZE
  6
CONTINUOUS
 62
    30
 10
1561.5727549999999
 20
184.933122
 30
0.0
 40
5.0
  0
TEXT
  5
360
  8
SIZE
  6
CONTINUOUS
 62
    30
 10
2037.666068
 20
357.71809000000002
 30
0.0
 40
55.0
  1
8
 50
90.0
 41
0.9
 72
     1
 11
2037.666068
 21
374.21809000000002
 31
0.0
  0
LINE
  5
361
  8
SIZE
  6
CONTINUOUS
 62
    30
 10
2055.666068
 20
431.71809000000002
 30
0.0
 11
2055.666068
 21
426.71809000000002
 31
0.0
  0
LINE
  5
362
  8
SIZE
  6
CONTINUOUS
 62
    30
 10
2055.666068
 20
426.71809000000002
 30
0.0
 11
2055.666068
 21
416.71808999999979
 31
0.0
  0
LINE
  5
363
  8
SIZE
  6
CONTINUOUS
 62
    30
 10
2055.666068
 20
423.71809000000002
 30
0.0
 11
2055.666068
 21
418.71809000000002
 31
0.0
  0
CIRCLE
  5
364
  8
SIZE
  6
CONTINUOUS
 62
    30
 10
2055.666068
 20
428.71809000000002
 30
0.0
 40
5.0
  0
LINE
  5
365
  8
SIZE
  6
CONTINUOUS
 62
    30
 10
2055.666068
 20
418.71809000000002
 30
0.0
 11
2055.666068
 21
339.71809000000002
 31
0.0
  0
TEXT
  5
366
  8
SIZE
  6
CONTINUOUS
 62
    30
 10
2164.140394
 20
328.54025942857152
 30
0.0
 40
55.0
  1
47
 50
90.0
 41
0.9
 72
     1
 11
2164.140394
 21
368.61168800000002
 31
0.0
  0
LINE
  5
367
  8
SIZE
  6
CONTINUOUS
 62
    30
 10
2182.140394
 20
426.68311599999993
 30
0.0
 11
2182.140394
 21
310.54025899999999
 31
0.0
  0
TEXT
  5
368
  8
SIZE
  6
CONTINUOUS
 62
    30
 10
2344.0313820000001
 20
90.03237585714291
 30
0.0
 40
55.0
  1
140～300
 50
90.0
 41
0.9
 72
     1
 11
2344.0313820000001
 21
249.37523300000001
 31
0.0
  0
POLYLINE
  5
369
  8
SIZE
  6
CONTINUOUS
 62
    30
 66
     1
 10
0.0
 20
0.0
 30
0.0
  0
VERTEX
  5
916
  8
SIZE
  6
CONTINUOUS
 62
    30
 10
2397.9475030000008
 20
141.86595399999999
 30
0.0
 42
0.186174
  0
VERTEX
  5
917
  8
SIZE
  6
CONTINUOUS
 62
    30
 10
2406.7973510000002
 20
120.916466
 30
0.0
 42
0.082105
  0
VERTEX
  5
918
  8
SIZE
  6
CONTINUOUS
 62
    30
 10
2422.4998530000012
 20
108.74190400000001
 30
0.0
 42
0.058826
  0
VERTEX
  5
919
  8
SIZE
  6
CONTINUOUS
 62
    30
 10
2444.2859109999999
 20
99.966977
 30
0.0
 42
0.067494
  0
VERTEX
  5
91A
  8
SIZE
  6
CONTINUOUS
 62
    30
 10
2481.7744710000002
 20
95.021473999999998
 30
0.0
 42
0.067494
  0
VERTEX
  5
91B
  8
SIZE
  6
CONTINUOUS
 62
    30
 10
2519.263031
 20
99.966977
 30
0.0
 42
0.058826
  0
VERTEX
  5
91C
  8
SIZE
  6
CONTINUOUS
 62
    30
 10
2541.0490890000001
 20
108.74190400000001
 30
0.0
 42
0.082105
  0
VERTEX
  5
91D
  8
SIZE
  6
CONTINUOUS
 62
    30
 10
2556.7515910000002
 20
120.916466
 30
0.0
 42
0.186174
  0
VERTEX
  5
91E
  8
SIZE
  6
CONTINUOUS
 62
    30
 10
2565.601439
 20
141.86595399999999
 30
0.0
 42
0.186174
  0
VERTEX
  5
91F
  8
SIZE
  6
CONTINUOUS
 62
    30
 10
2565.601439
 20
141.86595399999999
 30
0.0
 42
0.186174
  0
SEQEND
  5
920
  8
SIZE
  6
CONTINUOUS
 62
    30
  0
TEXT
  5
375
  8
SIZE
  6
CONTINUOUS
 62
    30
 10
2557.8897460000012
 20
192.16329928571429
 30
0.0
 40
55.0
  1
50～60
 50
90.0
 41
0.9
 72
     1
 11
2557.8897460000012
 21
309.077585
 31
0.0
  0
LINE
  5
376
  8
SIZE
  6
CONTINUOUS
 62
    30
 10
1371.4954969999999
 20
436.71809000000002
 30
0.0
 11
2392.0313820000001
 21
436.71809000000002
 31
0.0
  0
LINE
  5
377
  8
SIZE
  6
CONTINUOUS
 62
    30
 10
1581.545785
 20
576.71808999999985
 30
0.0
 11
2392.0313820000001
 21
576.71808999999985
 31
0.0
  0
LINE
  5
378
  8
SIZE
  6
CONTINUOUS
 62
    30
 10
1340.0427549999999
 20
483.7180899999999
 30
0.0
 11
2085.666068
 21
483.7180899999999
 31
0.0
  0
LINE
  5
379
  8
SIZE
  6
CONTINUOUS
 62
    30
 10
1371.5727549999999
 20
436.71809000000002
 30
0.0
 11
2085.666068
 21
436.71809000000002
 31
0.0
  0
LINE
  5
37A
  8
SIZE
  6
CONTINUOUS
 62
    30
 10
1371.5727549999999
 20
436.71809000000002
 30
0.0
 11
2085.666068
 21
436.71809000000002
 31
0.0
  0
LINE
  5
37B
  8
SIZE
  6
CONTINUOUS
 62
    30
 10
1459.0819039999999
 20
669.720731
 30
0.0
 11
2101.6187030000001
 21
669.720731
 31
0.0
  0
LINE
  5
37C
  8
SIZE
  6
CONTINUOUS
 62
    30
 10
1395.0819039999999
 20
697.71808999999985
 30
0.0
 11
2101.6187030000001
 21
697.71808999999985
 31
0.0
  0
LINE
  5
37D
  8
SIZE
  6
CONTINUOUS
 62
    30
 10
1395.0819039999999
 20
697.71808999999985
 30
0.0
 11
2101.6187030000001
 21
697.71808999999985
 31
0.0
  0
LINE
  5
37E
  8
SIZE
  6
CONTINUOUS
 62
    30
 10
1581.5727549999999
 20
869.71808999999985
 30
0.0
 11
2101.6187030000001
 21
869.71808999999985
 31
0.0
  0
LINE
  5
37F
  8
SIZE
  6
CONTINUOUS
 62
    30
 10
1723.5172700000001
 20
733.71808999999985
 30
0.0
 11
1984.15562
 21
733.71808999999985
 31
0.0
  0
LINE
  5
380
  8
SIZE
  6
CONTINUOUS
 62
    30
 10
1581.5727549999999
 20
869.71808999999985
 30
0.0
 11
1984.15562
 21
869.71808999999985
 31
0.0
  0
LINE
  5
381
  8
SIZE
  6
CONTINUOUS
 62
    30
 10
1581.6230430000001
 20
576.71808999999985
 30
0.0
 11
2392.0313820000001
 21
576.71808999999985
 31
0.0
  0
LINE
  5
382
  8
SIZE
  6
CONTINUOUS
 62
    30
 10
1581.5727549999999
 20
869.71808999999985
 30
0.0
 11
2392.0313820000001
 21
869.71808999999985
 31
0.0
  0
LINE
  5
383
  8
SIZE
  6
CONTINUOUS
 62
    30
 10
1581.5727549999999
 20
869.71808999999985
 30
0.0
 11
2292.7578680000001
 21
869.71808999999985
 31
0.0
  0
LINE
  5
384
  8
SIZE
  6
CONTINUOUS
 62
    30
 10
1400.0819039999999
 20
604.71808999999985
 30
0.0
 11
2292.7578680000001
 21
604.71808999999985
 31
0.0
  0
LINE
  5
385
  8
SIZE
  6
CONTINUOUS
 62
    30
 10
1319.0819039999999
 20
761.71808999999996
 30
0.0
 11
1897.7123240000001
 21
761.71808999999996
 31
0.0
  0
LINE
  5
386
  8
SIZE
  6
CONTINUOUS
 62
    30
 10
1581.5727549999999
 20
869.71808999999985
 30
0.0
 11
1897.7123240000001
 21
869.71808999999985
 31
0.0
  0
TEXT
  5
387
  8
SIZE
  6
CONTINUOUS
 62
    30
 10
1649.236705571428
 20
1085.2794819999999
 30
0.0
 40
55.0
  1
128
 41
0.9
 72
     1
 11
1708.1652770000001
 21
1085.2794819999999
 31
0.0
  0
LINE
  5
388
  8
SIZE
  6
CONTINUOUS
 62
    30
 10
1785.093848
 20
1067.2794819999999
 30
0.0
 11
1561.5727549999999
 21
1067.2794819999999
 31
0.0
  0
LINE
  5
389
  8
SIZE
  6
CONTINUOUS
 62
    30
 10
1641.5727549999999
 20
985.13424399999985
 30
0.0
 11
1767.715612
 21
985.13424399999985
 31
0.0
  0
LINE
  5
38A
  8
NOTE
  6
CONTINUOUS
 62
     4
 10
1832.327194
 20
1081.692288
 30
0.0
 11
1631.5727549999999
 21
733.71808999999985
 31
0.0
  0
LINE
  5
38B
  8
SIZE
  6
CONTINUOUS
 62
    30
 10
1631.5727549999999
 20
851.21808999999985
 30
0.0
 11
1631.5727549999999
 21
1486.4745230000001
 31
0.0
  0
LINE
  5
38C
  8
SIZE
  6
CONTINUOUS
 62
    30
 10
1561.5727549999999
 20
889.71808999999985
 30
0.0
 11
1561.5727549999999
 21
1486.4745230000001
 31
0.0
  0
LINE
  5
38D
  8
SIZE
  6
CONTINUOUS
 62
    30
 10
1561.5727549999999
 20
889.71808999999985
 30
0.0
 11
1561.5727549999999
 21
1486.4745230000001
 31
0.0
  0
LINE
  5
38E
  8
SIZE
  6
CONTINUOUS
 62
    30
 10
1527.5727549999999
 20
904.71325599999989
 30
0.0
 11
1527.5727549999999
 21
1360.706173
 31
0.0
  0
LINE
  5
38F
  8
SIZE
  6
CONTINUOUS
 62
    30
 10
1561.5727549999999
 20
889.71808999999985
 30
0.0
 11
1561.5727549999999
 21
1097.2794819999999
 31
0.0
  0
LINE
  5
390
  8
SIZE
  6
CONTINUOUS
 62
    30
 10
1433.5727549999999
 20
695.22072399999979
 30
0.0
 11
1433.5727549999999
 21
1097.2794819999999
 31
0.0
  0
LINE
  5
391
  8
SIZE
  6
CONTINUOUS
 62
    30
 10
1433.5727549999999
 20
695.22072399999979
 30
0.0
 11
1433.5727549999999
 21
1097.2794819999999
 31
0.0
  0
LINE
  5
392
  8
SIZE
  6
CONTINUOUS
 62
    30
 10
1369.5727549999999
 20
722.46808999999985
 30
0.0
 11
1369.5727549999999
 21
1097.2794819999999
 31
0.0
  0
LINE
  5
393
  8
SIZE
  6
CONTINUOUS
 62
    30
 10
1561.5727549999999
 20
889.71808999999985
 30
0.0
 11
1561.5727549999999
 21
1226.4154370000001
 31
0.0
  0
LINE
  5
394
  8
SIZE
  6
CONTINUOUS
 62
    30
 10
1288.5727549999999
 20
792.21808199999998
 30
0.0
 11
1288.5727549999999
 21
1226.4154370000001
 31
0.0
  0
TEXT
  5
395
  8
SIZE
  6
CONTINUOUS
 62
    30
 10
1669.5727554285711
 20
1003.134244
 30
0.0
 40
55.0
  1
40
 41
0.9
 72
     1
 11
1709.644184
 21
1003.134244
 31
0.0
  0
LINE
  5
396
  8
NOTE
  6
CONTINUOUS
 62
     4
 10
1253.10213
 20
1045.6181779999999
 30
0.0
 11
1369.5727549999999
 21
697.71808999999985
 31
0.0
  0
LINE
  5
397
  8
DETAIL
  6
CONTINUOUS
 62
     5
 10
1203.9627559999999
 20
576.71808999999985
 30
0.0
 11
1540.9627559999999
 21
576.71808999999985
 31
0.0
  0
LINE
  5
398
  8
DETAIL
  6
CONTINUOUS
 62
     5
 10
1561.6230430000001
 20
576.71808999999985
 30
0.0
 11
1187.7277389999999
 21
576.71808999999985
 31
0.0
  0
CIRCLE
  5
399
  8
DETAIL
  6
CONTINUOUS
 62
     5
 10
1295.0727549999999
 20
684.51629300000002
 30
0.0
 40
20.0
  0
LINE
  5
39A
  8
DETAIL
  6
CONTINUOUS
 62
     5
 10
1198.072964
 20
618.71629299999995
 30
0.0
 11
1325.0727549999999
 21
618.71629299999995
 31
0.0
  0
CIRCLE
  5
39B
  8
DETAIL
  6
CONTINUOUS
 62
     5
 10
1295.0727549999999
 20
684.51629300000002
 30
0.0
 40
20.0
  0
LINE
  5
39C
  8
DETAIL
  6
CONTINUOUS
 62
     5
 10
1325.0727549999999
 20
776.71808999999985
 30
0.0
 11
1306.0727549999999
 21
776.71808999999985
 31
0.0
  0
LINE
  5
39D
  8
DETAIL
  6
CONTINUOUS
 62
     5
 10
1188.072964
 20
628.71629299999995
 30
0.0
 11
1188.072964
 21
766.71808999999985
 31
0.0
  0
LINE
  5
39E
  8
NOTE
  6
CONTINUOUS
 62
     4
 10
874.96000800000002
 20
657.21808199999975
 30
0.0
 11
874.96000800000002
 21
636.21809800000005
 31
0.0
  0
LINE
  5
39F
  8
NOTE
  6
CONTINUOUS
 62
     4
 10
880.46915700000011
 20
646.71808999999985
 30
0.0
 11
869.46915699999988
 21
646.71808999999985
 31
0.0
  0
LINE
  5
3A0
  8
NOTE
  6
CONTINUOUS
 62
     4
 10
874.96000800000002
 20
652.21808199999987
 30
0.0
 11
874.96000800000002
 21
641.21809800000017
 31
0.0
  0
LINE
  5
3A1
  8
NOTE
  6
CONTINUOUS
 62
     4
 10
1054.960008
 20
646.71808999999985
 30
0.0
 11
1020.7676
 21
650.35524299999997
 31
0.0
  0
LINE
  5
3A2
  8
NOTE
  6
CONTINUOUS
 62
     4
 10
1054.960008
 20
646.71808999999985
 30
0.0
 11
1025.3876319999999
 21
664.26300999999978
 31
0.0
  0
LINE
  5
3A3
  8
NOTE
  6
CONTINUOUS
 62
     4
 10
1065.469157
 20
646.71808999999985
 30
0.0
 11
1044.469157
 21
646.71808999999985
 31
0.0
  0
LINE
  5
3A4
  8
NOTE
  6
CONTINUOUS
 62
     4
 10
1054.960008
 20
657.21808199999975
 30
0.0
 11
1054.960008
 21
636.21809800000005
 31
0.0
  0
LINE
  5
3A5
  8
NOTE
  6
CONTINUOUS
 62
     4
 10
1060.469157
 20
646.71808999999985
 30
0.0
 11
1049.469157
 21
646.71808999999985
 31
0.0
  0
LINE
  5
3A6
  8
NOTE
  6
CONTINUOUS
 62
     4
 10
1054.960008
 20
652.21808199999987
 30
0.0
 11
1054.960008
 21
641.21809800000017
 31
0.0
  0
LINE
  5
3A7
  8
NOTE
  6
CONTINUOUS
 62
     4
 10
1065.469157
 20
696.71808999999985
 30
0.0
 11
1044.469157
 21
696.71808999999985
 31
0.0
  0
LINE
  5
3A8
  8
NOTE
  6
CONTINUOUS
 62
     4
 10
1054.960008
 20
707.21808199999975
 30
0.0
 11
1054.960008
 21
686.21809800000005
 31
0.0
  0
LINE
  5
3A9
  8
NOTE
  6
CONTINUOUS
 62
     4
 10
1060.469157
 20
696.71808999999985
 30
0.0
 11
1049.469157
 21
696.71808999999985
 31
0.0
  0
LINE
  5
3AA
  8
NOTE
  6
CONTINUOUS
 62
     4
 10
1054.960008
 20
702.21808199999987
 30
0.0
 11
1054.960008
 21
691.21809800000017
 31
0.0
  0
CIRCLE
  5
3AB
  8
DETAIL
  6
CONTINUOUS
 62
     5
 10
1054.960008
 20
696.71808999999985
 30
0.0
 40
13.0
  0
CIRCLE
  5
3AC
  8
DETAIL
  6
CONTINUOUS
 62
     5
 10
1054.960008
 20
646.71808999999985
 30
0.0
 40
13.0
  0
ARC
  5
3AD
  8
DETAIL
  6
CONTINUOUS
 62
     5
 10
1198.072964
 20
628.71629299999995
 30
0.0
 40
10.0
 50
180.0
 51
270.0
  0
LINE
  5
3AE
  8
NOTE
  6
CONTINUOUS
 62
     4
 10
1295.0727549999999
 20
684.51629300000002
 30
0.0
 11
1260.7157830000001
 21
685.91205300000001
 31
0.0
  0
LINE
  5
3AF
  8
NOTE
  6
CONTINUOUS
 62
     4
 10
1295.0727549999999
 20
684.51629300000002
 30
0.0
 11
1264.41742
 21
700.09191799999985
 31
0.0
  0
LINE
  5
3B0
  8
NOTE
  6
CONTINUOUS
 62
     4
 10
1305.5819039999999
 20
684.51629300000002
 30
0.0
 11
1284.5819039999999
 21
684.51629300000002
 31
0.0
  0
LINE
  5
3B1
  8
NOTE
  6
CONTINUOUS
 62
     4
 10
1295.0727549999999
 20
695.01628600000004
 30
0.0
 11
1295.0727549999999
 21
674.01630099999977
 31
0.0
  0
LINE
  5
3B2
  8
NOTE
  6
CONTINUOUS
 62
     4
 10
1300.5819039999999
 20
684.51629300000002
 30
0.0
 11
1289.5819039999999
 21
684.51629300000002
 31
0.0
  0
LINE
  5
3B3
  8
NOTE
  6
CONTINUOUS
 62
     4
 10
1295.0727549999999
 20
690.01628600000004
 30
0.0
 11
1295.0727549999999
 21
679.016301
 31
0.0
  0
LINE
  5
3B4
  8
NOTE
  6
CONTINUOUS
 62
     4
 10
1253.10213
 20
1045.6181779999999
 30
0.0
 11
914.99108000000001
 21
1045.6181779999999
 31
0.0
  0
LINE
  5
3B5
  8
NOTE
  6
CONTINUOUS
 62
     4
 10
1208.6893520000001
 20
928.04285600000003
 30
0.0
 11
866.03551500000003
 21
928.04285600000003
 31
0.0
  0
TEXT
  5
3B6
  8
NOTE
  6
CONTINUOUS
 62
     4
 10
887.71078699999987
 20
943.86938699999985
 30
0.0
 40
60.0
  1
D1 VP-25
 50
0.000003
 41
0.7
  7
STANDARD1
  0
ARC
  5
3B7
  8
DETAIL
  6
CONTINUOUS
 62
     5
 10
882.5727549999998
 20
857.71808999999985
 30
0.0
 40
3.0
 50
270.0
 51
0.0
  0
ARC
  5
3B8
  8
DETAIL
  6
CONTINUOUS
 62
     5
 10
868.57275500000014
 20
834.71808999999985
 30
0.0
 40
3.0
 50
270.0
 51
0.0
  0
LINE
  5
3B9
  8
DETAIL
  6
CONTINUOUS
 62
     5
 10
885.57275500000014
 20
869.71808999999985
 30
0.0
 11
885.57275500000014
 21
857.71808999999985
 31
0.0
  0
ARC
  5
3BA
  8
DETAIL
  6
CONTINUOUS
 62
     5
 10
882.5727549999998
 20
860.71808999999985
 30
0.0
 40
3.0
 50
270.0
 51
0.0
  0
LINE
  5
3BB
  8
DETAIL
  6
CONTINUOUS
 62
     5
 10
882.5727549999998
 20
854.71808999999985
 30
0.0
 11
871.57275500000003
 21
854.71808999999985
 31
0.0
  0
LINE
  5
3BC
  8
DETAIL
  6
CONTINUOUS
 62
     5
 10
871.57275500000003
 20
854.71808999999985
 30
0.0
 11
871.57275500000003
 21
834.71808999999985
 31
0.0
  0
LINE
  5
3BD
  8
NOTE
  6
CONTINUOUS
 62
     4
 10
1208.6893520000001
 20
928.04285600000003
 30
0.0
 11
1288.5727549999999
 21
761.71808999999996
 31
0.0
  0
LINE
  5
3BE
  8
DETAIL
  6
CONTINUOUS
 62
     5
 10
1271.0727549999999
 20
776.71808999999985
 30
0.0
 11
1198.072964
 21
776.71808999999985
 31
0.0
  0
ARC
  5
3BF
  8
DETAIL
  6
CONTINUOUS
 62
     5
 10
1198.072964
 20
766.71808999999985
 30
0.0
 40
10.0
 50
90.0
 51
180.0
  0
POINT
  5
3C0
  8
DEFPOINTS
  6
CONTINUOUS
 62
     7
 10
1299.0819039999999
 20
761.71808999999996
 30
0.0
  0
POINT
  5
3C1
  8
DEFPOINTS
  6
CONTINUOUS
 62
     7
 10
1288.5727549999999
 20
772.21808199999998
 30
0.0
  0
LINE
  5
3C2
  8
NOTE
  6
CONTINUOUS
 62
     4
 10
1299.0819039999999
 20
761.71808999999996
 30
0.0
 11
1278.0819039999999
 21
761.71808999999996
 31
0.0
  0
LINE
  5
3C3
  8
NOTE
  6
CONTINUOUS
 62
     4
 10
1288.5727549999999
 20
772.21808199999998
 30
0.0
 11
1288.5727549999999
 21
751.21809800000005
 31
0.0
  0
LINE
  5
3C4
  8
NOTE
  6
CONTINUOUS
 62
     4
 10
1288.5727549999999
 20
761.71808999999996
 30
0.0
 11
1267.37967
 21
788.79580799999985
 31
0.0
  0
LINE
  5
3C5
  8
NOTE
  6
CONTINUOUS
 62
     4
 10
1288.5727549999999
 20
761.71808999999996
 30
0.0
 11
1283.757865
 21
795.76462400000003
 31
0.0
  0
LINE
  5
3C6
  8
NOTE
  6
CONTINUOUS
 62
     4
 10
1294.0819039999999
 20
761.71808999999996
 30
0.0
 11
1283.0819039999999
 21
761.71808999999996
 31
0.0
  0
LINE
  5
3C7
  8
NOTE
  6
CONTINUOUS
 62
     4
 10
1288.5727549999999
 20
767.21808199999998
 30
0.0
 11
1288.5727549999999
 21
756.21809800000005
 31
0.0
  0
ARC
  5
3C8
  8
DETAIL
  6
CONTINUOUS
 62
     5
 10
1288.5727549999999
 20
761.71808999999996
 30
0.0
 40
17.5
 50
0.0
 51
180.0
  0
LINE
  5
3C9
  8
DETAIL
  6
CONTINUOUS
 62
     5
 10
1275.7275219999999
 20
759.71808999999985
 30
0.0
 11
1275.73848
 21
759.71808999999985
 31
0.0
  0
LINE
  5
3CA
  8
DETAIL
  6
CONTINUOUS
 62
     5
 10
1301.4070300000001
 20
759.71808999999985
 30
0.0
 11
1301.4179879999999
 21
759.71808999999985
 31
0.0
  0
LINE
  5
3CB
  8
DETAIL
  6
CONTINUOUS
 62
     5
 10
1301.4179879999999
 20
763.71808999999985
 30
0.0
 11
1301.4070300000001
 21
763.71808999999985
 31
0.0
  0
LINE
  5
3CC
  8
DETAIL
  6
CONTINUOUS
 62
     5
 10
1275.73848
 20
763.71808999999985
 30
0.0
 11
1275.7275219999999
 21
763.71808999999985
 31
0.0
  0
CIRCLE
  5
3CD
  8
DETAIL
  6
CONTINUOUS
 62
     5
 10
1288.5727549999999
 20
761.71808999999996
 30
0.0
 40
13.0
  0
LINE
  5
3CE
  8
DETAIL
  6
CONTINUOUS
 62
     5
 10
1271.0727549999999
 20
761.71808999999996
 30
0.0
 11
1271.0727549999999
 21
775.71808999999985
 31
0.0
  0
LINE
  5
3CF
  8
DETAIL
  6
CONTINUOUS
 62
     5
 10
1306.0727549999999
 20
761.71808999999996
 30
0.0
 11
1306.0727549999999
 21
775.71808999999985
 31
0.0
  0
ARC
  5
3D0
  8
DETAIL
  6
CONTINUOUS
 62
     5
 10
1288.5727549999999
 20
761.71808999999996
 30
0.0
 40
17.5
 50
180.0
 51
0.0
  0
ARC
  5
3D1
  8
DETAIL
  6
CONTINUOUS
 62
     5
 10
1288.5727549999999
 20
761.71808999999996
 30
0.0
 40
17.5
 50
180.0
 51
0.0
  0
LINE
  5
3D2
  8
DETAIL
  6
CONTINUOUS
 62
     5
 10
1271.0727549999999
 20
761.71808999999996
 30
0.0
 11
1271.0727549999999
 21
776.71808999999985
 31
0.0
  0
LINE
  5
3D3
  8
DETAIL
  6
CONTINUOUS
 62
     5
 10
1306.0727549999999
 20
761.71808999999996
 30
0.0
 11
1306.0727549999999
 21
776.71808999999985
 31
0.0
  0
LINE
  5
3D4
  8
OUTLINE
  6
CONTINUOUS
 62
     3
 10
1561.5727549999999
 20
869.71808999999985
 30
0.0
 11
1561.5727549999999
 21
576.71808999999985
 31
0.0
  0
LINE
  5
3D5
  8
NOTE
  6
CONTINUOUS
 62
     4
 10
1631.5727549999999
 20
733.71808999999985
 30
0.0
 11
1641.9621259999999
 21
766.49629400000003
 31
0.0
  0
LINE
  5
3D6
  8
NOTE
  6
CONTINUOUS
 62
     4
 10
1631.5727549999999
 20
733.71808999999985
 30
0.0
 11
1656.9593159999999
 21
756.91016100000002
 31
0.0
  0
LINE
  5
3D7
  8
NOTE
  6
CONTINUOUS
 62
     4
 10
1631.5727549999999
 20
805.66260499999999
 30
0.0
 11
1631.5727549999999
 21
661.77357500000005
 31
0.0
  0
LINE
  5
3D8
  8
DETAIL
  6
CONTINUOUS
 62
     5
 10
1591.5727549999999
 20
833.71808999999985
 30
0.0
 11
1591.5727549999999
 21
633.71808999999985
 31
0.0
  0
LINE
  5
3D9
  8
DETAIL
  6
CONTINUOUS
 62
     5
 10
1631.5727549999999
 20
831.21808999999985
 30
0.0
 11
1631.5727549999999
 21
636.21809000000019
 31
0.0
  0
LINE
  5
3DA
  8
DETAIL
  6
CONTINUOUS
 62
     5
 10
1508.569757
 20
659.71680599999968
 30
0.0
 11
1508.569757
 21
842.7226069999997
 31
0.0
  0
LINE
  5
3DB
  8
DETAIL
  6
CONTINUOUS
 62
     5
 10
1336.5683979999999
 20
842.7226069999997
 30
0.0
 11
1336.5683979999999
 21
687.72200199999997
 31
0.0
  0
LINE
  5
3DC
  8
DETAIL
  6
CONTINUOUS
 62
     5
 10
1335.0727549999999
 20
628.71629299999995
 30
0.0
 11
1335.0727549999999
 21
766.71808999999985
 31
0.0
  0
LINE
  5
3DD
  8
DETAIL
  6
CONTINUOUS
 62
     5
 10
1561.5727549999999
 20
869.71808999999985
 30
0.0
 11
1561.5727549999999
 21
576.71808999999985
 31
0.0
  0
LINE
  5
3DE
  8
DETAIL
  6
CONTINUOUS
 62
     5
 10
1576.5727549999999
 20
837.71808999999985
 30
0.0
 11
1576.5727549999999
 21
629.71808999999985
 31
0.0
  0
LINE
  5
3DF
  8
NOTE
  6
CONTINUOUS
 62
     4
 10
1369.5727549999999
 20
604.71808999999985
 30
0.0
 11
1393.0649920000001
 21
579.60903900000005
 31
0.0
  0
LINE
  5
3E0
  8
NOTE
  6
CONTINUOUS
 62
     4
 10
1369.5727549999999
 20
604.71808999999985
 30
0.0
 11
1380.4756480000001
 21
572.10710099999994
 31
0.0
  0
LINE
  5
3E1
  8
DETAIL
  6
CONTINUOUS
 62
     5
 10
1348.5727549999999
 20
576.71808999999985
 30
0.0
 11
1348.5727549999999
 21
604.72507999999982
 31
0.0
  0
LINE
  5
3E2
  8
DETAIL
  6
CONTINUOUS
 62
     5
 10
1390.5727549999999
 20
576.71808999999985
 30
0.0
 11
1390.5727549999999
 21
604.72507999999982
 31
0.0
  0
LINE
  5
3E3
  8
NOTE
  6
CONTINUOUS
 62
     4
 10
1434.5727549999999
 20
437.71808999999979
 30
0.0
 11
1334.5727549999999
 21
437.71808999999979
 31
0.0
  0
LINE
  5
3E4
  8
NOTE
  6
CONTINUOUS
 62
     4
 10
1434.5727549999999
 20
457.71809000000002
 30
0.0
 11
1334.5727549999999
 21
457.71809000000002
 31
0.0
  0
POINT
  5
3E5
  8
DEFPOINTS
  6
CONTINUOUS
 62
     7
 10
1351.4954969999999
 20
436.71809000000002
 30
0.0
  0
POINT
  5
3E6
  8
DEFPOINTS
  6
CONTINUOUS
 62
     7
 10
1320.0427549999999
 20
483.7180899999999
 30
0.0
  0
POINT
  5
3E7
  8
DEFPOINTS
  6
CONTINUOUS
 62
     7
 10
1351.5727549999999
 20
436.71809000000002
 30
0.0
  0
POINT
  5
3E8
  8
DEFPOINTS
  6
CONTINUOUS
 62
     7
 10
1351.5727549999999
 20
436.71809000000002
 30
0.0
  0
POINT
  5
3E9
  8
DEFPOINTS
  6
CONTINUOUS
 62
     7
 10
1334.5727549999999
 20
437.71808999999979
 30
0.0
  0
POINT
  5
3EA
  8
DEFPOINTS
  6
CONTINUOUS
 62
     7
 10
1334.5727549999999
 20
437.71808999999979
 30
0.0
  0
POINT
  5
3EB
  8
DEFPOINTS
  6
CONTINUOUS
 62
     7
 10
1334.5727549999999
 20
437.71808999999979
 30
0.0
  0
LINE
  5
3EC
  8
OUTLINE
  6
CONTINUOUS
 62
     3
 10
1320.0427549999999
 20
483.7180899999999
 30
0.0
 11
1320.0427549999999
 21
436.71809000000002
 31
0.0
  0
LINE
  5
3ED
  8
NOTE
  6
CONTINUOUS
 62
     4
 10
1334.5727549999999
 20
437.71808999999979
 30
0.0
 11
1334.5727549999999
 21
457.71809000000002
 31
0.0
  0
LINE
  5
3EE
  8
NOTE
  6
CONTINUOUS
 62
     4
 10
1352.9111009999999
 20
437.71808999999979
 30
0.0
 11
1372.9111009999999
 21
457.71809000000002
 31
0.0
  0
LINE
  5
3EF
  8
NOTE
  6
CONTINUOUS
 62
     4
 10
1392.9111009999999
 20
437.71808999999979
 30
0.0
 11
1412.9111009999999
 21
457.71809000000002
 31
0.0
  0
LINE
  5
3F0
  8
NOTE
  6
CONTINUOUS
 62
     4
 10
1357.9111009999999
 20
437.71808999999979
 30
0.0
 11
1377.9111009999999
 21
457.71809000000002
 31
0.0
  0
LINE
  5
3F1
  8
NOTE
  6
CONTINUOUS
 62
     4
 10
1397.9111009999999
 20
437.71808999999979
 30
0.0
 11
1417.9111009999999
 21
457.71809000000002
 31
0.0
  0
LINE
  5
3F2
  8
NOTE
  6
CONTINUOUS
 62
     4
 10
1362.9111009999999
 20
437.71808999999979
 30
0.0
 11
1382.9111009999999
 21
457.71809000000002
 31
0.0
  0
LINE
  5
3F3
  8
NOTE
  6
CONTINUOUS
 62
     4
 10
1402.9111009999999
 20
437.71808999999979
 30
0.0
 11
1422.9111009999999
 21
457.71809000000002
 31
0.0
  0
LINE
  5
3F4
  8
DETAIL
  6
CONTINUOUS
 62
     5
 10
1320.0427549999999
 20
436.71809000000002
 30
0.0
 11
1351.5727549999999
 21
436.71809000000002
 31
0.0
  0
LINE
  5
3F5
  8
DETAIL
  6
CONTINUOUS
 62
     5
 10
1320.0427549999999
 20
436.71809000000002
 30
0.0
 11
1320.0427549999999
 21
483.7180899999999
 31
0.0
  0
CIRCLE
  5
3F6
  8
DETAIL
  6
CONTINUOUS
 62
     5
 10
1433.5727549999999
 20
669.720731
 30
0.0
 40
21.0
  0
CIRCLE
  5
3F7
  8
DETAIL
  6
CONTINUOUS
 62
     5
 10
1433.5727549999999
 20
669.720731
 30
0.0
 40
18.0
  0
LINE
  5
3F8
  8
DETAIL
  6
CONTINUOUS
 62
     5
 10
1420.288931
 20
669.720731
 30
0.0
 11
1426.8567929999999
 21
681.09660199999985
 31
0.0
  0
LINE
  5
3F9
  8
DETAIL
  6
CONTINUOUS
 62
     5
 10
1420.288931
 20
669.720731
 30
0.0
 11
1426.9308430000001
 21
658.21660199999985
 31
0.0
  0
CIRCLE
  5
3FA
  8
DETAIL
  6
CONTINUOUS
 62
     5
 10
1369.5727549999999
 20
697.71808999999985
 30
0.0
 40
3.174999999999998
  0
POINT
  5
3FB
  8
DEFPOINTS
  6
CONTINUOUS
 62
     7
 10
1375.0819039999999
 20
697.71808999999985
 30
0.0
  0
POINT
  5
3FC
  8
DEFPOINTS
  6
CONTINUOUS
 62
     7
 10
1375.0819039999999
 20
697.71808999999985
 30
0.0
  0
LINE
  5
3FD
  8
NOTE
  6
CONTINUOUS
 62
     4
 10
1369.5727549999999
 20
697.71808999999985
 30
0.0
 11
1351.9120370000001
 21
727.22145799999987
 31
0.0
  0
LINE
  5
3FE
  8
NOTE
  6
CONTINUOUS
 62
     4
 10
1369.5727549999999
 20
697.71808999999985
 30
0.0
 11
1365.8015849999999
 21
731.8959769999999
 31
0.0
  0
POINT
  5
3FF
  8
DEFPOINTS
  6
CONTINUOUS
 62
     7
 10
1380.0819039999999
 20
604.71808999999985
 30
0.0
  0
POINT
  5
400
  8
DEFPOINTS
  6
CONTINUOUS
 62
     7
 10
1369.5727549999999
 20
702.46808999999985
 30
0.0
  0
POINT
  5
401
  8
DEFPOINTS
  6
CONTINUOUS
 62
     7
 10
1369.5727549999999
 20
701.21809800000005
 30
0.0
  0
LINE
  5
402
  8
NOTE
  6
CONTINUOUS
 62
     4
 10
1380.0819039999999
 20
604.71808999999985
 30
0.0
 11
1359.0819039999999
 21
604.71808999999985
 31
0.0
  0
LINE
  5
403
  8
NOTE
  6
CONTINUOUS
 62
     4
 10
1369.5727549999999
 20
615.21808199999975
 30
0.0
 11
1369.5727549999999
 21
594.21809800000005
 31
0.0
  0
LINE
  5
404
  8
NOTE
  6
CONTINUOUS
 62
     4
 10
1375.0819039999999
 20
604.71808999999985
 30
0.0
 11
1364.0819039999999
 21
604.71808999999985
 31
0.0
  0
LINE
  5
405
  8
NOTE
  6
CONTINUOUS
 62
     4
 10
1369.5727549999999
 20
610.21808199999998
 30
0.0
 11
1369.5727549999999
 21
599.21809800000005
 31
0.0
  0
LINE
  5
406
  8
NOTE
  6
CONTINUOUS
 62
     4
 10
1375.0819039999999
 20
697.71808999999985
 30
0.0
 11
1364.0819039999999
 21
697.71808999999985
 31
0.0
  0
LINE
  5
407
  8
NOTE
  6
CONTINUOUS
 62
     4
 10
1369.5727549999999
 20
703.21808199999975
 30
0.0
 11
1369.5727549999999
 21
692.21809800000017
 31
0.0
  0
LINE
  5
408
  8
NOTE
  6
CONTINUOUS
 62
     4
 10
1375.0819039999999
 20
697.71808999999985
 30
0.0
 11
1364.0819039999999
 21
697.71808999999985
 31
0.0
  0
LINE
  5
409
  8
NOTE
  6
CONTINUOUS
 62
     4
 10
1369.5727549999999
 20
703.21808199999975
 30
0.0
 11
1369.5727549999999
 21
692.21809800000017
 31
0.0
  0
ARC
  5
40A
  8
DETAIL
  6
CONTINUOUS
 62
     5
 10
1369.5727549999999
 20
604.72507999999982
 30
0.0
 40
21.0
 50
0.0
 51
180.0
  0
LINE
  5
40B
  8
DETAIL
  6
CONTINUOUS
 62
     5
 10
1405.073946
 20
659.71680599999968
 30
0.0
 11
1395.073946
 21
659.71680599999968
 31
0.0
  0
CIRCLE
  5
40C
  8
DETAIL
  6
CONTINUOUS
 62
     5
 10
1369.5727549999999
 20
697.71808999999985
 30
0.0
 40
18.0
  0
CIRCLE
  5
40D
  8
DETAIL
  6
CONTINUOUS
 62
     5
 10
1369.5727549999999
 20
697.71808999999985
 30
0.0
 40
15.0
  0
CIRCLE
  5
40E
  8
DETAIL
  6
CONTINUOUS
 62
     5
 10
1369.5727549999999
 20
697.71808999999985
 30
0.0
 40
15.0
  0
CIRCLE
  5
40F
  8
DETAIL
  6
CONTINUOUS
 62
     5
 10
1369.5727549999999
 20
697.71808999999985
 30
0.0
 40
18.0
  0
LINE
  5
410
  8
DETAIL
  6
CONTINUOUS
 62
     5
 10
1375.0727549999999
 20
688.77381800000001
 30
0.0
 11
1364.0727549999999
 21
688.77381800000001
 31
0.0
  0
LINE
  5
411
  8
DETAIL
  6
CONTINUOUS
 62
     5
 10
1375.0727549999999
 20
706.66236200000003
 30
0.0
 11
1364.0727549999999
 21
706.66236200000003
 31
0.0
  0
LINE
  5
412
  8
DETAIL
  6
CONTINUOUS
 62
     5
 10
1375.0727549999999
 20
688.77381800000001
 30
0.0
 11
1380.0727549999999
 21
697.71808999999985
 31
0.0
  0
LINE
  5
413
  8
DETAIL
  6
CONTINUOUS
 62
     5
 10
1364.0727549999999
 20
688.77381800000001
 30
0.0
 11
1359.0727549999999
 21
697.71808999999985
 31
0.0
  0
LINE
  5
414
  8
DETAIL
  6
CONTINUOUS
 62
     5
 10
1364.0727549999999
 20
706.66236200000003
 30
0.0
 11
1359.0727549999999
 21
697.71808999999985
 31
0.0
  0
LINE
  5
415
  8
DETAIL
  6
CONTINUOUS
 62
     5
 10
1375.0727549999999
 20
706.66236200000003
 30
0.0
 11
1380.0727549999999
 21
697.71808999999985
 31
0.0
  0
CIRCLE
  5
416
  8
DETAIL
  6
CONTINUOUS
 62
     5
 10
1369.5727549999999
 20
604.72123399999975
 30
0.0
 40
13.75
  0
CIRCLE
  5
417
  8
DETAIL
  6
CONTINUOUS
 62
     5
 10
1369.5727549999999
 20
604.72123399999975
 30
0.0
 40
15.75
  0
ARC
  5
418
  8
DETAIL
  6
CONTINUOUS
 62
     5
 10
1349.575137
 20
687.72200199999997
 30
0.0
 40
5.0
 50
270.0
 51
0.0
  0
ARC
  5
419
  8
DETAIL
  6
CONTINUOUS
 62
     5
 10
1389.575137
 20
664.71680599999979
 30
0.0
 40
5.0
 50
180.0
 51
270.0
  0
ARC
  5
41A
  8
DETAIL
  6
CONTINUOUS
 62
     5
 10
1410.5727549999999
 20
664.71680599999979
 30
0.0
 40
5.0
 50
270.0
 51
318.179733
  0
LINE
  5
41B
  8
DETAIL
  6
CONTINUOUS
 62
     5
 10
1341.5683979999999
 20
682.72200199999975
 30
0.0
 11
1349.575137
 21
682.72200199999975
 31
0.0
  0
LINE
  5
41C
  8
DETAIL
  6
CONTINUOUS
 62
     5
 10
1389.575137
 20
659.71680599999968
 30
0.0
 11
1410.5727549999999
 21
659.71680599999968
 31
0.0
  0
ARC
  5
41D
  8
DETAIL
  6
CONTINUOUS
 62
     5
 10
1341.5683979999999
 20
687.72200199999997
 30
0.0
 40
5.0
 50
180.0
 51
270.0
  0
LINE
  5
41E
  8
DETAIL
  6
CONTINUOUS
 62
     5
 10
1384.575137
 20
664.71680599999979
 30
0.0
 11
1384.575137
 21
687.77180799999996
 31
0.0
  0
ARC
  5
41F
  8
DETAIL
  6
CONTINUOUS
 62
     5
 10
1325.0727549999999
 20
628.71629299999995
 30
0.0
 40
10.0
 50
270.0
 51
0.0
  0
CIRCLE
  5
420
  8
DETAIL
  6
CONTINUOUS
 62
     5
 10
1433.5727549999999
 20
669.720731
 30
0.0
 40
6.3499999999999979
  0
POINT
  5
421
  8
DEFPOINTS
  6
CONTINUOUS
 62
     7
 10
1439.0819039999999
 20
669.720731
 30
0.0
  0
POINT
  5
422
  8
DEFPOINTS
  6
CONTINUOUS
 62
     7
 10
1433.5727549999999
 20
675.22072400000002
 30
0.0
  0
POINT
  5
423
  8
DEFPOINTS
  6
CONTINUOUS
 62
     7
 10
1433.5727549999999
 20
675.22072400000002
 30
0.0
  0
LINE
  5
424
  8
NOTE
  6
CONTINUOUS
 62
     4
 10
1439.0819039999999
 20
669.720731
 30
0.0
 11
1428.0819039999999
 21
669.720731
 31
0.0
  0
LINE
  5
425
  8
NOTE
  6
CONTINUOUS
 62
     4
 10
1433.5727549999999
 20
675.22072400000002
 30
0.0
 11
1433.5727549999999
 21
664.22073899999998
 31
0.0
  0
LINE
  5
426
  8
NOTE
  6
CONTINUOUS
 62
     4
 10
1433.5727549999999
 20
669.720731
 30
0.0
 11
1454.724901
 21
642.61102100000005
 31
0.0
  0
LINE
  5
427
  8
NOTE
  6
CONTINUOUS
 62
     4
 10
1433.5727549999999
 20
669.720731
 30
0.0
 11
1441.5149939999999
 21
636.26523099999974
 31
0.0
  0
LINE
  5
428
  8
NOTE
  6
CONTINUOUS
 62
     4
 10
1439.0819039999999
 20
669.720731
 30
0.0
 11
1428.0819039999999
 21
669.720731
 31
0.0
  0
LINE
  5
429
  8
NOTE
  6
CONTINUOUS
 62
     4
 10
1433.5727549999999
 20
675.22072400000002
 30
0.0
 11
1433.5727549999999
 21
664.22073899999998
 31
0.0
  0
LINE
  5
42A
  8
DETAIL
  6
CONTINUOUS
 62
     5
 10
1440.0665670000001
 20
658.21660199999985
 30
0.0
 11
1446.7084789999999
 21
669.720731
 31
0.0
  0
LINE
  5
42B
  8
DETAIL
  6
CONTINUOUS
 62
     5
 10
1426.9308430000001
 20
658.21660199999985
 30
0.0
 11
1440.0665670000001
 21
658.21660199999985
 31
0.0
  0
LINE
  5
42C
  8
DETAIL
  6
CONTINUOUS
 62
     5
 10
1440.140617
 20
681.09660199999985
 30
0.0
 11
1426.8567929999999
 21
681.09660199999985
 31
0.0
  0
LINE
  5
42D
  8
DETAIL
  6
CONTINUOUS
 62
     5
 10
1440.140617
 20
681.09660199999985
 30
0.0
 11
1446.7084789999999
 21
669.720731
 31
0.0
  0
ARC
  5
42E
  8
DETAIL
  6
CONTINUOUS
 62
     5
 10
1456.5727549999999
 20
659.71680599999968
 30
0.0
 40
5.0
 50
188.330816
 51
270.0
  0
ARC
  5
42F
  8
DETAIL
  6
CONTINUOUS
 62
     5
 10
1503.569757
 20
659.71680599999968
 30
0.0
 40
5.0
 50
270.0
 51
0.0
  0
LINE
  5
430
  8
DETAIL
  6
CONTINUOUS
 62
     5
 10
1456.5727549999999
 20
654.71680599999968
 30
0.0
 11
1503.569757
 21
654.71680599999968
 31
0.0
  0
POINT
  5
431
  8
DEFPOINTS
  6
CONTINUOUS
 62
     7
 10
1561.545785
 20
576.71808999999985
 30
0.0
  0
POINT
  5
432
  8
DEFPOINTS
  6
CONTINUOUS
 62
     7
 10
1561.6230430000001
 20
576.71808999999985
 30
0.0
  0
LINE
  5
433
  8
NOTE
  6
CONTINUOUS
 62
     4
 10
1559.62824
 20
733.71808999999985
 30
0.0
 11
1703.5172700000001
 21
733.71808999999985
 31
0.0
  0
POINT
  5
434
  8
DEFPOINTS
  6
CONTINUOUS
 62
     7
 10
1561.5727549999999
 20
663.71808999999985
 30
0.0
  0
POINT
  5
435
  8
DEFPOINTS
  6
CONTINUOUS
 62
     7
 10
1561.5727549999999
 20
683.71808999999985
 30
0.0
  0
ARC
  5
436
  8
DETAIL
  6
CONTINUOUS
 62
     5
 10
1578.5727549999999
 20
631.71809000000019
 30
0.0
 40
2.0
 50
90.0
 51
180.0
  0
LINE
  5
437
  8
DETAIL
  6
CONTINUOUS
 62
     5
 10
1596.5727549999999
 20
633.71808999999985
 30
0.0
 11
1631.5727549999999
 21
636.21809000000019
 31
0.0
  0
LINE
  5
438
  8
DETAIL
  6
CONTINUOUS
 62
     5
 10
1596.5727549999999
 20
633.71808999999985
 30
0.0
 11
1578.5727549999999
 21
633.71808999999985
 31
0.0
  0
LINE
  5
439
  8
DETAIL
  6
CONTINUOUS
 62
     5
 10
1572.5727549999999
 20
625.71808999999985
 30
0.0
 11
1561.5727549999999
 21
625.71808999999985
 31
0.0
  0
ARC
  5
43A
  8
DETAIL
  6
CONTINUOUS
 62
     5
 10
1572.5727549999999
 20
629.71808999999985
 30
0.0
 40
4.0
 50
270.0
 51
0.0
  0
POINT
  5
43B
  8
DEFPOINTS
  6
CONTINUOUS
 62
     7
 10
1703.5172700000001
 20
733.71808999999985
 30
0.0
  0
CIRCLE
  5
43C
  8
FIX
  6
CONTINUOUS
 62
    11
 10
1527.5727549999999
 20
869.71808999999985
 30
0.0
 40
12.421498
  0
LINE
  5
43D
  8
NOTE
  6
CONTINUOUS
 62
     4
 10
1512.577589
 20
869.71808999999985
 30
0.0
 11
1542.5679210000001
 21
869.71808999999985
 31
0.0
  0
LINE
  5
43E
  8
DETAIL
  6
CONTINUOUS
 62
     5
 10
1519.5730080000001
 20
831.71808999999985
 30
0.0
 11
1558.5731229999999
 21
831.71808999999985
 31
0.0
  0
LINE
  5
43F
  8
DETAIL
  6
CONTINUOUS
 62
     5
 10
1503.569757
 20
847.72260700000004
 30
0.0
 11
1341.5683979999999
 21
847.72260700000004
 31
0.0
  0
ARC
  5
440
  8
DETAIL
  6
CONTINUOUS
 62
     5
 10
1341.5683979999999
 20
842.7226069999997
 30
0.0
 40
5.0
 50
90.0
 51
180.0
  0
ARC
  5
441
  8
DETAIL
  6
CONTINUOUS
 62
     5
 10
1325.0727549999999
 20
766.71808999999985
 30
0.0
 40
10.0
 50
0.0
 51
90.0
  0
POINT
  5
442
  8
DEFPOINTS
  6
CONTINUOUS
 62
     7
 10
1527.5727549999999
 20
884.713256
 30
0.0
  0
LINE
  5
443
  8
NOTE
  6
CONTINUOUS
 62
     4
 10
1527.5727549999999
 20
884.713256
 30
0.0
 11
1527.5727549999999
 21
854.72292400000003
 31
0.0
  0
ARC
  5
444
  8
DETAIL
  6
CONTINUOUS
 62
     5
 10
1505.5730080000001
 20
857.71808999999985
 30
0.0
 40
3.0
 50
180.0
 51
270.0
  0
ARC
  5
445
  8
DETAIL
  6
CONTINUOUS
 62
     5
 10
1519.5730080000001
 20
834.71808999999985
 30
0.0
 40
3.0
 50
180.0
 51
270.0
  0
LINE
  5
446
  8
DETAIL
  6
CONTINUOUS
 62
     5
 10
1502.5730080000001
 20
869.71808999999985
 30
0.0
 11
1502.5730080000001
 21
857.71808999999985
 31
0.0
  0
ARC
  5
447
  8
DETAIL
  6
CONTINUOUS
 62
     5
 10
1523.0730080000001
 20
860.71808999999985
 30
0.0
 40
3.0
 50
270.0
 51
0.0
  0
LINE
  5
448
  8
DETAIL
  6
CONTINUOUS
 62
     5
 10
1526.0730080000001
 20
869.71808999999985
 30
0.0
 11
1526.0730080000001
 21
860.71808999999985
 31
0.0
  0
LINE
  5
449
  8
DETAIL
  6
CONTINUOUS
 62
     5
 10
1523.0730080000001
 20
857.71808999999985
 30
0.0
 11
1505.0730080000001
 21
857.71808999999985
 31
0.0
  0
ARC
  5
44A
  8
DETAIL
  6
CONTINUOUS
 62
     5
 10
1505.5730080000001
 20
860.71808999999985
 30
0.0
 40
3.0
 50
180.0
 51
270.0
  0
LINE
  5
44B
  8
DETAIL
  6
CONTINUOUS
 62
     5
 10
1505.5730080000001
 20
854.71808999999985
 30
0.0
 11
1516.5730080000001
 21
854.71808999999985
 31
0.0
  0
LINE
  5
44C
  8
DETAIL
  6
CONTINUOUS
 62
     5
 10
1516.5730080000001
 20
854.71808999999985
 30
0.0
 11
1516.5730080000001
 21
834.71808999999985
 31
0.0
  0
ARC
  5
44D
  8
DETAIL
  6
CONTINUOUS
 62
     5
 10
1503.569757
 20
842.7226069999997
 30
0.0
 40
5.0
 50
0.0
 51
90.0
  0
LINE
  5
44E
  8
SIZE
  6
CONTINUOUS
 62
    30
 10
1591.5727549999999
 20
853.71808999999985
 30
0.0
 11
1591.5727549999999
 21
1015.134244
 31
0.0
  0
LINE
  5
44F
  8
SIZE
  6
CONTINUOUS
 62
    30
 10
1631.5727549999999
 20
851.21808999999985
 30
0.0
 11
1631.5727549999999
 21
1015.134244
 31
0.0
  0
POINT
  5
450
  8
DEFPOINTS
  6
CONTINUOUS
 62
     7
 10
1561.5727549999999
 20
869.71808999999985
 30
0.0
  0
POINT
  5
451
  8
DEFPOINTS
  6
CONTINUOUS
 62
     7
 10
1561.5727549999999
 20
869.71808999999985
 30
0.0
  0
POINT
  5
452
  8
DEFPOINTS
  6
CONTINUOUS
 62
     7
 10
1561.5727549999999
 20
869.71808999999985
 30
0.0
  0
POINT
  5
453
  8
DEFPOINTS
  6
CONTINUOUS
 62
     7
 10
1561.5727549999999
 20
869.71808999999985
 30
0.0
  0
POINT
  5
454
  8
DEFPOINTS
  6
CONTINUOUS
 62
     7
 10
1561.5727549999999
 20
869.71808999999985
 30
0.0
  0
POINT
  5
455
  8
DEFPOINTS
  6
CONTINUOUS
 62
     7
 10
1631.5727549999999
 20
831.21808999999985
 30
0.0
  0
POINT
  5
456
  8
DEFPOINTS
  6
CONTINUOUS
 62
     7
 10
1561.5727549999999
 20
869.71808999999985
 30
0.0
  0
POINT
  5
457
  8
DEFPOINTS
  6
CONTINUOUS
 62
     7
 10
1561.5727549999999
 20
869.71808999999985
 30
0.0
  0
POINT
  5
458
  8
DEFPOINTS
  6
CONTINUOUS
 62
     7
 10
1561.5727549999999
 20
869.71808999999985
 30
0.0
  0
POINT
  5
459
  8
DEFPOINTS
  6
CONTINUOUS
 62
     7
 10
1561.5727549999999
 20
869.71808999999985
 30
0.0
  0
POINT
  5
45A
  8
DEFPOINTS
  6
CONTINUOUS
 62
     7
 10
1591.5727549999999
 20
833.71808999999985
 30
0.0
  0
POINT
  5
45B
  8
DEFPOINTS
  6
CONTINUOUS
 62
     7
 10
1631.5727549999999
 20
831.21808999999985
 30
0.0
  0
LINE
  5
45C
  8
DETAIL
  6
CONTINUOUS
 62
     5
 10
1561.5731229999999
 20
834.71812199999988
 30
0.0
 11
1561.5727549999999
 21
869.71808999999985
 31
0.0
  0
ARC
  5
45D
  8
DETAIL
  6
CONTINUOUS
 62
     5
 10
1558.5731229999999
 20
834.71808999999985
 30
0.0
 40
3.0
 50
270.0
 51
0.000602
  0
LINE
  5
45E
  8
DETAIL
  6
CONTINUOUS
 62
     5
 10
1541.0730080000001
 20
857.71808999999985
 30
0.0
 11
1559.0730080000001
 21
857.71808999999985
 31
0.0
  0
LINE
  5
45F
  8
DETAIL
  6
CONTINUOUS
 62
     5
 10
1538.0730080000001
 20
869.71808999999985
 30
0.0
 11
1538.0730080000001
 21
860.71808999999985
 31
0.0
  0
ARC
  5
460
  8
DETAIL
  6
CONTINUOUS
 62
     5
 10
1558.5730080000001
 20
860.71808999999985
 30
0.0
 40
3.0
 50
270.0
 51
0.0
  0
ARC
  5
461
  8
DETAIL
  6
CONTINUOUS
 62
     5
 10
1541.0730080000001
 20
860.71808999999985
 30
0.0
 40
3.0
 50
180.0
 51
270.0
  0
ARC
  5
462
  8
DETAIL
  6
CONTINUOUS
 62
     5
 10
1578.5727549999999
 20
835.71808999999985
 30
0.0
 40
2.0
 50
180.0
 51
270.0
  0
LINE
  5
463
  8
DETAIL
  6
CONTINUOUS
 62
     5
 10
1596.5727549999999
 20
833.71808999999985
 30
0.0
 11
1578.5727549999999
 21
833.71808999999985
 31
0.0
  0
LINE
  5
464
  8
DETAIL
  6
CONTINUOUS
 62
     5
 10
1596.5727549999999
 20
833.71808999999985
 30
0.0
 11
1631.5727549999999
 21
831.21808999999985
 31
0.0
  0
LINE
  5
465
  8
DETAIL
  6
CONTINUOUS
 62
     5
 10
1572.5727549999999
 20
841.71808999999985
 30
0.0
 11
1561.5727549999999
 21
841.71808999999985
 31
0.0
  0
ARC
  5
466
  8
DETAIL
  6
CONTINUOUS
 62
     5
 10
1572.5727549999999
 20
837.71808999999985
 30
0.0
 40
4.0
 50
0.0
 51
90.0
  0
POINT
  5
467
  8
DEFPOINTS
  6
CONTINUOUS
 62
     7
 10
1591.5727549999999
 20
985.13424399999985
 30
0.0
  0
LINE
  5
468
  8
SIZE
  6
CONTINUOUS
 62
    30
 10
1636.5727549999999
 20
985.13424399999985
 30
0.0
 11
1641.5727549999999
 21
985.13424399999985
 31
0.0
  0
CIRCLE
  5
469
  8
SIZE
  6
CONTINUOUS
 62
    30
 10
1631.5727549999999
 20
985.13424399999985
 30
0.0
 40
5.0
  0
LINE
  5
46A
  8
SIZE
  6
CONTINUOUS
 62
    30
 10
1586.5727549999999
 20
985.13424399999985
 30
0.0
 11
1581.5727549999999
 21
985.13424399999985
 31
0.0
  0
CIRCLE
  5
46B
  8
SIZE
  6
CONTINUOUS
 62
    30
 10
1591.5727549999999
 20
985.13424399999985
 30
0.0
 40
5.0
  0
LINE
  5
46C
  8
SIZE
  6
CONTINUOUS
 62
    30
 10
1591.5727549999999
 20
985.13424399999985
 30
0.0
 11
1631.5727549999999
 21
985.13424399999985
 31
0.0
  0
LINE
  5
46D
  8
SIZE
  6
CONTINUOUS
 62
    30
 10
1581.5727549999999
 20
985.13424399999985
 30
0.0
 11
1571.5727549999999
 21
985.13424399999985
 31
0.0
  0
TEXT
  5
46E
  8
SIZE
  6
CONTINUOUS
 62
    30
 10
1014.239736
 20
1343.7912429999999
 30
0.0
 40
60.0
  1
(吊りボルトピッチ)
 50
0.000003
 41
0.75
  7
STANDARD1
  0
LINE
  5
46F
  8
SIZE
  6
CONTINUOUS
 62
    30
 10
867.57275500000014
 20
1330.706173
 30
0.0
 11
1517.5727549999999
 21
1330.706173
 31
0.0
  0
LINE
  5
470
  8
SIZE
  6
CONTINUOUS
 62
    30
 10
1298.5727549999999
 20
1196.4154370000001
 30
0.0
 11
1551.5727549999999
 21
1196.4154370000001
 31
0.0
  0
TEXT
  5
471
  8
SIZE
  6
CONTINUOUS
 62
    30
 10
872.00261185714282
 20
1348.1283989999999
 30
0.0
 40
55.0
  1
670
 41
0.9
 72
     1
 11
935.64546900000005
 21
1348.1283989999999
 31
0.0
  0
TEXT
  5
472
  8
NOTE
  6
CONTINUOUS
 62
     4
 10
923.96976500000005
 20
1063.2575850000001
 30
0.0
 40
60.0
  1
RL %%C6.35
 50
0.000003
 41
0.7
  7
STANDARD1
  0
LINE
  5
473
  8
SIZE
  6
CONTINUOUS
 62
    30
 10
867.57275500000014
 20
1330.706173
 30
0.0
 11
877.57275500000003
 21
1330.706173
 31
0.0
  0
CIRCLE
  5
474
  8
SIZE
  6
CONTINUOUS
 62
    30
 10
1288.5727549999999
 20
1196.4154370000001
 30
0.0
 40
5.0
  0
LINE
  5
475
  8
SIZE
  6
CONTINUOUS
 62
    30
 10
1293.5727549999999
 20
1196.4154370000001
 30
0.0
 11
1298.5727549999999
 21
1196.4154370000001
 31
0.0
  0
TEXT
  5
476
  8
SIZE
  6
CONTINUOUS
 62
    30
 10
1130.4298978571419
 20
1474.4745230000001
 30
0.0
 40
55.0
  1
735
 41
0.9
 72
     1
 11
1194.0727549999999
 21
1474.4745230000001
 31
0.0
  0
LINE
  5
477
  8
SIZE
  6
CONTINUOUS
 62
    30
 10
1443.5727549999999
 20
1067.2794819999999
 30
0.0
 11
1551.5727549999999
 21
1067.2794819999999
 31
0.0
  0
TEXT
  5
478
  8
SIZE
  6
CONTINUOUS
 62
    30
 10
1360.3227549999999
 20
1085.2794819999999
 30
0.0
 40
55.0
  1
64
 41
0.9
 72
     1
 11
1401.5727549999999
 21
1085.2794819999999
 31
0.0
  0
LINE
  5
479
  8
SIZE
  6
CONTINUOUS
 62
    30
 10
1369.5727549999999
 20
1067.2794819999999
 30
0.0
 11
1433.5727549999999
 21
1067.2794819999999
 31
0.0
  0
LINE
  5
47A
  8
SIZE
  6
CONTINUOUS
 62
    30
 10
1364.5727549999999
 20
1067.2794819999999
 30
0.0
 11
1359.5727549999999
 21
1067.2794819999999
 31
0.0
  0
CIRCLE
  5
47B
  8
SIZE
  6
CONTINUOUS
 62
    30
 10
1369.5727549999999
 20
1067.2794819999999
 30
0.0
 40
5.0
  0
LINE
  5
47C
  8
SIZE
  6
CONTINUOUS
 62
    30
 10
1359.5727549999999
 20
1067.2794819999999
 30
0.0
 11
1349.5727549999999
 21
1067.2794819999999
 31
0.0
  0
LINE
  5
47D
  8
SIZE
  6
CONTINUOUS
 62
    30
 10
1438.5727549999999
 20
1067.2794819999999
 30
0.0
 11
1443.5727549999999
 21
1067.2794819999999
 31
0.0
  0
CIRCLE
  5
47E
  8
SIZE
  6
CONTINUOUS
 62
    30
 10
1433.5727549999999
 20
1067.2794819999999
 30
0.0
 40
5.0
  0
POINT
  5
47F
  8
DEFPOINTS
  6
CONTINUOUS
 62
     7
 10
1433.5727549999999
 20
1067.2794819999999
 30
0.0
  0
LINE
  5
480
  8
SIZE
  6
CONTINUOUS
 62
    30
 10
1438.5727549999999
 20
1067.2794819999999
 30
0.0
 11
1443.5727549999999
 21
1067.2794819999999
 31
0.0
  0
CIRCLE
  5
481
  8
SIZE
  6
CONTINUOUS
 62
    30
 10
1433.5727549999999
 20
1067.2794819999999
 30
0.0
 40
5.0
  0
LINE
  5
482
  8
SIZE
  6
CONTINUOUS
 62
    30
 10
1443.5727549999999
 20
1067.2794819999999
 30
0.0
 11
1453.5727549999999
 21
1067.2794819999999
 31
0.0
  0
TEXT
  5
483
  8
SIZE
  6
CONTINUOUS
 62
    30
 10
1361.429897857143
 20
1214.4154370000001
 30
0.0
 40
55.0
  1
273
 41
0.9
 72
     1
 11
1425.0727549999999
 21
1214.4154370000001
 31
0.0
  0
POINT
  5
484
  8
DEFPOINTS
  6
CONTINUOUS
 62
     7
 10
1527.5727549999999
 20
1330.706173
 30
0.0
  0
LINE
  5
485
  8
SIZE
  6
CONTINUOUS
 62
    30
 10
1522.5727549999999
 20
1330.706173
 30
0.0
 11
1517.5727549999999
 21
1330.706173
 31
0.0
  0
CIRCLE
  5
486
  8
SIZE
  6
CONTINUOUS
 62
    30
 10
1527.5727549999999
 20
1330.706173
 30
0.0
 40
5.0
  0
CIRCLE
  5
487
  8
SIZE
  6
CONTINUOUS
 62
    30
 10
1561.5727549999999
 20
1196.4154370000001
 30
0.0
 40
5.0
  0
POINT
  5
488
  8
DEFPOINTS
  6
CONTINUOUS
 62
     7
 10
1561.5727549999999
 20
1067.2794819999999
 30
0.0
  0
LINE
  5
489
  8
SIZE
  6
CONTINUOUS
 62
    30
 10
1556.5727549999999
 20
1067.2794819999999
 30
0.0
 11
1551.5727549999999
 21
1067.2794819999999
 31
0.0
  0
CIRCLE
  5
48A
  8
SIZE
  6
CONTINUOUS
 62
    30
 10
1561.5727549999999
 20
1067.2794819999999
 30
0.0
 40
5.0
  0
POINT
  5
48B
  8
DEFPOINTS
  6
CONTINUOUS
 62
     7
 10
1561.5727549999999
 20
1196.4154370000001
 30
0.0
  0
LINE
  5
48C
  8
SIZE
  6
CONTINUOUS
 62
    30
 10
1556.5727549999999
 20
1196.4154370000001
 30
0.0
 11
1551.5727549999999
 21
1196.4154370000001
 31
0.0
  0
TEXT
  5
48D
  8
SIZE
  6
CONTINUOUS
 62
    30
 10
1556.501326428571
 20
1474.4745230000001
 30
0.0
 40
55.0
  1
70
 41
0.9
 72
     1
 11
1596.5727549999999
 21
1474.4745230000001
 31
0.0
  0
LINE
  5
48E
  8
SIZE
  6
CONTINUOUS
 62
    30
 10
1641.5727549999999
 20
1456.4745230000001
 30
0.0
 11
1651.5727549999999
 21
1456.4745230000001
 31
0.0
  0
POINT
  5
48F
  8
DEFPOINTS
  6
CONTINUOUS
 62
     7
 10
1631.5727549999999
 20
1456.4745230000001
 30
0.0
  0
LINE
  5
490
  8
SIZE
  6
CONTINUOUS
 62
    30
 10
1636.5727549999999
 20
1456.4745230000001
 30
0.0
 11
1641.5727549999999
 21
1456.4745230000001
 31
0.0
  0
CIRCLE
  5
491
  8
SIZE
  6
CONTINUOUS
 62
    30
 10
1631.5727549999999
 20
1456.4745230000001
 30
0.0
 40
5.0
  0
LINE
  5
492
  8
SIZE
  6
CONTINUOUS
 62
    30
 10
1556.5727549999999
 20
1456.4745230000001
 30
0.0
 11
1551.5727549999999
 21
1456.4745230000001
 31
0.0
  0
CIRCLE
  5
493
  8
SIZE
  6
CONTINUOUS
 62
    30
 10
1561.5727549999999
 20
1456.4745230000001
 30
0.0
 40
5.0
  0
LINE
  5
494
  8
SIZE
  6
CONTINUOUS
 62
    30
 10
1561.5727549999999
 20
1456.4745230000001
 30
0.0
 11
1631.5727549999999
 21
1456.4745230000001
 31
0.0
  0
LINE
  5
495
  8
SIZE
  6
CONTINUOUS
 62
    30
 10
1551.5727549999999
 20
1456.4745230000001
 30
0.0
 11
1541.5727549999999
 21
1456.4745230000001
 31
0.0
  0
POINT
  5
496
  8
DEFPOINTS
  6
CONTINUOUS
 62
     7
 10
1561.5727549999999
 20
1456.4745230000001
 30
0.0
  0
LINE
  5
497
  8
SIZE
  6
CONTINUOUS
 62
    30
 10
1556.5727549999999
 20
1456.4745230000001
 30
0.0
 11
1551.5727549999999
 21
1456.4745230000001
 31
0.0
  0
CIRCLE
  5
498
  8
SIZE
  6
CONTINUOUS
 62
    30
 10
1561.5727549999999
 20
1456.4745230000001
 30
0.0
 40
5.0
  0
TEXT
  5
499
  8
SIZE
  6
CONTINUOUS
 62
    30
 10
2244.7578680000001
 20
663.21592385714268
 30
0.0
 40
55.0
  1
265
 50
90.0
 41
0.9
 72
     1
 11
2244.7578680000001
 21
726.85878099999968
 31
0.0
  0
LINE
  5
49A
  8
SIZE
  6
CONTINUOUS
 62
    30
 10
2166.7516369999998
 20
735.403053
 30
0.0
 11
2166.7516369999998
 21
851.54591100000005
 31
0.0
  0
TEXT
  5
49B
  8
SIZE
  6
CONTINUOUS
 62
    30
 10
2053.6187030000001
 20
724.7895185714284
 30
0.0
 40
55.0
  1
172
 50
90.0
 41
0.9
 72
     1
 11
2053.6187030000001
 21
783.71808999999985
 31
0.0
  0
LINE
  5
49C
  8
SIZE
  6
CONTINUOUS
 62
    30
 10
2071.6187030000001
 20
859.71808999999985
 30
0.0
 11
2071.6187030000001
 21
707.71808999999996
 31
0.0
  0
LINE
  5
49D
  8
SIZE
  6
CONTINUOUS
 62
    30
 10
1954.15562
 20
738.71808999999985
 30
0.0
 11
1954.15562
 21
743.71808999999985
 31
0.0
  0
POINT
  5
49E
  8
DEFPOINTS
  6
CONTINUOUS
 62
     7
 10
1954.15562
 20
733.71808999999985
 30
0.0
  0
CIRCLE
  5
49F
  8
SIZE
  6
CONTINUOUS
 62
    30
 10
1954.15562
 20
733.71808999999985
 30
0.0
 40
5.0
  0
POINT
  5
4A0
  8
DEFPOINTS
  6
CONTINUOUS
 62
     7
 10
2055.666068
 20
483.7180899999999
 30
0.0
  0
LINE
  5
4A1
  8
SIZE
  6
CONTINUOUS
 62
    30
 10
2055.666068
 20
488.71809000000002
 30
0.0
 11
2055.666068
 21
493.71809000000002
 31
0.0
  0
CIRCLE
  5
4A2
  8
SIZE
  6
CONTINUOUS
 62
    30
 10
2055.666068
 20
483.7180899999999
 30
0.0
 40
5.0
  0
LINE
  5
4A3
  8
SIZE
  6
CONTINUOUS
 62
    30
 10
2055.666068
 20
436.71809000000002
 30
0.0
 11
2055.666068
 21
483.7180899999999
 31
0.0
  0
LINE
  5
4A4
  8
SIZE
  6
CONTINUOUS
 62
    30
 10
2055.666068
 20
436.71809000000002
 30
0.0
 11
2055.666068
 21
483.7180899999999
 31
0.0
  0
LINE
  5
4A5
  8
SIZE
  6
CONTINUOUS
 62
    30
 10
2055.666068
 20
493.71809000000002
 30
0.0
 11
2055.666068
 21
503.71809000000002
 31
0.0
  0
POINT
  5
4A6
  8
DEFPOINTS
  6
CONTINUOUS
 62
     7
 10
2055.666068
 20
436.71809000000002
 30
0.0
  0
LINE
  5
4A7
  8
SIZE
  6
CONTINUOUS
 62
    30
 10
2055.666068
 20
441.71808999999979
 30
0.0
 11
2055.666068
 21
446.71809000000002
 31
0.0
  0
LINE
  5
4A8
  8
SIZE
  6
CONTINUOUS
 62
    30
 10
2055.666068
 20
446.71809000000002
 30
0.0
 11
2055.666068
 21
456.71809000000002
 31
0.0
  0
LINE
  5
4A9
  8
SIZE
  6
CONTINUOUS
 62
    30
 10
2071.6187030000001
 20
683.71941100000004
 30
0.0
 11
2166.7516369999998
 21
735.403053
 31
0.0
  0
POINT
  5
4AA
  8
DEFPOINTS
  6
CONTINUOUS
 62
     7
 10
2071.6187030000001
 20
669.720731
 30
0.0
  0
LINE
  5
4AB
  8
SIZE
  6
CONTINUOUS
 62
    30
 10
2071.6187030000001
 20
664.72073099999977
 30
0.0
 11
2071.6187030000001
 21
659.72073099999989
 31
0.0
  0
CIRCLE
  5
4AC
  8
SIZE
  6
CONTINUOUS
 62
    30
 10
2071.6187030000001
 20
669.720731
 30
0.0
 40
5.0
  0
LINE
  5
4AD
  8
SIZE
  6
CONTINUOUS
 62
    30
 10
2071.6187030000001
 20
702.71809000000019
 30
0.0
 11
2071.6187030000001
 21
707.71808999999996
 31
0.0
  0
CIRCLE
  5
4AE
  8
SIZE
  6
CONTINUOUS
 62
    30
 10
2071.6187030000001
 20
697.71808999999985
 30
0.0
 40
5.0
  0
LINE
  5
4AF
  8
SIZE
  6
CONTINUOUS
 62
    30
 10
2071.6187030000001
 20
697.71808999999985
 30
0.0
 11
2071.6187030000001
 21
669.720731
 31
0.0
  0
LINE
  5
4B0
  8
SIZE
  6
CONTINUOUS
 62
    30
 10
2071.6187030000001
 20
697.71808999999985
 30
0.0
 11
2071.6187030000001
 21
669.720731
 31
0.0
  0
LINE
  5
4B1
  8
SIZE
  6
CONTINUOUS
 62
    30
 10
2071.6187030000001
 20
659.72073099999989
 30
0.0
 11
2071.6187030000001
 21
649.720731
 31
0.0
  0
LINE
  5
4B2
  8
SIZE
  6
CONTINUOUS
 62
    30
 10
2071.6187030000001
 20
707.71808999999996
 30
0.0
 11
2071.6187030000001
 21
717.71808999999985
 31
0.0
  0
POINT
  5
4B3
  8
DEFPOINTS
  6
CONTINUOUS
 62
     7
 10
2071.6187030000001
 20
697.71808999999985
 30
0.0
  0
LINE
  5
4B4
  8
SIZE
  6
CONTINUOUS
 62
    30
 10
2071.6187030000001
 20
702.71809000000019
 30
0.0
 11
2071.6187030000001
 21
707.71808999999996
 31
0.0
  0
CIRCLE
  5
4B5
  8
SIZE
  6
CONTINUOUS
 62
    30
 10
2071.6187030000001
 20
697.71808999999985
 30
0.0
 40
5.0
  0
LINE
  5
4B6
  8
SIZE
  6
CONTINUOUS
 62
    30
 10
1954.15562
 20
869.71808999999985
 30
0.0
 11
1954.15562
 21
1031.2180900000001
 31
0.0
  0
LINE
  5
4B7
  8
SIZE
  6
CONTINUOUS
 62
    30
 10
1867.7123240000001
 20
869.71808999999985
 30
0.0
 11
1867.7123240000001
 21
1033.575233
 31
0.0
  0
CIRCLE
  5
4B8
  8
SIZE
  6
CONTINUOUS
 62
    30
 10
1867.7123240000001
 20
869.71808999999985
 30
0.0
 40
5.0
  0
CIRCLE
  5
4B9
  8
SIZE
  6
CONTINUOUS
 62
    30
 10
1867.7123240000001
 20
761.71808999999996
 30
0.0
 40
5.0
  0
POINT
  5
4BA
  8
DEFPOINTS
  6
CONTINUOUS
 62
     7
 10
1867.7123240000001
 20
761.71808999999996
 30
0.0
  0
LINE
  5
4BB
  8
SIZE
  6
CONTINUOUS
 62
    30
 10
1867.7123240000001
 20
864.71808999999985
 30
0.0
 11
1867.7123240000001
 21
859.71808999999985
 31
0.0
  0
LINE
  5
4BC
  8
SIZE
  6
CONTINUOUS
 62
    30
 10
1867.7123240000001
 20
766.71808999999985
 30
0.0
 11
1867.7123240000001
 21
771.71808999999985
 31
0.0
  0
LINE
  5
4BD
  8
SIZE
  6
CONTINUOUS
 62
    30
 10
1867.7123240000001
 20
771.71808999999985
 30
0.0
 11
1867.7123240000001
 21
859.71808999999985
 31
0.0
  0
LINE
  5
4BE
  8
SIZE
  6
CONTINUOUS
 62
    30
 10
1954.15562
 20
864.71808999999985
 30
0.0
 11
1954.15562
 21
859.71808999999985
 31
0.0
  0
CIRCLE
  5
4BF
  8
SIZE
  6
CONTINUOUS
 62
    30
 10
1954.15562
 20
869.71808999999985
 30
0.0
 40
5.0
  0
LINE
  5
4C0
  8
SIZE
  6
CONTINUOUS
 62
    30
 10
1954.15562
 20
743.71808999999985
 30
0.0
 11
1954.15562
 21
859.71808999999985
 31
0.0
  0
TEXT
  5
4C1
  8
SIZE
  6
CONTINUOUS
 62
    30
 10
1849.7123240000001
 20
897.71808957142866
 30
0.0
 40
55.0
  1
108
 50
90.0
 41
0.9
 72
     1
 11
1849.7123240000001
 21
956.64666099999999
 31
0.0
  0
TEXT
  5
4C2
  8
SIZE
  6
CONTINUOUS
 62
    30
 10
1936.15562
 20
897.71808999999996
 30
0.0
 40
55.0
  1
136
 50
90.0
 41
0.9
 72
     1
 11
1936.15562
 21
955.46808999999985
 31
0.0
  0
TEXT
  5
4C3
  8
SIZE
  6
CONTINUOUS
 62
    30
 10
2148.7516370000012
 20
753.4030534285713
 30
0.0
 40
55.0
  1
28
 50
90.0
 41
0.9
 72
     1
 11
2148.7516370000012
 21
793.47448199999985
 31
0.0
  0
LINE
  5
4C4
  8
SIZE
  6
CONTINUOUS
 62
    30
 10
2071.6187030000001
 20
864.71808999999985
 30
0.0
 11
2071.6187030000001
 21
859.71808999999985
 31
0.0
  0
CIRCLE
  5
4C5
  8
SIZE
  6
CONTINUOUS
 62
    30
 10
2071.6187030000001
 20
869.71808999999985
 30
0.0
 40
5.0
  0
TEXT
  5
4C6
  8
SIZE
  6
CONTINUOUS
 62
    30
 10
2344.0313820000001
 20
659.57523285714285
 30
0.0
 40
55.0
  1
293
 50
90.0
 41
0.9
 72
     1
 11
2344.0313820000001
 21
723.21808999999985
 31
0.0
  0
LINE
  5
4C7
  8
SIZE
  6
CONTINUOUS
 62
    30
 10
2362.0313820000001
 20
859.71808999999985
 30
0.0
 11
2362.0313820000001
 21
586.71809000000007
 31
0.0
  0
LINE
  5
4C8
  8
SIZE
  6
CONTINUOUS
 62
    30
 10
2262.7578680000001
 20
614.71809000000019
 30
0.0
 11
2262.7578680000001
 21
859.71808999999985
 31
0.0
  0
POLYLINE
  5
4C9
  8
SIZE
  6
CONTINUOUS
 62
    30
 66
     1
 10
0.0
 20
0.0
 30
0.0
  0
VERTEX
  5
921
  8
SIZE
  6
CONTINUOUS
 62
    30
 10
2565.601439
 20
469.61157900000001
 30
0.0
 42
0.186174
  0
VERTEX
  5
922
  8
SIZE
  6
CONTINUOUS
 62
    30
 10
2556.7515910000002
 20
490.56106799999992
 30
0.0
 42
0.082105
  0
VERTEX
  5
923
  8
SIZE
  6
CONTINUOUS
 62
    30
 10
2541.0490890000001
 20
502.73562900000002
 30
0.0
 42
0.058826
  0
VERTEX
  5
924
  8
SIZE
  6
CONTINUOUS
 62
    30
 10
2519.263031
 20
511.51055599999989
 30
0.0
 42
0.067494
  0
VERTEX
  5
925
  8
SIZE
  6
CONTINUOUS
 62
    30
 10
2481.7744710000002
 20
516.45605899999975
 30
0.0
 42
0.067494
  0
VERTEX
  5
926
  8
SIZE
  6
CONTINUOUS
 62
    30
 10
2444.2859109999999
 20
511.51055599999989
 30
0.0
 42
0.058826
  0
VERTEX
  5
927
  8
SIZE
  6
CONTINUOUS
 62
    30
 10
2422.4998530000012
 20
502.73562900000002
 30
0.0
 42
0.082105
  0
VERTEX
  5
928
  8
SIZE
  6
CONTINUOUS
 62
    30
 10
2406.7973510000002
 20
490.56106799999992
 30
0.0
 42
0.186174
  0
VERTEX
  5
929
  8
SIZE
  6
CONTINUOUS
 62
    30
 10
2397.9475030000008
 20
469.61157900000001
 30
0.0
 42
0.186174
  0
SEQEND
  5
92A
  8
SIZE
  6
CONTINUOUS
 62
    30
  0
POINT
  5
4D4
  8
DEFPOINTS
  6
CONTINUOUS
 62
     7
 10
2362.0313820000001
 20
436.71809000000002
 30
0.0
  0
LINE
  5
4D5
  8
SIZE
  6
CONTINUOUS
 62
    30
 10
2362.0313820000001
 20
441.71808999999979
 30
0.0
 11
2362.0313820000001
 21
446.71809000000002
 31
0.0
  0
LINE
  5
4D6
  8
SIZE
  6
CONTINUOUS
 62
    30
 10
2362.0313820000001
 20
571.71808999999985
 30
0.0
 11
2362.0313820000001
 21
566.71808999999985
 31
0.0
  0
CIRCLE
  5
4D7
  8
SIZE
  6
CONTINUOUS
 62
    30
 10
2362.0313820000001
 20
576.71808999999985
 30
0.0
 40
5.0
  0
LINE
  5
4D8
  8
SIZE
  6
CONTINUOUS
 62
    30
 10
2362.0313820000001
 20
566.71808999999985
 30
0.0
 11
2362.0313820000001
 21
446.71809000000002
 31
0.0
  0
POINT
  5
4D9
  8
DEFPOINTS
  6
CONTINUOUS
 62
     7
 10
2362.0313820000001
 20
576.71808999999985
 30
0.0
  0
LINE
  5
4DA
  8
SIZE
  6
CONTINUOUS
 62
    30
 10
2362.0313820000001
 20
581.71809000000019
 30
0.0
 11
2362.0313820000001
 21
586.71809000000007
 31
0.0
  0
CIRCLE
  5
4DB
  8
SIZE
  6
CONTINUOUS
 62
    30
 10
2362.0313820000001
 20
576.71808999999985
 30
0.0
 40
5.0
  0
LINE
  5
4DC
  8
SIZE
  6
CONTINUOUS
 62
    30
 10
2262.7578680000001
 20
609.71808999999985
 30
0.0
 11
2262.7578680000001
 21
614.71809000000019
 31
0.0
  0
CIRCLE
  5
4DD
  8
SIZE
  6
CONTINUOUS
 62
    30
 10
2262.7578680000001
 20
604.71808999999985
 30
0.0
 40
5.0
  0
POINT
  5
4DE
  8
DEFPOINTS
  6
CONTINUOUS
 62
     7
 10
2262.7578680000001
 20
869.71808999999985
 30
0.0
  0
LINE
  5
4DF
  8
SIZE
  6
CONTINUOUS
 62
    30
 10
2262.7578680000001
 20
864.71808999999985
 30
0.0
 11
2262.7578680000001
 21
859.71808999999985
 31
0.0
  0
CIRCLE
  5
4E0
  8
SIZE
  6
CONTINUOUS
 62
    30
 10
2262.7578680000001
 20
869.71808999999985
 30
0.0
 40
5.0
  0
LINE
  5
4E1
  8
SIZE
  6
CONTINUOUS
 62
    30
 10
2362.0313820000001
 20
864.71808999999985
 30
0.0
 11
2362.0313820000001
 21
859.71808999999985
 31
0.0
  0
CIRCLE
  5
4E2
  8
SIZE
  6
CONTINUOUS
 62
    30
 10
2362.0313820000001
 20
869.71808999999985
 30
0.0
 40
5.0
  0
TEXT
  5
4E3
  8
NOTE
  6
CONTINUOUS
 62
     4
 10
1837.3610209999999
 20
1096.4879550000001
 30
0.0
 40
60.0
  1
%%C200 吹出円形フランジ
 50
0.000003
 41
0.7
  7
STANDARD1
  0
LINE
  5
4E4
  8
NOTE
  6
CONTINUOUS
 62
     4
 10
2415.3047120000001
 20
1081.692288
 30
0.0
 11
1832.327194
 21
1081.692288
 31
0.0
  0
ENDBLK
  5
4E6
  8
0
 62
     7
  0
ENDSEC
  0
SECTION
  2
ENTITIES
  0
TEXT
  5
4E8
  8
ETC
  6
CONTINUOUS
 62
    61
 10
250.36366028173509
 20
1178.2486616873539
 30
0.0
 40
80.0
  1
PDFY-P71_90M-G_5
 50
0.000003
 41
0.8
  0
LINE
  5
4E9
  8
OUTLINE
  6
CONTINUOUS
 62
     3
 10
157.5
 20
0.0
 30
0.0
 11
-442.49999999999989
 21
0.0
 31
0.0
  0
TEXT
  5
4EA
  8
SIZE
  6
CONTINUOUS
 62
    30
 10
-387.49999985714283
 20
-131.31652800000001
 30
0.0
 40
55.0
  1
17
 41
0.9
 72
     1
 11
-352.14285699999999
 21
-131.31652800000001
 31
0.0
  0
LINE
  5
4EB
  8
SIZE
  6
CONTINUOUS
 62
    30
 10
-415.5
 20
-149.31652800000001
 30
0.0
 11
-298.78571399999998
 21
-149.31652800000001
 31
0.0
  0
TEXT
  5
4EC
  8
SIZE
  6
CONTINUOUS
 62
    30
 10
-414.5462647142856
 20
-390.313335
 30
0.0
 40
55.0
  1
566(天井開口寸法)
 41
0.9
 72
     1
 11
-140.881979
 21
-390.313335
 31
0.0
  0
LINE
  5
4ED
  8
SIZE
  6
CONTINUOUS
 62
    30
 10
-415.5
 20
-406.71809699999989
 30
0.0
 11
130.5
 21
-406.71809699999989
 31
0.0
  0
LINE
  5
4EE
  8
NOTE
  6
CONTINUOUS
 62
     4
 10
-447.04789
 20
312.836656
 30
0.0
 11
-139.11274700000001
 21
210.0
 31
0.0
  0
LINE
  5
4EF
  8
NOTE
  6
CONTINUOUS
 62
     4
 10
-522.74907299999995
 20
411.68598300000002
 30
0.0
 11
101.0
 21
247.798203
 31
0.0
  0
LINE
  5
4F0
  8
SIZE
  6
CONTINUOUS
 62
    30
 10
-432.5
 20
-250.626656
 30
0.0
 11
147.5
 21
-250.626656
 31
0.0
  0
LINE
  5
4F1
  8
SIZE
  6
CONTINUOUS
 62
    30
 10
-357.5
 20
1019.756433
 30
0.0
 11
357.5
 21
1019.756433
 31
0.0
  0
LINE
  5
4F2
  8
SIZE
  6
CONTINUOUS
 62
    30
 10
-331.5
 20
893.98808299999985
 30
0.0
 11
-326.5
 21
893.98808299999985
 31
0.0
  0
LINE
  5
4F3
  8
SIZE
  6
CONTINUOUS
 62
    30
 10
-331.5
 20
893.98808299999985
 30
0.0
 11
-326.5
 21
893.98808299999985
 31
0.0
  0
LINE
  5
4F4
  8
OUTLINE
  6
CONTINUOUS
 62
     3
 10
126.8
 20
-8.0
 30
0.0
 11
-411.80000000000001
 21
-8.0
 31
0.0
  0
LINE
  5
4F5
  8
OUTLINE
  6
CONTINUOUS
 62
     3
 10
-410.97000000000003
 20
47.0
 30
0.0
 11
125.97
 21
47.0
 31
0.0
  0
LINE
  5
4F6
  8
OUTLINE
  6
CONTINUOUS
 62
     3
 10
367.5
 20
140.0
 30
0.0
 11
-367.5
 21
140.0
 31
0.0
  0
LINE
  5
4F7
  8
OUTLINE
  6
CONTINUOUS
 62
     3
 10
-367.5
 20
433.0
 30
0.0
 11
367.5
 21
433.0
 31
0.0
  0
LINE
  5
4F8
  8
NOTE
  6
CONTINUOUS
 62
     4
 10
-411.76201200000003
 20
225.15281300000001
 30
0.0
 11
-319.11274700000001
 21
210.0
 31
0.0
  0
LINE
  5
4F9
  8
NOTE
  6
CONTINUOUS
 62
     4
 10
-308.61274700000001
 20
210.0
 30
0.0
 11
-329.61274700000001
 21
210.0
 31
0.0
  0
LINE
  5
4FA
  8
NOTE
  6
CONTINUOUS
 62
     4
 10
-319.11274700000001
 20
210.0
 30
0.0
 11
-353.44752599999998
 21
208.13651100000001
 31
0.0
  0
LINE
  5
4FB
  8
NOTE
  6
CONTINUOUS
 62
     4
 10
-319.11274700000001
 20
210.0
 30
0.0
 11
-350.74862899999999
 21
223.472959
 31
0.0
  0
CIRCLE
  5
4FC
  8
FIX
  6
CONTINUOUS
 62
    11
 10
-336.5
 20
433.0
 30
0.0
 40
12.421498
  0
LINE
  5
4FD
  8
NOTE
  6
CONTINUOUS
 62
     4
 10
-351.49516599999998
 20
433.0
 30
0.0
 11
-321.50483400000002
 21
433.0
 31
0.0
  0
LINE
  5
4FE
  8
DETAIL
  6
CONTINUOUS
 62
     5
 10
-367.5
 20
433.0
 30
0.0
 11
367.5
 21
433.0
 31
0.0
  0
CIRCLE
  5
4FF
  8
DETAIL
  6
CONTINUOUS
 62
     5
 10
-319.11274700000001
 20
210.0
 30
0.0
 40
13.0
  0
LINE
  5
501
  8
DETAIL
  6
CONTINUOUS
 62
     5
 10
-325.5
 20
395.0
 30
0.0
 11
-364.5
 21
395.0
 31
0.0
  0
LINE
  5
502
  8
DETAIL
  6
CONTINUOUS
 62
     5
 10
-329.0
 20
421.0
 30
0.0
 11
-311.5
 21
421.0
 31
0.0
  0
LINE
  5
503
  8
DETAIL
  6
CONTINUOUS
 62
     5
 10
125.97
 20
47.0
 30
0.0
 11
-410.97000000000003
 21
47.0
 31
0.0
  0
LINE
  5
504
  8
DETAIL
  6
CONTINUOUS
 62
     5
 10
126.8
 20
-8.0
 30
0.0
 11
-411.80000000000001
 21
-8.0
 31
0.0
  0
LINE
  5
506
  8
OUTLINE
  6
CONTINUOUS
 62
     3
 10
-442.49999999999989
 20
0.0
 30
0.0
 11
-442.49999999999989
 21
-4.0065080000000002
 31
0.0
  0
LINE
  5
507
  8
DETAIL
  6
CONTINUOUS
 62
     5
 10
-442.49999999999989
 20
-4.0065080000000002
 30
0.0
 11
-442.49999999999989
 21
0.0
 31
0.0
  0
LINE
  5
508
  8
SIZE
  6
CONTINUOUS
 62
    30
 10
-425.49999999999989
 20
-19.0
 30
0.0
 11
-425.49999999999989
 21
-436.71809699999989
 31
0.0
  0
LINE
  5
509
  8
SIZE
  6
CONTINUOUS
 62
    30
 10
-420.5
 20
-406.71809699999989
 30
0.0
 11
-415.5
 21
-406.71809699999989
 31
0.0
  0
CIRCLE
  5
50A
  8
SIZE
  6
CONTINUOUS
 62
    30
 10
-425.49999999999989
 20
-406.71809699999989
 30
0.0
 40
5.0
  0
LINE
  5
50B
  8
SIZE
  6
CONTINUOUS
 62
    30
 10
-425.49999999999989
 20
-19.0
 30
0.0
 11
-425.49999999999989
 21
-179.31652800000001
 31
0.0
  0
LINE
  5
50C
  8
SIZE
  6
CONTINUOUS
 62
    30
 10
-442.49999999999989
 20
-24.006508
 30
0.0
 11
-442.49999999999989
 21
-179.31652800000001
 31
0.0
  0
LINE
  5
50D
  8
SIZE
  6
CONTINUOUS
 62
    30
 10
-442.49999999999989
 20
-24.006508
 30
0.0
 11
-442.49999999999989
 21
-280.62665600000003
 31
0.0
  0
CIRCLE
  5
50E
  8
SIZE
  6
CONTINUOUS
 62
    30
 10
-442.49999999999989
 20
-250.626656
 30
0.0
 40
5.0
  0
LINE
  5
50F
  8
SIZE
  6
CONTINUOUS
 62
    30
 10
-437.5
 20
-250.626656
 30
0.0
 11
-432.5
 21
-250.626656
 31
0.0
  0
CIRCLE
  5
510
  8
SIZE
  6
CONTINUOUS
 62
    30
 10
-442.49999999999989
 20
-149.31652800000001
 30
0.0
 40
5.0
  0
LINE
  5
511
  8
SIZE
  6
CONTINUOUS
 62
    30
 10
-442.49999999999989
 20
-149.31652800000001
 30
0.0
 11
-425.49999999999989
 21
-149.31652800000001
 31
0.0
  0
ARC
  5
512
  8
OUTLINE
  6
CONTINUOUS
 62
     3
 10
-411.80000000000001
 20
112.0
 30
0.0
 40
120.0
 50
255.17703
 51
270.0
  0
ARC
  5
513
  8
DETAIL
  6
CONTINUOUS
 62
     5
 10
-411.80000000000001
 20
112.0
 30
0.0
 40
120.0
 50
255.17703
 51
270.0
  0
POINT
  5
514
  8
DEFPOINTS
  6
CONTINUOUS
 62
     7
 10
-442.49999999999989
 20
-4.0065080000000002
 30
0.0
  0
LINE
  5
515
  8
SIZE
  6
CONTINUOUS
 62
    30
 10
-447.5
 20
-149.31652800000001
 30
0.0
 11
-452.5
 21
-149.31652800000001
 31
0.0
  0
LINE
  5
516
  8
SIZE
  6
CONTINUOUS
 62
    30
 10
-452.5
 20
-149.31652800000001
 30
0.0
 11
-462.5
 21
-149.31652800000001
 31
0.0
  0
POINT
  5
517
  8
DEFPOINTS
  6
CONTINUOUS
 62
     7
 10
-442.49999999999989
 20
-4.0065080000000002
 30
0.0
  0
POINT
  5
518
  8
DEFPOINTS
  6
CONTINUOUS
 62
     7
 10
-425.49999999999989
 20
-149.31652800000001
 30
0.0
  0
LINE
  5
519
  8
SIZE
  6
CONTINUOUS
 62
    30
 10
-420.5
 20
-149.31652800000001
 30
0.0
 11
-415.5
 21
-149.31652800000001
 31
0.0
  0
CIRCLE
  5
51A
  8
SIZE
  6
CONTINUOUS
 62
    30
 10
-425.49999999999989
 20
-149.31652800000001
 30
0.0
 40
5.0
  0
LINE
  5
51B
  8
NOTE
  6
CONTINUOUS
 62
     4
 10
-464.97213099999988
 20
658.96709699999997
 30
0.0
 11
-336.5
 21
433.0
 31
0.0
  0
LINE
  5
51C
  8
SIZE
  6
CONTINUOUS
 62
    30
 10
-367.5
 20
453.0
 30
0.0
 11
-367.5
 21
1049.756433
 31
0.0
  0
LINE
  5
51D
  8
SIZE
  6
CONTINUOUS
 62
    30
 10
-336.5
 20
467.99516599999993
 30
0.0
 11
-336.5
 21
923.98808299999996
 31
0.0
  0
LINE
  5
51E
  8
SIZE
  6
CONTINUOUS
 62
    30
 10
-336.5
 20
467.99516599999993
 30
0.0
 11
-336.5
 21
923.98808299999996
 31
0.0
  0
LINE
  5
51F
  8
SIZE
  6
CONTINUOUS
 62
    30
 10
-367.5
 20
453.0
 30
0.0
 11
-367.5
 21
923.98808299999996
 31
0.0
  0
LINE
  5
520
  8
NOTE
  6
CONTINUOUS
 62
     4
 10
-522.74907299999995
 20
411.68598300000002
 30
0.0
 11
-1040.2861829999999
 21
411.68598300000002
 31
0.0
  0
TEXT
  5
521
  8
NOTE
  6
CONTINUOUS
 62
     4
 10
-1045.2134289999999
 20
420.42208299999987
 30
0.0
 40
60.0
  1
ドレン排水確認用給水口
 50
0.000003
 41
0.65
  7
STANDARD1
  0
LINE
  5
522
  8
OUTLINE
  6
CONTINUOUS
 62
     3
 10
-367.5
 20
140.0
 30
0.0
 11
-367.5
 21
433.0
 31
0.0
  0
LINE
  5
523
  8
DETAIL
  6
CONTINUOUS
 62
     5
 10
-367.5
 20
433.0
 30
0.0
 11
-367.5
 21
140.0
 31
0.0
  0
TEXT
  5
524
  8
SIZE
  6
CONTINUOUS
 62
    30
 10
-533.64285757142852
 20
101.44523100000001
 30
0.0
 40
55.0
  1
58
 41
0.9
 72
     1
 11
-493.57142899999991
 21
101.44523100000001
 31
0.0
  0
LINE
  5
525
  8
SIZE
  6
CONTINUOUS
 62
    30
 10
-425.49999999999989
 20
83.445231000000007
 30
0.0
 11
-551.64285700000005
 21
83.445231000000007
 31
0.0
  0
LINE
  5
526
  8
NOTE
  6
CONTINUOUS
 62
     4
 10
-457.16165399999988
 20
1.0
 30
0.0
 11
-437.16165399999988
 21
21.0
 31
0.0
  0
LINE
  5
527
  8
NOTE
  6
CONTINUOUS
 62
     4
 10
-425.49999999999989
 20
21.0
 30
0.0
 11
-518.20409400000005
 21
21.0
 31
0.0
  0
LINE
  5
528
  8
NOTE
  6
CONTINUOUS
 62
     4
 10
-425.49999999999989
 20
1.0
 30
0.0
 11
-518.20409400000005
 21
1.0
 31
0.0
  0
LINE
  5
52A
  8
NOTE
  6
CONTINUOUS
 62
     4
 10
-497.161654
 20
1.0
 30
0.0
 11
-477.161654
 21
21.0
 31
0.0
  0
LINE
  5
52B
  8
NOTE
  6
CONTINUOUS
 62
     4
 10
-502.161654
 20
1.0
 30
0.0
 11
-482.16165399999988
 21
21.0
 31
0.0
  0
LINE
  5
52C
  8
NOTE
  6
CONTINUOUS
 62
     4
 10
-507.16165399999988
 20
1.0
 30
0.0
 11
-487.16165399999988
 21
21.0
 31
0.0
  0
LINE
  5
52D
  8
NOTE
  6
CONTINUOUS
 62
     4
 10
-467.161654
 20
1.0
 30
0.0
 11
-447.161654
 21
21.0
 31
0.0
  0
LINE
  5
52E
  8
NOTE
  6
CONTINUOUS
 62
     4
 10
-462.16165399999988
 20
1.0
 30
0.0
 11
-442.161654
 21
21.0
 31
0.0
  0
POINT
  5
52F
  8
DEFPOINTS
  6
CONTINUOUS
 62
     7
 10
-425.49999999999989
 20
83.445231000000007
 30
0.0
  0
POINT
  5
530
  8
DEFPOINTS
  6
CONTINUOUS
 62
     7
 10
-425.49999999999989
 20
21.0
 30
0.0
  0
POINT
  5
531
  8
DEFPOINTS
  6
CONTINUOUS
 62
     7
 10
-367.5
 20
140.0
 30
0.0
  0
LINE
  5
532
  8
SIZE
  6
CONTINUOUS
 62
    30
 10
-420.5
 20
83.445231000000007
 30
0.0
 11
-415.5
 21
83.445231000000007
 31
0.0
  0
CIRCLE
  5
533
  8
SIZE
  6
CONTINUOUS
 62
    30
 10
-425.49999999999989
 20
83.445231000000007
 30
0.0
 40
5.0
  0
LINE
  5
534
  8
SIZE
  6
CONTINUOUS
 62
    30
 10
-372.5
 20
83.445231000000007
 30
0.0
 11
-377.5
 21
83.445231000000007
 31
0.0
  0
CIRCLE
  5
535
  8
SIZE
  6
CONTINUOUS
 62
    30
 10
-367.5
 20
83.445231000000007
 30
0.0
 40
5.0
  0
LINE
  5
536
  8
SIZE
  6
CONTINUOUS
 62
    30
 10
-377.5
 20
83.445231000000007
 30
0.0
 11
-415.5
 21
83.445231000000007
 31
0.0
  0
LINE
  5
537
  8
SIZE
  6
CONTINUOUS
 62
    30
 10
-425.49999999999989
 20
41.0
 30
0.0
 11
-425.49999999999989
 21
113.44523100000001
 31
0.0
  0
LINE
  5
538
  8
SIZE
  6
CONTINUOUS
 62
    30
 10
-367.5
 20
120.0
 30
0.0
 11
-367.5
 21
53.445231
 31
0.0
  0
POINT
  5
539
  8
DEFPOINTS
  6
CONTINUOUS
 62
     7
 10
-425.49999999999989
 20
1.0
 30
0.0
  0
POINT
  5
53A
  8
DEFPOINTS
  6
CONTINUOUS
 62
     7
 10
-425.49999999999989
 20
1.0
 30
0.0
  0
LINE
  5
53B
  8
OUTLINE
  6
CONTINUOUS
 62
     3
 10
-410.97000000000003
 20
0.0
 30
0.0
 11
-410.97000000000003
 21
47.0
 31
0.0
  0
LINE
  5
53C
  8
NOTE
  6
CONTINUOUS
 62
     4
 10
-425.49999999999989
 20
1.0
 30
0.0
 11
-425.49999999999989
 21
21.0
 31
0.0
  0
LINE
  5
53D
  8
DETAIL
  6
CONTINUOUS
 62
     5
 10
-410.97000000000003
 20
0.0
 30
0.0
 11
-410.97000000000003
 21
47.0
 31
0.0
  0
LINE
  5
53F
  8
NOTE
  6
CONTINUOUS
 62
     4
 10
-411.76201200000003
 20
225.15281300000001
 30
0.0
 11
-544.67491099999995
 21
225.15281300000001
 31
0.0
  0
TEXT
  5
540
  8
NOTE
  6
CONTINUOUS
 62
     4
 10
-522.999639
 20
240.979343
 30
0.0
 40
60.0
  1
CL
 50
0.000003
 41
0.7
  7
STANDARD1
  0
LINE
  5
541
  8
NOTE
  6
CONTINUOUS
 62
     4
 10
-336.5
 20
433.0
 30
0.0
 11
-359.515064
 21
458.54714299999989
 31
0.0
  0
LINE
  5
542
  8
NOTE
  6
CONTINUOUS
 62
     4
 10
-336.5
 20
433.0
 30
0.0
 11
-343.65805799999998
 21
466.63200699999999
 31
0.0
  0
LINE
  5
543
  8
NOTE
  6
CONTINUOUS
 62
     4
 10
-447.04789
 20
312.836656
 30
0.0
 11
-544.56956600000001
 21
312.836656
 31
0.0
  0
TEXT
  5
544
  8
NOTE
  6
CONTINUOUS
 62
     4
 10
-522.89429399999995
 20
328.66318699999999
 30
0.0
 40
60.0
  1
EL
 50
0.000003
 41
0.7
  7
STANDARD1
  0
POINT
  5
545
  8
DEFPOINTS
  6
CONTINUOUS
 62
     7
 10
-367.5
 20
433.0
 30
0.0
  0
POINT
  5
546
  8
DEFPOINTS
  6
CONTINUOUS
 62
     7
 10
-336.5
 20
447.99516599999998
 30
0.0
  0
POINT
  5
547
  8
DEFPOINTS
  6
CONTINUOUS
 62
     7
 10
-336.5
 20
447.99516599999998
 30
0.0
  0
POINT
  5
548
  8
DEFPOINTS
  6
CONTINUOUS
 62
     7
 10
-367.5
 20
433.0
 30
0.0
  0
LINE
  5
549
  8
NOTE
  6
CONTINUOUS
 62
     4
 10
-336.5
 20
447.99516599999998
 30
0.0
 11
-336.5
 21
418.00483399999979
 31
0.0
  0
ARC
  5
54B
  8
DETAIL
  6
CONTINUOUS
 62
     5
 10
-364.5
 20
398.0
 30
0.0
 40
3.0
 50
180.0
 51
270.0
  0
LINE
  5
54C
  8
DETAIL
  6
CONTINUOUS
 62
     5
 10
-347.0
 20
421.0
 30
0.0
 11
-364.5
 21
421.0
 31
0.0
  0
LINE
  5
54D
  8
DETAIL
  6
CONTINUOUS
 62
     5
 10
-344.0
 20
433.0
 30
0.0
 11
-344.0
 21
424.0
 31
0.0
  0
ARC
  5
54E
  8
DETAIL
  6
CONTINUOUS
 62
     5
 10
-364.5
 20
424.0
 30
0.0
 40
3.0
 50
180.0
 51
270.0
  0
ARC
  5
54F
  8
DETAIL
  6
CONTINUOUS
 62
     5
 10
-347.0
 20
424.0
 30
0.0
 40
3.0
 50
270.0
 51
0.0
  0
ARC
  5
550
  8
DETAIL
  6
CONTINUOUS
 62
     5
 10
-329.0
 20
424.0
 30
0.0
 40
3.0
 50
180.0
 51
270.0
  0
LINE
  5
551
  8
DETAIL
  6
CONTINUOUS
 62
     5
 10
-332.0
 20
433.0
 30
0.0
 11
-332.0
 21
424.0
 31
0.0
  0
LINE
  5
552
  8
NOTE
  6
CONTINUOUS
 62
     4
 10
-464.97213099999988
 20
658.96709699999997
 30
0.0
 11
-1194.0727589999999
 21
658.96709699999997
 31
0.0
  0
TEXT
  5
553
  8
NOTE
  6
CONTINUOUS
 62
     4
 10
-1172.397487
 20
674.7936269999999
 30
0.0
 40
60.0
  1
AH 4-14×30長穴(M10)
 50
0.000003
 41
0.7
  7
STANDARD1
  0
TEXT
  5
554
  8
SIZE
  6
CONTINUOUS
 62
    30
 10
-464.42857171428568
 20
911.98808299999973
 30
0.0
 40
55.0
  1
31
 41
0.9
 72
     1
 11
-434.96428600000002
 21
911.98808299999973
 31
0.0
  0
LINE
  5
555
  8
SIZE
  6
CONTINUOUS
 62
    30
 10
-377.5
 20
893.98808299999985
 30
0.0
 11
-482.42857099999981
 21
893.98808299999985
 31
0.0
  0
CIRCLE
  5
556
  8
SIZE
  6
CONTINUOUS
 62
    30
 10
-336.5
 20
893.98808299999985
 30
0.0
 40
5.0
  0
POINT
  5
557
  8
DEFPOINTS
  6
CONTINUOUS
 62
     7
 10
-336.5
 20
893.98808299999985
 30
0.0
  0
LINE
  5
558
  8
SIZE
  6
CONTINUOUS
 62
    30
 10
-372.5
 20
893.98808299999985
 30
0.0
 11
-377.5
 21
893.98808299999985
 31
0.0
  0
CIRCLE
  5
559
  8
SIZE
  6
CONTINUOUS
 62
    30
 10
-367.5
 20
893.98808299999985
 30
0.0
 40
5.0
  0
CIRCLE
  5
55A
  8
SIZE
  6
CONTINUOUS
 62
    30
 10
-336.5
 20
893.98808299999985
 30
0.0
 40
5.0
  0
LINE
  5
55B
  8
SIZE
  6
CONTINUOUS
 62
    30
 10
-336.5
 20
893.98808299999985
 30
0.0
 11
-367.5
 21
893.98808299999985
 31
0.0
  0
LINE
  5
55C
  8
SIZE
  6
CONTINUOUS
 62
    30
 10
-362.5
 20
1019.756433
 30
0.0
 11
-357.5
 21
1019.756433
 31
0.0
  0
CIRCLE
  5
55D
  8
SIZE
  6
CONTINUOUS
 62
    30
 10
-367.5
 20
1019.756433
 30
0.0
 40
5.0
  0
LINE
  5
55E
  8
BASIS
  6
DASHDOT
 62
     6
 10
0.0
 20
468.57171299999987
 30
0.0
 11
0.0
 21
-53.886170999999997
 31
0.0
  0
CIRCLE
  5
55F
  8
ARRANGE
  6
CONTINUOUS
 62
     1
 10
0.0
 20
0.0
 30
0.0
 40
50.0
  0
CIRCLE
  5
560
  8
SIZE
  6
CONTINUOUS
 62
    30
 10
1167.958627
 20
0.0
 30
0.0
 40
5.0
  0
LINE
  5
561
  8
SIZE
  6
CONTINUOUS
 62
    30
 10
1167.958627
 20
0.0
 30
0.0
 11
1167.958627
 21
-364.68571400000002
 31
0.0
  0
CIRCLE
  5
562
  8
SIZE
  6
CONTINUOUS
 62
    30
 10
861.59331299999985
 20
0.0
 30
0.0
 40
5.0
  0
LINE
  5
563
  8
SIZE
  6
CONTINUOUS
 62
    30
 10
861.59331299999985
 20
23.5
 30
0.0
 11
988.06763899999987
 21
-10.034974
 31
0.0
  0
CIRCLE
  5
564
  8
SIZE
  6
CONTINUOUS
 62
    30
 10
861.59331299999985
 20
0.0
 30
0.0
 40
5.0
  0
LINE
  5
565
  8
SIZE
  6
CONTINUOUS
 62
    30
 10
861.59331299999985
 20
0.0
 30
0.0
 11
861.59331299999985
 21
-8.0
 31
0.0
  0
LINE
  5
566
  8
SIZE
  6
CONTINUOUS
 62
    30
 10
367.5
 20
124.65559551920521
 30
0.0
 11
367.5
 21
-436.71809699999989
 31
0.0
  0
LINE
  5
567
  8
NOTE
  6
CONTINUOUS
 62
     4
 10
421.82092699999998
 20
-246.85966999999999
 30
0.0
 11
175.5
 21
168.0
 31
0.0
  0
TEXT
  5
568
  8
SIZE
  6
CONTINUOUS
 62
    30
 10
1280.0672119999999
 20
-301.41344199999997
 30
0.0
 40
55.0
  1
パネル直付時
 50
90.0
 41
0.9
 72
     1
 11
1280.0672119999999
 21
-129.81344200000001
 31
0.0
  0
LINE
  5
569
  8
SIZE
  6
CONTINUOUS
 62
    30
 10
175.5
 20
146.3190557435955
 30
0.0
 11
175.5
 21
-281.78496799999999
 31
0.0
  0
LINE
  5
56A
  8
SIZE
  6
CONTINUOUS
 62
    30
 10
367.5
 20
124.65559551920521
 30
0.0
 11
367.5
 21
-281.78496799999999
 31
0.0
  0
LINE
  5
56B
  8
OUTLINE
  6
CONTINUOUS
 62
     3
 10
157.5
 20
0.0
 30
0.0
 11
157.5
 21
-4.0065080000000002
 31
0.0
  0
LINE
  5
56C
  8
NOTE
  6
CONTINUOUS
 62
     4
 10
407.175299
 20
-117.469084
 30
0.0
 11
239.5
 21
233.0
 31
0.0
  0
LINE
  5
56D
  8
ARRANGE
  6
CONTINUOUS
 62
     1
 10
49.963763
 20
49.596595000000001
 30
0.0
 11
-49.963763
 21
-49.596595000000001
 31
0.0
  0
LINE
  5
56E
  8
ARRANGE
  6
CONTINUOUS
 62
     1
 10
50.037350000000004
 20
-49.522353000000003
 30
0.0
 11
-50.037350000000004
 21
49.522353000000003
 31
0.0
  0
LINE
  5
56F
  8
DETAIL
  6
CONTINUOUS
 62
     5
 10
157.5
 20
-4.0065080000000002
 30
0.0
 11
157.5
 21
0.0
 31
0.0
  0
LINE
  5
570
  8
SIZE
  6
CONTINUOUS
 62
    30
 10
146.80000000000001
 20
-8.0
 30
0.0
 11
891.59331299999985
 21
-8.0
 31
0.0
  0
LINE
  5
571
  8
NOTE
  6
CONTINUOUS
 62
     4
 10
856.75172699999973
 20
-246.85966999999999
 30
0.0
 11
421.82092699999998
 21
-246.85966999999999
 31
0.0
  0
TEXT
  5
572
  8
NOTE
  6
CONTINUOUS
 62
     4
 10
433.51663299999979
 20
-232.29112900000001
 30
0.0
 40
60.0
  1
D2（自然排水口）
 50
0.000003
 41
0.7
  7
STANDARD1
  0
LINE
  5
573
  8
NOTE
  6
CONTINUOUS
 62
     4
 10
785.02593161945333
 20
-117.469084
 30
0.0
 11
407.175299
 21
-117.469084
 31
0.0
  0
TEXT
  5
574
  8
NOTE
  6
CONTINUOUS
 62
     4
 10
423.089967
 20
-106.70006100000001
 30
0.0
 40
60.0
  1
RG %%C15.88
 50
0.000003
 41
0.7
  7
STANDARD1
  0
LINE
  5
575
  8
SIZE
  6
CONTINUOUS
 62
    30
 10
130.5
 20
-149.31652800000001
 30
0.0
 11
13.785714
 21
-149.31652800000001
 31
0.0
  0
TEXT
  5
576
  8
SIZE
  6
CONTINUOUS
 62
    30
 10
-213.8207131428571
 20
-232.626656
 30
0.0
 40
55.0
  1
600
 41
0.9
 72
     1
 11
-150.17785599999999
 21
-232.626656
 31
0.0
  0
TEXT
  5
577
  8
SIZE
  6
CONTINUOUS
 62
    30
 10
31.785714142857142
 20
-131.31652800000001
 30
0.0
 40
55.0
  1
17
 41
0.9
 72
     1
 11
67.142856999999992
 21
-131.31652800000001
 31
0.0
  0
LINE
  5
578
  8
SIZE
  6
CONTINUOUS
 62
    30
 10
140.5
 20
-19.0
 30
0.0
 11
140.5
 21
-436.71809699999989
 31
0.0
  0
LINE
  5
579
  8
SIZE
  6
CONTINUOUS
 62
    30
 10
140.5
 20
-19.0
 30
0.0
 11
140.5
 21
-436.71809699999989
 31
0.0
  0
LINE
  5
57A
  8
SIZE
  6
CONTINUOUS
 62
    30
 10
357.5
 20
-406.71809699999989
 30
0.0
 11
150.5
 21
-406.71809699999989
 31
0.0
  0
TEXT
  5
57B
  8
SIZE
  6
CONTINUOUS
 62
    30
 10
190.3571428571428
 20
-388.718097
 30
0.0
 40
55.0
  1
227
 41
0.9
 72
     1
 11
254.0
 21
-388.718097
 31
0.0
  0
POINT
  5
57C
  8
DEFPOINTS
  6
CONTINUOUS
 62
     7
 10
140.5
 20
-406.71809699999989
 30
0.0
  0
LINE
  5
57D
  8
SIZE
  6
CONTINUOUS
 62
    30
 10
145.5
 20
-406.71809699999989
 30
0.0
 11
150.5
 21
-406.71809699999989
 31
0.0
  0
CIRCLE
  5
57E
  8
SIZE
  6
CONTINUOUS
 62
    30
 10
140.5
 20
-406.71809699999989
 30
0.0
 40
5.0
  0
POINT
  5
57F
  8
DEFPOINTS
  6
CONTINUOUS
 62
     7
 10
140.5
 20
-406.71809699999989
 30
0.0
  0
LINE
  5
580
  8
SIZE
  6
CONTINUOUS
 62
    30
 10
135.5
 20
-406.71809699999989
 30
0.0
 11
130.5
 21
-406.71809699999989
 31
0.0
  0
CIRCLE
  5
581
  8
SIZE
  6
CONTINUOUS
 62
    30
 10
140.5
 20
-406.71809699999989
 30
0.0
 40
5.0
  0
LINE
  5
582
  8
SIZE
  6
CONTINUOUS
 62
    30
 10
362.5
 20
-406.71809699999989
 30
0.0
 11
357.5
 21
-406.71809699999989
 31
0.0
  0
CIRCLE
  5
583
  8
SIZE
  6
CONTINUOUS
 62
    30
 10
367.5
 20
-406.71809699999989
 30
0.0
 40
5.0
  0
TEXT
  5
584
  8
SIZE
  6
CONTINUOUS
 62
    30
 10
226.36108957142861
 20
-233.78496799999999
 30
0.0
 40
55.0
  1
192
 41
0.9
 72
     1
 11
285.28966100000002
 21
-233.78496799999999
 31
0.0
  0
LINE
  5
585
  8
SIZE
  6
CONTINUOUS
 62
    30
 10
357.5
 20
-251.78496799999999
 30
0.0
 11
185.5
 21
-251.78496799999999
 31
0.0
  0
LINE
  5
586
  8
SIZE
  6
CONTINUOUS
 62
    30
 10
140.5
 20
-19.0
 30
0.0
 11
140.5
 21
-179.31652800000001
 31
0.0
  0
LINE
  5
587
  8
SIZE
  6
CONTINUOUS
 62
    30
 10
157.5
 20
-24.006508
 30
0.0
 11
157.5
 21
-179.31652800000001
 31
0.0
  0
LINE
  5
588
  8
SIZE
  6
CONTINUOUS
 62
    30
 10
157.5
 20
-24.006508
 30
0.0
 11
157.5
 21
-280.62665600000003
 31
0.0
  0
POINT
  5
589
  8
DEFPOINTS
  6
CONTINUOUS
 62
     7
 10
157.5
 20
-250.626656
 30
0.0
  0
LINE
  5
58A
  8
SIZE
  6
CONTINUOUS
 62
    30
 10
152.5
 20
-250.626656
 30
0.0
 11
147.5
 21
-250.626656
 31
0.0
  0
CIRCLE
  5
58B
  8
SIZE
  6
CONTINUOUS
 62
    30
 10
157.5
 20
-250.626656
 30
0.0
 40
5.0
  0
POINT
  5
58C
  8
DEFPOINTS
  6
CONTINUOUS
 62
     7
 10
175.5
 20
-251.78496799999999
 30
0.0
  0
LINE
  5
58D
  8
SIZE
  6
CONTINUOUS
 62
    30
 10
180.5
 20
-251.78496799999999
 30
0.0
 11
185.5
 21
-251.78496799999999
 31
0.0
  0
CIRCLE
  5
58E
  8
SIZE
  6
CONTINUOUS
 62
    30
 10
175.5
 20
-251.78496799999999
 30
0.0
 40
5.0
  0
POINT
  5
58F
  8
DEFPOINTS
  6
CONTINUOUS
 62
     7
 10
126.8
 20
-8.0
 30
0.0
  0
POINT
  5
590
  8
DEFPOINTS
  6
CONTINUOUS
 62
     7
 10
140.5
 20
-149.31652800000001
 30
0.0
  0
POINT
  5
591
  8
DEFPOINTS
  6
CONTINUOUS
 62
     7
 10
157.5
 20
-4.0065080000000002
 30
0.0
  0
LINE
  5
592
  8
SIZE
  6
CONTINUOUS
 62
    30
 10
135.5
 20
-149.31652800000001
 30
0.0
 11
130.5
 21
-149.31652800000001
 31
0.0
  0
CIRCLE
  5
593
  8
SIZE
  6
CONTINUOUS
 62
    30
 10
140.5
 20
-149.31652800000001
 30
0.0
 40
5.0
  0
LINE
  5
594
  8
SIZE
  6
CONTINUOUS
 62
    30
 10
162.5
 20
-149.31652800000001
 30
0.0
 11
167.5
 21
-149.31652800000001
 31
0.0
  0
CIRCLE
  5
595
  8
SIZE
  6
CONTINUOUS
 62
    30
 10
157.5
 20
-149.31652800000001
 30
0.0
 40
5.0
  0
LINE
  5
596
  8
SIZE
  6
CONTINUOUS
 62
    30
 10
157.5
 20
-149.31652800000001
 30
0.0
 11
140.5
 21
-149.31652800000001
 31
0.0
  0
LINE
  5
597
  8
SIZE
  6
CONTINUOUS
 62
    30
 10
167.5
 20
-149.31652800000001
 30
0.0
 11
177.5
 21
-149.31652800000001
 31
0.0
  0
POINT
  5
598
  8
DEFPOINTS
  6
CONTINUOUS
 62
     7
 10
157.5
 20
-4.0065080000000002
 30
0.0
  0
ARC
  5
599
  8
OUTLINE
  6
CONTINUOUS
 62
     3
 10
126.8
 20
112.0
 30
0.0
 40
120.0
 50
270.0
 51
284.82297
  0
ARC
  5
59A
  8
DETAIL
  6
CONTINUOUS
 62
     5
 10
126.8
 20
112.0
 30
0.0
 40
120.0
 50
270.0
 51
284.82297
  0
LINE
  5
59B
  8
SIZE
  6
CONTINUOUS
 62
    30
 10
362.5
 20
-251.78496799999999
 30
0.0
 11
357.5
 21
-251.78496799999999
 31
0.0
  0
CIRCLE
  5
59C
  8
SIZE
  6
CONTINUOUS
 62
    30
 10
367.5
 20
-251.78496799999999
 30
0.0
 40
5.0
  0
TEXT
  5
59D
  8
SIZE
  6
CONTINUOUS
 62
    30
 10
843.59331299999985
 20
-79.0
 30
0.0
 40
55.0
  1
8
 50
90.0
 41
0.9
 72
     1
 11
843.59331299999985
 21
-62.5
 31
0.0
  0
LINE
  5
59E
  8
SIZE
  6
CONTINUOUS
 62
    30
 10
861.59331299999985
 20
-5.0
 30
0.0
 11
861.59331299999985
 21
-10.0
 31
0.0
  0
LINE
  5
59F
  8
SIZE
  6
CONTINUOUS
 62
    30
 10
861.59331299999985
 20
-10.0
 30
0.0
 11
861.59331299999985
 21
-20.0
 31
0.0
  0
LINE
  5
5A0
  8
SIZE
  6
CONTINUOUS
 62
    30
 10
861.59331299999985
 20
-13.0
 30
0.0
 11
861.59331299999985
 21
-18.0
 31
0.0
  0
CIRCLE
  5
5A1
  8
SIZE
  6
CONTINUOUS
 62
    30
 10
861.59331299999985
 20
-8.0
 30
0.0
 40
5.0
  0
LINE
  5
5A2
  8
SIZE
  6
CONTINUOUS
 62
    30
 10
861.59331299999985
 20
-18.0
 30
0.0
 11
861.59331299999985
 21
-97.0
 31
0.0
  0
TEXT
  5
5A3
  8
SIZE
  6
CONTINUOUS
 62
    30
 10
970.06763899999987
 20
-108.1778305714286
 30
0.0
 40
55.0
  1
47
 50
90.0
 41
0.9
 72
     1
 11
970.06763899999987
 21
-68.106402000000003
 31
0.0
  0
LINE
  5
5A4
  8
SIZE
  6
CONTINUOUS
 62
    30
 10
988.06763899999987
 20
-10.034974
 30
0.0
 11
988.06763899999987
 21
-126.177831
 31
0.0
  0
TEXT
  5
5A5
  8
SIZE
  6
CONTINUOUS
 62
    30
 10
1149.958627
 20
-346.68571414285719
 30
0.0
 40
55.0
  1
140～300
 50
90.0
 41
0.9
 72
     1
 11
1149.958627
 21
-187.34285700000001
 31
0.0
  0
POLYLINE
  5
5A6
  8
SIZE
  6
CONTINUOUS
 62
    30
 66
     1
 10
0.0
 20
0.0
 30
0.0
  0
VERTEX
  5
92B
  8
SIZE
  6
CONTINUOUS
 62
    30
 10
1203.874748
 20
-294.85213599999997
 30
0.0
 42
0.186174
  0
VERTEX
  5
92C
  8
SIZE
  6
CONTINUOUS
 62
    30
 10
1212.724596
 20
-315.801624
 30
0.0
 42
0.082105
  0
VERTEX
  5
92D
  8
SIZE
  6
CONTINUOUS
 62
    30
 10
1228.4270979999999
 20
-327.97618599999998
 30
0.0
 42
0.058826
  0
VERTEX
  5
92E
  8
SIZE
  6
CONTINUOUS
 62
    30
 10
1250.213156
 20
-336.75111299999998
 30
0.0
 42
0.067494
  0
VERTEX
  5
92F
  8
SIZE
  6
CONTINUOUS
 62
    30
 10
1287.701716
 20
-341.69661600000001
 30
0.0
 42
0.067494
  0
VERTEX
  5
930
  8
SIZE
  6
CONTINUOUS
 62
    30
 10
1325.190276
 20
-336.75111299999998
 30
0.0
 42
0.058826
  0
VERTEX
  5
931
  8
SIZE
  6
CONTINUOUS
 62
    30
 10
1346.976334
 20
-327.97618599999998
 30
0.0
 42
0.082105
  0
VERTEX
  5
932
  8
SIZE
  6
CONTINUOUS
 62
    30
 10
1362.678836
 20
-315.801624
 30
0.0
 42
0.186174
  0
VERTEX
  5
933
  8
SIZE
  6
CONTINUOUS
 62
    30
 10
1371.5286840000001
 20
-294.85213599999997
 30
0.0
 42
0.186174
  0
VERTEX
  5
934
  8
SIZE
  6
CONTINUOUS
 62
    30
 10
1371.5286840000001
 20
-294.85213599999997
 30
0.0
 42
0.186174
  0
SEQEND
  5
935
  8
SIZE
  6
CONTINUOUS
 62
    30
  0
TEXT
  5
5B2
  8
SIZE
  6
CONTINUOUS
 62
    30
 10
1363.8169909999999
 20
-244.5547907142857
 30
0.0
 40
55.0
  1
50～60
 50
90.0
 41
0.9
 72
     1
 11
1363.8169909999999
 21
-127.640505
 31
0.0
  0
LINE
  5
5B3
  8
SIZE
  6
CONTINUOUS
 62
    30
 10
177.422742
 20
0.0
 30
0.0
 11
1197.958627
 21
0.0
 31
0.0
  0
LINE
  5
5B4
  8
SIZE
  6
CONTINUOUS
 62
    30
 10
387.47302999999999
 20
140.0
 30
0.0
 11
1197.958627
 21
140.0
 31
0.0
  0
LINE
  5
5B5
  8
SIZE
  6
CONTINUOUS
 62
    30
 10
145.97
 20
47.0
 30
0.0
 11
891.59331299999985
 21
47.0
 31
0.0
  0
LINE
  5
5B6
  8
SIZE
  6
CONTINUOUS
 62
    30
 10
177.422742
 20
0.0
 30
0.0
 11
891.59331299999985
 21
0.0
 31
0.0
  0
LINE
  5
5B7
  8
SIZE
  6
CONTINUOUS
 62
    30
 10
177.422742
 20
0.0
 30
0.0
 11
891.59331299999985
 21
0.0
 31
0.0
  0
LINE
  5
5B8
  8
SIZE
  6
CONTINUOUS
 62
    30
 10
265.00914899999998
 20
233.00264100000001
 30
0.0
 11
907.54594799999995
 21
233.00264100000001
 31
0.0
  0
LINE
  5
5B9
  8
SIZE
  6
CONTINUOUS
 62
    30
 10
201.00914900000001
 20
261.0
 30
0.0
 11
907.54594799999995
 21
261.0
 31
0.0
  0
LINE
  5
5BA
  8
SIZE
  6
CONTINUOUS
 62
    30
 10
201.00914900000001
 20
261.0
 30
0.0
 11
907.54594799999995
 21
261.0
 31
0.0
  0
LINE
  5
5BB
  8
SIZE
  6
CONTINUOUS
 62
    30
 10
387.5
 20
433.0
 30
0.0
 11
907.54594799999995
 21
433.0
 31
0.0
  0
LINE
  5
5BC
  8
SIZE
  6
CONTINUOUS
 62
    30
 10
529.44451500000002
 20
297.0
 30
0.0
 11
790.08286499999997
 21
297.0
 31
0.0
  0
LINE
  5
5BD
  8
SIZE
  6
CONTINUOUS
 62
    30
 10
387.5
 20
433.0
 30
0.0
 11
790.08286499999997
 21
433.0
 31
0.0
  0
LINE
  5
5BE
  8
SIZE
  6
CONTINUOUS
 62
    30
 10
387.55028799999991
 20
140.0
 30
0.0
 11
1197.958627
 21
140.0
 31
0.0
  0
LINE
  5
5BF
  8
SIZE
  6
CONTINUOUS
 62
    30
 10
387.5
 20
433.0
 30
0.0
 11
1197.958627
 21
433.0
 31
0.0
  0
LINE
  5
5C0
  8
SIZE
  6
CONTINUOUS
 62
    30
 10
387.5
 20
433.0
 30
0.0
 11
1098.685113
 21
433.0
 31
0.0
  0
LINE
  5
5C1
  8
SIZE
  6
CONTINUOUS
 62
    30
 10
206.00914900000001
 20
168.0
 30
0.0
 11
1098.685113
 21
168.0
 31
0.0
  0
LINE
  5
5C2
  8
SIZE
  6
CONTINUOUS
 62
    30
 10
125.00914899999999
 20
325.0
 30
0.0
 11
703.63956900000005
 21
325.0
 31
0.0
  0
LINE
  5
5C3
  8
SIZE
  6
CONTINUOUS
 62
    30
 10
387.5
 20
433.0
 30
0.0
 11
703.63956900000005
 21
433.0
 31
0.0
  0
TEXT
  5
5C4
  8
SIZE
  6
CONTINUOUS
 62
    30
 10
455.16395057142842
 20
648.56139199999996
 30
0.0
 40
55.0
  1
128
 41
0.9
 72
     1
 11
514.09252199999969
 21
648.56139199999996
 31
0.0
  0
LINE
  5
5C5
  8
SIZE
  6
CONTINUOUS
 62
    30
 10
591.02109299999995
 20
630.56139199999996
 30
0.0
 11
367.5
 21
630.56139199999996
 31
0.0
  0
LINE
  5
5C6
  8
SIZE
  6
CONTINUOUS
 62
    30
 10
447.5
 20
548.41615400000001
 30
0.0
 11
573.64285700000005
 21
548.41615400000001
 31
0.0
  0
LINE
  5
5C7
  8
NOTE
  6
CONTINUOUS
 62
     4
 10
638.25443899999982
 20
644.97419799999977
 30
0.0
 11
437.5
 21
297.0
 31
0.0
  0
LINE
  5
5C8
  8
SIZE
  6
CONTINUOUS
 62
    30
 10
437.5
 20
414.5
 30
0.0
 11
437.5
 21
1049.756433
 31
0.0
  0
LINE
  5
5C9
  8
SIZE
  6
CONTINUOUS
 62
    30
 10
367.5
 20
453.0
 30
0.0
 11
367.5
 21
1049.756433
 31
0.0
  0
LINE
  5
5CA
  8
SIZE
  6
CONTINUOUS
 62
    30
 10
367.5
 20
453.0
 30
0.0
 11
367.5
 21
1049.756433
 31
0.0
  0
LINE
  5
5CB
  8
SIZE
  6
CONTINUOUS
 62
    30
 10
333.5
 20
467.99516599999993
 30
0.0
 11
333.5
 21
923.98808299999996
 31
0.0
  0
LINE
  5
5CC
  8
SIZE
  6
CONTINUOUS
 62
    30
 10
367.5
 20
453.0
 30
0.0
 11
367.5
 21
660.56139199999996
 31
0.0
  0
LINE
  5
5CD
  8
SIZE
  6
CONTINUOUS
 62
    30
 10
239.5
 20
258.502634
 30
0.0
 11
239.5
 21
660.56139199999996
 31
0.0
  0
LINE
  5
5CE
  8
SIZE
  6
CONTINUOUS
 62
    30
 10
239.5
 20
258.502634
 30
0.0
 11
239.5
 21
660.56139199999996
 31
0.0
  0
LINE
  5
5CF
  8
SIZE
  6
CONTINUOUS
 62
    30
 10
175.5
 20
285.75
 30
0.0
 11
175.5
 21
660.56139199999996
 31
0.0
  0
LINE
  5
5D0
  8
SIZE
  6
CONTINUOUS
 62
    30
 10
367.5
 20
453.0
 30
0.0
 11
367.5
 21
789.69734699999981
 31
0.0
  0
LINE
  5
5D1
  8
SIZE
  6
CONTINUOUS
 62
    30
 10
94.500000000000014
 20
355.49999200000002
 30
0.0
 11
94.500000000000014
 21
789.69734699999981
 31
0.0
  0
TEXT
  5
5D2
  8
SIZE
  6
CONTINUOUS
 62
    30
 10
475.5000004285713
 20
566.41615400000001
 30
0.0
 40
55.0
  1
40
 41
0.9
 72
     1
 11
515.57142899999985
 21
566.41615400000001
 31
0.0
  0
LINE
  5
5D3
  8
NOTE
  6
CONTINUOUS
 62
     4
 10
59.029375000000002
 20
608.90008799999998
 30
0.0
 11
175.5
 21
261.0
 31
0.0
  0
LINE
  5
5D4
  8
DETAIL
  6
CONTINUOUS
 62
     5
 10
-367.5
 20
140.0
 30
0.0
 11
367.55028800000002
 21
140.0
 31
0.0
  0
CIRCLE
  5
5D6
  8
DETAIL
  6
CONTINUOUS
 62
     5
 10
101.0
 20
247.798203
 30
0.0
 40
20.0
  0
LINE
  5
5D7
  8
DETAIL
  6
CONTINUOUS
 62
     5
 10
4.000208999999999
 20
181.99820299999999
 30
0.0
 11
131.0
 21
181.99820299999999
 31
0.0
  0
CIRCLE
  5
5D8
  8
DETAIL
  6
CONTINUOUS
 62
     5
 10
101.0
 20
247.798203
 30
0.0
 40
20.0
  0
LINE
  5
5D9
  8
DETAIL
  6
CONTINUOUS
 62
     5
 10
131.0
 20
340.0
 30
0.0
 11
112.0
 21
340.0
 31
0.0
  0
LINE
  5
5DA
  8
DETAIL
  6
CONTINUOUS
 62
     5
 10
-5.9997910000000001
 20
191.99820299999999
 30
0.0
 11
-5.9997910000000001
 21
330.0
 31
0.0
  0
LINE
  5
5DB
  8
NOTE
  6
CONTINUOUS
 62
     4
 10
-319.11274700000001
 20
220.49999199999999
 30
0.0
 11
-319.11274700000001
 21
199.50000800000001
 31
0.0
  0
LINE
  5
5DE
  8
NOTE
  6
CONTINUOUS
 62
     4
 10
-139.11274700000001
 20
210.0
 30
0.0
 11
-173.30515500000001
 21
213.63715300000001
 31
0.0
  0
LINE
  5
5DF
  8
NOTE
  6
CONTINUOUS
 62
     4
 10
-139.11274700000001
 20
210.0
 30
0.0
 11
-168.685123
 21
227.54491999999999
 31
0.0
  0
LINE
  5
5E0
  8
NOTE
  6
CONTINUOUS
 62
     4
 10
-128.61274700000001
 20
210.0
 30
0.0
 11
-149.61274700000001
 21
210.0
 31
0.0
  0
LINE
  5
5E1
  8
NOTE
  6
CONTINUOUS
 62
     4
 10
-139.11274700000001
 20
220.49999199999999
 30
0.0
 11
-139.11274700000001
 21
199.50000800000001
 31
0.0
  0
LINE
  5
5E4
  8
NOTE
  6
CONTINUOUS
 62
     4
 10
-128.61274700000001
 20
260.0
 30
0.0
 11
-149.61274700000001
 21
260.0
 31
0.0
  0
LINE
  5
5E5
  8
NOTE
  6
CONTINUOUS
 62
     4
 10
-139.11274700000001
 20
270.49999200000002
 30
0.0
 11
-139.11274700000001
 21
249.50000800000001
 31
0.0
  0
CIRCLE
  5
5E8
  8
DETAIL
  6
CONTINUOUS
 62
     5
 10
-139.11274700000001
 20
260.0
 30
0.0
 40
13.0
  0
CIRCLE
  5
5E9
  8
DETAIL
  6
CONTINUOUS
 62
     5
 10
-139.11274700000001
 20
210.0
 30
0.0
 40
13.0
  0
ARC
  5
5EA
  8
DETAIL
  6
CONTINUOUS
 62
     5
 10
4.000208999999999
 20
191.99820299999999
 30
0.0
 40
10.0
 50
180.0
 51
270.0
  0
LINE
  5
5EB
  8
NOTE
  6
CONTINUOUS
 62
     4
 10
101.0
 20
247.798203
 30
0.0
 11
66.643028000000001
 21
249.193963
 31
0.0
  0
LINE
  5
5EC
  8
NOTE
  6
CONTINUOUS
 62
     4
 10
101.0
 20
247.798203
 30
0.0
 11
70.344665000000006
 21
263.373828
 31
0.0
  0
LINE
  5
5ED
  8
NOTE
  6
CONTINUOUS
 62
     4
 10
111.5
 20
247.798203
 30
0.0
 11
90.5
 21
247.798203
 31
0.0
  0
LINE
  5
5EE
  8
NOTE
  6
CONTINUOUS
 62
     4
 10
101.0
 20
258.29819600000002
 30
0.0
 11
101.0
 21
237.29821100000001
 31
0.0
  0
LINE
  5
5F1
  8
NOTE
  6
CONTINUOUS
 62
     4
 10
59.029375000000002
 20
608.90008799999998
 30
0.0
 11
-279.08167500000002
 21
608.90008799999998
 31
0.0
  0
LINE
  5
5F2
  8
NOTE
  6
CONTINUOUS
 62
     4
 10
14.616597000000001
 20
491.32476600000001
 30
0.0
 11
-328.03724
 21
491.32476600000001
 31
0.0
  0
TEXT
  5
5F3
  8
NOTE
  6
CONTINUOUS
 62
     4
 10
-306.36196799999999
 20
507.15129699999989
 30
0.0
 40
60.0
  1
D1 VP-25
 50
0.000003
 41
0.7
  7
STANDARD1
  0
ARC
  5
5F4
  8
DETAIL
  6
CONTINUOUS
 62
     5
 10
-311.5
 20
421.0
 30
0.0
 40
3.0
 50
270.0
 51
0.0
  0
ARC
  5
5F5
  8
DETAIL
  6
CONTINUOUS
 62
     5
 10
-325.5
 20
398.0
 30
0.0
 40
3.0
 50
270.0
 51
0.0
  0
LINE
  5
5F6
  8
DETAIL
  6
CONTINUOUS
 62
     5
 10
-308.5
 20
433.0
 30
0.0
 11
-308.5
 21
421.0
 31
0.0
  0
ARC
  5
5F7
  8
DETAIL
  6
CONTINUOUS
 62
     5
 10
-311.5
 20
424.0
 30
0.0
 40
3.0
 50
270.0
 51
0.0
  0
LINE
  5
5F8
  8
DETAIL
  6
CONTINUOUS
 62
     5
 10
-311.5
 20
418.0
 30
0.0
 11
-322.5
 21
418.0
 31
0.0
  0
LINE
  5
5F9
  8
DETAIL
  6
CONTINUOUS
 62
     5
 10
-322.5
 20
418.0
 30
0.0
 11
-322.5
 21
398.0
 31
0.0
  0
LINE
  5
5FA
  8
NOTE
  6
CONTINUOUS
 62
     4
 10
14.616597000000001
 20
491.32476600000001
 30
0.0
 11
94.500000000000014
 21
325.0
 31
0.0
  0
LINE
  5
5FB
  8
DETAIL
  6
CONTINUOUS
 62
     5
 10
77.0
 20
340.0
 30
0.0
 11
4.000208999999999
 21
340.0
 31
0.0
  0
ARC
  5
5FC
  8
DETAIL
  6
CONTINUOUS
 62
     5
 10
4.000208999999999
 20
330.0
 30
0.0
 40
10.0
 50
90.0
 51
180.0
  0
POINT
  5
5FE
  8
DEFPOINTS
  6
CONTINUOUS
 62
     7
 10
94.500000000000014
 20
335.49999200000002
 30
0.0
  0
LINE
  5
5FF
  8
NOTE
  6
CONTINUOUS
 62
     4
 10
105.0
 20
325.0
 30
0.0
 11
84.0
 21
325.0
 31
0.0
  0
LINE
  5
600
  8
NOTE
  6
CONTINUOUS
 62
     4
 10
94.500000000000014
 20
335.49999200000002
 30
0.0
 11
94.500000000000014
 21
314.50000799999998
 31
0.0
  0
LINE
  5
601
  8
NOTE
  6
CONTINUOUS
 62
     4
 10
94.500000000000014
 20
325.0
 30
0.0
 11
73.306915000000004
 21
352.077718
 31
0.0
  0
LINE
  5
602
  8
NOTE
  6
CONTINUOUS
 62
     4
 10
94.500000000000014
 20
325.0
 30
0.0
 11
89.685109999999966
 21
359.04653400000001
 31
0.0
  0
ARC
  5
605
  8
DETAIL
  6
CONTINUOUS
 62
     5
 10
94.500000000000014
 20
325.0
 30
0.0
 40
17.5
 50
0.0
 51
180.0
  0
CIRCLE
  5
60A
  8
DETAIL
  6
CONTINUOUS
 62
     5
 10
94.500000000000014
 20
325.0
 30
0.0
 40
13.0
  0
LINE
  5
60B
  8
DETAIL
  6
CONTINUOUS
 62
     5
 10
77.0
 20
325.0
 30
0.0
 11
77.0
 21
340.0
 31
0.0
  0
ARC
  5
60D
  8
DETAIL
  6
CONTINUOUS
 62
     5
 10
94.500000000000014
 20
325.0
 30
0.0
 40
17.5
 50
180.0
 51
0.0
  0
ARC
  5
60E
  8
DETAIL
  6
CONTINUOUS
 62
     5
 10
94.500000000000014
 20
325.0
 30
0.0
 40
17.5
 50
180.0
 51
0.0
  0
LINE
  5
610
  8
DETAIL
  6
CONTINUOUS
 62
     5
 10
112.0
 20
325.0
 30
0.0
 11
112.0
 21
340.0
 31
0.0
  0
LINE
  5
611
  8
OUTLINE
  6
CONTINUOUS
 62
     3
 10
367.5
 20
433.0
 30
0.0
 11
367.5
 21
140.0
 31
0.0
  0
LINE
  5
612
  8
NOTE
  6
CONTINUOUS
 62
     4
 10
437.5
 20
297.0
 30
0.0
 11
447.88937099999998
 21
329.77820400000002
 31
0.0
  0
LINE
  5
613
  8
NOTE
  6
CONTINUOUS
 62
     4
 10
437.5
 20
297.0
 30
0.0
 11
462.88656099999997
 21
320.192071
 31
0.0
  0
LINE
  5
614
  8
NOTE
  6
CONTINUOUS
 62
     4
 10
437.5
 20
368.94451500000002
 30
0.0
 11
437.5
 21
225.055485
 31
0.0
  0
LINE
  5
615
  8
DETAIL
  6
CONTINUOUS
 62
     5
 10
397.5
 20
397.0
 30
0.0
 11
397.5
 21
197.0
 31
0.0
  0
LINE
  5
616
  8
DETAIL
  6
CONTINUOUS
 62
     5
 10
437.5
 20
394.5
 30
0.0
 11
437.5
 21
199.5
 31
0.0
  0
LINE
  5
617
  8
DETAIL
  6
CONTINUOUS
 62
     5
 10
314.49700200000001
 20
222.998716
 30
0.0
 11
314.49700200000001
 21
406.00451699999991
 31
0.0
  0
LINE
  5
618
  8
DETAIL
  6
CONTINUOUS
 62
     5
 10
142.495643
 20
406.00451699999991
 30
0.0
 11
142.495643
 21
251.00391200000001
 31
0.0
  0
LINE
  5
619
  8
DETAIL
  6
CONTINUOUS
 62
     5
 10
141.0
 20
191.99820299999999
 30
0.0
 11
141.0
 21
330.0
 31
0.0
  0
LINE
  5
61A
  8
DETAIL
  6
CONTINUOUS
 62
     5
 10
367.5
 20
433.0
 30
0.0
 11
367.5
 21
140.0
 31
0.0
  0
LINE
  5
61B
  8
DETAIL
  6
CONTINUOUS
 62
     5
 10
382.5
 20
401.0
 30
0.0
 11
382.5
 21
193.0
 31
0.0
  0
LINE
  5
61C
  8
NOTE
  6
CONTINUOUS
 62
     4
 10
175.5
 20
168.0
 30
0.0
 11
198.99223699999999
 21
142.89094900000001
 31
0.0
  0
LINE
  5
61D
  8
NOTE
  6
CONTINUOUS
 62
     4
 10
175.5
 20
168.0
 30
0.0
 11
186.40289300000001
 21
135.38901100000001
 31
0.0
  0
LINE
  5
61E
  8
DETAIL
  6
CONTINUOUS
 62
     5
 10
154.5
 20
140.0
 30
0.0
 11
154.5
 21
168.00699
 31
0.0
  0
LINE
  5
61F
  8
DETAIL
  6
CONTINUOUS
 62
     5
 10
196.5
 20
140.0
 30
0.0
 11
196.5
 21
168.00699
 31
0.0
  0
LINE
  5
620
  8
NOTE
  6
CONTINUOUS
 62
     4
 10
240.5
 20
1.0
 30
0.0
 11
140.5
 21
1.0
 31
0.0
  0
LINE
  5
621
  8
NOTE
  6
CONTINUOUS
 62
     4
 10
240.5
 20
21.0
 30
0.0
 11
140.5
 21
21.0
 31
0.0
  0
POINT
  5
623
  8
DEFPOINTS
  6
CONTINUOUS
 62
     7
 10
125.97
 20
47.0
 30
0.0
  0
POINT
  5
626
  8
DEFPOINTS
  6
CONTINUOUS
 62
     7
 10
140.5
 20
1.0
 30
0.0
  0
POINT
  5
627
  8
DEFPOINTS
  6
CONTINUOUS
 62
     7
 10
140.5
 20
1.0
 30
0.0
  0
POINT
  5
628
  8
DEFPOINTS
  6
CONTINUOUS
 62
     7
 10
140.5
 20
1.0
 30
0.0
  0
LINE
  5
629
  8
OUTLINE
  6
CONTINUOUS
 62
     3
 10
125.97
 20
47.0
 30
0.0
 11
125.97
 21
0.0
 31
0.0
  0
LINE
  5
62A
  8
NOTE
  6
CONTINUOUS
 62
     4
 10
140.5
 20
1.0
 30
0.0
 11
140.5
 21
21.0
 31
0.0
  0
LINE
  5
62B
  8
NOTE
  6
CONTINUOUS
 62
     4
 10
158.838346
 20
1.0
 30
0.0
 11
178.838346
 21
21.0
 31
0.0
  0
LINE
  5
62C
  8
NOTE
  6
CONTINUOUS
 62
     4
 10
198.838346
 20
1.0
 30
0.0
 11
218.838346
 21
21.0
 31
0.0
  0
LINE
  5
62D
  8
NOTE
  6
CONTINUOUS
 62
     4
 10
163.838346
 20
1.0
 30
0.0
 11
183.838346
 21
21.0
 31
0.0
  0
LINE
  5
62E
  8
NOTE
  6
CONTINUOUS
 62
     4
 10
203.838346
 20
1.0
 30
0.0
 11
223.838346
 21
21.0
 31
0.0
  0
LINE
  5
62F
  8
NOTE
  6
CONTINUOUS
 62
     4
 10
168.838346
 20
1.0
 30
0.0
 11
188.838346
 21
21.0
 31
0.0
  0
LINE
  5
630
  8
NOTE
  6
CONTINUOUS
 62
     4
 10
208.838346
 20
1.0
 30
0.0
 11
228.838346
 21
21.0
 31
0.0
  0
LINE
  5
631
  8
DETAIL
  6
CONTINUOUS
 62
     5
 10
-442.49999999999989
 20
0.0
 30
0.0
 11
157.5
 21
0.0
 31
0.0
  0
LINE
  5
632
  8
DETAIL
  6
CONTINUOUS
 62
     5
 10
125.97
 20
0.0
 30
0.0
 11
125.97
 21
47.0
 31
0.0
  0
CIRCLE
  5
633
  8
DETAIL
  6
CONTINUOUS
 62
     5
 10
239.5
 20
233.00264100000001
 30
0.0
 40
21.0
  0
CIRCLE
  5
634
  8
DETAIL
  6
CONTINUOUS
 62
     5
 10
239.5
 20
233.00264100000001
 30
0.0
 40
18.0
  0
LINE
  5
635
  8
DETAIL
  6
CONTINUOUS
 62
     5
 10
226.21617599999999
 20
233.00264100000001
 30
0.0
 11
232.78403800000001
 21
244.378512
 31
0.0
  0
LINE
  5
636
  8
DETAIL
  6
CONTINUOUS
 62
     5
 10
226.21617599999999
 20
233.00264100000001
 30
0.0
 11
232.85808800000001
 21
221.49851200000001
 31
0.0
  0
CIRCLE
  5
637
  8
DETAIL
  6
CONTINUOUS
 62
     5
 10
175.5
 20
261.0
 30
0.0
 40
4.7599999999999989
  0
POINT
  5
638
  8
DEFPOINTS
  6
CONTINUOUS
 62
     7
 10
181.00914900000001
 20
261.0
 30
0.0
  0
POINT
  5
639
  8
DEFPOINTS
  6
CONTINUOUS
 62
     7
 10
181.00914900000001
 20
261.0
 30
0.0
  0
LINE
  5
63A
  8
NOTE
  6
CONTINUOUS
 62
     4
 10
175.5
 20
261.0
 30
0.0
 11
157.839282
 21
290.50336800000002
 31
0.0
  0
LINE
  5
63B
  8
NOTE
  6
CONTINUOUS
 62
     4
 10
175.5
 20
261.0
 30
0.0
 11
171.72882999999999
 21
295.177887
 31
0.0
  0
POINT
  5
63C
  8
DEFPOINTS
  6
CONTINUOUS
 62
     7
 10
186.00914900000001
 20
168.0
 30
0.0
  0
POINT
  5
63D
  8
DEFPOINTS
  6
CONTINUOUS
 62
     7
 10
175.5
 20
266.49999200000002
 30
0.0
  0
POINT
  5
63E
  8
DEFPOINTS
  6
CONTINUOUS
 62
     7
 10
175.5
 20
266.49999200000002
 30
0.0
  0
LINE
  5
63F
  8
NOTE
  6
CONTINUOUS
 62
     4
 10
186.0
 20
168.0
 30
0.0
 11
165.0
 21
168.0
 31
0.0
  0
LINE
  5
640
  8
NOTE
  6
CONTINUOUS
 62
     4
 10
175.5
 20
178.49999199999999
 30
0.0
 11
175.5
 21
157.50000800000001
 31
0.0
  0
LINE
  5
643
  8
NOTE
  6
CONTINUOUS
 62
     4
 10
181.0
 20
261.0
 30
0.0
 11
170.0
 21
261.0
 31
0.0
  0
LINE
  5
644
  8
NOTE
  6
CONTINUOUS
 62
     4
 10
175.5
 20
266.49999200000002
 30
0.0
 11
175.5
 21
255.50000800000001
 31
0.0
  0
ARC
  5
647
  8
DETAIL
  6
CONTINUOUS
 62
     5
 10
175.5
 20
168.0
 30
0.0
 40
21.0
 50
0.0
 51
180.0
  0
LINE
  5
648
  8
DETAIL
  6
CONTINUOUS
 62
     5
 10
216.5
 20
222.998716
 30
0.0
 11
195.50238200000001
 21
222.998716
 31
0.0
  0
CIRCLE
  5
649
  8
DETAIL
  6
CONTINUOUS
 62
     5
 10
175.5
 20
261.0
 30
0.0
 40
18.0
  0
CIRCLE
  5
64A
  8
DETAIL
  6
CONTINUOUS
 62
     5
 10
175.5
 20
261.0
 30
0.0
 40
15.0
  0
CIRCLE
  5
64B
  8
DETAIL
  6
CONTINUOUS
 62
     5
 10
175.5
 20
261.0
 30
0.0
 40
15.0
  0
CIRCLE
  5
64C
  8
DETAIL
  6
CONTINUOUS
 62
     5
 10
175.5
 20
261.0
 30
0.0
 40
18.0
  0
LINE
  5
64D
  8
DETAIL
  6
CONTINUOUS
 62
     5
 10
181.0
 20
252.05572799999999
 30
0.0
 11
170.0
 21
252.05572799999999
 31
0.0
  0
LINE
  5
64E
  8
DETAIL
  6
CONTINUOUS
 62
     5
 10
181.0
 20
269.94427200000001
 30
0.0
 11
170.0
 21
269.94427200000001
 31
0.0
  0
LINE
  5
64F
  8
DETAIL
  6
CONTINUOUS
 62
     5
 10
181.0
 20
252.05572799999999
 30
0.0
 11
186.0
 21
261.0
 31
0.0
  0
LINE
  5
650
  8
DETAIL
  6
CONTINUOUS
 62
     5
 10
170.0
 20
252.05572799999999
 30
0.0
 11
165.0
 21
261.0
 31
0.0
  0
LINE
  5
651
  8
DETAIL
  6
CONTINUOUS
 62
     5
 10
170.0
 20
269.94427200000001
 30
0.0
 11
165.0
 21
261.0
 31
0.0
  0
LINE
  5
652
  8
DETAIL
  6
CONTINUOUS
 62
     5
 10
181.0
 20
269.94427200000001
 30
0.0
 11
186.0
 21
261.0
 31
0.0
  0
CIRCLE
  5
653
  8
DETAIL
  6
CONTINUOUS
 62
     5
 10
175.5
 20
168.0
 30
0.0
 40
13.75
  0
CIRCLE
  5
654
  8
DETAIL
  6
CONTINUOUS
 62
     5
 10
175.5
 20
168.0
 30
0.0
 40
15.75
  0
ARC
  5
655
  8
DETAIL
  6
CONTINUOUS
 62
     5
 10
155.50238200000001
 20
251.00391200000001
 30
0.0
 40
5.0
 50
270.0
 51
0.0
  0
ARC
  5
656
  8
DETAIL
  6
CONTINUOUS
 62
     5
 10
195.50238200000001
 20
227.998716
 30
0.0
 40
5.0
 50
180.0
 51
270.0
  0
ARC
  5
657
  8
DETAIL
  6
CONTINUOUS
 62
     5
 10
216.5
 20
227.998716
 30
0.0
 40
5.0
 50
270.0
 51
318.179733
  0
LINE
  5
658
  8
DETAIL
  6
CONTINUOUS
 62
     5
 10
147.495643
 20
246.00391200000001
 30
0.0
 11
155.50238200000001
 21
246.00391200000001
 31
0.0
  0
ARC
  5
65A
  8
DETAIL
  6
CONTINUOUS
 62
     5
 10
147.495643
 20
251.00391200000001
 30
0.0
 40
5.0
 50
180.0
 51
270.0
  0
LINE
  5
65B
  8
DETAIL
  6
CONTINUOUS
 62
     5
 10
190.50238200000001
 20
227.998716
 30
0.0
 11
190.50238200000001
 21
251.053718
 31
0.0
  0
ARC
  5
65C
  8
DETAIL
  6
CONTINUOUS
 62
     5
 10
131.0
 20
191.99820299999999
 30
0.0
 40
10.0
 50
270.0
 51
0.0
  0
CIRCLE
  5
65D
  8
DETAIL
  6
CONTINUOUS
 62
     5
 10
239.5
 20
233.0
 30
0.0
 40
7.9400000000000004
  0
POINT
  5
65E
  8
DEFPOINTS
  6
CONTINUOUS
 62
     7
 10
245.00914900000009
 20
233.00264100000001
 30
0.0
  0
POINT
  5
65F
  8
DEFPOINTS
  6
CONTINUOUS
 62
     7
 10
239.5
 20
238.502634
 30
0.0
  0
POINT
  5
660
  8
DEFPOINTS
  6
CONTINUOUS
 62
     7
 10
239.5
 20
238.502634
 30
0.0
  0
LINE
  5
661
  8
NOTE
  6
CONTINUOUS
 62
     4
 10
245.0
 20
233.0
 30
0.0
 11
234.0
 21
233.0
 31
0.0
  0
LINE
  5
662
  8
NOTE
  6
CONTINUOUS
 62
     4
 10
239.5
 20
238.49999249999999
 30
0.0
 11
239.5
 21
227.50000750000001
 31
0.0
  0
LINE
  5
663
  8
NOTE
  6
CONTINUOUS
 62
     4
 10
239.5
 20
233.0
 30
0.0
 11
260.65214600000002
 21
205.89028999999999
 31
0.0
  0
LINE
  5
664
  8
NOTE
  6
CONTINUOUS
 62
     4
 10
239.5
 20
233.0
 30
0.0
 11
247.442239
 21
199.54449999999991
 31
0.0
  0
LINE
  5
667
  8
DETAIL
  6
CONTINUOUS
 62
     5
 10
245.99381199999999
 20
221.49851200000001
 30
0.0
 11
252.63572400000001
 21
233.00264100000001
 31
0.0
  0
LINE
  5
668
  8
DETAIL
  6
CONTINUOUS
 62
     5
 10
232.85808800000001
 20
221.49851200000001
 30
0.0
 11
245.99381199999999
 21
221.49851200000001
 31
0.0
  0
LINE
  5
669
  8
DETAIL
  6
CONTINUOUS
 62
     5
 10
246.06786199999999
 20
244.378512
 30
0.0
 11
232.78403800000001
 21
244.378512
 31
0.0
  0
LINE
  5
66A
  8
DETAIL
  6
CONTINUOUS
 62
     5
 10
246.06786199999999
 20
244.378512
 30
0.0
 11
252.63572400000001
 21
233.00264100000001
 31
0.0
  0
ARC
  5
66B
  8
DETAIL
  6
CONTINUOUS
 62
     5
 10
262.5
 20
222.998716
 30
0.0
 40
5.0
 50
188.330816
 51
270.0
  0
ARC
  5
66C
  8
DETAIL
  6
CONTINUOUS
 62
     5
 10
309.49700200000001
 20
222.998716
 30
0.0
 40
5.0
 50
270.0
 51
0.0
  0
LINE
  5
66D
  8
DETAIL
  6
CONTINUOUS
 62
     5
 10
262.5
 20
217.998716
 30
0.0
 11
309.49700200000001
 21
217.998716
 31
0.0
  0
POINT
  5
66E
  8
DEFPOINTS
  6
CONTINUOUS
 62
     7
 10
367.47302999999999
 20
140.0
 30
0.0
  0
POINT
  5
66F
  8
DEFPOINTS
  6
CONTINUOUS
 62
     7
 10
367.55028800000002
 20
140.0
 30
0.0
  0
LINE
  5
670
  8
NOTE
  6
CONTINUOUS
 62
     4
 10
365.55548500000009
 20
297.0
 30
0.0
 11
509.44451500000002
 21
297.0
 31
0.0
  0
POINT
  5
671
  8
DEFPOINTS
  6
CONTINUOUS
 62
     7
 10
367.5
 20
227.0
 30
0.0
  0
POINT
  5
672
  8
DEFPOINTS
  6
CONTINUOUS
 62
     7
 10
367.5
 20
247.0
 30
0.0
  0
ARC
  5
673
  8
DETAIL
  6
CONTINUOUS
 62
     5
 10
384.5
 20
195.0
 30
0.0
 40
2.0
 50
90.0
 51
180.0
  0
LINE
  5
674
  8
DETAIL
  6
CONTINUOUS
 62
     5
 10
402.5
 20
197.0
 30
0.0
 11
437.5
 21
199.5
 31
0.0
  0
LINE
  5
675
  8
DETAIL
  6
CONTINUOUS
 62
     5
 10
402.5
 20
197.0
 30
0.0
 11
384.5
 21
197.0
 31
0.0
  0
LINE
  5
676
  8
DETAIL
  6
CONTINUOUS
 62
     5
 10
378.5
 20
189.0
 30
0.0
 11
367.5
 21
189.0
 31
0.0
  0
ARC
  5
677
  8
DETAIL
  6
CONTINUOUS
 62
     5
 10
378.5
 20
193.0
 30
0.0
 40
4.0
 50
270.0
 51
0.0
  0
POINT
  5
678
  8
DEFPOINTS
  6
CONTINUOUS
 62
     7
 10
509.44451500000002
 20
297.0
 30
0.0
  0
CIRCLE
  5
679
  8
FIX
  6
CONTINUOUS
 62
    11
 10
333.5
 20
433.0
 30
0.0
 40
12.421498
  0
LINE
  5
67A
  8
NOTE
  6
CONTINUOUS
 62
     4
 10
318.50483400000002
 20
433.0
 30
0.0
 11
348.4951660000001
 21
433.0
 31
0.0
  0
LINE
  5
67B
  8
DETAIL
  6
CONTINUOUS
 62
     5
 10
325.50025299999999
 20
395.0
 30
0.0
 11
364.50036799999998
 21
395.0
 31
0.0
  0
LINE
  5
67C
  8
DETAIL
  6
CONTINUOUS
 62
     5
 10
309.49700200000001
 20
411.00451699999991
 30
0.0
 11
147.495643
 21
411.00451699999991
 31
0.0
  0
ARC
  5
67D
  8
DETAIL
  6
CONTINUOUS
 62
     5
 10
147.495643
 20
406.00451699999991
 30
0.0
 40
5.0
 50
90.0
 51
180.0
  0
ARC
  5
67E
  8
DETAIL
  6
CONTINUOUS
 62
     5
 10
131.0
 20
330.0
 30
0.0
 40
10.0
 50
0.0
 51
90.0
  0
POINT
  5
67F
  8
DEFPOINTS
  6
CONTINUOUS
 62
     7
 10
333.5
 20
447.99516599999998
 30
0.0
  0
LINE
  5
680
  8
NOTE
  6
CONTINUOUS
 62
     4
 10
333.5
 20
447.99516599999998
 30
0.0
 11
333.5
 21
418.00483399999979
 31
0.0
  0
ARC
  5
681
  8
DETAIL
  6
CONTINUOUS
 62
     5
 10
311.50025299999999
 20
421.0
 30
0.0
 40
3.0
 50
180.0
 51
270.0
  0
ARC
  5
682
  8
DETAIL
  6
CONTINUOUS
 62
     5
 10
325.50025299999999
 20
398.0
 30
0.0
 40
3.0
 50
180.0
 51
270.0
  0
LINE
  5
683
  8
DETAIL
  6
CONTINUOUS
 62
     5
 10
308.50025299999999
 20
433.0
 30
0.0
 11
308.50025299999999
 21
421.0
 31
0.0
  0
ARC
  5
684
  8
DETAIL
  6
CONTINUOUS
 62
     5
 10
329.00025299999999
 20
424.0
 30
0.0
 40
3.0
 50
270.0
 51
0.0
  0
LINE
  5
685
  8
DETAIL
  6
CONTINUOUS
 62
     5
 10
332.00025299999999
 20
433.0
 30
0.0
 11
332.00025299999999
 21
424.0
 31
0.0
  0
LINE
  5
686
  8
DETAIL
  6
CONTINUOUS
 62
     5
 10
329.00025299999999
 20
421.0
 30
0.0
 11
311.50025299999999
 21
421.0
 31
0.0
  0
ARC
  5
687
  8
DETAIL
  6
CONTINUOUS
 62
     5
 10
311.50025299999999
 20
424.0
 30
0.0
 40
3.0
 50
180.0
 51
270.0
  0
LINE
  5
688
  8
DETAIL
  6
CONTINUOUS
 62
     5
 10
311.50025299999999
 20
418.0
 30
0.0
 11
322.50025299999999
 21
418.0
 31
0.0
  0
LINE
  5
689
  8
DETAIL
  6
CONTINUOUS
 62
     5
 10
322.50025299999999
 20
418.0
 30
0.0
 11
322.50025299999999
 21
398.0
 31
0.0
  0
ARC
  5
68A
  8
DETAIL
  6
CONTINUOUS
 62
     5
 10
309.49700200000001
 20
406.00451699999991
 30
0.0
 40
5.0
 50
0.0
 51
90.0
  0
LINE
  5
68B
  8
SIZE
  6
CONTINUOUS
 62
    30
 10
397.5
 20
417.0
 30
0.0
 11
397.5
 21
578.41615400000001
 31
0.0
  0
LINE
  5
68C
  8
SIZE
  6
CONTINUOUS
 62
    30
 10
437.5
 20
414.5
 30
0.0
 11
437.5
 21
578.41615400000001
 31
0.0
  0
POINT
  5
68D
  8
DEFPOINTS
  6
CONTINUOUS
 62
     7
 10
367.5
 20
433.0
 30
0.0
  0
POINT
  5
68E
  8
DEFPOINTS
  6
CONTINUOUS
 62
     7
 10
367.5
 20
433.0
 30
0.0
  0
POINT
  5
68F
  8
DEFPOINTS
  6
CONTINUOUS
 62
     7
 10
367.5
 20
433.0
 30
0.0
  0
POINT
  5
690
  8
DEFPOINTS
  6
CONTINUOUS
 62
     7
 10
367.5
 20
433.0
 30
0.0
  0
POINT
  5
691
  8
DEFPOINTS
  6
CONTINUOUS
 62
     7
 10
367.5
 20
433.0
 30
0.0
  0
POINT
  5
692
  8
DEFPOINTS
  6
CONTINUOUS
 62
     7
 10
437.5
 20
394.5
 30
0.0
  0
POINT
  5
693
  8
DEFPOINTS
  6
CONTINUOUS
 62
     7
 10
367.5
 20
433.0
 30
0.0
  0
POINT
  5
694
  8
DEFPOINTS
  6
CONTINUOUS
 62
     7
 10
367.5
 20
433.0
 30
0.0
  0
POINT
  5
695
  8
DEFPOINTS
  6
CONTINUOUS
 62
     7
 10
367.5
 20
433.0
 30
0.0
  0
POINT
  5
696
  8
DEFPOINTS
  6
CONTINUOUS
 62
     7
 10
367.5
 20
433.0
 30
0.0
  0
POINT
  5
697
  8
DEFPOINTS
  6
CONTINUOUS
 62
     7
 10
397.5
 20
397.0
 30
0.0
  0
POINT
  5
698
  8
DEFPOINTS
  6
CONTINUOUS
 62
     7
 10
437.5
 20
394.5
 30
0.0
  0
ARC
  5
69A
  8
DETAIL
  6
CONTINUOUS
 62
     5
 10
364.50036799999998
 20
398.0
 30
0.0
 40
3.0
 50
270.0
 51
0.000602
  0
LINE
  5
69B
  8
DETAIL
  6
CONTINUOUS
 62
     5
 10
347.00025299999999
 20
421.0
 30
0.0
 11
364.50025299999999
 21
421.0
 31
0.0
  0
LINE
  5
69C
  8
DETAIL
  6
CONTINUOUS
 62
     5
 10
344.00025299999999
 20
433.0
 30
0.0
 11
344.00025299999999
 21
424.0
 31
0.0
  0
ARC
  5
69D
  8
DETAIL
  6
CONTINUOUS
 62
     5
 10
364.50025299999999
 20
424.0
 30
0.0
 40
3.0
 50
270.0
 51
0.0
  0
ARC
  5
69E
  8
DETAIL
  6
CONTINUOUS
 62
     5
 10
347.00025299999999
 20
424.0
 30
0.0
 40
3.0
 50
180.0
 51
270.0
  0
ARC
  5
69F
  8
DETAIL
  6
CONTINUOUS
 62
     5
 10
384.5
 20
399.0
 30
0.0
 40
2.0
 50
180.0
 51
270.0
  0
LINE
  5
6A0
  8
DETAIL
  6
CONTINUOUS
 62
     5
 10
402.5
 20
397.0
 30
0.0
 11
384.5
 21
397.0
 31
0.0
  0
LINE
  5
6A1
  8
DETAIL
  6
CONTINUOUS
 62
     5
 10
402.5
 20
397.0
 30
0.0
 11
437.5
 21
394.5
 31
0.0
  0
LINE
  5
6A2
  8
DETAIL
  6
CONTINUOUS
 62
     5
 10
378.5
 20
405.0
 30
0.0
 11
367.5
 21
405.0
 31
0.0
  0
ARC
  5
6A3
  8
DETAIL
  6
CONTINUOUS
 62
     5
 10
378.5
 20
401.0
 30
0.0
 40
4.0
 50
0.0
 51
90.0
  0
POINT
  5
6A4
  8
DEFPOINTS
  6
CONTINUOUS
 62
     7
 10
397.5
 20
548.41615400000001
 30
0.0
  0
LINE
  5
6A5
  8
SIZE
  6
CONTINUOUS
 62
    30
 10
442.49999999999989
 20
548.41615400000001
 30
0.0
 11
447.5
 21
548.41615400000001
 31
0.0
  0
CIRCLE
  5
6A6
  8
SIZE
  6
CONTINUOUS
 62
    30
 10
437.5
 20
548.41615400000001
 30
0.0
 40
5.0
  0
LINE
  5
6A7
  8
SIZE
  6
CONTINUOUS
 62
    30
 10
392.5
 20
548.41615400000001
 30
0.0
 11
387.5
 21
548.41615400000001
 31
0.0
  0
CIRCLE
  5
6A8
  8
SIZE
  6
CONTINUOUS
 62
    30
 10
397.5
 20
548.41615400000001
 30
0.0
 40
5.0
  0
LINE
  5
6A9
  8
SIZE
  6
CONTINUOUS
 62
    30
 10
397.5
 20
548.41615400000001
 30
0.0
 11
437.5
 21
548.41615400000001
 31
0.0
  0
LINE
  5
6AA
  8
SIZE
  6
CONTINUOUS
 62
    30
 10
387.5
 20
548.41615400000001
 30
0.0
 11
377.5
 21
548.41615400000001
 31
0.0
  0
TEXT
  5
6AB
  8
SIZE
  6
CONTINUOUS
 62
    30
 10
-179.83301900000001
 20
907.07315300000005
 30
0.0
 40
60.0
  1
(吊りボルトピッチ)
 50
0.000003
 41
0.75
  7
STANDARD1
  0
LINE
  5
6AC
  8
SIZE
  6
CONTINUOUS
 62
    30
 10
-326.5
 20
893.98808299999985
 30
0.0
 11
323.5
 21
893.98808299999985
 31
0.0
  0
LINE
  5
6AD
  8
SIZE
  6
CONTINUOUS
 62
    30
 10
104.5
 20
759.69734699999981
 30
0.0
 11
357.5
 21
759.69734699999981
 31
0.0
  0
TEXT
  5
6AE
  8
SIZE
  6
CONTINUOUS
 62
    30
 10
-322.07014314285709
 20
911.41030899999998
 30
0.0
 40
55.0
  1
670
 41
0.9
 72
     1
 11
-258.42728599999998
 21
911.41030899999998
 31
0.0
  0
TEXT
  5
6AF
  8
NOTE
  6
CONTINUOUS
 62
     4
 10
-270.10298999999998
 20
626.53949499999999
 30
0.0
 40
60.0
  1
RL %%C9.52
 50
0.000003
 41
0.7
  7
STANDARD1
  0
LINE
  5
6B0
  8
SIZE
  6
CONTINUOUS
 62
    30
 10
-326.5
 20
893.98808299999985
 30
0.0
 11
-316.5
 21
893.98808299999985
 31
0.0
  0
CIRCLE
  5
6B1
  8
SIZE
  6
CONTINUOUS
 62
    30
 10
94.500000000000014
 20
759.69734699999981
 30
0.0
 40
5.0
  0
LINE
  5
6B2
  8
SIZE
  6
CONTINUOUS
 62
    30
 10
99.500000000000014
 20
759.69734699999981
 30
0.0
 11
104.5
 21
759.69734699999981
 31
0.0
  0
TEXT
  5
6B3
  8
SIZE
  6
CONTINUOUS
 62
    30
 10
-63.642857142857139
 20
1037.756433
 30
0.0
 40
55.0
  1
735
 41
0.9
 72
     1
 11
0.0
 21
1037.756433
 31
0.0
  0
LINE
  5
6B4
  8
SIZE
  6
CONTINUOUS
 62
    30
 10
249.5
 20
630.56139199999996
 30
0.0
 11
357.5
 21
630.56139199999996
 31
0.0
  0
TEXT
  5
6B5
  8
SIZE
  6
CONTINUOUS
 62
    30
 10
166.25
 20
648.56139199999996
 30
0.0
 40
55.0
  1
64
 41
0.9
 72
     1
 11
207.5
 21
648.56139199999996
 31
0.0
  0
LINE
  5
6B6
  8
SIZE
  6
CONTINUOUS
 62
    30
 10
175.5
 20
630.56139199999996
 30
0.0
 11
239.5
 21
630.56139199999996
 31
0.0
  0
LINE
  5
6B7
  8
SIZE
  6
CONTINUOUS
 62
    30
 10
170.5
 20
630.56139199999996
 30
0.0
 11
165.5
 21
630.56139199999996
 31
0.0
  0
CIRCLE
  5
6B8
  8
SIZE
  6
CONTINUOUS
 62
    30
 10
175.5
 20
630.56139199999996
 30
0.0
 40
5.0
  0
LINE
  5
6B9
  8
SIZE
  6
CONTINUOUS
 62
    30
 10
165.5
 20
630.56139199999996
 30
0.0
 11
155.5
 21
630.56139199999996
 31
0.0
  0
LINE
  5
6BA
  8
SIZE
  6
CONTINUOUS
 62
    30
 10
244.5
 20
630.56139199999996
 30
0.0
 11
249.5
 21
630.56139199999996
 31
0.0
  0
CIRCLE
  5
6BB
  8
SIZE
  6
CONTINUOUS
 62
    30
 10
239.5
 20
630.56139199999996
 30
0.0
 40
5.0
  0
POINT
  5
6BC
  8
DEFPOINTS
  6
CONTINUOUS
 62
     7
 10
239.5
 20
630.56139199999996
 30
0.0
  0
LINE
  5
6BD
  8
SIZE
  6
CONTINUOUS
 62
    30
 10
244.5
 20
630.56139199999996
 30
0.0
 11
249.5
 21
630.56139199999996
 31
0.0
  0
CIRCLE
  5
6BE
  8
SIZE
  6
CONTINUOUS
 62
    30
 10
239.5
 20
630.56139199999996
 30
0.0
 40
5.0
  0
LINE
  5
6BF
  8
SIZE
  6
CONTINUOUS
 62
    30
 10
249.5
 20
630.56139199999996
 30
0.0
 11
259.5
 21
630.56139199999996
 31
0.0
  0
TEXT
  5
6C0
  8
SIZE
  6
CONTINUOUS
 62
    30
 10
167.3571428571428
 20
777.6973469999997
 30
0.0
 40
55.0
  1
273
 41
0.9
 72
     1
 11
231.0
 21
777.6973469999997
 31
0.0
  0
POINT
  5
6C1
  8
DEFPOINTS
  6
CONTINUOUS
 62
     7
 10
333.5
 20
893.98808299999985
 30
0.0
  0
LINE
  5
6C2
  8
SIZE
  6
CONTINUOUS
 62
    30
 10
328.5
 20
893.98808299999985
 30
0.0
 11
323.5
 21
893.98808299999985
 31
0.0
  0
CIRCLE
  5
6C3
  8
SIZE
  6
CONTINUOUS
 62
    30
 10
333.5
 20
893.98808299999985
 30
0.0
 40
5.0
  0
CIRCLE
  5
6C4
  8
SIZE
  6
CONTINUOUS
 62
    30
 10
367.5
 20
759.69734699999981
 30
0.0
 40
5.0
  0
POINT
  5
6C5
  8
DEFPOINTS
  6
CONTINUOUS
 62
     7
 10
367.5
 20
630.56139199999996
 30
0.0
  0
LINE
  5
6C6
  8
SIZE
  6
CONTINUOUS
 62
    30
 10
362.5
 20
630.56139199999996
 30
0.0
 11
357.5
 21
630.56139199999996
 31
0.0
  0
CIRCLE
  5
6C7
  8
SIZE
  6
CONTINUOUS
 62
    30
 10
367.5
 20
630.56139199999996
 30
0.0
 40
5.0
  0
POINT
  5
6C8
  8
DEFPOINTS
  6
CONTINUOUS
 62
     7
 10
367.5
 20
759.69734699999981
 30
0.0
  0
LINE
  5
6C9
  8
SIZE
  6
CONTINUOUS
 62
    30
 10
362.5
 20
759.69734699999981
 30
0.0
 11
357.5
 21
759.69734699999981
 31
0.0
  0
TEXT
  5
6CA
  8
SIZE
  6
CONTINUOUS
 62
    30
 10
362.42857142857139
 20
1037.756433
 30
0.0
 40
55.0
  1
70
 41
0.9
 72
     1
 11
402.5
 21
1037.756433
 31
0.0
  0
LINE
  5
6CB
  8
SIZE
  6
CONTINUOUS
 62
    30
 10
447.5
 20
1019.756433
 30
0.0
 11
457.5
 21
1019.756433
 31
0.0
  0
POINT
  5
6CC
  8
DEFPOINTS
  6
CONTINUOUS
 62
     7
 10
437.5
 20
1019.756433
 30
0.0
  0
LINE
  5
6CD
  8
SIZE
  6
CONTINUOUS
 62
    30
 10
442.49999999999989
 20
1019.756433
 30
0.0
 11
447.5
 21
1019.756433
 31
0.0
  0
CIRCLE
  5
6CE
  8
SIZE
  6
CONTINUOUS
 62
    30
 10
437.5
 20
1019.756433
 30
0.0
 40
5.0
  0
LINE
  5
6CF
  8
SIZE
  6
CONTINUOUS
 62
    30
 10
362.5
 20
1019.756433
 30
0.0
 11
357.5
 21
1019.756433
 31
0.0
  0
CIRCLE
  5
6D0
  8
SIZE
  6
CONTINUOUS
 62
    30
 10
367.5
 20
1019.756433
 30
0.0
 40
5.0
  0
LINE
  5
6D1
  8
SIZE
  6
CONTINUOUS
 62
    30
 10
367.5
 20
1019.756433
 30
0.0
 11
437.5
 21
1019.756433
 31
0.0
  0
LINE
  5
6D2
  8
SIZE
  6
CONTINUOUS
 62
    30
 10
357.5
 20
1019.756433
 30
0.0
 11
347.5
 21
1019.756433
 31
0.0
  0
POINT
  5
6D3
  8
DEFPOINTS
  6
CONTINUOUS
 62
     7
 10
367.5
 20
1019.756433
 30
0.0
  0
LINE
  5
6D4
  8
SIZE
  6
CONTINUOUS
 62
    30
 10
362.5
 20
1019.756433
 30
0.0
 11
357.5
 21
1019.756433
 31
0.0
  0
CIRCLE
  5
6D5
  8
SIZE
  6
CONTINUOUS
 62
    30
 10
367.5
 20
1019.756433
 30
0.0
 40
5.0
  0
TEXT
  5
6D6
  8
SIZE
  6
CONTINUOUS
 62
    30
 10
1050.685113
 20
226.49783385714289
 30
0.0
 40
55.0
  1
265
 50
90.0
 41
0.9
 72
     1
 11
1050.685113
 21
290.140691
 31
0.0
  0
LINE
  5
6D7
  8
SIZE
  6
CONTINUOUS
 62
    30
 10
972.67888200000004
 20
298.68496299999998
 30
0.0
 11
972.67888200000004
 21
414.82782099999991
 31
0.0
  0
TEXT
  5
6D8
  8
SIZE
  6
CONTINUOUS
 62
    30
 10
859.54594799999984
 20
288.07142857142861
 30
0.0
 40
55.0
  1
172
 50
90.0
 41
0.9
 72
     1
 11
859.54594799999984
 21
347.0
 31
0.0
  0
LINE
  5
6D9
  8
SIZE
  6
CONTINUOUS
 62
    30
 10
877.54594799999984
 20
423.0
 30
0.0
 11
877.54594799999984
 21
271.0
 31
0.0
  0
LINE
  5
6DA
  8
SIZE
  6
CONTINUOUS
 62
    30
 10
760.08286499999986
 20
302.0
 30
0.0
 11
760.08286499999986
 21
307.0
 31
0.0
  0
POINT
  5
6DB
  8
DEFPOINTS
  6
CONTINUOUS
 62
     7
 10
760.08286499999986
 20
297.0
 30
0.0
  0
CIRCLE
  5
6DC
  8
SIZE
  6
CONTINUOUS
 62
    30
 10
760.08286499999986
 20
297.0
 30
0.0
 40
5.0
  0
POINT
  5
6DD
  8
DEFPOINTS
  6
CONTINUOUS
 62
     7
 10
861.59331299999985
 20
47.0
 30
0.0
  0
LINE
  5
6DE
  8
SIZE
  6
CONTINUOUS
 62
    30
 10
861.59331299999985
 20
52.0
 30
0.0
 11
861.59331299999985
 21
57.0
 31
0.0
  0
CIRCLE
  5
6DF
  8
SIZE
  6
CONTINUOUS
 62
    30
 10
861.59331299999985
 20
47.0
 30
0.0
 40
5.0
  0
LINE
  5
6E0
  8
SIZE
  6
CONTINUOUS
 62
    30
 10
861.59331299999985
 20
0.0
 30
0.0
 11
861.59331299999985
 21
47.0
 31
0.0
  0
LINE
  5
6E1
  8
SIZE
  6
CONTINUOUS
 62
    30
 10
861.59331299999985
 20
0.0
 30
0.0
 11
861.59331299999985
 21
47.0
 31
0.0
  0
LINE
  5
6E2
  8
SIZE
  6
CONTINUOUS
 62
    30
 10
861.59331299999985
 20
57.0
 30
0.0
 11
861.59331299999985
 21
67.0
 31
0.0
  0
POINT
  5
6E3
  8
DEFPOINTS
  6
CONTINUOUS
 62
     7
 10
861.59331299999985
 20
0.0
 30
0.0
  0
LINE
  5
6E4
  8
SIZE
  6
CONTINUOUS
 62
    30
 10
861.59331299999985
 20
5.0
 30
0.0
 11
861.59331299999985
 21
10.0
 31
0.0
  0
LINE
  5
6E5
  8
SIZE
  6
CONTINUOUS
 62
    30
 10
861.59331299999985
 20
10.0
 30
0.0
 11
861.59331299999985
 21
20.0
 31
0.0
  0
LINE
  5
6E6
  8
SIZE
  6
CONTINUOUS
 62
    30
 10
877.54594799999984
 20
247.00132099999999
 30
0.0
 11
972.67888200000004
 21
298.68496299999998
 31
0.0
  0
POINT
  5
6E7
  8
DEFPOINTS
  6
CONTINUOUS
 62
     7
 10
877.54594799999984
 20
233.00264100000001
 30
0.0
  0
LINE
  5
6E8
  8
SIZE
  6
CONTINUOUS
 62
    30
 10
877.54594799999984
 20
228.00264100000001
 30
0.0
 11
877.54594799999984
 21
223.00264100000001
 31
0.0
  0
CIRCLE
  5
6E9
  8
SIZE
  6
CONTINUOUS
 62
    30
 10
877.54594799999984
 20
233.00264100000001
 30
0.0
 40
5.0
  0
LINE
  5
6EA
  8
SIZE
  6
CONTINUOUS
 62
    30
 10
877.54594799999984
 20
266.0
 30
0.0
 11
877.54594799999984
 21
271.0
 31
0.0
  0
CIRCLE
  5
6EB
  8
SIZE
  6
CONTINUOUS
 62
    30
 10
877.54594799999984
 20
261.0
 30
0.0
 40
5.0
  0
LINE
  5
6EC
  8
SIZE
  6
CONTINUOUS
 62
    30
 10
877.54594799999984
 20
261.0
 30
0.0
 11
877.54594799999984
 21
233.00264100000001
 31
0.0
  0
LINE
  5
6ED
  8
SIZE
  6
CONTINUOUS
 62
    30
 10
877.54594799999984
 20
261.0
 30
0.0
 11
877.54594799999984
 21
233.00264100000001
 31
0.0
  0
LINE
  5
6EE
  8
SIZE
  6
CONTINUOUS
 62
    30
 10
877.54594799999984
 20
223.00264100000001
 30
0.0
 11
877.54594799999984
 21
213.00264100000001
 31
0.0
  0
LINE
  5
6EF
  8
SIZE
  6
CONTINUOUS
 62
    30
 10
877.54594799999984
 20
271.0
 30
0.0
 11
877.54594799999984
 21
281.0
 31
0.0
  0
POINT
  5
6F0
  8
DEFPOINTS
  6
CONTINUOUS
 62
     7
 10
877.54594799999984
 20
261.0
 30
0.0
  0
LINE
  5
6F1
  8
SIZE
  6
CONTINUOUS
 62
    30
 10
877.54594799999984
 20
266.0
 30
0.0
 11
877.54594799999984
 21
271.0
 31
0.0
  0
CIRCLE
  5
6F2
  8
SIZE
  6
CONTINUOUS
 62
    30
 10
877.54594799999984
 20
261.0
 30
0.0
 40
5.0
  0
LINE
  5
6F3
  8
SIZE
  6
CONTINUOUS
 62
    30
 10
760.08286499999986
 20
433.0
 30
0.0
 11
760.08286499999986
 21
594.5
 31
0.0
  0
LINE
  5
6F4
  8
SIZE
  6
CONTINUOUS
 62
    30
 10
673.63956900000005
 20
433.0
 30
0.0
 11
673.63956900000005
 21
596.85714299999995
 31
0.0
  0
CIRCLE
  5
6F5
  8
SIZE
  6
CONTINUOUS
 62
    30
 10
673.63956900000005
 20
433.0
 30
0.0
 40
5.0
  0
CIRCLE
  5
6F6
  8
SIZE
  6
CONTINUOUS
 62
    30
 10
673.63956900000005
 20
325.0
 30
0.0
 40
5.0
  0
POINT
  5
6F7
  8
DEFPOINTS
  6
CONTINUOUS
 62
     7
 10
673.63956900000005
 20
325.0
 30
0.0
  0
LINE
  5
6F8
  8
SIZE
  6
CONTINUOUS
 62
    30
 10
673.63956900000005
 20
428.0
 30
0.0
 11
673.63956900000005
 21
423.0
 31
0.0
  0
LINE
  5
6F9
  8
SIZE
  6
CONTINUOUS
 62
    30
 10
673.63956900000005
 20
330.0
 30
0.0
 11
673.63956900000005
 21
335.0
 31
0.0
  0
LINE
  5
6FA
  8
SIZE
  6
CONTINUOUS
 62
    30
 10
673.63956900000005
 20
335.0
 30
0.0
 11
673.63956900000005
 21
423.0
 31
0.0
  0
LINE
  5
6FB
  8
SIZE
  6
CONTINUOUS
 62
    30
 10
760.08286499999986
 20
428.0
 30
0.0
 11
760.08286499999986
 21
423.0
 31
0.0
  0
CIRCLE
  5
6FC
  8
SIZE
  6
CONTINUOUS
 62
    30
 10
760.08286499999986
 20
433.0
 30
0.0
 40
5.0
  0
LINE
  5
6FD
  8
SIZE
  6
CONTINUOUS
 62
    30
 10
760.08286499999986
 20
307.0
 30
0.0
 11
760.08286499999986
 21
423.0
 31
0.0
  0
TEXT
  5
6FE
  8
SIZE
  6
CONTINUOUS
 62
    30
 10
655.63956900000017
 20
460.99999957142859
 30
0.0
 40
55.0
  1
108
 50
90.0
 41
0.9
 72
     1
 11
655.63956900000017
 21
519.92857100000003
 31
0.0
  0
TEXT
  5
6FF
  8
SIZE
  6
CONTINUOUS
 62
    30
 10
742.08286499999986
 20
461.0
 30
0.0
 40
55.0
  1
136
 50
90.0
 41
0.9
 72
     1
 11
742.08286499999986
 21
518.75
 31
0.0
  0
TEXT
  5
700
  8
SIZE
  6
CONTINUOUS
 62
    30
 10
954.67888200000004
 20
316.68496342857151
 30
0.0
 40
55.0
  1
28
 50
90.0
 41
0.9
 72
     1
 11
954.67888200000004
 21
356.75639200000001
 31
0.0
  0
LINE
  5
701
  8
SIZE
  6
CONTINUOUS
 62
    30
 10
877.54594799999984
 20
428.0
 30
0.0
 11
877.54594799999984
 21
423.0
 31
0.0
  0
CIRCLE
  5
702
  8
SIZE
  6
CONTINUOUS
 62
    30
 10
877.54594799999984
 20
433.0
 30
0.0
 40
5.0
  0
TEXT
  5
703
  8
SIZE
  6
CONTINUOUS
 62
    30
 10
1149.958627
 20
222.85714285714289
 30
0.0
 40
55.0
  1
293
 50
90.0
 41
0.9
 72
     1
 11
1149.958627
 21
286.5
 31
0.0
  0
LINE
  5
704
  8
SIZE
  6
CONTINUOUS
 62
    30
 10
1167.958627
 20
423.0
 30
0.0
 11
1167.958627
 21
150.0
 31
0.0
  0
LINE
  5
705
  8
SIZE
  6
CONTINUOUS
 62
    30
 10
1068.685113
 20
178.0
 30
0.0
 11
1068.685113
 21
423.0
 31
0.0
  0
POLYLINE
  5
706
  8
SIZE
  6
CONTINUOUS
 62
    30
 66
     1
 10
0.0
 20
0.0
 30
0.0
  0
VERTEX
  5
936
  8
SIZE
  6
CONTINUOUS
 62
    30
 10
1371.5286840000001
 20
32.893489000000002
 30
0.0
 42
0.186174
  0
VERTEX
  5
937
  8
SIZE
  6
CONTINUOUS
 62
    30
 10
1362.678836
 20
53.842978000000002
 30
0.0
 42
0.082105
  0
VERTEX
  5
938
  8
SIZE
  6
CONTINUOUS
 62
    30
 10
1346.976334
 20
66.017538999999999
 30
0.0
 42
0.058826
  0
VERTEX
  5
939
  8
SIZE
  6
CONTINUOUS
 62
    30
 10
1325.190276
 20
74.792466000000005
 30
0.0
 42
0.067494
  0
VERTEX
  5
93A
  8
SIZE
  6
CONTINUOUS
 62
    30
 10
1287.701716
 20
79.737968999999978
 30
0.0
 42
0.067494
  0
VERTEX
  5
93B
  8
SIZE
  6
CONTINUOUS
 62
    30
 10
1250.213156
 20
74.792466000000005
 30
0.0
 42
0.058826
  0
VERTEX
  5
93C
  8
SIZE
  6
CONTINUOUS
 62
    30
 10
1228.4270979999999
 20
66.017538999999999
 30
0.0
 42
0.082105
  0
VERTEX
  5
93D
  8
SIZE
  6
CONTINUOUS
 62
    30
 10
1212.724596
 20
53.842978000000002
 30
0.0
 42
0.186174
  0
VERTEX
  5
93E
  8
SIZE
  6
CONTINUOUS
 62
    30
 10
1203.874748
 20
32.893489000000002
 30
0.0
 42
0.186174
  0
SEQEND
  5
93F
  8
SIZE
  6
CONTINUOUS
 62
    30
  0
POINT
  5
711
  8
DEFPOINTS
  6
CONTINUOUS
 62
     7
 10
1167.958627
 20
0.0
 30
0.0
  0
LINE
  5
712
  8
SIZE
  6
CONTINUOUS
 62
    30
 10
1167.958627
 20
5.0
 30
0.0
 11
1167.958627
 21
10.0
 31
0.0
  0
LINE
  5
713
  8
SIZE
  6
CONTINUOUS
 62
    30
 10
1167.958627
 20
135.0
 30
0.0
 11
1167.958627
 21
130.0
 31
0.0
  0
CIRCLE
  5
714
  8
SIZE
  6
CONTINUOUS
 62
    30
 10
1167.958627
 20
140.0
 30
0.0
 40
5.0
  0
LINE
  5
715
  8
SIZE
  6
CONTINUOUS
 62
    30
 10
1167.958627
 20
130.0
 30
0.0
 11
1167.958627
 21
10.0
 31
0.0
  0
POINT
  5
716
  8
DEFPOINTS
  6
CONTINUOUS
 62
     7
 10
1167.958627
 20
140.0
 30
0.0
  0
LINE
  5
717
  8
SIZE
  6
CONTINUOUS
 62
    30
 10
1167.958627
 20
145.0
 30
0.0
 11
1167.958627
 21
150.0
 31
0.0
  0
CIRCLE
  5
718
  8
SIZE
  6
CONTINUOUS
 62
    30
 10
1167.958627
 20
140.0
 30
0.0
 40
5.0
  0
LINE
  5
719
  8
SIZE
  6
CONTINUOUS
 62
    30
 10
1068.685113
 20
173.0
 30
0.0
 11
1068.685113
 21
178.0
 31
0.0
  0
CIRCLE
  5
71A
  8
SIZE
  6
CONTINUOUS
 62
    30
 10
1068.685113
 20
168.0
 30
0.0
 40
5.0
  0
POINT
  5
71B
  8
DEFPOINTS
  6
CONTINUOUS
 62
     7
 10
1068.685113
 20
433.0
 30
0.0
  0
LINE
  5
71C
  8
SIZE
  6
CONTINUOUS
 62
    30
 10
1068.685113
 20
428.0
 30
0.0
 11
1068.685113
 21
423.0
 31
0.0
  0
CIRCLE
  5
71D
  8
SIZE
  6
CONTINUOUS
 62
    30
 10
1068.685113
 20
433.0
 30
0.0
 40
5.0
  0
LINE
  5
71E
  8
SIZE
  6
CONTINUOUS
 62
    30
 10
1167.958627
 20
428.0
 30
0.0
 11
1167.958627
 21
423.0
 31
0.0
  0
CIRCLE
  5
71F
  8
SIZE
  6
CONTINUOUS
 62
    30
 10
1167.958627
 20
433.0
 30
0.0
 40
5.0
  0
TEXT
  5
720
  8
NOTE
  6
CONTINUOUS
 62
     4
 10
643.28826600000002
 20
659.76986499999975
 30
0.0
 40
60.0
  1
%%C200 吹出円形フランジ
 50
0.000003
 41
0.7
  7
STANDARD1
  0
LINE
  5
721
  8
NOTE
  6
CONTINUOUS
 62
     4
 10
1221.231957
 20
644.97419799999977
 30
0.0
 11
638.25443899999982
 21
644.97419799999977
 31
0.0
  0
ENDSEC
  0
EOF
