  0
SECTION
  2
HEADER
  9
$ACADVER
  1
AC1009
  9
$INSBASE
 10
0.0
 20
0.0
 30
0.0
  9
$EXTMIN
 10
-1043.5773540586231
 20
-319.53530430393948
 30
-0.0000000000000058
  9
$EXTMAX
 10
1302.6843940276451
 20
1675.769950266262
 30
0.0000000000000104
  9
$LIMMIN
 10
-4267.1522210604826
 20
-2696.083210198412
  9
$LIMMAX
 10
7190.7174225864646
 20
5141.155363923066
  9
$ORTHOMODE
 70
     1
  9
$REGENMODE
 70
     1
  9
$FILLMODE
 70
     1
  9
$QTEXTMODE
 70
     0
  9
$MIRRTEXT
 70
     0
  9
$DRAGMODE
 70
     2
  9
$LTSCALE
 40
20.0
  9
$OSMODE
 70
   431
  9
$ATTMODE
 70
     1
  9
$TEXTSIZE
 40
64.0
  9
$TRACEWID
 40
0.05
  9
$TEXTSTYLE
  7
NOTE
  9
$CLAYER
  8
SYMBOLLINE
  9
$CELTYPE
  6
CONTINUOUS
  9
$CECOLOR
 62
     7
  9
$DIMSCALE
 40
1.0
  9
$DIMASZ
 40
30.0
  9
$DIMEXO
 40
10.0
  9
$DIMDLI
 40
70.0
  9
$DIMRND
 40
0.0
  9
$DIMDLE
 40
0.0
  9
$DIMEXE
 40
20.0
  9
$DIMTP
 40
0.0
  9
$DIMTM
 40
0.0
  9
$DIMTXT
 40
50.0
  9
$DIMCEN
 40
0.09
  9
$DIMTSZ
 40
0.0
  9
$DIMTOL
 70
     0
  9
$DIMLIM
 70
     0
  9
$DIMTIH
 70
     0
  9
$DIMTOH
 70
     0
  9
$DIMSE1
 70
     0
  9
$DIMSE2
 70
     0
  9
$DIMTAD
 70
     1
  9
$DIMZIN
 70
     8
  9
$DIMBLK
  1
SMALL
  9
$DIMASO
 70
     1
  9
$DIMSHO
 70
     0
  9
$DIMPOST
  1

  9
$DIMAPOST
  1

  9
$DIMALT
 70
     0
  9
$DIMALTD
 70
     2
  9
$DIMALTF
 40
25.399999999999999
  9
$DIMLFAC
 40
1.0
  9
$DIMTOFL
 70
     1
  9
$DIMTVP
 40
0.0
  9
$DIMTIX
 70
     0
  9
$DIMSOXD
 70
     0
  9
$DIMSAH
 70
     0
  9
$DIMBLK1
  1

  9
$DIMBLK2
  1

  9
$DIMSTYLE
  2
STANDARD
  9
$DIMCLRD
 70
     0
  9
$DIMCLRE
 70
     0
  9
$DIMCLRT
 70
     0
  9
$DIMTFAC
 40
1.0
  9
$DIMGAP
 40
0.09
  9
$LUNITS
 70
     2
  9
$LUPREC
 70
     4
  9
$SKETCHINC
 40
0.1
  9
$FILLETRAD
 40
30.0
  9
$AUNITS
 70
     1
  9
$AUPREC
 70
     3
  9
$MENU
  1
ACAD
  9
$ELEVATION
 40
0.0
  9
$PELEVATION
 40
0.0
  9
$THICKNESS
 40
0.0
  9
$LIMCHECK
 70
     0
  9
$BLIPMODE
 70
     0
  9
$CHAMFERA
 40
0.0
  9
$CHAMFERB
 40
0.0
  9
$SKPOLY
 70
     0
  9
$TDCREATE
 40
2450330.4399309959
  9
$TDUPDATE
 40
2456841.5880812039
  9
$TDINDWG
 40
4.8057290509000001
  9
$TDUSRTIMER
 40
4.8057249999999998
  9
$USRTIMER
 70
     1
  9
$ANGBASE
 50
0.0
  9
$ANGDIR
 70
     0
  9
$PDMODE
 70
     3
  9
$PDSIZE
 40
-2.0
  9
$PLINEWID
 40
0.0
  9
$COORDS
 70
     1
  9
$SPLFRAME
 70
     0
  9
$SPLINETYPE
 70
     6
  9
$SPLINESEGS
 70
     8
  9
$ATTDIA
 70
     1
  9
$ATTREQ
 70
     1
  9
$HANDLING
 70
     1
  9
$HANDSEED
  5
DA5
  9
$SURFTAB1
 70
     6
  9
$SURFTAB2
 70
     6
  9
$SURFTYPE
 70
     6
  9
$SURFU
 70
     6
  9
$SURFV
 70
     6
  9
$UCSNAME
  2

  9
$UCSORG
 10
0.0
 20
0.0
 30
0.0
  9
$UCSXDIR
 10
1.0
 20
0.0
 30
0.0
  9
$UCSYDIR
 10
0.0
 20
1.0
 30
0.0
  9
$PUCSNAME
  2

  9
$PUCSORG
 10
0.0
 20
0.0
 30
0.0
  9
$PUCSXDIR
 10
1.0
 20
0.0
 30
0.0
  9
$PUCSYDIR
 10
0.0
 20
1.0
 30
0.0
  9
$USERI1
 70
     0
  9
$USERI2
 70
     0
  9
$USERI3
 70
     0
  9
$USERI4
 70
     0
  9
$USERI5
 70
     0
  9
$USERR1
 40
20.0
  9
$USERR2
 40
0.0
  9
$USERR3
 40
0.0
  9
$USERR4
 40
0.0
  9
$USERR5
 40
0.0
  9
$WORLDVIEW
 70
     1
  9
$SHADEDGE
 70
     3
  9
$SHADEDIF
 70
    70
  9
$TILEMODE
 70
     1
  9
$MAXACTVP
 70
    64
  9
$PLIMCHECK
 70
     0
  9
$PEXTMIN
 10
1.0000000000000000E+020
 20
1.0000000000000000E+020
 30
1.0000000000000000E+020
  9
$PEXTMAX
 10
-1.0000000000000000E+020
 20
-1.0000000000000000E+020
 30
-1.0000000000000000E+020
  9
$PLIMMIN
 10
0.0
 20
0.0
  9
$PLIMMAX
 10
12.0
 20
9.0
  9
$UNITMODE
 70
     0
  9
$VISRETAIN
 70
     1
  9
$PLINEGEN
 70
     0
  9
$PSLTSCALE
 70
     1
  0
ENDSEC
  0
SECTION
  2
TABLES
  0
TABLE
  2
VPORT
 70
     1
  0
VPORT
  2
*ACTIVE
 70
     0
 10
0.0
 20
0.0
 11
1.0
 21
1.0
 12
129.5535199845109
 22
678.11732298116112
 13
0.0
 23
0.0
 14
50.0
 24
50.0
 15
100.0
 25
100.0
 16
0.0
 26
0.0
 36
1.0
 17
0.0
 27
0.0
 37
0.0
 40
2010.6341041571679
 41
1.58076923076923
 42
50.0
 43
0.0
 44
0.0
 50
0.0
 51
0.0
 71
     0
 72
  1000
 73
     1
 74
     0
 75
     0
 76
     0
 77
     0
 78
     0
  0
ENDTAB
  0
TABLE
  2
LTYPE
 70
     4
  0
LTYPE
  2
CONTINUOUS
 70
     0
  3
実線
 72
    65
 73
     0
 40
0.0
  0
LTYPE
  2
DASHDOT
 70
     0
  3
____ _ ____ _ ____ _ ____ _ ____ _ ____ _ ____
 72
    65
 73
     4
 40
5.5
 49
4.0
 49
-0.6
 49
0.3
 49
-0.6
  0
ENDTAB
  0
TABLE
  2
LAYER
 70
    12
  0
LAYER
  2
0
 70
     0
 62
     7
  6
CONTINUOUS
  0
LAYER
  2
SYMBOLLINE
 70
     0
 62
    15
  6
CONTINUOUS
  0
LAYER
  2
SIZE
 70
     0
 62
    30
  6
CONTINUOUS
  0
LAYER
  2
OUTLINE
 70
     0
 62
     3
  6
CONTINUOUS
  0
LAYER
  2
DETAIL
 70
     0
 62
     5
  6
CONTINUOUS
  0
LAYER
  2
BASIS
 70
     0
 62
     6
  6
DASHDOT
  0
LAYER
  2
NOTE
 70
     0
 62
     4
  6
CONTINUOUS
  0
LAYER
  2
ARRANGE
 70
     0
 62
     1
  6
CONTINUOUS
  0
LAYER
  2
FIX
 70
     0
 62
    11
  6
CONTINUOUS
  0
LAYER
  2
SERVICESPACE
 70
     0
 62
     2
  6
DASHDOT
  0
LAYER
  2
ETC
 70
     0
 62
    61
  6
CONTINUOUS
  0
LAYER
  2
DEFPOINTS
 70
     0
 62
     7
  6
CONTINUOUS
  0
ENDTAB
  0
TABLE
  2
STYLE
 70
     4
  0
STYLE
  2
STANDARD
 70
     0
 40
0.0
 41
0.9
 50
0.0
 71
     0
 42
64.0
  3
SIMPLEX
  4
BIGFONT
  0
STYLE
  2
ANNOTATIVE
 70
     0
 40
0.0
 41
1.0
 50
0.0
 71
     0
 42
0.2
  3
txt
  4

  0
STYLE
  2
NOTE
 70
     0
 40
0.0
 41
0.7
 50
0.0
 71
     0
 42
64.0
  3
SIMPLEX.shx
  4
BIGFONT.shx
  0
STYLE
  2
STANDARD1
 70
     0
 40
0.0
 41
1.0
 50
0.0
 71
     0
 42
64.0
  3
MONOTXT
  4
BIGFONT
  0
ENDTAB
  0
TABLE
  2
VIEW
 70
     1
  0
VIEW
  2
ALL
 70
     0
 40
9000.0
 10
241.50664699999999
 20
0.0
 41
12483.01
 11
0.0
 21
0.0
 31
1.0
 12
0.0
 22
0.0
 32
0.0
 42
50.0
 43
0.0
 44
0.0
 50
0.0
 71
     0
  0
ENDTAB
  0
TABLE
  2
UCS
 70
     0
  0
ENDTAB
  0
TABLE
  2
APPID
 70
     5
  0
APPID
  2
ACAD
 70
     0
  0
APPID
  2
ACADANNOTATIVE
 70
     0
  0
APPID
  2
ACAD_MLEADERVER
 70
     0
  0
APPID
  2
ACAD_EXEMPT_FROM_CAD_STANDARDS
 70
     0
  0
APPID
  2
ACAD_NAV_VCDISPLAY
 70
     0
  0
ENDTAB
  0
TABLE
  2
DIMSTYLE
 70
     3
  0
DIMSTYLE
  2
STANDARD
 70
     0
  3

  4

  5

  6

  7

 40
1.0
 41
0.18
 42
0.0625
 43
0.38
 44
0.18
 45
0.0
 46
0.0
 47
0.0
 48
0.0
140
0.18
141
0.09
142
0.0
143
25.399999999999999
144
1.0
145
0.0
146
1.0
147
0.09
 71
     0
 72
     0
 73
     1
 74
     1
 75
     0
 76
     0
 77
     0
 78
     0
170
     0
171
     2
172
     0
173
     0
174
     0
175
     0
176
     0
177
     0
178
     0
  0
DIMSTYLE
  2
ANNOTATIVE
 70
     0
  3

  4

  5

  6

  7

 40
1.0
 41
0.18
 42
0.0625
 43
0.38
 44
0.18
 45
0.0
 46
0.0
 47
0.0
 48
0.0
140
0.18
141
0.09
142
0.0
143
25.399999999999999
144
1.0
145
0.0
146
1.0
147
0.09
 71
     0
 72
     0
 73
     1
 74
     1
 75
     0
 76
     0
 77
     0
 78
     0
170
     0
171
     2
172
     0
173
     0
174
     0
175
     0
176
     0
177
     0
178
     0
  0
ENDTAB
  0
ENDSEC
  0
SECTION
  2
BLOCKS
  0
BLOCK
  8
0
  2
$MODEL_SPACE
 70
     0
 10
0.0
 20
0.0
 30
0.0
  3
$MODEL_SPACE
  1

  0
ENDBLK
  5
555
  8
0
  0
BLOCK
 67
     1
  8
0
  2
$PAPER_SPACE
 70
     0
 10
0.0
 20
0.0
 30
0.0
  3
$PAPER_SPACE
  1

  0
ENDBLK
  5
551
 67
     1
  8
0
  0
BLOCK
  8
0
  2
_SMALL
 70
     0
 10
0.0
 20
0.0
 30
0.0
  3
_SMALL
  1

  0
CIRCLE
  5
8D
  8
0
  6
CONTINUOUS
 62
     7
 10
0.0
 20
0.0
 30
0.0
 40
0.25
  0
ENDBLK
  5
8E
  8
0
  0
ENDSEC
  0
SECTION
  2
ENTITIES
  0
LINE
  5
8F
  8
DETAIL
  6
CONTINUOUS
 62
     5
 10
-611.99999915815181
 20
0.0
 30
0.0
 11
827.99999939490385
 21
0.0
 31
0.0
  0
LINE
  5
90
  8
DETAIL
  6
CONTINUOUS
 62
     5
 10
-592.99999965799634
 20
57.999998447819941
 30
0.0
 11
808.99999989476964
 21
57.999998447819941
 31
0.0
  0
LINE
  5
91
  8
DETAIL
  6
CONTINUOUS
 62
     5
 10
-611.99999915815181
 20
-1.99999997368286
 30
0.0
 11
827.99999939490385
 21
-1.99999997368286
 31
0.0
  0
LINE
  5
97
  8
NOTE
  6
CONTINUOUS
 62
     4
 10
820.99999957907335
 20
-0.0000000263062248
 30
0.0
 11
820.99999957907335
 21
19.999999447531081
 31
0.0
  0
LINE
  5
9B
  8
DETAIL
  6
CONTINUOUS
 62
     5
 10
827.99999939490385
 20
-1.99999997368286
 30
0.0
 11
827.99999939490385
 21
0.0
 31
0.0
  0
LINE
  5
9C
  8
DETAIL
  6
CONTINUOUS
 62
     5
 10
808.99999989476964
 20
0.0
 30
0.0
 11
808.99999989476964
 21
58.999998447819941
 31
0.0
  0
LINE
  5
9D
  8
NOTE
  6
CONTINUOUS
 62
     4
 10
-704.99999671147282
 20
-0.0000000263062248
 30
0.0
 11
-604.99999934229618
 21
-0.0000000263062248
 31
0.0
  0
LINE
  5
9E
  8
NOTE
  6
CONTINUOUS
 62
     4
 10
-704.99999671147282
 20
19.999999447531081
 30
0.0
 11
-604.99999934229618
 21
19.999999447531081
 31
0.0
  0
LINE
  5
9F
  8
NOTE
  6
CONTINUOUS
 62
     4
 10
-604.99999934229618
 20
-0.0000000263062248
 30
0.0
 11
-604.99999934229618
 21
19.999999447531081
 31
0.0
  0
LINE
  5
A0
  8
DETAIL
  6
CONTINUOUS
 62
     5
 10
-592.99999965799634
 20
0.0
 30
0.0
 11
-592.99999965799634
 21
58.999998447819941
 31
0.0
  0
LINE
  5
A1
  8
NOTE
  6
CONTINUOUS
 62
     4
 10
-623.33834449847438
 20
-0.0000000263062248
 30
0.0
 11
-643.3383439723201
 21
19.999999447531081
 31
0.0
  0
LINE
  5
A2
  8
NOTE
  6
CONTINUOUS
 62
     4
 10
-663.33834344614525
 20
-0.0000000263062248
 30
0.0
 11
-683.33834291997391
 21
19.999999447531081
 31
0.0
  0
LINE
  5
A3
  8
NOTE
  6
CONTINUOUS
 62
     4
 10
-628.33834436693905
 20
-0.0000000263062248
 30
0.0
 11
-648.33834384076295
 21
19.999999447531081
 31
0.0
  0
LINE
  5
A4
  8
NOTE
  6
CONTINUOUS
 62
     4
 10
-668.33834331461412
 20
-0.0000000263062248
 30
0.0
 11
-688.33834278844142
 21
19.999999447531081
 31
0.0
  0
LINE
  5
A5
  8
NOTE
  6
CONTINUOUS
 62
     4
 10
-633.33834423538553
 20
-0.0000000263062248
 30
0.0
 11
-653.33834370923296
 21
19.999999447531081
 31
0.0
  0
LINE
  5
A6
  8
NOTE
  6
CONTINUOUS
 62
     4
 10
-673.33834318306162
 20
-0.0000000263062248
 30
0.0
 11
-693.33834265690643
 21
19.999999447531081
 31
0.0
  0
LINE
  5
A7
  8
DETAIL
  6
CONTINUOUS
 62
     5
 10
-611.99999915815181
 20
-2.0
 30
0.0
 11
-611.99999915815181
 21
0.0
 31
0.0
  0
LINE
  5
A8
  8
DETAIL
  6
CONTINUOUS
 62
     5
 10
579.99999999999898
 20
139.9999999999998
 30
0.0
 11
-580.00000000000136
 21
139.9999999999998
 31
0.0
  0
LINE
  5
A9
  8
DETAIL
  6
CONTINUOUS
 62
     5
 10
579.99999999999898
 20
435.0
 30
0.0
 11
-580.00000000000136
 21
435.0
 31
0.0
  0
LINE
  5
AA
  8
DETAIL
  6
CONTINUOUS
 62
     5
 10
689.99999999999807
 20
172.0
 30
0.0
 11
579.99999999999898
 21
172.0
 31
0.0
  0
LINE
  5
AB
  8
DETAIL
  6
CONTINUOUS
 62
     5
 10
595.99999957907312
 20
421.99999999999812
 30
0.0
 11
689.99999999999807
 21
421.99999999999812
 31
0.0
  0
LINE
  5
AC
  8
DETAIL
  6
CONTINUOUS
 62
     5
 10
579.99999999999898
 20
407.00000039461679
 30
0.0
 11
685.99999721131269
 21
407.00000039461679
 31
0.0
  0
LINE
  5
AD
  8
DETAIL
  6
CONTINUOUS
 62
     5
 10
689.99999999999807
 20
172.0
 30
0.0
 11
689.99999999999807
 21
421.99999999999812
 31
0.0
  0
LINE
  5
AE
  8
DETAIL
  6
CONTINUOUS
 62
     5
 10
688.98659047796355
 20
410.00000031569652
 30
0.0
 11
685.98659055688586
 21
407.00000039461679
 31
0.0
  0
LINE
  5
AF
  8
DETAIL
  6
CONTINUOUS
 62
     5
 10
688.98659047796355
 20
410.00000031569652
 30
0.0
 11
688.98659047796355
 21
421.99999999999812
 31
0.0
  0
LINE
  5
B0
  8
DETAIL
  6
CONTINUOUS
 62
     5
 10
579.99999999999898
 20
421.99999999999812
 30
0.0
 11
593.69999963957696
 21
421.99999999999812
 31
0.0
  0
ARC
  5
B1
  8
DETAIL
  6
CONTINUOUS
 62
     5
 10
591.69999969219305
 20
426.30000022888993
 30
0.0
 40
4.299999886874275
 50
0.0
 51
90.0
  0
LINE
  5
B2
  8
DETAIL
  6
CONTINUOUS
 62
     5
 10
595.99999957907312
 20
426.30000022888993
 30
0.0
 11
595.99999957907312
 21
418.6000004314609
 31
0.0
  0
LINE
  5
B3
  8
DETAIL
  6
CONTINUOUS
 62
     5
 10
579.99999999999898
 20
430.60000011576062
 30
0.0
 11
591.69999969219305
 21
430.60000011576062
 31
0.0
  0
LINE
  5
B4
  8
DETAIL
  6
CONTINUOUS
 62
     5
 10
579.99999999999898
 20
428.30000017626651
 30
0.0
 11
591.69999969219305
 21
428.30000017626651
 31
0.0
  0
ARC
  5
B5
  8
DETAIL
  6
CONTINUOUS
 62
     5
 10
591.69999969219305
 20
426.30000022888993
 30
0.0
 40
1.9999999473835071
 50
0.0
 51
90.0
  0
LINE
  5
B6
  8
DETAIL
  6
CONTINUOUS
 62
     5
 10
593.69999963957696
 20
426.30000022888993
 30
0.0
 11
593.69999963957696
 21
418.6000004314609
 31
0.0
  0
LINE
  5
B7
  8
DETAIL
  6
CONTINUOUS
 62
     5
 10
593.69999963957696
 20
418.6000004314609
 30
0.0
 11
595.99999957907312
 21
418.6000004314609
 31
0.0
  0
ARC
  5
B8
  8
DETAIL
  6
CONTINUOUS
 62
     5
 10
591.69999969219305
 20
426.30000022888993
 30
0.0
 40
4.2999998868756331
 50
0.0
 51
90.0
  0
LINE
  5
B9
  8
DETAIL
  6
CONTINUOUS
 62
     5
 10
595.99999957907312
 20
426.30000022888993
 30
0.0
 11
595.99999957907312
 21
418.6000004314609
 31
0.0
  0
ARC
  5
BA
  8
DETAIL
  6
CONTINUOUS
 62
     5
 10
591.69999969219305
 20
426.30000022888993
 30
0.0
 40
1.9999999473835071
 50
0.0
 51
90.0
  0
LINE
  5
BB
  8
DETAIL
  6
CONTINUOUS
 62
     5
 10
593.69999963957696
 20
426.30000022888993
 30
0.0
 11
593.69999963957696
 21
418.6000004314609
 31
0.0
  0
LINE
  5
BC
  8
DETAIL
  6
CONTINUOUS
 62
     5
 10
593.69999963957696
 20
418.6000004314609
 30
0.0
 11
595.99999957907312
 21
418.6000004314609
 31
0.0
  0
LINE
  5
BD
  8
DETAIL
  6
CONTINUOUS
 62
     5
 10
579.99999999999898
 20
430.60000011576062
 30
0.0
 11
591.69999969219305
 21
430.60000011576062
 31
0.0
  0
LINE
  5
BE
  8
DETAIL
  6
CONTINUOUS
 62
     5
 10
579.99999999999898
 20
428.30000017627572
 30
0.0
 11
591.69999969219305
 21
428.30000017627572
 31
0.0
  0
LINE
  5
BF
  8
DETAIL
  6
CONTINUOUS
 62
     5
 10
579.99999999999898
 20
139.9999999999998
 30
0.0
 11
579.99999999999898
 21
435.0
 31
0.0
  0
LINE
  5
C0
  8
DETAIL
  6
CONTINUOUS
 62
     5
 10
-580.00000000000136
 20
435.0
 30
0.0
 11
-580.00000000000136
 21
139.9999999999998
 31
0.0
  0
LINE
  5
C1
  8
SIZE
  6
CONTINUOUS
 62
    30
 10
-580.00000000000136
 20
444.99999999999972
 30
0.0
 11
-580.00000000000136
 21
870.21299280654966
 31
0.0
  0
LINE
  5
C2
  8
SIZE
  6
CONTINUOUS
 62
    30
 10
579.99999999999898
 20
444.99999999999972
 30
0.0
 11
579.99999999999898
 21
870.21299280654966
 31
0.0
  0
LINE
  5
C3
  8
SIZE
  6
CONTINUOUS
 62
    30
 10
-580.00000000000136
 20
850.21299280654955
 30
0.0
 11
579.99999999999898
 21
850.21299280654955
 31
0.0
  0
CIRCLE
  5
C4
  8
SIZE
  6
CONTINUOUS
 62
    30
 10
-580.00000000000136
 20
850.21299280654955
 30
0.0
 40
7.5
  0
CIRCLE
  5
C5
  8
SIZE
  6
CONTINUOUS
 62
    30
 10
579.99999999999898
 20
850.21299280654955
 30
0.0
 40
7.5
  0
TEXT
  5
C6
  8
SIZE
  6
CONTINUOUS
 62
    30
 10
-70.714285714287058
 20
865.21299280654955
 30
0.0
 40
50.0
  1
1160
 41
0.9
 72
     1
 11
-0.0000000000013642
 21
865.21299280654955
 31
0.0
  0
POINT
  5
C7
  8
DEFPOINTS
  6
CONTINUOUS
 62
     7
 10
-580.00000000000136
 20
435.0
 30
0.0
  0
POINT
  5
C8
  8
DEFPOINTS
  6
CONTINUOUS
 62
     7
 10
579.99999999999898
 20
435.0
 30
0.0
  0
POINT
  5
C9
  8
DEFPOINTS
  6
CONTINUOUS
 62
     7
 10
579.99999999999898
 20
850.21299280654955
 30
0.0
  0
LINE
  5
CA
  8
SIZE
  6
CONTINUOUS
 62
    30
 10
579.99999999999898
 20
444.99999999999972
 30
0.0
 11
579.99999999999898
 21
870.21299280654966
 31
0.0
  0
LINE
  5
CB
  8
SIZE
  6
CONTINUOUS
 62
    30
 10
595.99999957907312
 20
436.30000022888999
 30
0.0
 11
595.99999957907312
 21
870.21299280654966
 31
0.0
  0
LINE
  5
CC
  8
SIZE
  6
CONTINUOUS
 62
    30
 10
579.99999999999898
 20
850.21299280654955
 30
0.0
 11
549.9999999999992
 21
850.21299280654955
 31
0.0
  0
LINE
  5
CD
  8
SIZE
  6
CONTINUOUS
 62
    30
 10
595.99999957907312
 20
850.21299280654955
 30
0.0
 11
748.14285672193023
 21
850.21299280654955
 31
0.0
  0
LINE
  5
CE
  8
SIZE
  6
CONTINUOUS
 62
    30
 10
579.99999999999898
 20
850.21299280654955
 30
0.0
 11
595.99999957907312
 21
850.21299280654955
 31
0.0
  0
CIRCLE
  5
CF
  8
SIZE
  6
CONTINUOUS
 62
    30
 10
579.99999999999898
 20
850.21299280654955
 30
0.0
 40
7.5
  0
CIRCLE
  5
D0
  8
SIZE
  6
CONTINUOUS
 62
    30
 10
595.99999957907312
 20
850.21299280654955
 30
0.0
 40
7.5
  0
TEXT
  5
D1
  8
SIZE
  6
CONTINUOUS
 62
    30
 10
670.99999957907301
 20
865.21299280654955
 30
0.0
 40
50.0
  1
16
 41
0.9
 72
     1
 11
702.07142815050145
 21
865.21299280654955
 31
0.0
  0
POINT
  5
D2
  8
DEFPOINTS
  6
CONTINUOUS
 62
     7
 10
579.99999999999898
 20
435.0
 30
0.0
  0
POINT
  5
D3
  8
DEFPOINTS
  6
CONTINUOUS
 62
     7
 10
595.99999957907312
 20
426.30000022888993
 30
0.0
  0
POINT
  5
D4
  8
DEFPOINTS
  6
CONTINUOUS
 62
     7
 10
595.99999957907312
 20
850.21299280654955
 30
0.0
  0
ARC
  5
D5
  8
DETAIL
  6
CONTINUOUS
 62
     5
 10
-591.69999969219305
 20
426.30000022888993
 30
0.0
 40
4.299999886874275
 50
90.0
 51
180.0
  0
LINE
  5
D6
  8
DETAIL
  6
CONTINUOUS
 62
     5
 10
-595.99999957907312
 20
426.30000022888993
 30
0.0
 11
-595.99999957907312
 21
418.6000004314609
 31
0.0
  0
LINE
  5
D7
  8
DETAIL
  6
CONTINUOUS
 62
     5
 10
-580.00000000000136
 20
430.60000011576062
 30
0.0
 11
-591.69999969219305
 21
430.60000011576062
 31
0.0
  0
LINE
  5
D8
  8
DETAIL
  6
CONTINUOUS
 62
     5
 10
-580.00000000000136
 20
428.30000017626651
 30
0.0
 11
-591.69999969219305
 21
428.30000017626651
 31
0.0
  0
ARC
  5
D9
  8
DETAIL
  6
CONTINUOUS
 62
     5
 10
-591.69999969219305
 20
426.30000022888993
 30
0.0
 40
1.9999999473835071
 50
90.0
 51
180.0
  0
LINE
  5
DA
  8
DETAIL
  6
CONTINUOUS
 62
     5
 10
-593.69999963957696
 20
426.30000022888993
 30
0.0
 11
-593.69999963957696
 21
418.6000004314609
 31
0.0
  0
LINE
  5
DB
  8
DETAIL
  6
CONTINUOUS
 62
     5
 10
-593.69999963957696
 20
418.6000004314609
 30
0.0
 11
-595.99999957907312
 21
418.6000004314609
 31
0.0
  0
ARC
  5
DC
  8
DETAIL
  6
CONTINUOUS
 62
     5
 10
-591.69999969219305
 20
426.30000022888993
 30
0.0
 40
4.2999998868756331
 50
90.0
 51
180.0
  0
LINE
  5
DD
  8
DETAIL
  6
CONTINUOUS
 62
     5
 10
-595.99999957907312
 20
426.30000022888993
 30
0.0
 11
-595.99999957907312
 21
418.6000004314609
 31
0.0
  0
ARC
  5
DE
  8
DETAIL
  6
CONTINUOUS
 62
     5
 10
-591.69999969219305
 20
426.30000022888993
 30
0.0
 40
1.9999999473835071
 50
90.0
 51
180.0
  0
LINE
  5
DF
  8
DETAIL
  6
CONTINUOUS
 62
     5
 10
-593.69999963957696
 20
426.30000022888993
 30
0.0
 11
-593.69999963957696
 21
418.6000004314609
 31
0.0
  0
LINE
  5
E0
  8
DETAIL
  6
CONTINUOUS
 62
     5
 10
-593.69999963957696
 20
418.6000004314609
 30
0.0
 11
-595.99999957907312
 21
418.6000004314609
 31
0.0
  0
LINE
  5
E1
  8
DETAIL
  6
CONTINUOUS
 62
     5
 10
-580.00000000000136
 20
430.60000011576062
 30
0.0
 11
-591.69999969219305
 21
430.60000011576062
 31
0.0
  0
LINE
  5
E2
  8
DETAIL
  6
CONTINUOUS
 62
     5
 10
-580.00000000000136
 20
428.30000017627572
 30
0.0
 11
-591.69999969219305
 21
428.30000017627572
 31
0.0
  0
LINE
  5
E3
  8
SIZE
  6
CONTINUOUS
 62
    30
 10
-580.00000000000136
 20
444.99999999999972
 30
0.0
 11
-580.00000000000136
 21
870.21299280654966
 31
0.0
  0
LINE
  5
E4
  8
SIZE
  6
CONTINUOUS
 62
    30
 10
-595.9999995790655
 20
436.30000022888999
 30
0.0
 11
-595.9999995790655
 21
870.21299280654966
 31
0.0
  0
LINE
  5
E5
  8
SIZE
  6
CONTINUOUS
 62
    30
 10
-580.00000000000136
 20
850.21299280654955
 30
0.0
 11
-550.00000000000148
 21
850.21299280654955
 31
0.0
  0
LINE
  5
E6
  8
SIZE
  6
CONTINUOUS
 62
    30
 10
-595.9999995790655
 20
850.21299280654955
 30
0.0
 11
-748.14285672192295
 21
850.21299280654955
 31
0.0
  0
LINE
  5
E7
  8
SIZE
  6
CONTINUOUS
 62
    30
 10
-580.00000000000136
 20
850.21299280654955
 30
0.0
 11
-595.9999995790655
 21
850.21299280654955
 31
0.0
  0
CIRCLE
  5
E8
  8
SIZE
  6
CONTINUOUS
 62
    30
 10
-580.00000000000136
 20
850.21299280654955
 30
0.0
 40
7.5
  0
CIRCLE
  5
E9
  8
SIZE
  6
CONTINUOUS
 62
    30
 10
-595.9999995790655
 20
850.21299280654955
 30
0.0
 40
7.5
  0
TEXT
  5
EA
  8
SIZE
  6
CONTINUOUS
 62
    30
 10
-733.14285672192295
 20
865.21299280654955
 30
0.0
 40
50.0
  1
16
 41
0.9
 72
     1
 11
-702.07142815049428
 21
865.21299280654955
 31
0.0
  0
POINT
  5
EB
  8
DEFPOINTS
  6
CONTINUOUS
 62
     7
 10
-580.00000000000136
 20
435.0
 30
0.0
  0
POINT
  5
EC
  8
DEFPOINTS
  6
CONTINUOUS
 62
     7
 10
-595.9999995790655
 20
426.30000022888993
 30
0.0
  0
POINT
  5
ED
  8
DEFPOINTS
  6
CONTINUOUS
 62
     7
 10
-595.9999995790655
 20
850.21299280654955
 30
0.0
  0
POINT
  5
F4
  8
DEFPOINTS
  6
CONTINUOUS
 62
     7
 10
-595.99999957907312
 20
426.30000022888993
 30
0.0
  0
POINT
  5
F5
  8
DEFPOINTS
  6
CONTINUOUS
 62
     7
 10
595.99999957907482
 20
426.30000022888993
 30
0.0
  0
LINE
  5
F7
  8
NOTE
  6
CONTINUOUS
 62
     4
 10
622.00000102602326
 20
241.39501804206699
 30
0.0
 11
622.00000102602326
 21
284.60498195793468
 31
0.0
  0
LINE
  5
F8
  8
NOTE
  6
CONTINUOUS
 62
     4
 10
600.39501906809664
 20
262.99999999999989
 30
0.0
 11
643.60498298396556
 21
262.99999999999989
 31
0.0
  0
LINE
  5
F9
  8
NOTE
  6
CONTINUOUS
 62
     4
 10
631.99999999999795
 20
213.39501804206691
 30
0.0
 11
631.99999999999795
 21
256.60498195793463
 31
0.0
  0
LINE
  5
FA
  8
NOTE
  6
CONTINUOUS
 62
     4
 10
610.39501804207532
 20
235.0
 30
0.0
 11
653.60498195794025
 21
235.0
 31
0.0
  0
LINE
  5
FB
  8
NOTE
  6
CONTINUOUS
 62
     4
 10
573.00003093848306
 20
408.99501815782781
 30
0.0
 11
573.00003093848306
 21
452.2049820736957
 31
0.0
  0
LINE
  5
FC
  8
NOTE
  6
CONTINUOUS
 62
     4
 10
551.39504898055986
 20
430.60000011576062
 30
0.0
 11
594.60501289642525
 21
430.60000011576062
 31
0.0
  0
LINE
  5
FD
  8
NOTE
  6
CONTINUOUS
 62
     4
 10
-572.99999957908403
 20
408.99501815782781
 30
0.0
 11
-572.99999957908403
 21
452.2049820736957
 31
0.0
  0
LINE
  5
FE
  8
NOTE
  6
CONTINUOUS
 62
     4
 10
-594.60498153700792
 20
430.60000011576062
 30
0.0
 11
-551.39501762114276
 21
430.60000011576062
 31
0.0
  0
CIRCLE
  5
FF
  8
FIX
  6
CONTINUOUS
 62
    11
 10
-572.99999957908403
 20
430.60000011576062
 30
0.0
 40
15.469521245178219
  0
CIRCLE
  5
100
  8
FIX
  6
CONTINUOUS
 62
    11
 10
573.0000309384759
 20
430.60000011576062
 30
0.0
 40
15.469521245178219
  0
LINE
  5
101
  8
SIZE
  6
CONTINUOUS
 62
    30
 10
-572.99999957908403
 20
462.20498207369582
 30
0.0
 11
-572.99999957908403
 21
963.01767260737859
 31
0.0
  0
LINE
  5
102
  8
SIZE
  6
CONTINUOUS
 62
    30
 10
-595.99999957907312
 20
436.30000022888999
 30
0.0
 11
-595.99999957907312
 21
963.01767260737859
 31
0.0
  0
LINE
  5
103
  8
SIZE
  6
CONTINUOUS
 62
    30
 10
-572.99999957908403
 20
943.0176726073787
 30
0.0
 11
-542.99999957908403
 21
943.0176726073787
 31
0.0
  0
LINE
  5
104
  8
SIZE
  6
CONTINUOUS
 62
    30
 10
-595.99999957907312
 20
943.0176726073787
 30
0.0
 11
-758.85714243621601
 21
943.0176726073787
 31
0.0
  0
LINE
  5
105
  8
SIZE
  6
CONTINUOUS
 62
    30
 10
-572.99999957908403
 20
943.0176726073787
 30
0.0
 11
-595.99999957907312
 21
943.0176726073787
 31
0.0
  0
CIRCLE
  5
106
  8
SIZE
  6
CONTINUOUS
 62
    30
 10
-572.99999957908403
 20
943.0176726073787
 30
0.0
 40
7.5
  0
CIRCLE
  5
107
  8
SIZE
  6
CONTINUOUS
 62
    30
 10
-595.99999957907312
 20
943.0176726073787
 30
0.0
 40
7.5
  0
TEXT
  5
108
  8
SIZE
  6
CONTINUOUS
 62
    30
 10
-743.8571424362159
 20
958.0176726073787
 30
0.0
 40
50.0
  1
23
 41
0.9
 72
     1
 11
-707.42857100764445
 21
958.0176726073787
 31
0.0
  0
POINT
  5
109
  8
DEFPOINTS
  6
CONTINUOUS
 62
     7
 10
-572.99999957908403
 20
452.2049820736957
 30
0.0
  0
POINT
  5
10A
  8
DEFPOINTS
  6
CONTINUOUS
 62
     7
 10
-595.99999957907312
 20
426.30000022888993
 30
0.0
  0
POINT
  5
10B
  8
DEFPOINTS
  6
CONTINUOUS
 62
     7
 10
-595.99999957907312
 20
943.0176726073787
 30
0.0
  0
LINE
  5
10C
  8
SIZE
  6
CONTINUOUS
 62
    30
 10
-572.99999957908312
 20
462.20498207369582
 30
0.0
 11
-572.99999957908312
 21
963.01767260737859
 31
0.0
  0
LINE
  5
10D
  8
SIZE
  6
CONTINUOUS
 62
    30
 10
573.00003093848306
 20
462.20498207369582
 30
0.0
 11
573.00003093848306
 21
963.01767260737859
 31
0.0
  0
LINE
  5
10E
  8
SIZE
  6
CONTINUOUS
 62
    30
 10
-572.99999957908312
 20
943.0176726073787
 30
0.0
 11
573.00003093848306
 21
943.0176726073787
 31
0.0
  0
CIRCLE
  5
10F
  8
SIZE
  6
CONTINUOUS
 62
    30
 10
-572.99999957908312
 20
943.0176726073787
 30
0.0
 40
7.5
  0
CIRCLE
  5
110
  8
SIZE
  6
CONTINUOUS
 62
    30
 10
573.00003093848306
 20
943.0176726073787
 30
0.0
 40
7.5
  0
TEXT
  5
111
  8
SIZE
  6
CONTINUOUS
 62
    30
 10
-329.14284146315481
 20
958.0176726073787
 30
0.0
 40
50.0
  1
1146（吊りボルトピッチ）
 41
0.9
 72
     1
 11
0.000015679702301
 21
958.0176726073787
 31
0.0
  0
POINT
  5
112
  8
DEFPOINTS
  6
CONTINUOUS
 62
     7
 10
-572.99999957908312
 20
452.2049820736957
 30
0.0
  0
POINT
  5
113
  8
DEFPOINTS
  6
CONTINUOUS
 62
     7
 10
573.00003093848306
 20
452.2049820736957
 30
0.0
  0
POINT
  5
114
  8
DEFPOINTS
  6
CONTINUOUS
 62
     7
 10
573.00003093848306
 20
943.0176726073787
 30
0.0
  0
LINE
  5
115
  8
SIZE
  6
CONTINUOUS
 62
    30
 10
573.00003093848306
 20
462.20498207369582
 30
0.0
 11
573.00003093848306
 21
963.01767260737859
 31
0.0
  0
LINE
  5
116
  8
SIZE
  6
CONTINUOUS
 62
    30
 10
595.99999957907312
 20
436.30000022888999
 30
0.0
 11
595.99999957907312
 21
963.01767260737859
 31
0.0
  0
LINE
  5
117
  8
SIZE
  6
CONTINUOUS
 62
    30
 10
573.00003093848306
 20
943.0176726073787
 30
0.0
 11
543.00003093848318
 21
943.0176726073787
 31
0.0
  0
LINE
  5
118
  8
SIZE
  6
CONTINUOUS
 62
    30
 10
595.99999957907312
 20
943.0176726073787
 30
0.0
 11
758.85714243621601
 21
943.0176726073787
 31
0.0
  0
LINE
  5
119
  8
SIZE
  6
CONTINUOUS
 62
    30
 10
573.00003093848306
 20
943.0176726073787
 30
0.0
 11
595.99999957907312
 21
943.0176726073787
 31
0.0
  0
CIRCLE
  5
11A
  8
SIZE
  6
CONTINUOUS
 62
    30
 10
573.00003093848306
 20
943.0176726073787
 30
0.0
 40
7.5
  0
CIRCLE
  5
11B
  8
SIZE
  6
CONTINUOUS
 62
    30
 10
595.99999957907312
 20
943.0176726073787
 30
0.0
 40
7.5
  0
TEXT
  5
11C
  8
SIZE
  6
CONTINUOUS
 62
    30
 10
670.99999957907301
 20
958.0176726073787
 30
0.0
 40
50.0
  1
23
 41
0.9
 72
     1
 11
707.42857100764445
 21
958.0176726073787
 31
0.0
  0
POINT
  5
11D
  8
DEFPOINTS
  6
CONTINUOUS
 62
     7
 10
573.00003093848306
 20
452.2049820736957
 30
0.0
  0
POINT
  5
11E
  8
DEFPOINTS
  6
CONTINUOUS
 62
     7
 10
595.99999957907312
 20
426.30000022888993
 30
0.0
  0
POINT
  5
11F
  8
DEFPOINTS
  6
CONTINUOUS
 62
     7
 10
595.99999957907312
 20
943.0176726073787
 30
0.0
  0
POINT
  5
126
  8
DEFPOINTS
  6
CONTINUOUS
 62
     7
 10
-580.00000000000136
 20
435.0
 30
0.0
  0
LINE
  5
129
  8
SIZE
  6
CONTINUOUS
 62
    30
 10
-611.99999915815181
 20
-10.99999997368286
 30
0.0
 11
-611.99999915815181
 21
-318.98521551881453
 31
0.0
  0
LINE
  5
12A
  8
SIZE
  6
CONTINUOUS
 62
    30
 10
827.99999939490385
 20
-10.99999997368286
 30
0.0
 11
827.99999939490385
 21
-318.98521551881453
 31
0.0
  0
LINE
  5
12B
  8
SIZE
  6
CONTINUOUS
 62
    30
 10
-611.99999915815181
 20
-298.98521551881453
 30
0.0
 11
827.99999939490385
 21
-298.98521551881453
 31
0.0
  0
CIRCLE
  5
12C
  8
SIZE
  6
CONTINUOUS
 62
    30
 10
-611.99999915815181
 20
-298.98521551881453
 30
0.0
 40
7.5
  0
CIRCLE
  5
12D
  8
SIZE
  6
CONTINUOUS
 62
    30
 10
827.99999939490385
 20
-298.98521551881453
 30
0.0
 40
7.5
  0
TEXT
  5
12E
  8
SIZE
  6
CONTINUOUS
 62
    30
 10
33.000000118376221
 20
-283.98521551881453
 30
0.0
 40
50.0
  1
1440
 41
0.9
 72
     1
 11
108.00000011837621
 21
-283.98521551881453
 31
0.0
  0
POINT
  5
130
  8
DEFPOINTS
  6
CONTINUOUS
 62
     7
 10
827.99999939490385
 20
-1.99999997368286
 30
0.0
  0
POINT
  5
131
  8
DEFPOINTS
  6
CONTINUOUS
 62
     7
 10
827.99999939490385
 20
-298.98521551881453
 30
0.0
  0
LINE
  5
132
  8
SIZE
  6
CONTINUOUS
 62
    30
 10
820.99999957907335
 20
-9.0000000263062248
 30
0.0
 11
820.99999957907335
 21
-226.95307779772139
 31
0.0
  0
LINE
  5
133
  8
SIZE
  6
CONTINUOUS
 62
    30
 10
827.99999939490385
 20
-10.99999997368286
 30
0.0
 11
827.99999939490385
 21
-226.95307779772139
 31
0.0
  0
LINE
  5
134
  8
SIZE
  6
CONTINUOUS
 62
    30
 10
820.99999957907335
 20
-206.95307779772139
 30
0.0
 11
790.99999957907323
 21
-206.95307779772139
 31
0.0
  0
LINE
  5
135
  8
SIZE
  6
CONTINUOUS
 62
    30
 10
827.99999939490385
 20
-206.95307779772139
 30
0.0
 11
947.99999939490385
 21
-206.95307779772139
 31
0.0
  0
LINE
  5
136
  8
SIZE
  6
CONTINUOUS
 62
    30
 10
820.99999957907335
 20
-206.95307779772139
 30
0.0
 11
827.99999939490385
 21
-206.95307779772139
 31
0.0
  0
CIRCLE
  5
137
  8
SIZE
  6
CONTINUOUS
 62
    30
 10
820.99999957907335
 20
-206.95307779772139
 30
0.0
 40
7.5
  0
CIRCLE
  5
138
  8
SIZE
  6
CONTINUOUS
 62
    30
 10
827.99999939490385
 20
-206.95307779772139
 30
0.0
 40
7.5
  0
TEXT
  5
139
  8
SIZE
  6
CONTINUOUS
 62
    30
 10
902.99999939490385
 20
-191.95307779772131
 30
0.0
 40
50.0
  1
7
 41
0.9
 72
     1
 11
917.99999939490385
 21
-191.95307779772131
 31
0.0
  0
POINT
  5
13A
  8
DEFPOINTS
  6
CONTINUOUS
 62
     7
 10
820.99999957907335
 20
-0.0000000263062248
 30
0.0
  0
POINT
  5
13B
  8
DEFPOINTS
  6
CONTINUOUS
 62
     7
 10
827.99999939490385
 20
-1.99999997368286
 30
0.0
  0
POINT
  5
13C
  8
DEFPOINTS
  6
CONTINUOUS
 62
     7
 10
827.99999939490385
 20
-206.95307779772139
 30
0.0
  0
LINE
  5
13D
  8
SIZE
  6
CONTINUOUS
 62
    30
 10
-604.99999934229618
 20
-9.0000000263080437
 30
0.0
 11
-604.99999934229618
 21
-226.95307779772139
 31
0.0
  0
LINE
  5
13E
  8
SIZE
  6
CONTINUOUS
 62
    30
 10
-611.99999915815181
 20
-10.99999997368286
 30
0.0
 11
-611.99999915815181
 21
-226.95307779772139
 31
0.0
  0
LINE
  5
13F
  8
SIZE
  6
CONTINUOUS
 62
    30
 10
-604.99999934229618
 20
-206.95307779772139
 30
0.0
 11
-574.99999934229606
 21
-206.95307779772139
 31
0.0
  0
LINE
  5
140
  8
SIZE
  6
CONTINUOUS
 62
    30
 10
-611.99999915815181
 20
-206.95307779772139
 30
0.0
 11
-731.9999991581517
 21
-206.95307779772139
 31
0.0
  0
LINE
  5
141
  8
SIZE
  6
CONTINUOUS
 62
    30
 10
-604.99999934229618
 20
-206.95307779772139
 30
0.0
 11
-611.99999915815181
 21
-206.95307779772139
 31
0.0
  0
CIRCLE
  5
142
  8
SIZE
  6
CONTINUOUS
 62
    30
 10
-604.99999934229618
 20
-206.95307779772139
 30
0.0
 40
7.5
  0
CIRCLE
  5
143
  8
SIZE
  6
CONTINUOUS
 62
    30
 10
-611.99999915815181
 20
-206.95307779772139
 30
0.0
 40
7.5
  0
TEXT
  5
144
  8
SIZE
  6
CONTINUOUS
 62
    30
 10
-716.99999915815158
 20
-191.95307779772131
 30
0.0
 40
50.0
  1
7
 41
0.9
 72
     1
 11
-701.99999915815147
 21
-191.95307779772131
 31
0.0
  0
POINT
  5
145
  8
DEFPOINTS
  6
CONTINUOUS
 62
     7
 10
-604.99999934229618
 20
-0.0000000263080441
 30
0.0
  0
POINT
  5
147
  8
DEFPOINTS
  6
CONTINUOUS
 62
     7
 10
-611.99999915815181
 20
-206.95307779772139
 30
0.0
  0
POINT
  5
150
  8
DEFPOINTS
  6
CONTINUOUS
 62
     7
 10
-704.99999671147282
 20
-0.0000000263062248
 30
0.0
  0
POINT
  5
15B
  8
DEFPOINTS
  6
CONTINUOUS
 62
     7
 10
-704.99999671147282
 20
-0.0000000263062248
 30
0.0
  0
POINT
  5
15C
  8
DEFPOINTS
  6
CONTINUOUS
 62
     7
 10
-592.99999965799634
 20
58.999998447819941
 30
0.0
  0
LINE
  5
168
  8
SIZE
  6
CONTINUOUS
 62
    30
 10
-604.99999934229618
 20
-9.0000000263062248
 30
0.0
 11
-604.99999934229618
 21
-226.95307779772139
 31
0.0
  0
LINE
  5
169
  8
SIZE
  6
CONTINUOUS
 62
    30
 10
820.99999957907335
 20
-9.0000000263062248
 30
0.0
 11
820.99999957907335
 21
-226.95307779772139
 31
0.0
  0
LINE
  5
16A
  8
SIZE
  6
CONTINUOUS
 62
    30
 10
-604.99999934229618
 20
-206.95307779772139
 30
0.0
 11
820.99999957907335
 21
-206.95307779772139
 31
0.0
  0
CIRCLE
  5
16B
  8
SIZE
  6
CONTINUOUS
 62
    30
 10
-604.99999934229618
 20
-206.95307779772139
 30
0.0
 40
7.5
  0
CIRCLE
  5
16C
  8
SIZE
  6
CONTINUOUS
 62
    30
 10
820.99999957907335
 20
-206.95307779772139
 30
0.0
 40
7.5
  0
TEXT
  5
16D
  8
SIZE
  6
CONTINUOUS
 62
    30
 10
-171.428571310183
 20
-191.95307779772131
 30
0.0
 40
50.0
  1
1426（天井開口寸法）
 41
0.9
 72
     1
 11
108.0000001183884
 21
-191.95307779772131
 31
0.0
  0
POINT
  5
16E
  8
DEFPOINTS
  6
CONTINUOUS
 62
     7
 10
-604.99999934229618
 20
-0.0000000263062248
 30
0.0
  0
POINT
  5
16F
  8
DEFPOINTS
  6
CONTINUOUS
 62
     7
 10
820.99999957907335
 20
-0.0000000263062248
 30
0.0
  0
POINT
  5
170
  8
DEFPOINTS
  6
CONTINUOUS
 62
     7
 10
820.99999957907335
 20
-206.95307779772139
 30
0.0
  0
LINE
  5
171
  8
SIZE
  6
CONTINUOUS
 62
    30
 10
820.99999957907335
 20
-9.0000000263062248
 30
0.0
 11
820.99999957907335
 21
-126.58078045965701
 31
0.0
  0
LINE
  5
172
  8
SIZE
  6
CONTINUOUS
 62
    30
 10
595.99999957907312
 20
408.6000004314609
 30
0.0
 11
595.99999957907312
 21
-123.580780485974
 31
0.0
  0
LINE
  5
173
  8
SIZE
  6
CONTINUOUS
 62
    30
 10
820.99999957907335
 20
-106.58078045965691
 30
0.0
 11
595.99999957907312
 21
-106.58078045965691
 31
0.0
  0
CIRCLE
  5
174
  8
SIZE
  6
CONTINUOUS
 62
    30
 10
820.99999957907335
 20
-106.58078045965691
 30
0.0
 40
7.5
  0
CIRCLE
  5
175
  8
SIZE
  6
CONTINUOUS
 62
    30
 10
595.99999957907312
 20
-106.58078045965691
 30
0.0
 40
7.5
  0
TEXT
  5
176
  8
SIZE
  6
CONTINUOUS
 62
    30
 10
650.64285672193034
 20
-91.580780459657007
 30
0.0
 40
50.0
  1
225
 41
0.9
 72
     1
 11
708.49999957907323
 21
-91.580780459657007
 31
0.0
  0
POINT
  5
177
  8
DEFPOINTS
  6
CONTINUOUS
 62
     7
 10
820.99999957907335
 20
-0.0000000263062248
 30
0.0
  0
POINT
  5
178
  8
DEFPOINTS
  6
CONTINUOUS
 62
     7
 10
595.99999957907312
 20
418.6000004314609
 30
0.0
  0
POINT
  5
179
  8
DEFPOINTS
  6
CONTINUOUS
 62
     7
 10
595.99999957907312
 20
-106.58078045965691
 30
0.0
  0
LINE
  5
17A
  8
SIZE
  6
CONTINUOUS
 62
    30
 10
-595.99999957907312
 20
408.6000004314609
 30
0.0
 11
-595.99999957907312
 21
-123.580780485974
 31
0.0
  0
LINE
  5
17B
  8
SIZE
  6
CONTINUOUS
 62
    30
 10
-604.99999934229618
 20
-9.0000000263062248
 30
0.0
 11
-604.99999934229618
 21
-126.58078045965701
 31
0.0
  0
LINE
  5
17C
  8
SIZE
  6
CONTINUOUS
 62
    30
 10
-604.99999934229618
 20
-106.58078045965691
 30
0.0
 11
-634.99999934229618
 21
-106.58078045965691
 31
0.0
  0
LINE
  5
17D
  8
SIZE
  6
CONTINUOUS
 62
    30
 10
-595.99999957907312
 20
-106.58078045965691
 30
0.0
 11
-478.14285672192977
 21
-106.58078045965691
 31
0.0
  0
LINE
  5
17E
  8
SIZE
  6
CONTINUOUS
 62
    30
 10
-604.99999934229618
 20
-106.58078045965691
 30
0.0
 11
-595.99999957907312
 21
-106.58078045965691
 31
0.0
  0
CIRCLE
  5
17F
  8
SIZE
  6
CONTINUOUS
 62
    30
 10
-604.99999934229618
 20
-106.58078045965691
 30
0.0
 40
7.5
  0
CIRCLE
  5
180
  8
SIZE
  6
CONTINUOUS
 62
    30
 10
-595.99999957907312
 20
-106.58078045965691
 30
0.0
 40
7.5
  0
TEXT
  5
181
  8
SIZE
  6
CONTINUOUS
 62
    30
 10
-520.99999957907278
 20
-91.580780459657007
 30
0.0
 40
50.0
  1
9
 41
0.9
 72
     1
 11
-507.0714281505015
 21
-91.580780459657007
 31
0.0
  0
POINT
  5
182
  8
DEFPOINTS
  6
CONTINUOUS
 62
     7
 10
-595.99999957907312
 20
418.6000004314609
 30
0.0
  0
POINT
  5
183
  8
DEFPOINTS
  6
CONTINUOUS
 62
     7
 10
-604.99999934229618
 20
-0.0000000263062248
 30
0.0
  0
POINT
  5
184
  8
DEFPOINTS
  6
CONTINUOUS
 62
     7
 10
-604.99999934229618
 20
-106.58078045965691
 30
0.0
  0
LINE
  5
185
  8
SIZE
  6
CONTINUOUS
 62
    30
 10
579.99999999999898
 20
444.99999999999972
 30
0.0
 11
579.99999999999898
 21
664.40707234174067
 31
0.0
  0
LINE
  5
186
  8
SIZE
  6
CONTINUOUS
 62
    30
 10
622.00000102602326
 20
294.60498195793468
 30
0.0
 11
622.00000102602326
 21
664.40707234174067
 31
0.0
  0
LINE
  5
187
  8
SIZE
  6
CONTINUOUS
 62
    30
 10
622.00000102602326
 20
644.40707234174045
 30
0.0
 11
579.99999999999898
 21
644.40707234174045
 31
0.0
  0
LINE
  5
188
  8
SIZE
  6
CONTINUOUS
 62
    30
 10
579.99999999999898
 20
644.40707234174045
 30
0.0
 11
389.28571428571121
 21
644.40707234174045
 31
0.0
  0
CIRCLE
  5
189
  8
SIZE
  6
CONTINUOUS
 62
    30
 10
622.00000102602326
 20
644.40707234174045
 30
0.0
 40
7.5
  0
CIRCLE
  5
18A
  8
SIZE
  6
CONTINUOUS
 62
    30
 10
579.99999999999898
 20
644.40707234174045
 30
0.0
 40
7.5
  0
TEXT
  5
18B
  8
SIZE
  6
CONTINUOUS
 62
    30
 10
404.28571428571132
 20
672.50231043697875
 30
0.0
 40
50.0
  1
(42)
 41
0.9
 72
     1
 11
469.6428571428541
 21
672.50231043697875
 31
0.0
  0
POINT
  5
18C
  8
DEFPOINTS
  6
CONTINUOUS
 62
     7
 10
579.99999999999898
 20
435.0
 30
0.0
  0
POINT
  5
18E
  8
DEFPOINTS
  6
CONTINUOUS
 62
     7
 10
622.00000102602326
 20
644.40707234174045
 30
0.0
  0
LINE
  5
18F
  8
SIZE
  6
CONTINUOUS
 62
    30
 10
579.99999999999898
 20
444.99999999999972
 30
0.0
 11
579.99999999999898
 21
539.93705553200175
 31
0.0
  0
LINE
  5
190
  8
SIZE
  6
CONTINUOUS
 62
    30
 10
631.99999999999795
 20
266.6049819579348
 30
0.0
 11
631.99999999999795
 21
539.93705553200175
 31
0.0
  0
LINE
  5
191
  8
SIZE
  6
CONTINUOUS
 62
    30
 10
631.99999999999795
 20
519.93705553200198
 30
0.0
 11
579.99999999999898
 21
519.93705553200198
 31
0.0
  0
LINE
  5
192
  8
SIZE
  6
CONTINUOUS
 62
    30
 10
579.99999999999898
 20
519.93705553200198
 30
0.0
 11
389.28571428571121
 21
519.93705553200198
 31
0.0
  0
CIRCLE
  5
193
  8
SIZE
  6
CONTINUOUS
 62
    30
 10
631.99999999999795
 20
519.93705553200198
 30
0.0
 40
7.5
  0
CIRCLE
  5
194
  8
SIZE
  6
CONTINUOUS
 62
    30
 10
579.99999999999898
 20
519.93705553200198
 30
0.0
 40
7.5
  0
TEXT
  5
195
  8
SIZE
  6
CONTINUOUS
 62
    30
 10
404.28571428571132
 20
548.03229362723982
 30
0.0
 40
50.0
  1
(52)
 41
0.9
 72
     1
 11
469.6428571428541
 21
548.03229362723982
 31
0.0
  0
POINT
  5
196
  8
DEFPOINTS
  6
CONTINUOUS
 62
     7
 10
579.99999999999898
 20
435.0
 30
0.0
  0
POINT
  5
197
  8
DEFPOINTS
  6
CONTINUOUS
 62
     7
 10
631.99999999999795
 20
256.60498195793463
 30
0.0
  0
POINT
  5
198
  8
DEFPOINTS
  6
CONTINUOUS
 62
     7
 10
631.99999999999795
 20
519.93705553200198
 30
0.0
  0
LINE
  5
199
  8
NOTE
  6
CONTINUOUS
 62
     4
 10
579.99999999999079
 20
148.39501804206699
 30
0.0
 11
579.99999999999079
 21
191.6049819579348
 31
0.0
  0
LINE
  5
19A
  8
NOTE
  6
CONTINUOUS
 62
     4
 10
558.39501804206316
 20
170.0
 30
0.0
 11
601.60498195793275
 21
170.0
 31
0.0
  0
LINE
  5
19B
  8
SIZE
  6
CONTINUOUS
 62
    30
 10
589.99999999999875
 20
435.0
 30
0.0
 11
838.53346712714006
 21
435.0
 31
0.0
  0
LINE
  5
19C
  8
SIZE
  6
CONTINUOUS
 62
    30
 10
650.60498298396578
 20
262.99999999999989
 30
0.0
 11
838.53346712714006
 21
262.99999999999989
 31
0.0
  0
LINE
  5
19D
  8
SIZE
  6
CONTINUOUS
 62
    30
 10
818.53346712714017
 20
435.0
 30
0.0
 11
818.53346712714017
 21
262.99999999999989
 31
0.0
  0
CIRCLE
  5
19E
  8
SIZE
  6
CONTINUOUS
 62
    30
 10
818.53346712714017
 20
435.0
 30
0.0
 40
7.5
  0
CIRCLE
  5
19F
  8
SIZE
  6
CONTINUOUS
 62
    30
 10
818.53346712714017
 20
262.99999999999989
 30
0.0
 40
7.5
  0
TEXT
  5
1A0
  8
SIZE
  6
CONTINUOUS
 62
    30
 10
803.53346712713994
 20
295.4285714285715
 30
0.0
 40
50.0
  1
172
 50
90.0
 41
0.9
 72
     1
 11
803.53346712713994
 21
349.00000000000011
 31
0.0
  0
POINT
  5
1A1
  8
DEFPOINTS
  6
CONTINUOUS
 62
     7
 10
579.99999999999898
 20
435.0
 30
0.0
  0
POINT
  5
1A2
  8
DEFPOINTS
  6
CONTINUOUS
 62
     7
 10
643.60498298396556
 20
262.99999999999989
 30
0.0
  0
POINT
  5
1A3
  8
DEFPOINTS
  6
CONTINUOUS
 62
     7
 10
818.53346712714017
 20
260.00000002631703
 30
0.0
  0
LINE
  5
1A4
  8
SIZE
  6
CONTINUOUS
 62
    30
 10
650.60498298396578
 20
262.99999999999989
 30
0.0
 11
838.5334671271404
 21
262.99999999999989
 31
0.0
  0
LINE
  5
1A5
  8
SIZE
  6
CONTINUOUS
 62
    30
 10
665.58399767606522
 20
235.0
 30
0.0
 11
838.53346712714006
 21
234.99999999999989
 31
0.0
  0
LINE
  5
1A6
  8
SIZE
  6
CONTINUOUS
 62
    30
 10
818.53346712714017
 20
262.99999999999989
 30
0.0
 11
818.53346712714017
 21
293.0
 31
0.0
  0
LINE
  5
1A7
  8
SIZE
  6
CONTINUOUS
 62
    30
 10
818.53346712714017
 20
232.000000026317
 30
0.0
 11
818.53346712714017
 21
202.000000026317
 31
0.0
  0
LINE
  5
1A8
  8
SIZE
  6
CONTINUOUS
 62
    30
 10
818.53346712714017
 20
248.99999999999989
 30
0.0
 11
910.15797761670365
 21
238.7973735975736
 31
0.0
  0
LINE
  5
1A9
  8
SIZE
  6
CONTINUOUS
 62
    30
 10
910.15797761670365
 20
238.7973735975736
 30
0.0
 11
910.15797761670365
 21
341.65451645471637
 31
0.0
  0
TEXT
  5
1AA
  8
SIZE
  6
CONTINUOUS
 62
    30
 10
895.15797761670365
 20
253.79737359757371
 30
0.0
 40
50.0
  1
28
 50
90.0
 41
0.9
 72
     1
 11
895.15797761670365
 21
290.22594502614521
 31
0.0
  0
LINE
  5
1AB
  8
SIZE
  6
CONTINUOUS
 62
    30
 10
818.53346712714017
 20
260.00000002631703
 30
0.0
 11
818.53346712714017
 21
232.000000026317
 31
0.0
  0
LINE
  5
1AC
  8
SIZE
  6
CONTINUOUS
 62
    30
 10
818.53346712714017
 20
260.00000002631703
 30
0.0
 11
818.53346712714017
 21
232.000000026317
 31
0.0
  0
CIRCLE
  5
1AD
  8
SIZE
  6
CONTINUOUS
 62
    30
 10
818.53346712714017
 20
262.99999999999989
 30
0.0
 40
7.5
  0
CIRCLE
  5
1AE
  8
SIZE
  6
CONTINUOUS
 62
    30
 10
818.53346712714017
 20
232.000000026317
 30
0.0
 40
7.5
  0
POINT
  5
1AF
  8
DEFPOINTS
  6
CONTINUOUS
 62
     7
 10
643.60498298396556
 20
262.99999999999989
 30
0.0
  0
POINT
  5
1B0
  8
DEFPOINTS
  6
CONTINUOUS
 62
     7
 10
653.60498195794025
 20
235.0
 30
0.0
  0
POINT
  5
1B1
  8
DEFPOINTS
  6
CONTINUOUS
 62
     7
 10
818.53346712714017
 20
232.000000026317
 30
0.0
  0
LINE
  5
1B2
  8
SIZE
  6
CONTINUOUS
 62
    30
 10
589.99999999999875
 20
435.0
 30
0.0
 11
1114.1769971964211
 21
434.9999999999996
 31
0.0
  0
LINE
  5
1B3
  8
SIZE
  6
CONTINUOUS
 62
    30
 10
611.60498195793298
 20
170.0
 30
0.0
 11
1114.1769971964211
 21
169.9999999999998
 31
0.0
  0
LINE
  5
1B4
  8
SIZE
  6
CONTINUOUS
 62
    30
 10
1094.1769971964211
 20
434.9999999999996
 30
0.0
 11
1094.1769971964211
 21
169.9999999999998
 31
0.0
  0
CIRCLE
  5
1B5
  8
SIZE
  6
CONTINUOUS
 62
    30
 10
1094.1769971964211
 20
434.9999999999996
 30
0.0
 40
7.5
  0
CIRCLE
  5
1B6
  8
SIZE
  6
CONTINUOUS
 62
    30
 10
1094.1769971964211
 20
169.9999999999998
 30
0.0
 40
7.5
  0
TEXT
  5
1B7
  8
SIZE
  6
CONTINUOUS
 62
    30
 10
1079.1769971964211
 20
244.6428571428572
 30
0.0
 40
50.0
  1
265
 50
90.0
 41
0.9
 72
     1
 11
1079.1769971964211
 21
302.5
 31
0.0
  0
POINT
  5
1B8
  8
DEFPOINTS
  6
CONTINUOUS
 62
     7
 10
579.99999999999898
 20
435.0
 30
0.0
  0
POINT
  5
1B9
  8
DEFPOINTS
  6
CONTINUOUS
 62
     7
 10
601.60498195793275
 20
170.0
 30
0.0
  0
POINT
  5
1BA
  8
DEFPOINTS
  6
CONTINUOUS
 62
     7
 10
1094.1769971964211
 20
169.9999999999998
 30
0.0
  0
LINE
  5
1BB
  8
SIZE
  6
CONTINUOUS
 62
    30
 10
699.99999999999818
 20
421.99999999999812
 30
0.0
 11
1024.0923656195789
 21
421.99999999999812
 31
0.0
  0
LINE
  5
1BC
  8
SIZE
  6
CONTINUOUS
 62
    30
 10
589.99999999999875
 20
435.0
 30
0.0
 11
1024.0923656195789
 21
434.9999999999996
 31
0.0
  0
LINE
  5
1BD
  8
SIZE
  6
CONTINUOUS
 62
    30
 10
1004.092365619579
 20
421.99999999999812
 30
0.0
 11
1004.092365619579
 21
391.99999999999812
 31
0.0
  0
LINE
  5
1BE
  8
SIZE
  6
CONTINUOUS
 62
    30
 10
1004.092365619579
 20
434.9999999999996
 30
0.0
 11
1004.092365619579
 21
589.28571428571422
 31
0.0
  0
LINE
  5
1BF
  8
SIZE
  6
CONTINUOUS
 62
    30
 10
1004.092365619579
 20
421.99999999999812
 30
0.0
 11
1004.092365619579
 21
434.9999999999996
 31
0.0
  0
CIRCLE
  5
1C0
  8
SIZE
  6
CONTINUOUS
 62
    30
 10
1004.092365619579
 20
421.99999999999812
 30
0.0
 40
7.5
  0
CIRCLE
  5
1C1
  8
SIZE
  6
CONTINUOUS
 62
    30
 10
1004.092365619579
 20
434.9999999999996
 30
0.0
 40
7.5
  0
TEXT
  5
1C2
  8
SIZE
  6
CONTINUOUS
 62
    30
 10
989.09236561957903
 20
510.00000000000011
 30
0.0
 40
50.0
  1
13
 50
90.0
 41
0.9
 72
     1
 11
989.09236561957903
 21
542.14285714285734
 31
0.0
  0
POINT
  5
1C3
  8
DEFPOINTS
  6
CONTINUOUS
 62
     7
 10
689.99999999999807
 20
421.99999999999812
 30
0.0
  0
POINT
  5
1C4
  8
DEFPOINTS
  6
CONTINUOUS
 62
     7
 10
579.99999999999898
 20
435.0
 30
0.0
  0
POINT
  5
1C5
  8
DEFPOINTS
  6
CONTINUOUS
 62
     7
 10
1004.092365619579
 20
434.9999999999996
 30
0.0
  0
LINE
  5
1C6
  8
SIZE
  6
CONTINUOUS
 62
    30
 10
699.99999999999818
 20
421.99999999999812
 30
0.0
 11
1024.0923656195789
 21
421.99999999999812
 31
0.0
  0
LINE
  5
1C7
  8
SIZE
  6
CONTINUOUS
 62
    30
 10
699.99999999999818
 20
172.0
 30
0.0
 11
1024.0923656195789
 21
171.99999999999989
 31
0.0
  0
LINE
  5
1C8
  8
SIZE
  6
CONTINUOUS
 62
    30
 10
1004.092365619579
 20
421.99999999999812
 30
0.0
 11
1004.092365619579
 21
171.99999999999989
 31
0.0
  0
CIRCLE
  5
1C9
  8
SIZE
  6
CONTINUOUS
 62
    30
 10
1004.092365619579
 20
421.99999999999812
 30
0.0
 40
7.5
  0
CIRCLE
  5
1CA
  8
SIZE
  6
CONTINUOUS
 62
    30
 10
1004.092365619579
 20
171.99999999999989
 30
0.0
 40
7.5
  0
TEXT
  5
1CB
  8
SIZE
  6
CONTINUOUS
 62
    30
 10
989.09236561957925
 20
239.14285714285609
 30
0.0
 40
50.0
  1
250
 50
90.0
 41
0.9
 72
     1
 11
989.09236561957925
 21
296.99999999999892
 31
0.0
  0
POINT
  5
1CC
  8
DEFPOINTS
  6
CONTINUOUS
 62
     7
 10
689.99999999999807
 20
421.99999999999812
 30
0.0
  0
POINT
  5
1CD
  8
DEFPOINTS
  6
CONTINUOUS
 62
     7
 10
689.99999999999807
 20
172.0
 30
0.0
  0
POINT
  5
1CE
  8
DEFPOINTS
  6
CONTINUOUS
 62
     7
 10
1004.092365619579
 20
171.99999999999989
 30
0.0
  0
LINE
  5
1D2
  8
NOTE
  6
CONTINUOUS
 62
     4
 10
622.00000102604065
 20
262.99999999999989
 30
0.0
 11
737.24751231480229
 21
605.13203697826384
 31
0.0
  0
LINE
  5
1D3
  8
NOTE
  6
CONTINUOUS
 62
     4
 10
737.24751231480229
 20
605.13203697826384
 30
0.0
 11
979.99478552128517
 21
605.13203697826384
 31
0.0
  0
TEXT
  5
1D4
  8
NOTE
  6
CONTINUOUS
 62
     4
 10
747.76941933724993
 20
616.34396294856015
 30
0.0
 40
45.0
  1
RL %%C9.52
 50
359.9999970000153
 41
0.7
  7
STANDARD1
  0
LINE
  5
1D5
  8
NOTE
  6
CONTINUOUS
 62
     4
 10
631.99999999998977
 20
235.00000000000171
 30
0.0
 11
834.73142829911194
 21
93.035610288132389
 31
0.0
  0
LINE
  5
1D6
  8
SIZE
  6
CONTINUOUS
 62
    30
 10
579.99999999999898
 20
444.99999999999972
 30
0.0
 11
579.99999999999898
 21
784.44868570462279
 31
0.0
  0
LINE
  5
1D7
  8
SIZE
  6
CONTINUOUS
 62
    30
 10
689.99999999999807
 20
431.99999999999778
 30
0.0
 11
689.99999999999807
 21
784.44868570462279
 31
0.0
  0
LINE
  5
1D8
  8
SIZE
  6
CONTINUOUS
 62
    30
 10
579.99999999999898
 20
764.44868570462279
 30
0.0
 11
689.99999999999807
 21
764.44868570462279
 31
0.0
  0
LINE
  5
1D9
  8
SIZE
  6
CONTINUOUS
 62
    30
 10
689.99999999999807
 20
764.44868570462279
 30
0.0
 11
848.57142857142685
 21
764.44868570462279
 31
0.0
  0
CIRCLE
  5
1DA
  8
SIZE
  6
CONTINUOUS
 62
    30
 10
579.99999999999898
 20
764.44868570462279
 30
0.0
 40
7.5
  0
CIRCLE
  5
1DB
  8
SIZE
  6
CONTINUOUS
 62
    30
 10
689.99999999999807
 20
764.44868570462279
 30
0.0
 40
7.5
  0
TEXT
  5
1DC
  8
SIZE
  6
CONTINUOUS
 62
    30
 10
734.99999999999795
 20
779.44868570462268
 30
0.0
 40
50.0
  1
110
 41
0.9
 72
     1
 11
784.28571428571229
 21
779.44868570462268
 31
0.0
  0
POINT
  5
1DD
  8
DEFPOINTS
  6
CONTINUOUS
 62
     7
 10
579.99999999999898
 20
435.0
 30
0.0
  0
POINT
  5
1DE
  8
DEFPOINTS
  6
CONTINUOUS
 62
     7
 10
689.99999999999807
 20
421.99999999999812
 30
0.0
  0
POINT
  5
1DF
  8
DEFPOINTS
  6
CONTINUOUS
 62
     7
 10
689.99999999999807
 20
764.44868570462279
 30
0.0
  0
LINE
  5
1E0
  8
NOTE
  6
CONTINUOUS
 62
     4
 10
834.7314282991083
 20
93.035610288132389
 30
0.0
 11
1108.6123202266981
 21
93.035610288132389
 31
0.0
  0
TEXT
  5
1E1
  8
NOTE
  6
CONTINUOUS
 62
     4
 10
845.25333532155992
 20
104.2475362584281
 30
0.0
 40
45.0
  1
RG %%C15.88
 50
359.9999970000153
 41
0.7
  7
STANDARD1
  0
LINE
  5
1E2
  8
NOTE
  6
CONTINUOUS
 62
     4
 10
579.99999999999079
 20
170.0
 30
0.0
 11
538.2333091618184
 21
72.943717677733787
 31
0.0
  0
LINE
  5
1E3
  8
NOTE
  6
CONTINUOUS
 62
     4
 10
228.0385465672498
 20
69.943717704050869
 30
0.0
 11
538.2333091618184
 21
69.943717704050869
 31
0.0
  0
TEXT
  5
1E4
  8
NOTE
  6
CONTINUOUS
 62
     4
 10
232.50794297778521
 20
84.155647496460077
 30
0.0
 40
45.0
  1
D2（自然排水口）
 50
359.9999970000153
 41
0.7
  7
STANDARD1
  0
LINE
  5
1E5
  8
NOTE
  6
CONTINUOUS
 62
     4
 10
-572.99999957908119
 20
430.60000011574249
 30
0.0
 11
-583.72517880123814
 21
463.26986738488421
 31
0.0
  0
LINE
  5
1E6
  8
NOTE
  6
CONTINUOUS
 62
     4
 10
-572.99999957908119
 20
430.60000011574249
 30
0.0
 11
-598.62321141461962
 21
453.53034433759422
 31
0.0
  0
LINE
  5
1E7
  8
NOTE
  6
CONTINUOUS
 62
     4
 10
580.00000000001273
 20
169.9999999999817
 30
0.0
 11
558.51347423797938
 21
143.1545365581205
 31
0.0
  0
LINE
  5
1E8
  8
NOTE
  6
CONTINUOUS
 62
     4
 10
580.00000000001273
 20
169.9999999999817
 30
0.0
 11
574.81485583574067
 21
136.0078839891012
 31
0.0
  0
LINE
  5
1E9
  8
NOTE
  6
CONTINUOUS
 62
     4
 10
622.00000102602326
 20
262.99999999997812
 30
0.0
 11
641.81471123367442
 21
291.10208099262849
 31
0.0
  0
LINE
  5
1EA
  8
NOTE
  6
CONTINUOUS
 62
     4
 10
622.00000102602326
 20
262.99999999997812
 30
0.0
 11
625.10900168808621
 21
297.24447087901171
 31
0.0
  0
LINE
  5
1EB
  8
NOTE
  6
CONTINUOUS
 62
     4
 10
631.99999999998977
 20
235.00000000000171
 30
0.0
 11
653.7980713904243
 21
208.40688471825339
 31
0.0
  0
LINE
  5
1EC
  8
NOTE
  6
CONTINUOUS
 62
     4
 10
631.99999999998977
 20
235.00000000000171
 30
0.0
 11
664.17424129786923
 21
222.8687235705566
 31
0.0
  0
LINE
  5
1ED
  8
BASIS
  6
DASHDOT
 62
     6
 10
0.0
 20
460.58861657854311
 30
0.0
 11
0.0
 21
-30.05553244572182
 31
0.0
  0
LINE
  5
1EE
  8
ARRANGE
  6
CONTINUOUS
 62
     1
 10
-50.03734999999871
 20
-49.522353000000301
 30
0.0
 11
50.03734999999871
 21
49.522353000000301
 31
0.0
  0
LINE
  5
1EF
  8
ARRANGE
  6
CONTINUOUS
 62
     1
 10
-49.963762999999737
 20
49.596595000002701
 30
0.0
 11
49.963762999999737
 21
-49.596595000002701
 31
0.0
  0
CIRCLE
  5
1F0
  8
ARRANGE
  6
CONTINUOUS
 62
     1
 10
0.0
 20
0.0
 30
0.0
 40
50.0
  0
LINE
  5
1F1
  8
OUTLINE
  6
CONTINUOUS
 62
     3
 10
579.99999999999898
 20
435.0
 30
0.0
 11
-580.00000000000136
 21
435.0
 31
0.0
  0
LINE
  5
1F2
  8
OUTLINE
  6
CONTINUOUS
 62
     3
 10
-580.00000000000136
 20
435.0
 30
0.0
 11
-580.00000000000136
 21
139.9999999999998
 31
0.0
  0
LINE
  5
1F3
  8
OUTLINE
  6
CONTINUOUS
 62
     3
 10
-580.00000000000136
 20
139.9999999999998
 30
0.0
 11
579.99999999999898
 21
139.9999999999998
 31
0.0
  0
LINE
  5
1F4
  8
OUTLINE
  6
CONTINUOUS
 62
     3
 10
579.99999999999898
 20
139.9999999999998
 30
0.0
 11
579.99999999999898
 21
435.0
 31
0.0
  0
LINE
  5
1F8
  8
OUTLINE
  6
CONTINUOUS
 62
     3
 10
808.99999989476964
 20
0.0
 30
0.0
 11
808.99999989477283
 21
58.999998447819941
 31
0.0
  0
LINE
  5
1F9
  8
OUTLINE
  6
CONTINUOUS
 62
     3
 10
808.99999989476964
 20
57.999998447819941
 30
0.0
 11
-592.99999965799634
 21
57.999998447819941
 31
0.0
  0
LINE
  5
1FA
  8
OUTLINE
  6
CONTINUOUS
 62
     3
 10
-592.99999965799634
 20
58.999998447819941
 30
0.0
 11
-592.99999965799634
 21
0.0
 31
0.0
  0
LINE
  5
1FB
  8
OUTLINE
  6
CONTINUOUS
 62
     3
 10
827.99999939490385
 20
0.0
 30
0.0
 11
827.99999939490385
 21
-1.99999997368286
 31
0.0
  0
LINE
  5
1FC
  8
OUTLINE
  6
CONTINUOUS
 62
     3
 10
827.99999939490385
 20
-1.99999997368286
 30
0.0
 11
-611.99999915815181
 21
-1.99999997368286
 31
0.0
  0
LINE
  5
1FD
  8
OUTLINE
  6
CONTINUOUS
 62
     3
 10
-611.99999915815181
 20
-2.0
 30
0.0
 11
-611.99999915815181
 21
0.0
 31
0.0
  0
LINE
  5
1FE
  8
OUTLINE
  6
CONTINUOUS
 62
     3
 10
-611.99999915815181
 20
0.0
 30
0.0
 11
827.99999939490385
 21
0.0
 31
0.0
  0
TEXT
  5
57C
  8
ETC
  6
CONTINUOUS
 62
    61
 10
119.3166175618923
 20
1488.0425434342519
 30
0.0
 40
70.0
  1
PDFY-P71_90MG1_3
 50
0.0000029998804485
 41
0.8
  0
TEXT
  5
57D
  8
ETC
  6
CONTINUOUS
 62
    61
 10
119.3166175618923
 20
1605.197550697392
 30
0.0
 40
70.0
  1
PDFY-P71_90M-G_3
 50
0.0000029998804485
 41
0.8
  0
TEXT
  5
57E
  8
ETC
  6
CONTINUOUS
 62
    61
 10
118.1719081648375
 20
1376.7466667878921
 30
0.0
 40
70.0
  1
（後吸込・フィルターボックス組込み）
 50
0.0000029998804485
 41
0.8
  0
LINE
  5
C05
  8
SIZE
  6
CONTINUOUS
 62
    30
 10
-595.99999957906584
 20
436.30000022888999
 30
0.0
 11
-595.99999957906584
 21
1122.959290034948
 31
0.0
  0
LINE
  5
C06
  8
SIZE
  6
CONTINUOUS
 62
    30
 10
595.99999957906755
 20
436.30000022888999
 30
0.0
 11
595.99999957906755
 21
1122.959290034948
 31
0.0
  0
LINE
  5
C07
  8
SIZE
  6
CONTINUOUS
 62
    30
 10
-595.99999957906584
 20
1102.9592900349501
 30
0.0
 11
595.99999957906755
 21
1102.9592900349501
 31
0.0
  0
CIRCLE
  5
C08
  8
SIZE
  6
CONTINUOUS
 62
    30
 10
-595.99999957906584
 20
1102.9592900349501
 30
0.0
 40
7.5
  0
CIRCLE
  5
C09
  8
SIZE
  6
CONTINUOUS
 62
    30
 10
595.99999957906755
 20
1102.9592900349501
 30
0.0
 40
7.5
  0
TEXT
  5
C0A
  8
SIZE
  6
CONTINUOUS
 62
    30
 10
-70.714285714285239
 20
1117.959290034951
 30
0.0
 40
50.0
  1
1192
 41
0.9
 72
     1
 11
0.0000000000004547
 21
1117.959290034951
 31
0.0
  0
LINE
  5
C0C
  8
NOTE
  6
CONTINUOUS
 62
     4
 10
820.99999957907403
 20
19.999999421213939
 30
0.0
 11
1279.9999985530551
 21
19.999999421213939
 31
0.0
  0
LINE
  5
C0D
  8
NOTE
  6
CONTINUOUS
 62
     4
 10
820.99999957907403
 20
-0.0000000526233634
 30
0.0
 11
1279.9999985530551
 21
-0.0000000526233634
 31
0.0
  0
LINE
  5
C0E
  8
NOTE
  6
CONTINUOUS
 62
     4
 10
892.66165205513869
 20
-0.0000000526233634
 30
0.0
 11
872.66165258131241
 21
19.999999421213939
 31
0.0
  0
LINE
  5
C0F
  8
NOTE
  6
CONTINUOUS
 62
     4
 10
897.66165192360575
 20
-0.0000000526233634
 30
0.0
 11
877.66165244977947
 21
19.999999421213939
 31
0.0
  0
LINE
  5
C10
  8
NOTE
  6
CONTINUOUS
 62
     4
 10
902.66165179207292
 20
-0.0000000526233634
 30
0.0
 11
882.6616523182247
 21
19.999999421213939
 31
0.0
  0
LINE
  5
C11
  8
NOTE
  6
CONTINUOUS
 62
     4
 10
862.6616528443983
 20
-0.0000000526233634
 30
0.0
 11
842.6616533705718
 21
19.999999421213939
 31
0.0
  0
LINE
  5
C12
  8
NOTE
  6
CONTINUOUS
 62
     4
 10
857.66165297593125
 20
-0.0000000526233634
 30
0.0
 11
837.66165350210485
 21
19.999999421213939
 31
0.0
  0
LINE
  5
C13
  8
NOTE
  6
CONTINUOUS
 62
     4
 10
852.66165310748409
 20
-0.0000000526233634
 30
0.0
 11
832.66165363363825
 21
19.999999421213939
 31
0.0
  0
LINE
  5
C14
  8
NOTE
  6
CONTINUOUS
 62
     4
 10
1299.9999980268919
 20
-60.661652791784952
 30
0.0
 11
1299.9999980268919
 21
1199.9999999736831
 31
0.0
  0
LINE
  5
C15
  8
NOTE
  6
CONTINUOUS
 62
     4
 10
1279.9999985530551
 20
-60.661652791784952
 30
0.0
 11
1279.9999985530551
 21
1199.9999999736831
 31
0.0
  0
LINE
  5
C16
  8
NOTE
  6
CONTINUOUS
 62
     4
 10
1279.9999985530551
 20
10.99999968427983
 30
0.0
 11
1299.9999980268919
 21
-8.9999997895465622
 31
0.0
  0
LINE
  5
C17
  8
NOTE
  6
CONTINUOUS
 62
     4
 10
1279.9999985530551
 20
15.99999955274688
 30
0.0
 11
1299.9999980268919
 21
-3.9999999210795059
 31
0.0
  0
LINE
  5
C18
  8
NOTE
  6
CONTINUOUS
 62
     4
 10
1279.9999985530551
 20
20.999999421213939
 30
0.0
 11
1299.9999980268919
 21
0.9999999473652678
 31
0.0
  0
LINE
  5
C19
  8
NOTE
  6
CONTINUOUS
 62
     4
 10
1279.9999985530551
 20
-18.99999952646067
 30
0.0
 11
1299.9999980268919
 21
-38.999999000287062
 31
0.0
  0
LINE
  5
C1A
  8
NOTE
  6
CONTINUOUS
 62
     4
 10
1279.9999985530551
 20
-23.99999939492773
 30
0.0
 11
1299.9999980268919
 21
-43.999998868754119
 31
0.0
  0
LINE
  5
C1B
  8
NOTE
  6
CONTINUOUS
 62
     4
 10
1279.9999985530551
 20
-28.999999263374779
 30
0.0
 11
1299.9999980268919
 21
-48.999998737221169
 31
0.0
  0
LINE
  5
C1C
  8
NOTE
  6
CONTINUOUS
 62
     4
 10
1279.9999985530551
 20
90.999997579609044
 30
0.0
 11
1299.9999980268919
 21
70.999998105782652
 31
0.0
  0
LINE
  5
C1D
  8
NOTE
  6
CONTINUOUS
 62
     4
 10
1279.9999985530551
 20
95.999997448076087
 30
0.0
 11
1299.9999980268919
 21
75.999997974249695
 31
0.0
  0
LINE
  5
C1E
  8
NOTE
  6
CONTINUOUS
 62
     4
 10
1279.9999985530551
 20
100.9999973165431
 30
0.0
 11
1299.9999980268919
 21
80.999997842694469
 31
0.0
  0
LINE
  5
C1F
  8
NOTE
  6
CONTINUOUS
 62
     4
 10
1279.9999985530551
 20
60.999998368868553
 30
0.0
 11
1299.9999980268919
 21
40.999998895042147
 31
0.0
  0
LINE
  5
C20
  8
NOTE
  6
CONTINUOUS
 62
     4
 10
1279.9999985530551
 20
55.999998500401482
 30
0.0
 11
1299.9999980268919
 21
35.999999026575097
 31
0.0
  0
LINE
  5
C21
  8
NOTE
  6
CONTINUOUS
 62
     4
 10
1279.9999985530551
 20
50.99999863195444
 30
0.0
 11
1299.9999980268919
 21
30.999999158108039
 31
0.0
  0
LINE
  5
C22
  8
NOTE
  6
CONTINUOUS
 62
     4
 10
1279.9999985530551
 20
170.9999954749382
 30
0.0
 11
1299.9999980268919
 21
150.99999600111181
 31
0.0
  0
LINE
  5
C23
  8
NOTE
  6
CONTINUOUS
 62
     4
 10
1279.9999985530551
 20
175.99999534340529
 30
0.0
 11
1299.9999980268919
 21
155.9999958695789
 31
0.0
  0
LINE
  5
C24
  8
NOTE
  6
CONTINUOUS
 62
     4
 10
1279.9999985530551
 20
180.99999521187229
 30
0.0
 11
1299.9999980268919
 21
160.9999957380237
 31
0.0
  0
LINE
  5
C25
  8
NOTE
  6
CONTINUOUS
 62
     4
 10
1279.9999985530551
 20
140.9999962641977
 30
0.0
 11
1299.9999980268919
 21
120.9999967903713
 31
0.0
  0
LINE
  5
C26
  8
NOTE
  6
CONTINUOUS
 62
     4
 10
1279.9999985530551
 20
135.9999963957307
 30
0.0
 11
1299.9999980268919
 21
115.9999969219043
 31
0.0
  0
LINE
  5
C27
  8
NOTE
  6
CONTINUOUS
 62
     4
 10
1279.9999985530551
 20
130.9999965272836
 30
0.0
 11
1299.9999980268919
 21
110.9999970534372
 31
0.0
  0
LINE
  5
C28
  8
NOTE
  6
CONTINUOUS
 62
     4
 10
1279.9999985530551
 20
250.9999933702675
 30
0.0
 11
1299.9999980268919
 21
230.99999389644111
 31
0.0
  0
LINE
  5
C29
  8
NOTE
  6
CONTINUOUS
 62
     4
 10
1279.9999985530551
 20
255.9999932387345
 30
0.0
 11
1299.9999980268919
 21
235.9999937649082
 31
0.0
  0
LINE
  5
C2A
  8
NOTE
  6
CONTINUOUS
 62
     4
 10
1279.9999985530551
 20
260.99999310720159
 30
0.0
 11
1299.9999980268919
 21
240.99999363335289
 31
0.0
  0
LINE
  5
C2B
  8
NOTE
  6
CONTINUOUS
 62
     4
 10
1279.9999985530551
 20
220.99999415952701
 30
0.0
 11
1299.9999980268919
 21
200.99999468570061
 31
0.0
  0
LINE
  5
C2C
  8
NOTE
  6
CONTINUOUS
 62
     4
 10
1279.9999985530551
 20
215.99999429105989
 30
0.0
 11
1299.9999980268919
 21
195.9999948172335
 31
0.0
  0
LINE
  5
C2D
  8
NOTE
  6
CONTINUOUS
 62
     4
 10
1279.9999985530551
 20
210.9999944226129
 30
0.0
 11
1299.9999980268919
 21
190.99999494876641
 31
0.0
  0
LINE
  5
C2E
  8
NOTE
  6
CONTINUOUS
 62
     4
 10
1279.9999985530551
 20
330.99999126559669
 30
0.0
 11
1299.9999980268919
 21
310.9999917917703
 31
0.0
  0
LINE
  5
C2F
  8
NOTE
  6
CONTINUOUS
 62
     4
 10
1279.9999985530551
 20
335.99999113406369
 30
0.0
 11
1299.9999980268919
 21
315.99999166023741
 31
0.0
  0
LINE
  5
C30
  8
NOTE
  6
CONTINUOUS
 62
     4
 10
1279.9999985530551
 20
340.99999100253081
 30
0.0
 11
1299.9999980268919
 21
320.99999152868207
 31
0.0
  0
LINE
  5
C31
  8
NOTE
  6
CONTINUOUS
 62
     4
 10
1279.9999985530551
 20
300.99999205485619
 30
0.0
 11
1299.9999980268919
 21
280.9999925810298
 31
0.0
  0
LINE
  5
C32
  8
NOTE
  6
CONTINUOUS
 62
     4
 10
1279.9999985530551
 20
295.99999218638908
 30
0.0
 11
1299.9999980268919
 21
275.99999271256269
 31
0.0
  0
LINE
  5
C33
  8
NOTE
  6
CONTINUOUS
 62
     4
 10
1279.9999985530551
 20
290.99999231794209
 30
0.0
 11
1299.9999980268919
 21
270.99999284409569
 31
0.0
  0
LINE
  5
C34
  8
NOTE
  6
CONTINUOUS
 62
     4
 10
1279.9999985530551
 20
380.99998995018541
 30
0.0
 11
1299.9999980268919
 21
360.99999047635902
 31
0.0
  0
LINE
  5
C35
  8
NOTE
  6
CONTINUOUS
 62
     4
 10
1279.9999985530551
 20
375.99999008171841
 30
0.0
 11
1299.9999980268919
 21
355.99999060789202
 31
0.0
  0
LINE
  5
C36
  8
NOTE
  6
CONTINUOUS
 62
     4
 10
1279.9999985530551
 20
370.9999902132713
 30
0.0
 11
1299.9999980268919
 21
350.9999907394249
 31
0.0
  0
LINE
  5
C37
  8
NOTE
  6
CONTINUOUS
 62
     4
 10
1279.9999985530551
 20
459.9999986582601
 30
0.0
 11
1299.9999980268919
 21
439.99999918443399
 31
0.0
  0
LINE
  5
C38
  8
NOTE
  6
CONTINUOUS
 62
     4
 10
1279.9999985530551
 20
464.99999852672721
 30
0.0
 11
1299.9999980268919
 21
444.99999905290088
 31
0.0
  0
LINE
  5
C39
  8
NOTE
  6
CONTINUOUS
 62
     4
 10
1279.9999985530551
 20
469.9999983951945
 30
0.0
 11
1299.9999980268919
 21
449.9999989213461
 31
0.0
  0
LINE
  5
C3A
  8
NOTE
  6
CONTINUOUS
 62
     4
 10
1279.9999985530551
 20
429.9999994475196
 30
0.0
 11
1299.9999980268919
 21
409.99999997369298
 31
0.0
  0
LINE
  5
C3B
  8
NOTE
  6
CONTINUOUS
 62
     4
 10
1279.9999985530551
 20
424.99999957905288
 30
0.0
 11
1299.9999980268919
 21
405.00000010522621
 31
0.0
  0
LINE
  5
C3C
  8
NOTE
  6
CONTINUOUS
 62
     4
 10
1279.9999985530551
 20
419.99999971060578
 30
0.0
 11
1299.9999980268919
 21
400.00000023675869
 31
0.0
  0
LINE
  5
C3D
  8
NOTE
  6
CONTINUOUS
 62
     4
 10
1279.9999985530551
 20
539.9999965535892
 30
0.0
 11
1299.9999980268919
 21
519.99999707976303
 31
0.0
  0
LINE
  5
C3E
  8
NOTE
  6
CONTINUOUS
 62
     4
 10
1279.9999985530551
 20
544.99999642205671
 30
0.0
 11
1299.9999980268919
 21
524.99999694823009
 31
0.0
  0
LINE
  5
C3F
  8
NOTE
  6
CONTINUOUS
 62
     4
 10
1279.9999985530551
 20
549.99999629052354
 30
0.0
 11
1299.9999980268919
 21
529.99999681667498
 31
0.0
  0
LINE
  5
C40
  8
NOTE
  6
CONTINUOUS
 62
     4
 10
1279.9999985530551
 20
509.99999734284893
 30
0.0
 11
1299.9999980268919
 21
489.99999786902271
 31
0.0
  0
LINE
  5
C41
  8
NOTE
  6
CONTINUOUS
 62
     4
 10
1279.9999985530551
 20
504.9999974743821
 30
0.0
 11
1299.9999980268919
 21
484.99999800055571
 31
0.0
  0
LINE
  5
C42
  8
NOTE
  6
CONTINUOUS
 62
     4
 10
1279.9999985530551
 20
499.99999760593482
 30
0.0
 11
1299.9999980268919
 21
479.99999813208842
 31
0.0
  0
LINE
  5
C43
  8
NOTE
  6
CONTINUOUS
 62
     4
 10
1279.9999985530551
 20
619.99999444891864
 30
0.0
 11
1299.9999980268919
 21
599.99999497509225
 31
0.0
  0
LINE
  5
C44
  8
NOTE
  6
CONTINUOUS
 62
     4
 10
1279.9999985530551
 20
624.9999943173857
 30
0.0
 11
1299.9999980268919
 21
604.99999484355976
 31
0.0
  0
LINE
  5
C45
  8
NOTE
  6
CONTINUOUS
 62
     4
 10
1279.9999985530551
 20
629.99999418585298
 30
0.0
 11
1299.9999980268919
 21
609.99999471200454
 31
0.0
  0
LINE
  5
C46
  8
NOTE
  6
CONTINUOUS
 62
     4
 10
1279.9999985530551
 20
589.99999523817826
 30
0.0
 11
1299.9999980268919
 21
569.99999576435175
 31
0.0
  0
LINE
  5
C47
  8
NOTE
  6
CONTINUOUS
 62
     4
 10
1279.9999985530551
 20
584.99999536971154
 30
0.0
 11
1299.9999980268919
 21
564.99999589588515
 31
0.0
  0
LINE
  5
C48
  8
NOTE
  6
CONTINUOUS
 62
     4
 10
1279.9999985530551
 20
579.99999550126404
 30
0.0
 11
1299.9999980268919
 21
559.99999602741764
 31
0.0
  0
LINE
  5
C49
  8
NOTE
  6
CONTINUOUS
 62
     4
 10
1279.9999985530551
 20
699.99999234424797
 30
0.0
 11
1299.9999980268919
 21
679.99999287042135
 31
0.0
  0
LINE
  5
C4A
  8
NOTE
  6
CONTINUOUS
 62
     4
 10
1279.9999985530551
 20
704.99999221271491
 30
0.0
 11
1299.9999980268919
 21
684.99999273888852
 31
0.0
  0
LINE
  5
C4B
  8
NOTE
  6
CONTINUOUS
 62
     4
 10
1279.9999985530551
 20
709.99999208118197
 30
0.0
 11
1299.9999980268919
 21
689.99999260733375
 31
0.0
  0
LINE
  5
C4C
  8
NOTE
  6
CONTINUOUS
 62
     4
 10
1279.9999985530551
 20
669.99999313350747
 30
0.0
 11
1299.9999980268919
 21
649.99999365968119
 31
0.0
  0
LINE
  5
C4D
  8
NOTE
  6
CONTINUOUS
 62
     4
 10
1279.9999985530551
 20
664.99999326504053
 30
0.0
 11
1299.9999980268919
 21
644.99999379121414
 31
0.0
  0
LINE
  5
C4E
  8
NOTE
  6
CONTINUOUS
 62
     4
 10
1279.9999985530551
 20
659.99999339659325
 30
0.0
 11
1299.9999980268919
 21
639.99999392274685
 31
0.0
  0
LINE
  5
C4F
  8
NOTE
  6
CONTINUOUS
 62
     4
 10
1279.9999985530551
 20
779.99999023957707
 30
0.0
 11
1299.9999980268919
 21
759.99999076575091
 31
0.0
  0
LINE
  5
C50
  8
NOTE
  6
CONTINUOUS
 62
     4
 10
1279.9999985530551
 20
784.99999010804459
 30
0.0
 11
1299.9999980268919
 21
764.99999063421774
 31
0.0
  0
LINE
  5
C51
  8
NOTE
  6
CONTINUOUS
 62
     4
 10
1279.9999985530551
 20
789.99998997651142
 30
0.0
 11
1299.9999980268919
 21
769.99999050266285
 31
0.0
  0
LINE
  5
C52
  8
NOTE
  6
CONTINUOUS
 62
     4
 10
1279.9999985530551
 20
749.9999910288368
 30
0.0
 11
1299.9999980268919
 21
729.99999155501018
 31
0.0
  0
LINE
  5
C53
  8
NOTE
  6
CONTINUOUS
 62
     4
 10
1279.9999985530551
 20
744.99999116036952
 30
0.0
 11
1299.9999980268919
 21
724.99999168654347
 31
0.0
  0
LINE
  5
C54
  8
NOTE
  6
CONTINUOUS
 62
     4
 10
1279.9999985530551
 20
739.99999129192292
 30
0.0
 11
1299.9999980268919
 21
719.9999918180763
 31
0.0
  0
LINE
  5
C55
  8
NOTE
  6
CONTINUOUS
 62
     4
 10
1279.9999985530551
 20
829.99998892416568
 30
0.0
 11
1299.9999980268919
 21
809.9999894503394
 31
0.0
  0
LINE
  5
C56
  8
NOTE
  6
CONTINUOUS
 62
     4
 10
1279.9999985530551
 20
824.99998905569873
 30
0.0
 11
1299.9999980268919
 21
804.99998958187234
 31
0.0
  0
LINE
  5
C57
  8
NOTE
  6
CONTINUOUS
 62
     4
 10
1279.9999985530551
 20
819.99998918725169
 30
0.0
 11
1299.9999980268919
 21
799.99998971340528
 31
0.0
  0
LINE
  5
C58
  8
NOTE
  6
CONTINUOUS
 62
     4
 10
1279.9999985530551
 20
908.99999763224105
 30
0.0
 11
1299.9999980268919
 21
888.99999815841466
 31
0.0
  0
LINE
  5
C59
  8
NOTE
  6
CONTINUOUS
 62
     4
 10
1279.9999985530551
 20
913.99999750070856
 30
0.0
 11
1299.9999980268919
 21
893.99999802688171
 31
0.0
  0
LINE
  5
C5A
  8
NOTE
  6
CONTINUOUS
 62
     4
 10
1279.9999985530551
 20
918.99999736917562
 30
0.0
 11
1299.9999980268919
 21
898.99999789532671
 31
0.0
  0
LINE
  5
C5B
  8
NOTE
  6
CONTINUOUS
 62
     4
 10
1279.9999985530551
 20
878.99999842150089
 30
0.0
 11
1299.9999980268919
 21
858.99999894767461
 31
0.0
  0
LINE
  5
C5C
  8
NOTE
  6
CONTINUOUS
 62
     4
 10
1279.9999985530551
 20
873.99999855303395
 30
0.0
 11
1299.9999980268919
 21
853.99999907920744
 31
0.0
  0
LINE
  5
C5D
  8
NOTE
  6
CONTINUOUS
 62
     4
 10
1279.9999985530551
 20
868.99999868458633
 30
0.0
 11
1299.9999980268919
 21
848.9999992107405
 31
0.0
  0
LINE
  5
C5E
  8
NOTE
  6
CONTINUOUS
 62
     4
 10
1279.9999985530551
 20
988.9999955275706
 30
0.0
 11
1299.9999980268919
 21
968.9999960537441
 31
0.0
  0
LINE
  5
C5F
  8
NOTE
  6
CONTINUOUS
 62
     4
 10
1279.9999985530551
 20
993.99999539603755
 30
0.0
 11
1299.9999980268919
 21
973.99999592221138
 31
0.0
  0
LINE
  5
C60
  8
NOTE
  6
CONTINUOUS
 62
     4
 10
1279.9999985530551
 20
998.99999526450438
 30
0.0
 11
1299.9999980268919
 21
978.99999579065638
 31
0.0
  0
LINE
  5
C61
  8
NOTE
  6
CONTINUOUS
 62
     4
 10
1279.9999985530551
 20
958.99999631683033
 30
0.0
 11
1299.9999980268919
 21
938.99999684300337
 31
0.0
  0
LINE
  5
C62
  8
NOTE
  6
CONTINUOUS
 62
     4
 10
1279.9999985530551
 20
953.99999644836316
 30
0.0
 11
1299.9999980268919
 21
933.999996974537
 31
0.0
  0
LINE
  5
C63
  8
NOTE
  6
CONTINUOUS
 62
     4
 10
1279.9999985530551
 20
948.99999657991577
 30
0.0
 11
1299.9999980268919
 21
928.9999971060696
 31
0.0
  0
LINE
  5
C64
  8
NOTE
  6
CONTINUOUS
 62
     4
 10
1279.9999985530551
 20
1068.9999934228999
 30
0.0
 11
1299.9999980268919
 21
1048.9999939490731
 31
0.0
  0
LINE
  5
C65
  8
NOTE
  6
CONTINUOUS
 62
     4
 10
1279.9999985530551
 20
1073.999993291367
 30
0.0
 11
1299.9999980268919
 21
1053.9999938175411
 31
0.0
  0
LINE
  5
C66
  8
NOTE
  6
CONTINUOUS
 62
     4
 10
1279.9999985530551
 20
1078.9999931598329
 30
0.0
 11
1299.9999980268919
 21
1058.9999936859849
 31
0.0
  0
LINE
  5
C67
  8
NOTE
  6
CONTINUOUS
 62
     4
 10
1279.9999985530551
 20
1038.999994212159
 30
0.0
 11
1299.9999980268919
 21
1018.999994738333
 31
0.0
  0
LINE
  5
C68
  8
NOTE
  6
CONTINUOUS
 62
     4
 10
1279.9999985530551
 20
1033.9999943436919
 30
0.0
 11
1299.9999980268919
 21
1013.999994869866
 31
0.0
  0
LINE
  5
C69
  8
NOTE
  6
CONTINUOUS
 62
     4
 10
1279.9999985530551
 20
1028.9999944752451
 30
0.0
 11
1299.9999980268919
 21
1008.999995001399
 31
0.0
  0
LINE
  5
C6A
  8
NOTE
  6
CONTINUOUS
 62
     4
 10
1279.9999985530551
 20
1148.999991318228
 30
0.0
 11
1299.9999980268919
 21
1128.999991844403
 31
0.0
  0
LINE
  5
C6B
  8
NOTE
  6
CONTINUOUS
 62
     4
 10
1279.9999985530551
 20
1153.9999911866951
 30
0.0
 11
1299.9999980268919
 21
1133.99999171287
 31
0.0
  0
LINE
  5
C6C
  8
NOTE
  6
CONTINUOUS
 62
     4
 10
1279.9999985530551
 20
1158.9999910551619
 30
0.0
 11
1299.9999980268919
 21
1138.9999915813139
 31
0.0
  0
LINE
  5
C6D
  8
NOTE
  6
CONTINUOUS
 62
     4
 10
1279.9999985530551
 20
1118.9999921074891
 30
0.0
 11
1299.9999980268919
 21
1098.99999263366
 31
0.0
  0
LINE
  5
C6E
  8
NOTE
  6
CONTINUOUS
 62
     4
 10
1279.9999985530551
 20
1113.99999223902
 30
0.0
 11
1299.9999980268919
 21
1093.999992765195
 31
0.0
  0
LINE
  5
C6F
  8
NOTE
  6
CONTINUOUS
 62
     4
 10
1279.9999985530551
 20
1108.9999923705741
 30
0.0
 11
1299.9999980268919
 21
1088.9999928967279
 31
0.0
  0
LINE
  5
C70
  8
NOTE
  6
CONTINUOUS
 62
     4
 10
1279.9999985530551
 20
1198.9999900028181
 30
0.0
 11
1299.9999980268919
 21
1178.9999905289919
 31
0.0
  0
LINE
  5
C71
  8
NOTE
  6
CONTINUOUS
 62
     4
 10
1279.9999985530551
 20
1193.999990134351
 30
0.0
 11
1299.9999980268919
 21
1173.999990660524
 31
0.0
  0
LINE
  5
C72
  8
NOTE
  6
CONTINUOUS
 62
     4
 10
1279.9999985530551
 20
1188.9999902659031
 30
0.0
 11
1299.9999980268919
 21
1168.999990792056
 31
0.0
  0
TEXT
  5
C73
  8
NOTE
  6
CONTINUOUS
 62
     4
 10
963.39290856230275
 20
1302.6089403213441
 30
0.0
 40
30.0
  1
※フィルターを横方向より
 50
359.99999749558339
 41
0.8107143291551278
  7
STANDARD1
  0
TEXT
  5
C74
  8
NOTE
  6
CONTINUOUS
 62
     4
 10
854.87866089051738
 20
1265.8875824538979
 30
0.0
 40
30.0
  1
脱着する場合に必要なスペース幅
 50
359.99999749558339
 41
0.8107143291551278
  7
STANDARD1
  0
LINE
  5
C75
  8
NOTE
  6
CONTINUOUS
 62
     4
 10
932.66165205513926
 20
-0.0000000526233634
 30
0.0
 11
912.66165258131241
 21
19.999999421213939
 31
0.0
  0
LINE
  5
C76
  8
NOTE
  6
CONTINUOUS
 62
     4
 10
937.66165192360575
 20
-0.0000000526233634
 30
0.0
 11
917.66165244977947
 21
19.999999421213939
 31
0.0
  0
LINE
  5
C77
  8
NOTE
  6
CONTINUOUS
 62
     4
 10
942.66165179207326
 20
-0.0000000526233634
 30
0.0
 11
922.6616523182247
 21
19.999999421213939
 31
0.0
  0
LINE
  5
C78
  8
NOTE
  6
CONTINUOUS
 62
     4
 10
972.6616520551388
 20
-0.0000000526233634
 30
0.0
 11
952.66165258131275
 21
19.999999421213939
 31
0.0
  0
LINE
  5
C79
  8
NOTE
  6
CONTINUOUS
 62
     4
 10
977.6616519236062
 20
-0.0000000526233634
 30
0.0
 11
957.66165244977935
 21
19.999999421213939
 31
0.0
  0
LINE
  5
C7A
  8
NOTE
  6
CONTINUOUS
 62
     4
 10
982.66165179207326
 20
-0.0000000526233634
 30
0.0
 11
962.66165231822481
 21
19.999999421213939
 31
0.0
  0
LINE
  5
C7B
  8
NOTE
  6
CONTINUOUS
 62
     4
 10
1012.661652055139
 20
-0.0000000526233634
 30
0.0
 11
992.66165258131286
 21
19.999999421213939
 31
0.0
  0
LINE
  5
C7C
  8
NOTE
  6
CONTINUOUS
 62
     4
 10
1017.661651923606
 20
-0.0000000526233634
 30
0.0
 11
997.66165244977992
 21
19.999999421213939
 31
0.0
  0
LINE
  5
C7D
  8
NOTE
  6
CONTINUOUS
 62
     4
 10
1022.661651792073
 20
-0.0000000526233634
 30
0.0
 11
1002.661652318225
 21
19.999999421213939
 31
0.0
  0
LINE
  5
C7E
  8
NOTE
  6
CONTINUOUS
 62
     4
 10
1052.661652055139
 20
-0.0000000526233634
 30
0.0
 11
1032.661652581312
 21
19.999999421213939
 31
0.0
  0
LINE
  5
C7F
  8
NOTE
  6
CONTINUOUS
 62
     4
 10
1057.6616519236049
 20
-0.0000000526233634
 30
0.0
 11
1037.661652449779
 21
19.999999421213939
 31
0.0
  0
LINE
  5
C80
  8
NOTE
  6
CONTINUOUS
 62
     4
 10
1062.6616517920729
 20
-0.0000000526233634
 30
0.0
 11
1042.6616523182249
 21
19.999999421213939
 31
0.0
  0
LINE
  5
C81
  8
NOTE
  6
CONTINUOUS
 62
     4
 10
1132.661652055139
 20
-0.0000000526233634
 30
0.0
 11
1112.661652581312
 21
19.999999421213939
 31
0.0
  0
LINE
  5
C82
  8
NOTE
  6
CONTINUOUS
 62
     4
 10
1137.6616519236061
 20
-0.0000000526233634
 30
0.0
 11
1117.661652449779
 21
19.999999421213939
 31
0.0
  0
LINE
  5
C83
  8
NOTE
  6
CONTINUOUS
 62
     4
 10
1142.6616517920729
 20
-0.0000000526233634
 30
0.0
 11
1122.6616523182249
 21
19.999999421213939
 31
0.0
  0
LINE
  5
C84
  8
NOTE
  6
CONTINUOUS
 62
     4
 10
1092.661652055139
 20
-0.0000000526233634
 30
0.0
 11
1072.661652581312
 21
19.999999421213939
 31
0.0
  0
LINE
  5
C85
  8
NOTE
  6
CONTINUOUS
 62
     4
 10
1097.6616519236049
 20
-0.0000000526233634
 30
0.0
 11
1077.661652449779
 21
19.999999421213939
 31
0.0
  0
LINE
  5
C86
  8
NOTE
  6
CONTINUOUS
 62
     4
 10
1102.6616517920729
 20
-0.0000000526233634
 30
0.0
 11
1082.6616523182249
 21
19.999999421213939
 31
0.0
  0
LINE
  5
C87
  8
NOTE
  6
CONTINUOUS
 62
     4
 10
1172.661652055139
 20
-0.0000000526233634
 30
0.0
 11
1152.661652581312
 21
19.999999421213939
 31
0.0
  0
LINE
  5
C88
  8
NOTE
  6
CONTINUOUS
 62
     4
 10
1177.6616519236049
 20
-0.0000000526233634
 30
0.0
 11
1157.6616524497799
 21
19.999999421213939
 31
0.0
  0
LINE
  5
C89
  8
NOTE
  6
CONTINUOUS
 62
     4
 10
1182.6616517920729
 20
-0.0000000526233634
 30
0.0
 11
1162.6616523182249
 21
19.999999421213939
 31
0.0
  0
LINE
  5
C8A
  8
NOTE
  6
CONTINUOUS
 62
     4
 10
1212.661652055139
 20
-0.0000000526233634
 30
0.0
 11
1192.661652581312
 21
19.999999421213939
 31
0.0
  0
LINE
  5
C8B
  8
NOTE
  6
CONTINUOUS
 62
     4
 10
1217.6616519236061
 20
-0.0000000526233634
 30
0.0
 11
1197.6616524497799
 21
19.999999421213939
 31
0.0
  0
LINE
  5
C8C
  8
NOTE
  6
CONTINUOUS
 62
     4
 10
1222.6616517920729
 20
-0.0000000526233634
 30
0.0
 11
1202.661652318224
 21
19.999999421213939
 31
0.0
  0
LINE
  5
C8D
  8
NOTE
  6
CONTINUOUS
 62
     4
 10
1252.661652055139
 20
-0.0000000526233634
 30
0.0
 11
1232.661652581312
 21
19.999999421213939
 31
0.0
  0
LINE
  5
C8E
  8
NOTE
  6
CONTINUOUS
 62
     4
 10
1257.6616519236061
 20
-0.0000000526233634
 30
0.0
 11
1237.6616524497781
 21
19.999999421213939
 31
0.0
  0
LINE
  5
C8F
  8
NOTE
  6
CONTINUOUS
 62
     4
 10
1262.6616517920729
 20
-0.0000000526233634
 30
0.0
 11
1242.661652318224
 21
19.999999421213939
 31
0.0
  0
LINE
  5
C90
  8
SIZE
  6
CONTINUOUS
 62
    30
 10
1279.9999985530551
 20
29.999999421213939
 30
0.0
 11
1279.9999985530551
 21
1122.9592900349501
 31
0.0
  0
LINE
  5
C91
  8
SIZE
  6
CONTINUOUS
 62
    30
 10
595.99999957906709
 20
436.30000022888999
 30
0.0
 11
595.99999957906709
 21
1122.9592900349501
 31
0.0
  0
LINE
  5
C92
  8
SIZE
  6
CONTINUOUS
 62
    30
 10
1279.9999985530551
 20
1102.9592900349501
 30
0.0
 11
595.99999957906709
 21
1102.9592900349501
 31
0.0
  0
CIRCLE
  5
C93
  8
SIZE
  6
CONTINUOUS
 62
    30
 10
1279.9999985530551
 20
1102.9592900349501
 30
0.0
 40
7.5
  0
CIRCLE
  5
C94
  8
SIZE
  6
CONTINUOUS
 62
    30
 10
595.99999957906709
 20
1102.9592900349501
 30
0.0
 40
7.5
  0
TEXT
  5
C95
  8
SIZE
  6
CONTINUOUS
 62
    30
 10
879.07142763749016
 20
1116.9465342628471
 30
0.0
 40
50.0
  1
684
 41
0.9
 72
     1
 11
937.99999906606183
 21
1116.9465342628471
 31
0.0
  0
LINE
  5
CEC
  8
SIZE
  6
CONTINUOUS
 62
    30
 10
-590.00000000001955
 20
435.00000000000023
 30
0.0
 11
-998.48131780024914
 21
435.00000000000023
 31
0.0
  0
LINE
  5
CED
  8
SIZE
  6
CONTINUOUS
 62
    30
 10
-590.00000000001955
 20
140.0
 30
0.0
 11
-998.48131780024914
 21
140.0
 31
0.0
  0
LINE
  5
CEE
  8
SIZE
  6
CONTINUOUS
 62
    30
 10
-978.48131780024914
 20
435.00000000000023
 30
0.0
 11
-978.48131780024914
 21
142.0000000000002
 31
0.0
  0
CIRCLE
  5
CEF
  8
SIZE
  6
CONTINUOUS
 62
    30
 10
-978.48131780024914
 20
435.00000000000023
 30
0.0
 40
7.5
  0
CIRCLE
  5
CF0
  8
SIZE
  6
CONTINUOUS
 62
    30
 10
-978.48131780024914
 20
140.0
 30
0.0
 40
7.5
  0
TEXT
  5
CF1
  8
SIZE
  6
CONTINUOUS
 62
    30
 10
-993.48131780024914
 20
230.64285714285731
 30
0.0
 40
50.0
  1
295
 50
90.0
 41
0.9
 72
     1
 11
-993.48131780024914
 21
288.50000000000011
 31
0.0
  0
POINT
  5
CF2
  8
DEFPOINTS
  6
CONTINUOUS
 62
     7
 10
-978.48131780024914
 20
140.0
 30
0.0
  0
LINE
  5
CF3
  8
SIZE
  6
CONTINUOUS
 62
    30
 10
-714.99999671149044
 20
0.0000000000002274
 30
0.0
 11
-824.87964516220779
 21
0.0000000000002274
 31
0.0
  0
LINE
  5
CF4
  8
SIZE
  6
CONTINUOUS
 62
    30
 10
-621.99999915816943
 20
-1.999999973683088
 30
0.0
 11
-824.87964516220779
 21
-1.999999973683088
 31
0.0
  0
LINE
  5
CF5
  8
SIZE
  6
CONTINUOUS
 62
    30
 10
-804.87964516220791
 20
0.0000000000002274
 30
0.0
 11
-804.87964516220791
 21
30.000000000000231
 31
0.0
  0
LINE
  5
CF6
  8
SIZE
  6
CONTINUOUS
 62
    30
 10
-804.87964516220791
 20
-1.999999973683088
 30
0.0
 11
-804.87964516220791
 21
-121.9999999736828
 31
0.0
  0
LINE
  5
CF7
  8
SIZE
  6
CONTINUOUS
 62
    30
 10
-804.87964516220791
 20
-0.0000000263064521
 30
0.0
 11
-804.87964516220791
 21
-1.999999973683088
 31
0.0
  0
CIRCLE
  5
CF8
  8
SIZE
  6
CONTINUOUS
 62
    30
 10
-804.87964516220791
 20
0.0000000000002274
 30
0.0
 40
7.5
  0
CIRCLE
  5
CF9
  8
SIZE
  6
CONTINUOUS
 62
    30
 10
-804.87964516220791
 20
-1.999999973683088
 30
0.0
 40
7.5
  0
TEXT
  5
CFA
  8
SIZE
  6
CONTINUOUS
 62
    30
 10
-819.87964516220791
 20
-105.9999999736835
 30
0.0
 40
50.0
  1
2
 50
90.0
 41
0.9
 72
     1
 11
-819.87964516220791
 21
-90.999999973683543
 31
0.0
  0
LINE
  5
CFB
  8
SIZE
  6
CONTINUOUS
 62
    30
 10
-714.99999671149044
 20
0.0000000000002274
 30
0.0
 11
-824.87964516221098
 21
0.0000000000002274
 31
0.0
  0
LINE
  5
CFC
  8
SIZE
  6
CONTINUOUS
 62
    30
 10
-602.99999965801214
 20
57.999998474126407
 30
0.0
 11
-824.87964516221098
 21
57.999998474126407
 31
0.0
  0
LINE
  5
CFD
  8
SIZE
  6
CONTINUOUS
 62
    30
 10
-804.87964516221109
 20
0.0000000000002274
 30
0.0
 11
-804.87964516221109
 21
57.999998474126407
 31
0.0
  0
LINE
  5
CFE
  8
SIZE
  6
CONTINUOUS
 62
    30
 10
-804.87964516221109
 20
28.999999237063321
 30
0.0
 11
-894.10015330307715
 21
14.84281969764038
 31
0.0
  0
LINE
  5
CFF
  8
SIZE
  6
CONTINUOUS
 62
    30
 10
-894.10015330307715
 20
14.84281969764038
 30
0.0
 11
-894.10015330307715
 21
117.6999625547832
 31
0.0
  0
TEXT
  5
D00
  8
SIZE
  6
CONTINUOUS
 62
    30
 10
-909.10015330307715
 20
29.842819697640351
 30
0.0
 40
50.0
  1
58
 50
90.0
 41
0.9
 72
     1
 11
-909.10015330307715
 21
66.271391126211753
 31
0.0
  0
CIRCLE
  5
D01
  8
SIZE
  6
CONTINUOUS
 62
    30
 10
-804.87964516221109
 20
0.0000000000002274
 30
0.0
 40
7.5
  0
CIRCLE
  5
D02
  8
SIZE
  6
CONTINUOUS
 62
    30
 10
-804.87964516221109
 20
57.999998474126407
 30
0.0
 40
7.5
  0
POINT
  5
D03
  8
DEFPOINTS
  6
CONTINUOUS
 62
     7
 10
-804.87964516221109
 20
57.999998474126407
 30
0.0
  0
LINE
  5
D04
  8
SIZE
  6
CONTINUOUS
 62
    30
 10
-590.00000000001955
 20
140.0
 30
0.0
 11
-998.48131780024914
 21
140.0
 31
0.0
  0
LINE
  5
D05
  8
SIZE
  6
CONTINUOUS
 62
    30
 10
-621.99999915816943
 20
0.0000000000002274
 30
0.0
 11
-998.48131780024914
 21
0.0000000000002274
 31
0.0
  0
LINE
  5
D06
  8
SIZE
  6
CONTINUOUS
 62
    30
 10
-978.48131780024914
 20
140.0
 30
0.0
 11
-978.48131780024914
 21
0.0000000000002274
 31
0.0
  0
LINE
  5
D07
  8
SIZE
  6
CONTINUOUS
 62
    30
 10
-978.48131780024914
 20
0.0000000000002274
 30
0.0
 11
-978.4813178002496
 21
-287.99999999999977
 31
0.0
  0
CIRCLE
  5
D08
  8
SIZE
  6
CONTINUOUS
 62
    30
 10
-978.48131780024914
 20
140.0
 30
0.0
 40
7.5
  0
CIRCLE
  5
D09
  8
SIZE
  6
CONTINUOUS
 62
    30
 10
-978.48131780024914
 20
0.0000000000002274
 30
0.0
 40
7.5
  0
TEXT
  5
D0A
  8
SIZE
  6
CONTINUOUS
 62
    30
 10
-993.48131780024914
 20
-266.99999999999989
 30
0.0
 40
50.0
  1
140以上
 50
90.0
 41
0.9
 72
     1
 11
-993.48131780024914
 21
-158.99999999999989
 31
0.0
  0
POINT
  5
D0B
  8
DEFPOINTS
  6
CONTINUOUS
 62
     7
 10
-978.48131780024914
 20
0.0000000000002274
 30
0.0
  0
LINE
  5
D0C
  8
NOTE
  6
CONTINUOUS
 62
     4
 10
-750.99999368599617
 20
539.52262735399404
 30
0.0
 11
-643.73337872871298
 21
539.52262735399404
 31
0.0
  0
TEXT
  5
D0D
  8
NOTE
  6
CONTINUOUS
 62
     4
 10
-729.63855664028176
 20
550.73456860805913
 30
0.0
 40
45.0
  1
AH
 50
359.9999970000153
 41
0.7
  7
STANDARD1
  0
LINE
  5
D0E
  8
NOTE
  6
CONTINUOUS
 62
     4
 10
-643.73337872871298
 20
539.52262735399404
 30
0.0
 11
-572.99999957910165
 21
430.60000011576068
 31
0.0
  0
LINE
  5
D0F
  8
DETAIL
  6
CONTINUOUS
 62
     5
 10
-551.00000346029856
 20
413.00000000000023
 30
0.0
 11
-551.00000346029856
 21
162.0000000000002
 31
0.0
  0
LINE
  5
D10
  8
DETAIL
  6
CONTINUOUS
 62
     5
 10
551.00000346026297
 20
413.00000000000023
 30
0.0
 11
-551.00000346029856
 21
413.00000000000023
 31
0.0
  0
LINE
  5
D11
  8
DETAIL
  6
CONTINUOUS
 62
     5
 10
551.00000346026297
 20
162.0000000000002
 30
0.0
 11
-551.00000346029856
 21
162.0000000000002
 31
0.0
  0
LINE
  5
D12
  8
DETAIL
  6
CONTINUOUS
 62
     5
 10
551.00000346026297
 20
413.00000000000023
 30
0.0
 11
551.00000346026297
 21
162.0000000000002
 31
0.0
  0
LINE
  5
D13
  8
SIZE
  6
CONTINUOUS
 62
    30
 10
-551.00000346029856
 20
423.00000000000023
 30
0.0
 11
-551.00000346029856
 21
783.98066092668876
 31
0.0
  0
LINE
  5
D14
  8
SIZE
  6
CONTINUOUS
 62
    30
 10
551.00000346026297
 20
423.00000000000023
 30
0.0
 11
551.00000346026297
 21
783.98066092668876
 31
0.0
  0
LINE
  5
D15
  8
SIZE
  6
CONTINUOUS
 62
    30
 10
-551.00000346029856
 20
763.98066092668876
 30
0.0
 11
551.00000346026297
 21
763.98066092668876
 31
0.0
  0
LINE
  5
D16
  8
SIZE
  6
CONTINUOUS
 62
    30
 10
-551.00000346029856
 20
423.00000000000023
 30
0.0
 11
-551.00000346029856
 21
783.98066092668876
 31
0.0
  0
LINE
  5
D17
  8
SIZE
  6
CONTINUOUS
 62
    30
 10
-580.00000000001955
 20
445.00000000000011
 30
0.0
 11
-580.00000000001955
 21
783.98066092668876
 31
0.0
  0
LINE
  5
D18
  8
SIZE
  6
CONTINUOUS
 62
    30
 10
-551.00000346029856
 20
763.98066092668876
 30
0.0
 11
-580.00000000001955
 21
763.98066092668876
 31
0.0
  0
LINE
  5
D19
  8
SIZE
  6
CONTINUOUS
 62
    30
 10
-580.00000000001955
 20
763.98066092668876
 30
0.0
 11
-749.31733980351373
 21
763.98066092668876
 31
0.0
  0
LINE
  5
D1A
  8
SIZE
  6
CONTINUOUS
 62
    30
 10
-561.00000346029844
 20
413.00000000000023
 30
0.0
 11
-842.46074055652525
 21
413.00000000000023
 31
0.0
  0
LINE
  5
D1B
  8
SIZE
  6
CONTINUOUS
 62
    30
 10
-561.00000346029844
 20
162.0000000000002
 30
0.0
 11
-842.46074055652525
 21
162.00000000000031
 31
0.0
  0
LINE
  5
D1C
  8
SIZE
  6
CONTINUOUS
 62
    30
 10
-822.46074055652525
 20
413.00000000000023
 30
0.0
 11
-822.46074055652525
 21
162.00000000000031
 31
0.0
  0
LINE
  5
D1D
  8
SIZE
  6
CONTINUOUS
 62
    30
 10
-561.00000346029844
 20
413.00000000000023
 30
0.0
 11
-842.46074055652525
 21
413.00000000000023
 31
0.0
  0
LINE
  5
D1E
  8
SIZE
  6
CONTINUOUS
 62
    30
 10
-590.00000000001955
 20
435.00000000000023
 30
0.0
 11
-842.46074055652525
 21
435.00000000000023
 31
0.0
  0
LINE
  5
D1F
  8
SIZE
  6
CONTINUOUS
 62
    30
 10
-822.46074055652525
 20
413.00000000000023
 30
0.0
 11
-822.46074055652525
 21
435.00000000000023
 31
0.0
  0
LINE
  5
D20
  8
SIZE
  6
CONTINUOUS
 62
    30
 10
-822.46074055652525
 20
435.00000000000023
 30
0.0
 11
-822.46074055652525
 21
538.03714285714307
 31
0.0
  0
TEXT
  5
D21
  8
SIZE
  6
CONTINUOUS
 62
    30
 10
-838.08656085040946
 20
239.2857142857145
 30
0.0
 40
50.0
  1
251
 50
90.0
 41
0.9
 72
     1
 11
-838.08656085040946
 21
287.50000000000023
 31
0.0
  0
CIRCLE
  5
D22
  8
SIZE
  6
CONTINUOUS
 62
    30
 10
-822.46074055652525
 20
162.00000000000031
 30
0.0
 40
7.5
  0
CIRCLE
  5
D23
  8
SIZE
  6
CONTINUOUS
 62
    30
 10
-822.46074055652525
 20
413.00000000000023
 30
0.0
 40
7.5
  0
TEXT
  5
D24
  8
SIZE
  6
CONTINUOUS
 62
    30
 10
-838.08656085040946
 20
461.71017874947671
 30
0.0
 40
50.0
  1
22
 50
90.0
 41
0.9
 72
     1
 11
-838.08656085040946
 21
498.1387501780481
 31
0.0
  0
CIRCLE
  5
D25
  8
SIZE
  6
CONTINUOUS
 62
    30
 10
-822.46074055652525
 20
435.00000000000023
 30
0.0
 40
7.5
  0
CIRCLE
  5
D26
  8
SIZE
  6
CONTINUOUS
 62
    30
 10
-822.46074055652525
 20
413.00000000000023
 30
0.0
 40
7.5
  0
TEXT
  5
D27
  8
SIZE
  6
CONTINUOUS
 62
    30
 10
-735.17731756520993
 20
779.66297928849565
 30
0.0
 40
50.0
  1
29
 41
0.9
 72
     1
 11
-699.82017470806704
 21
779.66297928849565
 31
0.0
  0
CIRCLE
  5
D28
  8
SIZE
  6
CONTINUOUS
 62
    30
 10
-580.00000000001955
 20
763.98066092668876
 30
0.0
 40
7.5
  0
CIRCLE
  5
D29
  8
SIZE
  6
CONTINUOUS
 62
    30
 10
-551.00000346029856
 20
763.98066092668876
 30
0.0
 40
7.5
  0
TEXT
  5
D2A
  8
SIZE
  6
CONTINUOUS
 62
    30
 10
-248.1428571428749
 20
779.66297928849565
 30
0.0
 40
50.0
  1
1102（ダクト外寸）
 41
0.9
 72
     1
 11
-0.0000000000177351
 21
779.66297928849565
 31
0.0
  0
CIRCLE
  5
D2B
  8
SIZE
  6
CONTINUOUS
 62
    30
 10
551.00000346026297
 20
763.98066092668876
 30
0.0
 40
7.5
  0
CIRCLE
  5
D2C
  8
SIZE
  6
CONTINUOUS
 62
    30
 10
-551.00000346029856
 20
763.98066092668876
 30
0.0
 40
7.5
  0
TEXT
  5
D2D
  8
SIZE
  6
CONTINUOUS
 62
    30
 10
-762.03580948014076
 20
167.52657648262559
 30
0.0
 40
50.0
  1
（ダクト
 50
90.0
 41
0.9
 72
     1
 11
-762.03580948014076
 21
275.52657648262561
 31
0.0
  0
TEXT
  5
D2E
  8
SIZE
  6
CONTINUOUS
 62
    30
 10
-709.50384537089747
 20
261.85809835869458
 30
0.0
 40
50.0
  1
外寸）
 50
90.0
 41
0.9
 72
     1
 11
-709.50384537089747
 21
324.85809835869469
 31
0.0
  0
ENDSEC
  0
EOF
