  0
SECTION
  2
HEADER
  9
$ACADVER
  1
AC1009
  9
$INSBASE
 10
0.0
 20
0.0
 30
0.0
  9
$EXTMIN
 10
-1056.689845114335
 20
-436.73033910728918
 30
-0.0000000349181948
  9
$EXTMAX
 10
967.00461914240429
 20
1339.731125650545
 30
0.0000000814935747
  9
$LIMMIN
 10
-4267.1522210000003
 20
-2696.0832100000011
  9
$LIMMAX
 10
7190.7174229999991
 20
5141.1553640000002
  9
$ORTHOMODE
 70
     1
  9
$REGENMODE
 70
     1
  9
$FILLMODE
 70
     1
  9
$QTEXTMODE
 70
     0
  9
$MIRRTEXT
 70
     0
  9
$DRAGMODE
 70
     2
  9
$LTSCALE
 40
20.0
  9
$OSMODE
 70
   431
  9
$ATTMODE
 70
     1
  9
$TEXTSIZE
 40
64.0
  9
$TRACEWID
 40
0.05
  9
$TEXTSTYLE
  7
STANDARD
  9
$CLAYER
  8
SYMBOLLINE
  9
$CELTYPE
  6
CONTINUOUS
  9
$CECOLOR
 62
     7
  9
$DIMSCALE
 40
1.0
  9
$DIMASZ
 40
10.0
  9
$DIMEXO
 40
20.0
  9
$DIMDLI
 40
200.0
  9
$DIMRND
 40
0.0
  9
$DIMDLE
 40
0.0
  9
$DIMEXE
 40
30.0
  9
$DIMTP
 40
0.0
  9
$DIMTM
 40
0.0
  9
$DIMTXT
 40
55.0
  9
$DIMCEN
 40
0.0
  9
$DIMTSZ
 40
0.0
  9
$DIMTOL
 70
     0
  9
$DIMLIM
 70
     0
  9
$DIMTIH
 70
     0
  9
$DIMTOH
 70
     0
  9
$DIMSE1
 70
     0
  9
$DIMSE2
 70
     0
  9
$DIMTAD
 70
     1
  9
$DIMZIN
 70
     8
  9
$DIMBLK
  1

  9
$DIMASO
 70
     1
  9
$DIMSHO
 70
     0
  9
$DIMPOST
  1

  9
$DIMAPOST
  1

  9
$DIMALT
 70
     0
  9
$DIMALTD
 70
     2
  9
$DIMALTF
 40
25.399999999999999
  9
$DIMLFAC
 40
1.0
  9
$DIMTOFL
 70
     1
  9
$DIMTVP
 40
0.0
  9
$DIMTIX
 70
     1
  9
$DIMSOXD
 70
     0
  9
$DIMSAH
 70
     1
  9
$DIMBLK1
  1
DOTBLANK
  9
$DIMBLK2
  1
DOTBLANK
  9
$DIMSTYLE
  2
STANDARD
  9
$DIMCLRD
 70
     0
  9
$DIMCLRE
 70
     0
  9
$DIMCLRT
 70
     0
  9
$DIMTFAC
 40
1.0
  9
$DIMGAP
 40
0.09
  9
$LUNITS
 70
     2
  9
$LUPREC
 70
     4
  9
$SKETCHINC
 40
0.1
  9
$FILLETRAD
 40
0.0
  9
$AUNITS
 70
     1
  9
$AUPREC
 70
     3
  9
$MENU
  1
ACAD
  9
$ELEVATION
 40
0.0
  9
$PELEVATION
 40
0.0
  9
$THICKNESS
 40
0.0
  9
$LIMCHECK
 70
     0
  9
$BLIPMODE
 70
     0
  9
$CHAMFERA
 40
0.0
  9
$CHAMFERB
 40
0.0
  9
$SKPOLY
 70
     0
  9
$TDCREATE
 40
2450330.4399309959
  9
$TDUPDATE
 40
2456720.7647227198
  9
$TDINDWG
 40
3.7376129281999999
  9
$TDUSRTIMER
 40
3.7376005208
  9
$USRTIMER
 70
     1
  9
$ANGBASE
 50
0.0
  9
$ANGDIR
 70
     0
  9
$PDMODE
 70
     3
  9
$PDSIZE
 40
-2.0
  9
$PLINEWID
 40
0.0
  9
$COORDS
 70
     1
  9
$SPLFRAME
 70
     0
  9
$SPLINETYPE
 70
     6
  9
$SPLINESEGS
 70
     8
  9
$ATTDIA
 70
     0
  9
$ATTREQ
 70
     1
  9
$HANDLING
 70
     1
  9
$HANDSEED
  5
332
  9
$SURFTAB1
 70
     6
  9
$SURFTAB2
 70
     6
  9
$SURFTYPE
 70
     6
  9
$SURFU
 70
     6
  9
$SURFV
 70
     6
  9
$UCSNAME
  2

  9
$UCSORG
 10
0.0
 20
0.0
 30
0.0
  9
$UCSXDIR
 10
1.0
 20
0.0
 30
0.0
  9
$UCSYDIR
 10
0.0
 20
1.0
 30
0.0
  9
$PUCSNAME
  2

  9
$PUCSORG
 10
0.0
 20
0.0
 30
0.0
  9
$PUCSXDIR
 10
1.0
 20
0.0
 30
0.0
  9
$PUCSYDIR
 10
0.0
 20
1.0
 30
0.0
  9
$USERI1
 70
     0
  9
$USERI2
 70
     0
  9
$USERI3
 70
     0
  9
$USERI4
 70
     0
  9
$USERI5
 70
     0
  9
$USERR1
 40
20.0
  9
$USERR2
 40
0.0
  9
$USERR3
 40
0.0
  9
$USERR4
 40
0.0
  9
$USERR5
 40
0.0
  9
$WORLDVIEW
 70
     1
  9
$SHADEDGE
 70
     3
  9
$SHADEDIF
 70
    70
  9
$TILEMODE
 70
     1
  9
$MAXACTVP
 70
    64
  9
$PLIMCHECK
 70
     0
  9
$PEXTMIN
 10
1.0000000000000000E+020
 20
1.0000000000000000E+020
 30
1.0000000000000000E+020
  9
$PEXTMAX
 10
-1.0000000000000000E+020
 20
-1.0000000000000000E+020
 30
-1.0000000000000000E+020
  9
$PLIMMIN
 10
0.0
 20
0.0
  9
$PLIMMAX
 10
12.0
 20
9.0
  9
$UNITMODE
 70
     0
  9
$VISRETAIN
 70
     1
  9
$PLINEGEN
 70
     0
  9
$PSLTSCALE
 70
     1
  0
ENDSEC
  0
SECTION
  2
TABLES
  0
TABLE
  2
VPORT
 70
     1
  0
VPORT
  2
*ACTIVE
 70
     0
 10
0.0
 20
0.0
 11
1.0
 21
1.0
 12
-44.842612985965381
 22
451.50039327162818
 13
0.0
 23
0.0
 14
50.0
 24
50.0
 15
100.0
 25
100.0
 16
0.0
 26
0.0
 36
1.0
 17
0.0
 27
0.0
 37
0.0
 40
1789.97067741759
 41
1.552030456852791
 42
50.0
 43
0.0
 44
0.0
 50
0.0
 51
0.0
 71
     0
 72
  1000
 73
     1
 74
     0
 75
     0
 76
     0
 77
     0
 78
     0
  0
ENDTAB
  0
TABLE
  2
LTYPE
 70
     3
  0
LTYPE
  2
CONTINUOUS
 70
     0
  3
実線
 72
    65
 73
     0
 40
0.0
  0
LTYPE
  2
DASHDOT
 70
     0
  3
____ _ ____ _ ____ _ ____ _ ____ _ ____ _ ____
 72
    65
 73
     4
 40
5.5
 49
4.0
 49
-0.6
 49
0.3
 49
-0.6
  0
ENDTAB
  0
TABLE
  2
LAYER
 70
    12
  0
LAYER
  2
0
 70
     0
 62
     7
  6
CONTINUOUS
  0
LAYER
  2
SYMBOLLINE
 70
     0
 62
    15
  6
CONTINUOUS
  0
LAYER
  2
OUTLINE
 70
     0
 62
     3
  6
CONTINUOUS
  0
LAYER
  2
DETAIL
 70
     0
 62
     5
  6
CONTINUOUS
  0
LAYER
  2
BASIS
 70
     0
 62
     6
  6
DASHDOT
  0
LAYER
  2
SIZE
 70
     0
 62
    30
  6
CONTINUOUS
  0
LAYER
  2
NOTE
 70
     0
 62
     4
  6
CONTINUOUS
  0
LAYER
  2
ARRANGE
 70
     0
 62
     1
  6
CONTINUOUS
  0
LAYER
  2
FIX
 70
     0
 62
    11
  6
CONTINUOUS
  0
LAYER
  2
SERVICESPACE
 70
     0
 62
     2
  6
DASHDOT
  0
LAYER
  2
ETC
 70
     0
 62
    61
  6
CONTINUOUS
  0
LAYER
  2
DEFPOINTS
 70
     0
 62
     7
  6
CONTINUOUS
  0
ENDTAB
  0
TABLE
  2
STYLE
 70
     3
  0
STYLE
  2
STANDARD
 70
     0
 40
0.0
 41
0.9
 50
0.0
 71
     0
 42
64.0
  3
SIMPLEX
  4
BIGFONT
  0
STYLE
  2
ANNOTATIVE
 70
     0
 40
0.0
 41
1.0
 50
0.0
 71
     0
 42
0.2
  3
txt
  4

  0
STYLE
  2
STANDARD1
 70
     0
 40
0.0
 41
1.0
 50
0.0
 71
     0
 42
64.0
  3
MONOTXT
  4
BIGFONT
  0
ENDTAB
  0
TABLE
  2
VIEW
 70
     1
  0
VIEW
  2
ALL
 70
     0
 40
9000.0
 10
241.50664699999999
 20
0.0
 41
12483.01
 11
0.0
 21
0.0
 31
1.0
 12
0.0
 22
0.0
 32
0.0
 42
50.0
 43
0.0
 44
0.0
 50
0.0
 71
     0
  0
ENDTAB
  0
TABLE
  2
UCS
 70
     0
  0
ENDTAB
  0
TABLE
  2
APPID
 70
     4
  0
APPID
  2
ACAD
 70
     0
  0
APPID
  2
ACADANNOTATIVE
 70
     0
  0
APPID
  2
ACAD_MLEADERVER
 70
     0
  0
APPID
  2
ACAD_EXEMPT_FROM_CAD_STANDARDS
 70
     0
  0
ENDTAB
  0
TABLE
  2
DIMSTYLE
 70
     3
  0
DIMSTYLE
  2
STANDARD
 70
     0
  3

  4

  5

  6

  7

 40
1.0
 41
0.18
 42
0.0625
 43
0.38
 44
0.18
 45
0.0
 46
0.0
 47
0.0
 48
0.0
140
0.18
141
0.09
142
0.0
143
25.399999999999999
144
1.0
145
0.0
146
1.0
147
0.09
 71
     0
 72
     0
 73
     1
 74
     1
 75
     0
 76
     0
 77
     0
 78
     0
170
     0
171
     2
172
     0
173
     0
174
     0
175
     0
176
     0
177
     0
178
     0
  0
DIMSTYLE
  2
ANNOTATIVE
 70
     0
  3

  4

  5

  6

  7

 40
1.0
 41
0.18
 42
0.0625
 43
0.38
 44
0.18
 45
0.0
 46
0.0
 47
0.0
 48
0.0
140
0.18
141
0.09
142
0.0
143
25.399999999999999
144
1.0
145
0.0
146
1.0
147
0.09
 71
     0
 72
     0
 73
     1
 74
     1
 75
     0
 76
     0
 77
     0
 78
     0
170
     0
171
     2
172
     0
173
     0
174
     0
175
     0
176
     0
177
     0
178
     0
  0
ENDTAB
  0
ENDSEC
  0
SECTION
  2
BLOCKS
  0
BLOCK
  8
0
  2
$MODEL_SPACE
 70
     0
 10
0.0
 20
0.0
 30
0.0
  3
$MODEL_SPACE
  1

  0
ENDBLK
  5
2E0
  8
0
  0
BLOCK
 67
     1
  8
0
  2
$PAPER_SPACE
 70
     0
 10
0.0
 20
0.0
 30
0.0
  3
$PAPER_SPACE
  1

  0
ENDBLK
  5
2DC
 67
     1
  8
0
  0
BLOCK
  8
0
  2
_DOTBLANK
 70
     0
 10
0.0
 20
0.0
 30
0.0
  3
_DOTBLANK
  1

  0
CIRCLE
  5
8C
  8
0
  6
CONTINUOUS
 62
     7
 10
0.0
 20
0.0
 30
0.0
 40
0.5
  0
LINE
  5
8D
  8
0
  6
CONTINUOUS
 62
     7
 10
-0.5
 20
0.0
 30
0.0
 11
-1.0
 21
0.0
 31
0.0
  0
ENDBLK
  5
8E
  8
0
  0
ENDSEC
  0
SECTION
  2
ENTITIES
  0
LINE
  5
8F
  8
SIZE
  6
CONTINUOUS
 62
    30
 10
-178.21139600000001
 20
0.0
 30
0.0
 11
-1012.870206751875
 21
0.0
 31
0.0
  0
LINE
  5
90
  8
SIZE
  6
CONTINUOUS
 62
    30
 10
-145.9700000000002
 20
47.0
 30
0.0
 11
-706.5048927518751
 21
47.0
 31
0.0
  0
LINE
  5
91
  8
SIZE
  6
CONTINUOUS
 62
    30
 10
-177.5
 20
0.0
 30
0.0
 11
-706.5048927518751
 21
0.0
 31
0.0
  0
LINE
  5
92
  8
SIZE
  6
CONTINUOUS
 62
    30
 10
-177.5
 20
0.0
 30
0.0
 11
-706.5048927518751
 21
0.0
 31
0.0
  0
LINE
  5
93
  8
SIZE
  6
CONTINUOUS
 62
    30
 10
-146.8000000000001
 20
-8.0
 30
0.0
 11
-706.5048927518751
 21
-8.0
 31
0.0
  0
LINE
  5
94
  8
SIZE
  6
CONTINUOUS
 62
    30
 10
-357.5
 20
-406.71809699999989
 30
0.0
 11
-150.5
 21
-406.71809699999989
 31
0.0
  0
LINE
  5
95
  8
SIZE
  6
CONTINUOUS
 62
    30
 10
-249.5
 20
846.44769899999972
 30
0.0
 11
-357.5
 21
846.44769899999972
 31
0.0
  0
LINE
  5
96
  8
SIZE
  6
CONTINUOUS
 62
    30
 10
-265.00914899999998
 20
307.00264099999998
 30
0.0
 11
-722.45752775187532
 21
307.00264099999998
 31
0.0
  0
LINE
  5
97
  8
SIZE
  6
CONTINUOUS
 62
    30
 10
-201.00914900000001
 20
335.0
 30
0.0
 11
-722.45752775187532
 21
335.0
 31
0.0
  0
LINE
  5
98
  8
SIZE
  6
CONTINUOUS
 62
    30
 10
-201.00914900000001
 20
335.0
 30
0.0
 11
-722.45752775187532
 21
335.0
 31
0.0
  0
LINE
  5
99
  8
NOTE
  6
CONTINUOUS
 62
     4
 10
-539.00493394304192
 20
726.80859588078692
 30
0.0
 11
-175.5
 21
335.0
 31
0.0
  0
LINE
  5
9A
  8
SIZE
  6
CONTINUOUS
 62
    30
 10
357.5
 20
1093.756433
 30
0.0
 11
-357.5
 21
1093.756433
 31
0.0
  0
CIRCLE
  5
9B
  8
SIZE
  6
CONTINUOUS
 62
    30
 10
-333.5
 20
967.98808299999985
 30
0.0
 40
5.0
  0
LINE
  5
9C
  8
OUTLINE
  6
CONTINUOUS
 62
     3
 10
-367.5
 20
214.0
 30
0.0
 11
367.5
 21
214.0
 31
0.0
  0
LINE
  5
9D
  8
OUTLINE
  6
CONTINUOUS
 62
     3
 10
367.5
 20
507.0
 30
0.0
 11
-367.5
 21
507.0
 31
0.0
  0
LINE
  5
9E
  8
NOTE
  6
CONTINUOUS
 62
     4
 10
-539.27744542986056
 20
629.67817165375209
 30
0.0
 11
-239.5
 21
307.0
 31
0.0
  0
CIRCLE
  5
9F
  8
FIX
  6
CONTINUOUS
 62
    11
 10
-333.5
 20
507.0
 30
0.0
 40
12.421498
  0
LINE
  5
A0
  8
NOTE
  6
CONTINUOUS
 62
     4
 10
-318.50483399999979
 20
507.0
 30
0.0
 11
-348.4951660000001
 21
507.0
 31
0.0
  0
LINE
  5
A1
  8
DETAIL
  6
CONTINUOUS
 62
     5
 10
367.5
 20
507.0
 30
0.0
 11
-367.5
 21
507.0
 31
0.0
  0
LINE
  5
A2
  8
DETAIL
  6
CONTINUOUS
 62
     5
 10
-325.50025300000021
 20
469.0
 30
0.0
 11
-364.50036799999998
 21
469.0
 31
0.0
  0
LINE
  5
A3
  8
DETAIL
  6
CONTINUOUS
 62
     5
 10
-329.0002530000001
 20
495.0
 30
0.0
 11
-311.50025300000021
 21
495.0
 31
0.0
  0
LINE
  5
A4
  8
DETAIL
  6
CONTINUOUS
 62
     5
 10
367.5
 20
214.0
 30
0.0
 11
-367.5
 21
214.0
 31
0.0
  0
CIRCLE
  5
A5
  8
SIZE
  6
CONTINUOUS
 62
    30
 10
-982.87020675187534
 20
0.0
 30
0.0
 40
5.0
  0
LINE
  5
A6
  8
SIZE
  6
CONTINUOUS
 62
    30
 10
-982.87020675187534
 20
0.0
 30
0.0
 11
-982.87020675187534
 21
-364.68571400000019
 31
0.0
  0
CIRCLE
  5
A7
  8
SIZE
  6
CONTINUOUS
 62
    30
 10
-676.50489275187488
 20
0.0
 30
0.0
 40
5.0
  0
CIRCLE
  5
A8
  8
SIZE
  6
CONTINUOUS
 62
    30
 10
-676.50489275187488
 20
0.0
 30
0.0
 40
5.0
  0
LINE
  5
A9
  8
SIZE
  6
CONTINUOUS
 62
    30
 10
-676.50489275187488
 20
0.0
 30
0.0
 11
-676.50489275187488
 21
-8.0
 31
0.0
  0
LINE
  5
AA
  8
SIZE
  6
CONTINUOUS
 62
    30
 10
-367.5
 20
199.58597867295239
 30
0.0
 11
-367.5
 21
-436.71809699999989
 31
0.0
  0
TEXT
  5
AB
  8
SIZE
  6
CONTINUOUS
 62
    30
 10
-1000.870206751875
 20
-346.68571414285668
 30
0.0
 40
55.0
  1
140～300
 50
90.0
 41
0.9
 72
     1
 11
-1000.870206751875
 21
-187.34285699999961
 31
0.0
  0
LINE
  5
AC
  8
NOTE
  6
CONTINUOUS
 62
     4
 10
-867.94931470683105
 20
726.80859588078692
 30
0.0
 11
-539.00493394304192
 21
726.80859588078692
 31
0.0
  0
LINE
  5
AD
  8
NOTE
  6
CONTINUOUS
 62
     4
 10
-891.01406902256815
 20
629.67817165375163
 30
0.0
 11
-539.27744542986056
 21
629.67817165375209
 31
0.0
  0
TEXT
  5
AE
  8
NOTE
  6
CONTINUOUS
 62
     4
 10
-884.32717402709477
 20
640.44720765375121
 30
0.0
 40
60.0
  1
RG %%C15.88
 50
359.99999700000001
 41
0.7
  7
STANDARD1
  0
TEXT
  5
AF
  8
SIZE
  6
CONTINUOUS
 62
    30
 10
-694.00600353992445
 20
74.847039516617642
 30
0.0
 40
55.0
  1
47
 50
90.0
 41
0.9
 72
     1
 11
-694.00600353992445
 21
114.9184680880462
 31
0.0
  0
TEXT
  5
B0
  8
SIZE
  6
CONTINUOUS
 62
    30
 10
-694.5048927518751
 20
-79.0
 30
0.0
 40
55.0
  1
8
 50
90.0
 41
0.9
 72
     1
 11
-694.5048927518751
 21
-62.5
 31
0.0
  0
LINE
  5
B1
  8
SIZE
  6
CONTINUOUS
 62
    30
 10
-676.50489275187488
 20
-5.0
 30
0.0
 11
-676.50489275187488
 21
-10.0
 31
0.0
  0
LINE
  5
B2
  8
SIZE
  6
CONTINUOUS
 62
    30
 10
-676.50489275187488
 20
-10.0
 30
0.0
 11
-676.50489275187488
 21
-20.0
 31
0.0
  0
LINE
  5
B3
  8
SIZE
  6
CONTINUOUS
 62
    30
 10
-676.50489275187488
 20
-13.0
 30
0.0
 11
-676.50489275187488
 21
-18.0
 31
0.0
  0
CIRCLE
  5
B4
  8
SIZE
  6
CONTINUOUS
 62
    30
 10
-676.50489275187488
 20
-8.0
 30
0.0
 40
5.0
  0
LINE
  5
B5
  8
SIZE
  6
CONTINUOUS
 62
    30
 10
-676.50489275187488
 20
-18.0
 30
0.0
 11
-676.50489275187488
 21
-97.0
 31
0.0
  0
LINE
  5
B6
  8
SIZE
  6
CONTINUOUS
 62
    30
 10
-362.5
 20
-406.71809699999989
 30
0.0
 11
-357.5
 21
-406.71809699999989
 31
0.0
  0
CIRCLE
  5
B7
  8
SIZE
  6
CONTINUOUS
 62
    30
 10
-367.5
 20
-406.71809699999989
 30
0.0
 40
5.0
  0
TEXT
  5
B8
  8
NOTE
  6
CONTINUOUS
 62
     4
 10
-853.15771970683136
 20
739.68911788078617
 30
0.0
 40
60.0
  1
RL %%C9.52
 50
359.99999700000001
 41
0.7
  7
STANDARD1
  0
TEXT
  5
BA
  8
SIZE
  6
CONTINUOUS
 62
    30
 10
-1000.870206751875
 20
296.85714285714289
 30
0.0
 40
55.0
  1
293
 50
90.0
 41
0.9
 72
     1
 11
-1000.870206751875
 21
360.5
 31
0.0
  0
TEXT
  5
BB
  8
ETC
  6
CONTINUOUS
 62
    61
 10
-729.64267707398733
 20
1244.358041516442
 30
0.0
 40
80.0
  1
PDFY-P71_90MG1(キャンバスダクト)_4
 50
359.99999700000001
 41
0.8
  0
LINE
  5
BC
  8
SIZE
  6
CONTINUOUS
 62
    30
 10
-367.5
 20
527.0
 30
0.0
 11
-367.5
 21
876.44769899999983
 31
0.0
  0
LINE
  5
BD
  8
SIZE
  6
CONTINUOUS
 62
    30
 10
-437.5
 20
488.49999999999989
 30
0.0
 11
-437.5
 21
1123.756433
 31
0.0
  0
LINE
  5
BE
  8
SIZE
  6
CONTINUOUS
 62
    30
 10
-367.5
 20
527.0
 30
0.0
 11
-367.5
 21
1123.756433
 31
0.0
  0
LINE
  5
BF
  8
SIZE
  6
CONTINUOUS
 62
    30
 10
-367.5
 20
527.0
 30
0.0
 11
-367.5
 21
1123.756433
 31
0.0
  0
LINE
  5
C0
  8
SIZE
  6
CONTINUOUS
 62
    30
 10
-333.5
 20
541.9951659999997
 30
0.0
 11
-333.5
 21
997.98808300000019
 31
0.0
  0
LINE
  5
C4
  8
SIZE
  6
CONTINUOUS
 62
    30
 10
-387.55028799999991
 20
214.0
 30
0.0
 11
-1012.870206751875
 21
214.0
 31
0.0
  0
LINE
  5
C5
  8
SIZE
  6
CONTINUOUS
 62
    30
 10
-387.5
 20
507.0
 30
0.0
 11
-722.45752775187532
 21
507.0
 31
0.0
  0
LINE
  5
C9
  8
SIZE
  6
CONTINUOUS
 62
    30
 10
-387.55028799999991
 20
214.0
 30
0.0
 11
-1012.870206751875
 21
214.0
 31
0.0
  0
LINE
  5
CA
  8
SIZE
  6
CONTINUOUS
 62
    30
 10
-387.5
 20
507.0
 30
0.0
 11
-1012.870206751875
 21
507.0
 31
0.0
  0
TEXT
  5
CB
  8
SIZE
  6
CONTINUOUS
 62
    30
 10
-841.17489175187484
 20
349.80174242857152
 30
0.0
 40
55.0
  1
28
 50
90.0
 41
0.9
 72
     1
 11
-841.17489175187484
 21
389.87317100000013
 31
0.0
  0
LINE
  5
CC
  8
SIZE
  6
CONTINUOUS
 62
    30
 10
-823.17489175187529
 20
331.80174199999971
 30
0.0
 11
-823.17489175187529
 21
447.9445990000001
 31
0.0
  0
TEXT
  5
CD
  8
SIZE
  6
CONTINUOUS
 62
    30
 10
-710.45752775187486
 20
362.0714285714285
 30
0.0
 40
55.0
  1
172
 50
90.0
 41
0.9
 72
     1
 11
-710.45752775187486
 21
421.0
 31
0.0
  0
LINE
  5
CE
  8
SIZE
  6
CONTINUOUS
 62
    30
 10
-692.45752775187509
 20
497.0
 30
0.0
 11
-692.45752775187509
 21
345.0
 31
0.0
  0
LINE
  5
CF
  8
SIZE
  6
CONTINUOUS
 62
    30
 10
-982.87020675187534
 20
497.0
 30
0.0
 11
-982.87020675187534
 21
222.0
 31
0.0
  0
LINE
  5
D0
  8
SIZE
  6
CONTINUOUS
 62
    30
 10
-692.45752775187509
 20
321.00132099999968
 30
0.0
 11
-823.17489175187529
 21
331.80174199999971
 31
0.0
  0
LINE
  5
D1
  8
SIZE
  6
CONTINUOUS
 62
    30
 10
-982.87020675187534
 20
5.0
 30
0.0
 11
-982.87020675187534
 21
10.0
 31
0.0
  0
LINE
  5
D2
  8
SIZE
  6
CONTINUOUS
 62
    30
 10
-982.87020675187534
 20
209.0
 30
0.0
 11
-982.87020675187534
 21
204.0
 31
0.0
  0
CIRCLE
  5
D3
  8
SIZE
  6
CONTINUOUS
 62
    30
 10
-982.87020675187534
 20
214.0
 30
0.0
 40
5.0
  0
LINE
  5
D4
  8
SIZE
  6
CONTINUOUS
 62
    30
 10
-982.87020675187534
 20
204.0
 30
0.0
 11
-982.87020675187534
 21
10.0
 31
0.0
  0
LINE
  5
D5
  8
SIZE
  6
CONTINUOUS
 62
    30
 10
-982.87020675187534
 20
219.0
 30
0.0
 11
-982.87020675187534
 21
224.0
 31
0.0
  0
CIRCLE
  5
D6
  8
SIZE
  6
CONTINUOUS
 62
    30
 10
-982.87020675187534
 20
214.0
 30
0.0
 40
5.0
  0
CIRCLE
  5
D7
  8
SIZE
  6
CONTINUOUS
 62
    30
 10
-676.50489275187488
 20
47.0
 30
0.0
 40
5.0
  0
LINE
  5
D8
  8
SIZE
  6
CONTINUOUS
 62
    30
 10
-676.50489275187488
 20
0.0
 30
0.0
 11
-676.50489275187488
 21
47.0
 31
0.0
  0
LINE
  5
D9
  8
SIZE
  6
CONTINUOUS
 62
    30
 10
-676.50489275187488
 20
0.0
 30
0.0
 11
-676.50489275187488
 21
170.78065909741639
 31
0.0
  0
LINE
  5
DA
  8
SIZE
  6
CONTINUOUS
 62
    30
 10
-676.50489275187488
 20
5.0
 30
0.0
 11
-676.50489275187488
 21
10.0
 31
0.0
  0
LINE
  5
DB
  8
SIZE
  6
CONTINUOUS
 62
    30
 10
-676.50489275187488
 20
10.0
 30
0.0
 11
-676.50489275187488
 21
20.0
 31
0.0
  0
CIRCLE
  5
DC
  8
SIZE
  6
CONTINUOUS
 62
    30
 10
-692.45752775187509
 20
307.00264099999998
 30
0.0
 40
5.0
  0
LINE
  5
DD
  8
SIZE
  6
CONTINUOUS
 62
    30
 10
-692.45752775187509
 20
340.0
 30
0.0
 11
-692.45752775187509
 21
345.0
 31
0.0
  0
CIRCLE
  5
DE
  8
SIZE
  6
CONTINUOUS
 62
    30
 10
-692.45752775187509
 20
335.0
 30
0.0
 40
5.0
  0
LINE
  5
DF
  8
SIZE
  6
CONTINUOUS
 62
    30
 10
-692.45752775187509
 20
335.0
 30
0.0
 11
-692.45752775187509
 21
307.00264099999998
 31
0.0
  0
LINE
  5
E0
  8
SIZE
  6
CONTINUOUS
 62
    30
 10
-692.45752775187509
 20
335.0
 30
0.0
 11
-692.45752775187509
 21
307.00264099999998
 31
0.0
  0
LINE
  5
E1
  8
SIZE
  6
CONTINUOUS
 62
    30
 10
-692.45752775187509
 20
345.0
 30
0.0
 11
-692.45752775187509
 21
355.0
 31
0.0
  0
LINE
  5
E2
  8
SIZE
  6
CONTINUOUS
 62
    30
 10
-692.45752775187509
 20
340.0
 30
0.0
 11
-692.45752775187509
 21
345.0
 31
0.0
  0
CIRCLE
  5
E3
  8
SIZE
  6
CONTINUOUS
 62
    30
 10
-692.45752775187509
 20
335.0
 30
0.0
 40
5.0
  0
LINE
  5
E4
  8
SIZE
  6
CONTINUOUS
 62
    30
 10
-982.87020675187534
 20
502.0
 30
0.0
 11
-982.87020675187534
 21
497.0
 31
0.0
  0
CIRCLE
  5
E5
  8
SIZE
  6
CONTINUOUS
 62
    30
 10
-982.87020675187534
 20
507.0
 30
0.0
 40
5.0
  0
LINE
  5
E6
  8
SIZE
  6
CONTINUOUS
 62
    30
 10
-692.45752775187509
 20
502.0
 30
0.0
 11
-692.45752775187509
 21
497.0
 31
0.0
  0
CIRCLE
  5
E7
  8
SIZE
  6
CONTINUOUS
 62
    30
 10
-692.45752775187509
 20
507.0
 30
0.0
 40
5.0
  0
LINE
  5
E9
  8
OUTLINE
  6
CONTINUOUS
 62
     3
 10
-367.5
 20
507.0
 30
0.0
 11
-367.5
 21
214.0
 31
0.0
  0
LINE
  5
EC
  8
NOTE
  6
CONTINUOUS
 62
     4
 10
-437.5
 20
442.94451500000008
 30
0.0
 11
-437.5
 21
299.05548499999992
 31
0.0
  0
LINE
  5
ED
  8
DETAIL
  6
CONTINUOUS
 62
     5
 10
-397.5
 20
471.0
 30
0.0
 11
-397.5
 21
271.0
 31
0.0
  0
LINE
  5
EE
  8
DETAIL
  6
CONTINUOUS
 62
     5
 10
-437.5
 20
468.5
 30
0.0
 11
-437.5
 21
273.5
 31
0.0
  0
LINE
  5
EF
  8
DETAIL
  6
CONTINUOUS
 62
     5
 10
-367.5
 20
507.0
 30
0.0
 11
-367.5
 21
214.0
 31
0.0
  0
LINE
  5
F0
  8
DETAIL
  6
CONTINUOUS
 62
     5
 10
-382.5
 20
475.0
 30
0.0
 11
-382.5
 21
267.0
 31
0.0
  0
LINE
  5
F2
  8
NOTE
  6
CONTINUOUS
 62
     4
 10
-365.55548499999992
 20
371.0
 30
0.0
 11
-509.44451500000008
 21
371.0
 31
0.0
  0
ARC
  5
F3
  8
DETAIL
  6
CONTINUOUS
 62
     5
 10
-384.5
 20
269.0
 30
0.0
 40
2.0
 50
0.0
 51
90.0
  0
LINE
  5
F4
  8
DETAIL
  6
CONTINUOUS
 62
     5
 10
-402.5
 20
271.0
 30
0.0
 11
-437.5
 21
273.5
 31
0.0
  0
LINE
  5
F5
  8
DETAIL
  6
CONTINUOUS
 62
     5
 10
-402.5
 20
271.0
 30
0.0
 11
-384.5
 21
271.0
 31
0.0
  0
LINE
  5
F6
  8
DETAIL
  6
CONTINUOUS
 62
     5
 10
-378.5
 20
263.0
 30
0.0
 11
-367.5
 21
263.0
 31
0.0
  0
ARC
  5
F7
  8
DETAIL
  6
CONTINUOUS
 62
     5
 10
-378.5
 20
267.0
 30
0.0
 40
4.0
 50
180.0
 51
270.0
  0
LINE
  5
FD
  8
NOTE
  6
CONTINUOUS
 62
     4
 10
-333.5
 20
521.99516599999947
 30
0.0
 11
-333.5
 21
492.00483399999922
 31
0.0
  0
ARC
  5
FE
  8
DETAIL
  6
CONTINUOUS
 62
     5
 10
-364.50036799999998
 20
472.0
 30
0.0
 40
3.0
 50
179.9993980000018
 51
270.0
  0
LINE
  5
FF
  8
DETAIL
  6
CONTINUOUS
 62
     5
 10
-347.00025300000021
 20
495.0
 30
0.0
 11
-364.5002530000001
 21
495.0
 31
0.0
  0
LINE
  5
100
  8
DETAIL
  6
CONTINUOUS
 62
     5
 10
-344.0002530000001
 20
507.0
 30
0.0
 11
-344.0002530000001
 21
498.0
 31
0.0
  0
ARC
  5
101
  8
DETAIL
  6
CONTINUOUS
 62
     5
 10
-364.5002530000001
 20
498.0
 30
0.0
 40
3.0
 50
180.0
 51
270.0
  0
ARC
  5
102
  8
DETAIL
  6
CONTINUOUS
 62
     5
 10
-347.00025300000021
 20
498.0
 30
0.0
 40
3.0
 50
270.0
 51
0.0
  0
ARC
  5
103
  8
DETAIL
  6
CONTINUOUS
 62
     5
 10
-329.0002530000001
 20
498.0
 30
0.0
 40
3.0
 50
180.0
 51
270.0
  0
LINE
  5
104
  8
DETAIL
  6
CONTINUOUS
 62
     5
 10
-332.00025300000021
 20
507.0
 30
0.0
 11
-332.00025300000021
 21
498.0
 31
0.0
  0
ARC
  5
105
  8
DETAIL
  6
CONTINUOUS
 62
     5
 10
-384.5
 20
473.0
 30
0.0
 40
2.0
 50
270.0
 51
0.0
  0
LINE
  5
106
  8
DETAIL
  6
CONTINUOUS
 62
     5
 10
-402.5
 20
471.0
 30
0.0
 11
-384.5
 21
471.0
 31
0.0
  0
LINE
  5
107
  8
DETAIL
  6
CONTINUOUS
 62
     5
 10
-402.5
 20
471.0
 30
0.0
 11
-437.5
 21
468.5
 31
0.0
  0
LINE
  5
108
  8
DETAIL
  6
CONTINUOUS
 62
     5
 10
-378.5
 20
479.0
 30
0.0
 11
-367.5
 21
479.0
 31
0.0
  0
ARC
  5
109
  8
DETAIL
  6
CONTINUOUS
 62
     5
 10
-378.5
 20
475.0
 30
0.0
 40
4.0
 50
90.0
 51
180.0
  0
TEXT
  5
10F
  8
SIZE
  6
CONTINUOUS
 62
    30
 10
-575.84334742857129
 20
864.44769899999994
 30
0.0
 40
55.0
  1
128
 41
0.9
 72
     1
 11
-516.91477599999985
 21
864.44769899999994
 31
0.0
  0
LINE
  5
110
  8
SIZE
  6
CONTINUOUS
 62
    30
 10
-367.5
 20
846.44769899999972
 30
0.0
 11
-593.84334799999942
 21
846.44769899999972
 31
0.0
  0
LINE
  5
112
  8
SIZE
  6
CONTINUOUS
 62
    30
 10
-362.5
 20
846.44769899999972
 30
0.0
 11
-357.5
 21
846.44769899999972
 31
0.0
  0
CIRCLE
  5
113
  8
SIZE
  6
CONTINUOUS
 62
    30
 10
-367.5
 20
846.44769899999972
 30
0.0
 40
5.0
  0
TEXT
  5
114
  8
SIZE
  6
CONTINUOUS
 62
    30
 10
-547.45646296150596
 20
1112.327753298182
 30
0.0
 40
55.0
  1
70
 41
0.9
 72
     1
 11
-507.38503439007752
 21
1112.327753298182
 31
0.0
  0
CIRCLE
  5
115
  8
SIZE
  6
CONTINUOUS
 62
    30
 10
-437.5
 20
1093.756433
 30
0.0
 40
5.0
  0
LINE
  5
116
  8
SIZE
  6
CONTINUOUS
 62
    30
 10
-362.5
 20
1093.756433
 30
0.0
 11
-357.5
 21
1093.756433
 31
0.0
  0
CIRCLE
  5
117
  8
SIZE
  6
CONTINUOUS
 62
    30
 10
-367.5
 20
1093.756433
 30
0.0
 40
5.0
  0
LINE
  5
118
  8
SIZE
  6
CONTINUOUS
 62
    30
 10
-367.5
 20
1093.756433
 30
0.0
 11
-555.26343656120662
 21
1093.756433
 31
0.0
  0
LINE
  5
119
  8
SIZE
  6
CONTINUOUS
 62
    30
 10
-357.5
 20
1093.756433
 30
0.0
 11
-347.5
 21
1093.756433
 31
0.0
  0
LINE
  5
11A
  8
SIZE
  6
CONTINUOUS
 62
    30
 10
-362.5
 20
1093.756433
 30
0.0
 11
-357.5
 21
1093.756433
 31
0.0
  0
CIRCLE
  5
11B
  8
SIZE
  6
CONTINUOUS
 62
    30
 10
-367.5
 20
1093.756433
 30
0.0
 40
5.0
  0
LINE
  5
11C
  8
BASIS
  6
DASHDOT
 62
     6
 10
0.0
 20
540.57171300000005
 30
0.0
 11
0.0
 21
-53.886171000000097
 31
0.0
  0
CIRCLE
  5
11D
  8
ARRANGE
  6
CONTINUOUS
 62
     1
 10
0.0
 20
0.0
 30
0.0
 40
50.0
  0
LINE
  5
11E
  8
OUTLINE
  6
CONTINUOUS
 62
     3
 10
-157.5
 20
0.0
 30
0.0
 11
-157.5
 21
-4.0065080000003919
 31
0.0
  0
LINE
  5
11F
  8
OUTLINE
  6
CONTINUOUS
 62
     3
 10
442.49999999999989
 20
0.0
 30
0.0
 11
442.49999999999989
 21
-4.0065080000003919
 31
0.0
  0
LINE
  5
120
  8
ARRANGE
  6
CONTINUOUS
 62
     1
 10
-49.963762999999737
 20
49.596594999999979
 30
0.0
 11
49.963762999999737
 21
-49.596594999999979
 31
0.0
  0
LINE
  5
121
  8
ARRANGE
  6
CONTINUOUS
 62
     1
 10
-50.03735000000006
 20
-49.522353000000301
 30
0.0
 11
50.03735000000006
 21
49.522353000000301
 31
0.0
  0
LINE
  5
122
  8
DETAIL
  6
CONTINUOUS
 62
     5
 10
442.49999999999989
 20
-4.0065080000003919
 30
0.0
 11
442.49999999999989
 21
0.0
 31
0.0
  0
LINE
  5
123
  8
DETAIL
  6
CONTINUOUS
 62
     5
 10
-157.5
 20
-4.0065080000003919
 30
0.0
 11
-157.5
 21
0.0
 31
0.0
  0
TEXT
  5
124
  8
SIZE
  6
CONTINUOUS
 62
    30
 10
-132.78230671428591
 20
-390.31333499999982
 30
0.0
 40
55.0
  1
566(天井開口寸法)
 41
0.9
 72
     1
 11
140.88197899999969
 21
-390.31333499999982
 31
0.0
  0
LINE
  5
125
  8
SIZE
  6
CONTINUOUS
 62
    30
 10
415.5
 20
-406.71809699999989
 30
0.0
 11
-130.5
 21
-406.71809699999989
 31
0.0
  0
TEXT
  5
126
  8
SIZE
  6
CONTINUOUS
 62
    30
 10
86.534998857143052
 20
-232.62665600000039
 30
0.0
 40
55.0
  1
600
 41
0.9
 72
     1
 11
150.17785600000019
 21
-232.62665600000039
 31
0.0
  0
LINE
  5
127
  8
SIZE
  6
CONTINUOUS
 62
    30
 10
432.5
 20
-250.62665600000039
 30
0.0
 11
-147.5
 21
-250.62665600000039
 31
0.0
  0
LINE
  5
128
  8
OUTLINE
  6
CONTINUOUS
 62
     3
 10
-126.8000000000002
 20
-8.0
 30
0.0
 11
411.80000000000001
 21
-8.0
 31
0.0
  0
LINE
  5
129
  8
DETAIL
  6
CONTINUOUS
 62
     5
 10
-126.8000000000002
 20
-8.0
 30
0.0
 11
411.80000000000001
 21
-8.0
 31
0.0
  0
LINE
  5
12A
  8
SIZE
  6
CONTINUOUS
 62
    30
 10
-140.5
 20
-19.0
 30
0.0
 11
-140.5
 21
-436.71809699999989
 31
0.0
  0
LINE
  5
12B
  8
SIZE
  6
CONTINUOUS
 62
    30
 10
-140.5
 20
-19.0
 30
0.0
 11
-140.5
 21
-436.71809699999989
 31
0.0
  0
TEXT
  5
12C
  8
SIZE
  6
CONTINUOUS
 62
    30
 10
-317.64285714285711
 20
-388.718097
 30
0.0
 40
55.0
  1
227
 41
0.9
 72
     1
 11
-254.0
 21
-388.718097
 31
0.0
  0
LINE
  5
12D
  8
SIZE
  6
CONTINUOUS
 62
    30
 10
-145.5
 20
-406.71809699999989
 30
0.0
 11
-150.5
 21
-406.71809699999989
 31
0.0
  0
CIRCLE
  5
12E
  8
SIZE
  6
CONTINUOUS
 62
    30
 10
-140.5
 20
-406.71809699999989
 30
0.0
 40
5.0
  0
LINE
  5
12F
  8
SIZE
  6
CONTINUOUS
 62
    30
 10
-135.5
 20
-406.71809699999989
 30
0.0
 11
-130.5
 21
-406.71809699999989
 31
0.0
  0
CIRCLE
  5
130
  8
SIZE
  6
CONTINUOUS
 62
    30
 10
-140.5
 20
-406.71809699999989
 30
0.0
 40
5.0
  0
LINE
  5
131
  8
SIZE
  6
CONTINUOUS
 62
    30
 10
-130.5
 20
-149.31652800000029
 30
0.0
 11
-13.7857140000001
 21
-149.31652800000029
 31
0.0
  0
LINE
  5
132
  8
SIZE
  6
CONTINUOUS
 62
    30
 10
-140.5
 20
-19.0
 30
0.0
 11
-140.5
 21
-179.3165280000002
 31
0.0
  0
LINE
  5
133
  8
SIZE
  6
CONTINUOUS
 62
    30
 10
-157.5
 20
-24.006508000000402
 30
0.0
 11
-157.5
 21
-179.3165280000002
 31
0.0
  0
LINE
  5
134
  8
SIZE
  6
CONTINUOUS
 62
    30
 10
-157.5
 20
-24.006508000000402
 30
0.0
 11
-157.5
 21
-280.62665600000042
 31
0.0
  0
LINE
  5
135
  8
SIZE
  6
CONTINUOUS
 62
    30
 10
-152.5
 20
-250.62665600000039
 30
0.0
 11
-147.5
 21
-250.62665600000039
 31
0.0
  0
CIRCLE
  5
136
  8
SIZE
  6
CONTINUOUS
 62
    30
 10
-157.5
 20
-250.62665600000039
 30
0.0
 40
5.0
  0
LINE
  5
137
  8
SIZE
  6
CONTINUOUS
 62
    30
 10
-135.5
 20
-149.31652800000029
 30
0.0
 11
-130.5
 21
-149.31652800000029
 31
0.0
  0
CIRCLE
  5
138
  8
SIZE
  6
CONTINUOUS
 62
    30
 10
-140.5
 20
-149.31652800000029
 30
0.0
 40
5.0
  0
CIRCLE
  5
139
  8
SIZE
  6
CONTINUOUS
 62
    30
 10
-157.5
 20
-149.31652800000029
 30
0.0
 40
5.0
  0
LINE
  5
13A
  8
SIZE
  6
CONTINUOUS
 62
    30
 10
-157.5
 20
-149.31652800000029
 30
0.0
 11
-140.5
 21
-149.31652800000029
 31
0.0
  0
ARC
  5
13B
  8
OUTLINE
  6
CONTINUOUS
 62
     3
 10
-126.8000000000002
 20
112.0
 30
0.0
 40
120.0
 50
255.17702999999881
 51
270.0
  0
ARC
  5
13C
  8
DETAIL
  6
CONTINUOUS
 62
     5
 10
-126.8000000000002
 20
112.0
 30
0.0
 40
120.0
 50
255.17702999999881
 51
270.0
  0
TEXT
  5
13D
  8
SIZE
  6
CONTINUOUS
 62
    30
 10
-102.4999998571427
 20
-131.31652800000029
 30
0.0
 40
55.0
  1
17
 41
0.9
 72
     1
 11
-67.142856999999822
 21
-131.31652800000029
 31
0.0
  0
LINE
  5
13E
  8
SIZE
  6
CONTINUOUS
 62
    30
 10
425.49999999999989
 20
-19.0
 30
0.0
 11
425.49999999999989
 21
-436.71809699999989
 31
0.0
  0
LINE
  5
13F
  8
SIZE
  6
CONTINUOUS
 62
    30
 10
420.5
 20
-406.71809699999989
 30
0.0
 11
415.5
 21
-406.71809699999989
 31
0.0
  0
CIRCLE
  5
140
  8
SIZE
  6
CONTINUOUS
 62
    30
 10
425.49999999999989
 20
-406.71809699999989
 30
0.0
 40
5.0
  0
TEXT
  5
141
  8
SIZE
  6
CONTINUOUS
 62
    30
 10
316.78571414285699
 20
-131.31652800000029
 30
0.0
 40
55.0
  1
17
 41
0.9
 72
     1
 11
352.14285699999982
 21
-131.31652800000029
 31
0.0
  0
LINE
  5
142
  8
SIZE
  6
CONTINUOUS
 62
    30
 10
415.5
 20
-149.31652800000029
 30
0.0
 11
298.7857140000001
 21
-149.31652800000029
 31
0.0
  0
LINE
  5
143
  8
SIZE
  6
CONTINUOUS
 62
    30
 10
425.49999999999989
 20
-19.0
 30
0.0
 11
425.49999999999989
 21
-179.3165280000002
 31
0.0
  0
LINE
  5
144
  8
SIZE
  6
CONTINUOUS
 62
    30
 10
442.49999999999989
 20
-24.006508000000402
 30
0.0
 11
442.49999999999989
 21
-179.3165280000002
 31
0.0
  0
LINE
  5
145
  8
SIZE
  6
CONTINUOUS
 62
    30
 10
442.49999999999989
 20
-24.006508000000402
 30
0.0
 11
442.49999999999989
 21
-280.62665600000042
 31
0.0
  0
LINE
  5
146
  8
SIZE
  6
CONTINUOUS
 62
    30
 10
437.5
 20
-250.62665600000039
 30
0.0
 11
432.5
 21
-250.62665600000039
 31
0.0
  0
CIRCLE
  5
147
  8
SIZE
  6
CONTINUOUS
 62
    30
 10
442.49999999999989
 20
-250.62665600000039
 30
0.0
 40
5.0
  0
LINE
  5
148
  8
SIZE
  6
CONTINUOUS
 62
    30
 10
420.5
 20
-149.31652800000029
 30
0.0
 11
415.5
 21
-149.31652800000029
 31
0.0
  0
CIRCLE
  5
149
  8
SIZE
  6
CONTINUOUS
 62
    30
 10
425.49999999999989
 20
-149.31652800000029
 30
0.0
 40
5.0
  0
CIRCLE
  5
14A
  8
SIZE
  6
CONTINUOUS
 62
    30
 10
442.49999999999989
 20
-149.31652800000029
 30
0.0
 40
5.0
  0
LINE
  5
14B
  8
SIZE
  6
CONTINUOUS
 62
    30
 10
442.49999999999989
 20
-149.31652800000029
 30
0.0
 11
425.49999999999989
 21
-149.31652800000029
 31
0.0
  0
ARC
  5
14C
  8
OUTLINE
  6
CONTINUOUS
 62
     3
 10
411.80000000000001
 20
112.0
 30
0.0
 40
120.0
 50
270.0
 51
284.82297000000119
  0
ARC
  5
14D
  8
DETAIL
  6
CONTINUOUS
 62
     5
 10
411.80000000000001
 20
112.0
 30
0.0
 40
120.0
 50
270.0
 51
284.82297000000119
  0
LINE
  5
14E
  8
NOTE
  6
CONTINUOUS
 62
     4
 10
497.85074600000007
 20
286.87778199999963
 30
0.0
 11
900.11997599999984
 21
286.87778199999963
 31
0.0
  0
TEXT
  5
14F
  8
NOTE
  6
CONTINUOUS
 62
     4
 10
496.04113099999989
 20
302.70434300000028
 30
0.0
 40
60.0
  1
4-%%C2.9取付穴
 50
359.99999700000001
 41
0.7
  7
STANDARD1
  0
LINE
  5
150
  8
SIZE
  6
CONTINUOUS
 62
    30
 10
323.44451500000008
 20
387.0
 30
0.0
 11
606.87223300000005
 21
387.0
 31
0.0
  0
LINE
  5
151
  8
SIZE
  6
CONTINUOUS
 62
    30
 10
387.5
 20
507.0
 30
0.0
 11
606.87223300000005
 21
507.0
 31
0.0
  0
LINE
  5
152
  8
NOTE
  6
CONTINUOUS
 62
     4
 10
464.97213100000022
 20
732.96709699999974
 30
0.0
 11
912.6479814764316
 21
732.96709699999974
 31
0.0
  0
LINE
  5
153
  8
SIZE
  6
CONTINUOUS
 62
    30
 10
241.5
 20
498.09389699999952
 30
0.0
 11
241.5
 21
867.96975599999985
 31
0.0
  0
LINE
  5
154
  8
SIZE
  6
CONTINUOUS
 62
    30
 10
367.5
 20
527.0
 30
0.0
 11
367.5
 21
867.96975599999985
 31
0.0
  0
TEXT
  5
155
  8
NOTE
  6
CONTINUOUS
 62
     4
 10
-99.916984999999841
 20
650.77151899999978
 30
0.0
 40
60.0
  1
%%C150
 50
359.99999700000001
 41
0.7
  7
STANDARD1
  0
LINE
  5
156
  8
SIZE
  6
CONTINUOUS
 62
    30
 10
-175.5
 20
360.49999200000002
 30
0.0
 11
-175.5
 21
876.44769899999983
 31
0.0
  0
LINE
  5
157
  8
SIZE
  6
CONTINUOUS
 62
    30
 10
-239.5
 20
332.5026340000004
 30
0.0
 11
-239.5
 21
876.44769899999983
 31
0.0
  0
LINE
  5
158
  8
SIZE
  6
CONTINUOUS
 62
    30
 10
-239.5
 20
332.5026340000004
 30
0.0
 11
-239.5
 21
876.44769899999983
 31
0.0
  0
LINE
  5
159
  8
NOTE
  6
CONTINUOUS
 62
     4
 10
464.97213100000022
 20
732.96709699999974
 30
0.0
 11
336.5
 21
507.0
 31
0.0
  0
LINE
  5
15A
  8
SIZE
  6
CONTINUOUS
 62
    30
 10
367.5
 20
527.0
 30
0.0
 11
367.5
 21
1123.756433
 31
0.0
  0
LINE
  5
15B
  8
SIZE
  6
CONTINUOUS
 62
    30
 10
336.5
 20
541.9951659999997
 30
0.0
 11
336.5
 21
997.98808300000019
 31
0.0
  0
LINE
  5
15C
  8
SIZE
  6
CONTINUOUS
 62
    30
 10
336.5
 20
541.9951659999997
 30
0.0
 11
336.5
 21
997.98808300000019
 31
0.0
  0
LINE
  5
15D
  8
SIZE
  6
CONTINUOUS
 62
    30
 10
367.5
 20
527.0
 30
0.0
 11
367.5
 21
997.98808300000019
 31
0.0
  0
LINE
  5
15E
  8
OUTLINE
  6
CONTINUOUS
 62
     3
 10
-157.5
 20
0.0
 30
0.0
 11
442.49999999999989
 21
0.0
 31
0.0
  0
TEXT
  5
15F
  8
SIZE
  6
CONTINUOUS
 62
    30
 10
608.54311623346632
 20
151.46812938659409
 30
0.0
 40
55.0
  1
%%c172
 50
324.94620404021998
 41
0.9
 72
     1
 11
675.11390645738902
 21
104.76154918786369
 31
0.0
  0
LINE
  5
160
  8
NOTE
  6
CONTINUOUS
 62
     4
 10
-123.8493509999998
 20
633.13209800000004
 30
0.0
 11
150.81277399999999
 21
633.13209800000004
 31
0.0
  0
LINE
  5
161
  8
OUTLINE
  6
CONTINUOUS
 62
     3
 10
410.97000000000008
 20
47.0
 30
0.0
 11
-125.9700000000002
 21
47.0
 31
0.0
  0
LINE
  5
162
  8
DETAIL
  6
CONTINUOUS
 62
     5
 10
-125.9700000000002
 20
47.0
 30
0.0
 11
410.97000000000008
 21
47.0
 31
0.0
  0
LINE
  5
163
  8
NOTE
  6
CONTINUOUS
 62
     4
 10
-240.5
 20
1.0
 30
0.0
 11
-140.5
 21
1.0
 31
0.0
  0
LINE
  5
164
  8
NOTE
  6
CONTINUOUS
 62
     4
 10
-240.5
 20
21.0
 30
0.0
 11
-140.5
 21
21.0
 31
0.0
  0
LINE
  5
165
  8
NOTE
  6
CONTINUOUS
 62
     4
 10
-198.838346
 20
1.0
 30
0.0
 11
-218.838346
 21
21.0
 31
0.0
  0
LINE
  5
166
  8
NOTE
  6
CONTINUOUS
 62
     4
 10
-203.838346
 20
1.0
 30
0.0
 11
-223.838346
 21
21.0
 31
0.0
  0
LINE
  5
167
  8
NOTE
  6
CONTINUOUS
 62
     4
 10
-208.838346
 20
1.0
 30
0.0
 11
-228.838346
 21
21.0
 31
0.0
  0
LINE
  5
168
  8
OUTLINE
  6
CONTINUOUS
 62
     3
 10
-125.9700000000002
 20
47.0
 30
0.0
 11
-125.9700000000002
 21
0.0
 31
0.0
  0
LINE
  5
169
  8
NOTE
  6
CONTINUOUS
 62
     4
 10
-140.5
 20
1.0
 30
0.0
 11
-140.5
 21
21.0
 31
0.0
  0
LINE
  5
16A
  8
NOTE
  6
CONTINUOUS
 62
     4
 10
-158.838346
 20
1.0
 30
0.0
 11
-178.838346
 21
21.0
 31
0.0
  0
LINE
  5
16B
  8
NOTE
  6
CONTINUOUS
 62
     4
 10
-163.838346
 20
1.0
 30
0.0
 11
-183.838346
 21
21.0
 31
0.0
  0
LINE
  5
16C
  8
NOTE
  6
CONTINUOUS
 62
     4
 10
-168.838346
 20
1.0
 30
0.0
 11
-188.838346
 21
21.0
 31
0.0
  0
LINE
  5
16D
  8
DETAIL
  6
CONTINUOUS
 62
     5
 10
-125.9700000000002
 20
0.0
 30
0.0
 11
-125.9700000000002
 21
47.0
 31
0.0
  0
LINE
  5
16E
  8
NOTE
  6
CONTINUOUS
 62
     4
 10
-245.0
 20
307.0
 30
0.0
 11
-234.0
 21
307.0
 31
0.0
  0
LINE
  5
16F
  8
NOTE
  6
CONTINUOUS
 62
     4
 10
-239.5
 20
312.5026340000004
 30
0.0
 11
-239.5
 21
301.50264900000002
 31
0.0
  0
LINE
  5
170
  8
NOTE
  6
CONTINUOUS
 62
     4
 10
-239.5
 20
307.0
 30
0.0
 11
-256.35820151327061
 21
336.96916300609718
 31
0.0
  0
LINE
  5
171
  8
NOTE
  6
CONTINUOUS
 62
     4
 10
-239.5
 20
307.0
 30
0.0
 11
-267.30657696117493
 21
327.22730690353512
 31
0.0
  0
LINE
  5
172
  8
NOTE
  6
CONTINUOUS
 62
     4
 10
-245.0
 20
307.0
 30
0.0
 11
-234.0
 21
307.0
 31
0.0
  0
LINE
  5
173
  8
NOTE
  6
CONTINUOUS
 62
     4
 10
-239.5
 20
312.49999250000019
 30
0.0
 11
-239.5
 21
301.50000749999981
 31
0.0
  0
LINE
  5
174
  8
NOTE
  6
CONTINUOUS
 62
     4
 10
-175.5
 20
335.0
 30
0.0
 11
-193.61531564529611
 21
364.22644342260151
 31
0.0
  0
LINE
  5
175
  8
NOTE
  6
CONTINUOUS
 62
     4
 10
-175.5
 20
335.0
 30
0.0
 11
-204.14023871291391
 21
354.02856849788338
 31
0.0
  0
LINE
  5
176
  8
NOTE
  6
CONTINUOUS
 62
     4
 10
-181.0
 20
335.0
 30
0.0
 11
-170.0
 21
335.0
 31
0.0
  0
LINE
  5
177
  8
NOTE
  6
CONTINUOUS
 62
     4
 10
-175.5
 20
340.49999200000002
 30
0.0
 11
-175.5
 21
329.50000799999998
 31
0.0
  0
LINE
  5
178
  8
NOTE
  6
CONTINUOUS
 62
     4
 10
-181.0
 20
335.0
 30
0.0
 11
-170.0
 21
335.0
 31
0.0
  0
LINE
  5
179
  8
NOTE
  6
CONTINUOUS
 62
     4
 10
-175.5
 20
340.49999200000002
 30
0.0
 11
-175.5
 21
329.50000799999998
 31
0.0
  0
ARC
  5
17A
  8
DETAIL
  6
CONTINUOUS
 62
     5
 10
-311.50025300000021
 20
495.0
 30
0.0
 40
3.0
 50
270.0
 51
0.0
  0
ARC
  5
17B
  8
DETAIL
  6
CONTINUOUS
 62
     5
 10
-325.50025300000021
 20
472.0
 30
0.0
 40
3.0
 50
270.0
 51
0.0
  0
LINE
  5
17C
  8
DETAIL
  6
CONTINUOUS
 62
     5
 10
-308.5002530000001
 20
507.0
 30
0.0
 11
-308.5002530000001
 21
495.0
 31
0.0
  0
ARC
  5
17D
  8
DETAIL
  6
CONTINUOUS
 62
     5
 10
-311.50025300000021
 20
498.0
 30
0.0
 40
3.0
 50
270.0
 51
0.0
  0
LINE
  5
17E
  8
DETAIL
  6
CONTINUOUS
 62
     5
 10
-311.50025300000021
 20
492.0
 30
0.0
 11
-322.50025300000021
 21
492.0
 31
0.0
  0
LINE
  5
17F
  8
DETAIL
  6
CONTINUOUS
 62
     5
 10
-322.50025300000021
 20
492.0
 30
0.0
 11
-322.50025300000021
 21
472.0
 31
0.0
  0
LINE
  5
180
  8
NOTE
  6
CONTINUOUS
 62
     4
 10
497.85074600000007
 20
286.87778199999963
 30
0.0
 11
327.5
 21
387.0
 31
0.0
  0
LINE
  5
181
  8
NOTE
  6
CONTINUOUS
 62
     4
 10
327.5
 20
387.0
 30
0.0
 11
360.5703510000003
 21
377.58185099999992
 31
0.0
  0
LINE
  5
182
  8
NOTE
  6
CONTINUOUS
 62
     4
 10
327.5
 20
387.0
 30
0.0
 11
351.4306900000002
 21
362.30846800000018
 31
0.0
  0
LINE
  5
183
  8
SIZE
  6
CONTINUOUS
 62
    30
 10
757.8359151462023
 20
24.734741972835309
 30
0.0
 11
171.09926923177679
 21
436.39369536172882
 31
0.0
  0
CIRCLE
  5
184
  8
NOTE
  6
CONTINUOUS
 62
     4
 10
241.5
 20
387.0
 30
0.0
 40
86.0
  0
LINE
  5
185
  8
NOTE
  6
CONTINUOUS
 62
     4
 10
241.5
 20
448.94451500000002
 30
0.0
 11
241.5
 21
325.05548499999981
 31
0.0
  0
CIRCLE
  5
186
  8
DETAIL
  6
CONTINUOUS
 62
     5
 10
241.5
 20
387.0
 30
0.0
 40
75.0
  0
LINE
  5
187
  8
OUTLINE
  6
CONTINUOUS
 62
     3
 10
367.5
 20
507.0
 30
0.0
 11
367.5
 21
214.0
 31
0.0
  0
LINE
  5
188
  8
DETAIL
  6
CONTINUOUS
 62
     5
 10
367.5
 20
507.0
 30
0.0
 11
367.5
 21
214.0
 31
0.0
  0
CIRCLE
  5
189
  8
SIZE
  6
CONTINUOUS
 62
    30
 10
171.09926923177679
 20
436.39369536172882
 30
0.0
 40
4.9999999999999991
  0
LINE
  5
18A
  8
NOTE
  6
CONTINUOUS
 62
     4
 10
241.5
 20
295.90610300000031
 30
0.0
 11
241.5
 21
306.09389699999969
 31
0.0
  0
LINE
  5
18B
  8
NOTE
  6
CONTINUOUS
 62
     4
 10
236.4061030000002
 20
301.0
 30
0.0
 11
246.5938969999998
 21
301.0
 31
0.0
  0
CIRCLE
  5
18C
  8
DETAIL
  6
CONTINUOUS
 62
     5
 10
241.5
 20
301.0
 30
0.0
 40
1.45
  0
TEXT
  5
18D
  8
SIZE
  6
CONTINUOUS
 62
    30
 10
453.50000042857101
 20
99.257330000000366
 30
0.0
 40
55.0
  1
58
 41
0.9
 72
     1
 11
493.57142899999963
 21
99.257330000000366
 31
0.0
  0
LINE
  5
18E
  8
SIZE
  6
CONTINUOUS
 62
    30
 10
425.49999999999989
 20
81.257330000000337
 30
0.0
 11
551.64285699999982
 21
81.257330000000337
 31
0.0
  0
LINE
  5
18F
  8
NOTE
  6
CONTINUOUS
 62
     4
 10
467.16165399999949
 20
1.0
 30
0.0
 11
447.16165399999937
 21
21.0
 31
0.0
  0
LINE
  5
190
  8
NOTE
  6
CONTINUOUS
 62
     4
 10
462.16165399999949
 20
1.0
 30
0.0
 11
442.16165399999949
 21
21.0
 31
0.0
  0
LINE
  5
191
  8
NOTE
  6
CONTINUOUS
 62
     4
 10
457.16165399999932
 20
1.0
 30
0.0
 11
437.16165399999949
 21
21.0
 31
0.0
  0
LINE
  5
192
  8
NOTE
  6
CONTINUOUS
 62
     4
 10
425.49999999999989
 20
21.0
 30
0.0
 11
518.20409399999971
 21
21.0
 31
0.0
  0
LINE
  5
193
  8
NOTE
  6
CONTINUOUS
 62
     4
 10
425.49999999999989
 20
1.0
 30
0.0
 11
518.20409399999971
 21
1.0
 31
0.0
  0
LINE
  5
194
  8
SIZE
  6
CONTINUOUS
 62
    30
 10
420.5
 20
81.257330000000337
 30
0.0
 11
415.5
 21
81.257330000000337
 31
0.0
  0
CIRCLE
  5
195
  8
SIZE
  6
CONTINUOUS
 62
    30
 10
425.49999999999989
 20
81.257330000000337
 30
0.0
 40
5.0
  0
LINE
  5
196
  8
SIZE
  6
CONTINUOUS
 62
    30
 10
372.5
 20
81.257330000000337
 30
0.0
 11
377.5
 21
81.257330000000337
 31
0.0
  0
CIRCLE
  5
197
  8
SIZE
  6
CONTINUOUS
 62
    30
 10
367.5
 20
81.257330000000337
 30
0.0
 40
5.0
  0
LINE
  5
198
  8
SIZE
  6
CONTINUOUS
 62
    30
 10
377.5
 20
81.257330000000337
 30
0.0
 11
415.5
 21
81.257330000000337
 31
0.0
  0
LINE
  5
199
  8
SIZE
  6
CONTINUOUS
 62
    30
 10
425.49999999999989
 20
41.0
 30
0.0
 11
425.49999999999989
 21
111.25733000000029
 31
0.0
  0
LINE
  5
19A
  8
SIZE
  6
CONTINUOUS
 62
    30
 10
367.5
 20
192.0
 30
0.0
 11
367.5
 21
51.257330000000358
 31
0.0
  0
LINE
  5
19B
  8
OUTLINE
  6
CONTINUOUS
 62
     3
 10
410.97000000000008
 20
0.0
 30
0.0
 11
410.97000000000008
 21
47.0
 31
0.0
  0
LINE
  5
19C
  8
NOTE
  6
CONTINUOUS
 62
     4
 10
425.49999999999989
 20
1.0
 30
0.0
 11
425.49999999999989
 21
21.0
 31
0.0
  0
LINE
  5
19D
  8
DETAIL
  6
CONTINUOUS
 62
     5
 10
410.97000000000008
 20
0.0
 30
0.0
 11
410.97000000000008
 21
47.0
 31
0.0
  0
LINE
  5
19E
  8
DETAIL
  6
CONTINUOUS
 62
     5
 10
-157.5
 20
0.0
 30
0.0
 11
442.49999999999989
 21
0.0
 31
0.0
  0
LINE
  5
19F
  8
NOTE
  6
CONTINUOUS
 62
     4
 10
497.16165399999937
 20
1.0
 30
0.0
 11
477.16165399999932
 21
21.0
 31
0.0
  0
LINE
  5
1A0
  8
NOTE
  6
CONTINUOUS
 62
     4
 10
502.16165399999932
 20
1.0
 30
0.0
 11
482.16165399999932
 21
21.0
 31
0.0
  0
LINE
  5
1A1
  8
NOTE
  6
CONTINUOUS
 62
     4
 10
507.16165399999932
 20
1.0
 30
0.0
 11
487.16165399999949
 21
21.0
 31
0.0
  0
LINE
  5
1A2
  8
NOTE
  6
CONTINUOUS
 62
     4
 10
336.5
 20
507.0
 30
0.0
 11
359.51506400000022
 21
532.54714299999955
 31
0.0
  0
LINE
  5
1A3
  8
NOTE
  6
CONTINUOUS
 62
     4
 10
336.5
 20
507.0
 30
0.0
 11
343.65805799999998
 21
540.63200700000004
 31
0.0
  0
CIRCLE
  5
1A4
  8
FIX
  6
CONTINUOUS
 62
    11
 10
336.5
 20
507.0
 30
0.0
 40
12.421498
  0
LINE
  5
1A5
  8
NOTE
  6
CONTINUOUS
 62
     4
 10
351.4951659999997
 20
507.0
 30
0.0
 11
321.5048340000003
 21
507.0
 31
0.0
  0
LINE
  5
1A6
  8
DETAIL
  6
CONTINUOUS
 62
     5
 10
325.5
 20
469.0
 30
0.0
 11
364.5
 21
469.0
 31
0.0
  0
LINE
  5
1A7
  8
NOTE
  6
CONTINUOUS
 62
     4
 10
150.81277399999999
 20
633.13209800000004
 30
0.0
 11
241.5
 21
387.0
 31
0.0
  0
LINE
  5
1A8
  8
NOTE
  6
CONTINUOUS
 62
     4
 10
303.44451500000019
 20
387.0
 30
0.0
 11
179.55548499999981
 21
387.0
 31
0.0
  0
LINE
  5
1A9
  8
NOTE
  6
CONTINUOUS
 62
     4
 10
241.5
 20
387.0
 30
0.0
 11
220.41022699999991
 21
414.15826100000032
 31
0.0
  0
LINE
  5
1AA
  8
NOTE
  6
CONTINUOUS
 62
     4
 10
155.5
 20
381.9061030000002
 30
0.0
 11
155.5
 21
392.09389699999991
 31
0.0
  0
LINE
  5
1AB
  8
NOTE
  6
CONTINUOUS
 62
     4
 10
150.4061030000002
 20
387.0
 30
0.0
 11
160.59389699999971
 21
387.0
 31
0.0
  0
CIRCLE
  5
1AC
  8
DETAIL
  6
CONTINUOUS
 62
     5
 10
155.5
 20
387.0
 30
0.0
 40
1.45
  0
CIRCLE
  5
1AD
  8
SIZE
  6
CONTINUOUS
 62
    30
 10
311.90073076822182
 20
337.60630463827101
 30
0.0
 40
4.9999999999999991
  0
LINE
  5
1AE
  8
NOTE
  6
CONTINUOUS
 62
     4
 10
241.5
 20
467.90610299999997
 30
0.0
 11
241.5
 21
478.09389699999957
 31
0.0
  0
LINE
  5
1AF
  8
NOTE
  6
CONTINUOUS
 62
     4
 10
236.4061030000002
 20
473.0
 30
0.0
 11
246.5938969999998
 21
473.0
 31
0.0
  0
LINE
  5
1B0
  8
NOTE
  6
CONTINUOUS
 62
     4
 10
327.5
 20
381.9061030000002
 30
0.0
 11
327.5
 21
392.09389699999991
 31
0.0
  0
LINE
  5
1B1
  8
NOTE
  6
CONTINUOUS
 62
     4
 10
322.40610300000031
 20
387.0
 30
0.0
 11
332.5938970000002
 21
387.0
 31
0.0
  0
CIRCLE
  5
1B2
  8
DETAIL
  6
CONTINUOUS
 62
     5
 10
241.5
 20
473.0
 30
0.0
 40
1.45
  0
CIRCLE
  5
1B3
  8
DETAIL
  6
CONTINUOUS
 62
     5
 10
327.5
 20
387.0
 30
0.0
 40
1.45
  0
LINE
  5
1B4
  8
NOTE
  6
CONTINUOUS
 62
     4
 10
241.5
 20
387.0
 30
0.0
 11
236.814852
 21
421.06463100000002
 31
0.0
  0
LINE
  5
1B5
  8
NOTE
  6
CONTINUOUS
 62
     4
 10
336.5
 20
521.99516599999947
 30
0.0
 11
336.5
 21
492.00483399999922
 31
0.0
  0
ARC
  5
1B6
  8
DETAIL
  6
CONTINUOUS
 62
     5
 10
311.5
 20
495.0
 30
0.0
 40
3.0
 50
180.0
 51
270.0
  0
ARC
  5
1B7
  8
DETAIL
  6
CONTINUOUS
 62
     5
 10
325.5
 20
472.0
 30
0.0
 40
3.0
 50
180.0
 51
270.0
  0
LINE
  5
1B8
  8
DETAIL
  6
CONTINUOUS
 62
     5
 10
308.5
 20
507.0
 30
0.0
 11
308.5
 21
495.0
 31
0.0
  0
ARC
  5
1B9
  8
DETAIL
  6
CONTINUOUS
 62
     5
 10
329.0
 20
498.0
 30
0.0
 40
3.0
 50
270.0
 51
0.0
  0
LINE
  5
1BA
  8
DETAIL
  6
CONTINUOUS
 62
     5
 10
332.0
 20
507.0
 30
0.0
 11
332.0
 21
498.0
 31
0.0
  0
LINE
  5
1BB
  8
DETAIL
  6
CONTINUOUS
 62
     5
 10
329.0
 20
495.0
 30
0.0
 11
311.5
 21
495.0
 31
0.0
  0
ARC
  5
1BC
  8
DETAIL
  6
CONTINUOUS
 62
     5
 10
311.5
 20
498.0
 30
0.0
 40
3.0
 50
180.0
 51
270.0
  0
LINE
  5
1BD
  8
DETAIL
  6
CONTINUOUS
 62
     5
 10
311.5
 20
492.0
 30
0.0
 11
322.5
 21
492.0
 31
0.0
  0
LINE
  5
1BE
  8
DETAIL
  6
CONTINUOUS
 62
     5
 10
322.5
 20
492.0
 30
0.0
 11
322.5
 21
472.0
 31
0.0
  0
ARC
  5
1BF
  8
DETAIL
  6
CONTINUOUS
 62
     5
 10
364.5
 20
472.0
 30
0.0
 40
3.0
 50
270.0
 51
0.0
  0
LINE
  5
1C0
  8
DETAIL
  6
CONTINUOUS
 62
     5
 10
347.0
 20
495.0
 30
0.0
 11
364.5
 21
495.0
 31
0.0
  0
LINE
  5
1C1
  8
DETAIL
  6
CONTINUOUS
 62
     5
 10
344.0
 20
507.0
 30
0.0
 11
344.0
 21
498.0
 31
0.0
  0
ARC
  5
1C2
  8
DETAIL
  6
CONTINUOUS
 62
     5
 10
364.5
 20
498.0
 30
0.0
 40
3.0
 50
270.0
 51
0.0
  0
ARC
  5
1C3
  8
DETAIL
  6
CONTINUOUS
 62
     5
 10
347.0
 20
498.0
 30
0.0
 40
3.0
 50
180.0
 51
270.0
  0
TEXT
  5
1C4
  8
SIZE
  6
CONTINUOUS
 62
    30
 10
558.87223300000005
 20
534.9999995714287
 30
0.0
 40
55.0
  1
120
 50
90.0
 41
0.9
 72
     1
 11
558.87223300000005
 21
593.92857100000015
 31
0.0
  0
TEXT
  5
1C5
  8
NOTE
  6
CONTINUOUS
 62
     4
 10
-108.24577099999991
 20
721.45192999999983
 30
0.0
 40
60.0
  1
外気取入口
 50
359.99999700000001
 41
0.7
  7
STANDARD1
  0
TEXT
  5
1C6
  8
SIZE
  6
CONTINUOUS
 62
    30
 10
-161.18398999999999
 20
984.02628999999968
 30
0.0
 40
60.0
  1
(吊りボルトピッチ)
 50
359.99999700000001
 41
0.75
  7
STANDARD1
  0
LINE
  5
1C7
  8
SIZE
  6
CONTINUOUS
 62
    30
 10
326.5
 20
967.98808299999985
 30
0.0
 11
-323.5
 21
967.98808299999985
 31
0.0
  0
TEXT
  5
1C8
  8
SIZE
  6
CONTINUOUS
 62
    30
 10
-299.063289142857
 20
987.04086099999995
 30
0.0
 40
55.0
  1
670
 41
0.9
 72
     1
 11
-235.42043199999989
 21
987.04086099999995
 31
0.0
  0
TEXT
  5
1C9
  8
SIZE
  6
CONTINUOUS
 62
    30
 10
-154.4744926438579
 20
864.12163142020631
 30
0.0
 40
55.0
  1
64
 41
0.9
 72
     1
 11
-113.2244926438579
 21
864.12163142020631
 31
0.0
  0
LINE
  5
1CA
  8
SIZE
  6
CONTINUOUS
 62
    30
 10
-239.5
 20
846.44769899999972
 30
0.0
 11
-61.182519503145151
 21
846.44769899999972
 31
0.0
  0
LINE
  5
1CB
  8
SIZE
  6
CONTINUOUS
 62
    30
 10
-244.5
 20
846.44769899999972
 30
0.0
 11
-249.5
 21
846.44769899999972
 31
0.0
  0
CIRCLE
  5
1CC
  8
SIZE
  6
CONTINUOUS
 62
    30
 10
-239.5
 20
846.44769899999972
 30
0.0
 40
5.0
  0
LINE
  5
1CD
  8
SIZE
  6
CONTINUOUS
 62
    30
 10
-249.5
 20
846.44769899999972
 30
0.0
 11
-259.5
 21
846.44769899999972
 31
0.0
  0
LINE
  5
1CE
  8
SIZE
  6
CONTINUOUS
 62
    30
 10
-244.5
 20
846.44769899999972
 30
0.0
 11
-249.5
 21
846.44769899999972
 31
0.0
  0
CIRCLE
  5
1CF
  8
SIZE
  6
CONTINUOUS
 62
    30
 10
-239.5
 20
846.44769899999972
 30
0.0
 40
5.0
  0
LINE
  5
1D0
  8
SIZE
  6
CONTINUOUS
 62
    30
 10
-328.5
 20
967.98808299999985
 30
0.0
 11
-323.5
 21
967.98808299999985
 31
0.0
  0
CIRCLE
  5
1D1
  8
SIZE
  6
CONTINUOUS
 62
    30
 10
-175.5
 20
846.44769899999972
 30
0.0
 40
5.0
  0
TEXT
  5
1D2
  8
SIZE
  6
CONTINUOUS
 62
    30
 10
-63.642857142857139
 20
1111.756433
 30
0.0
 40
55.0
  1
735
 41
0.9
 72
     1
 11
0.0
 21
1111.756433
 31
0.0
  0
TEXT
  5
1D3
  8
SIZE
  6
CONTINUOUS
 62
    30
 10
405.50000028571441
 20
985.98808299999985
 30
0.0
 40
55.0
  1
31
 41
0.9
 72
     1
 11
434.96428600000007
 21
985.98808299999985
 31
0.0
  0
LINE
  5
1D4
  8
SIZE
  6
CONTINUOUS
 62
    30
 10
251.5
 20
837.96975599999985
 30
0.0
 11
357.5
 21
837.96975599999985
 31
0.0
  0
LINE
  5
1D5
  8
SIZE
  6
CONTINUOUS
 62
    30
 10
336.5
 20
967.98808299999985
 30
0.0
 11
367.5
 21
967.98808299999985
 31
0.0
  0
CIRCLE
  5
1D6
  8
SIZE
  6
CONTINUOUS
 62
    30
 10
241.5
 20
837.96975599999985
 30
0.0
 40
5.0
  0
LINE
  5
1D7
  8
SIZE
  6
CONTINUOUS
 62
    30
 10
246.5
 20
837.96975599999985
 30
0.0
 11
251.5
 21
837.96975599999985
 31
0.0
  0
LINE
  5
1D8
  8
SIZE
  6
CONTINUOUS
 62
    30
 10
331.5
 20
967.98808299999985
 30
0.0
 11
326.5
 21
967.98808299999985
 31
0.0
  0
CIRCLE
  5
1D9
  8
SIZE
  6
CONTINUOUS
 62
    30
 10
336.5
 20
967.98808299999985
 30
0.0
 40
5.0
  0
LINE
  5
1DA
  8
SIZE
  6
CONTINUOUS
 62
    30
 10
331.5
 20
967.98808299999985
 30
0.0
 11
326.5
 21
967.98808299999985
 31
0.0
  0
CIRCLE
  5
1DB
  8
SIZE
  6
CONTINUOUS
 62
    30
 10
336.5
 20
967.98808299999985
 30
0.0
 40
5.0
  0
LINE
  5
1DC
  8
SIZE
  6
CONTINUOUS
 62
    30
 10
326.5
 20
967.98808299999985
 30
0.0
 11
316.5
 21
967.98808299999985
 31
0.0
  0
CIRCLE
  5
1DD
  8
SIZE
  6
CONTINUOUS
 62
    30
 10
367.5
 20
837.96975599999985
 30
0.0
 40
5.0
  0
TEXT
  5
1DE
  8
SIZE
  6
CONTINUOUS
 62
    30
 10
395.5
 20
855.96975599999985
 30
0.0
 40
55.0
  1
126
 41
0.9
 72
     1
 11
453.24999999999989
 21
855.96975599999985
 31
0.0
  0
LINE
  5
1DF
  8
SIZE
  6
CONTINUOUS
 62
    30
 10
367.5
 20
837.96975599999985
 30
0.0
 11
529.0
 21
837.96975599999985
 31
0.0
  0
LINE
  5
1E0
  8
SIZE
  6
CONTINUOUS
 62
    30
 10
377.5
 20
967.98808299999985
 30
0.0
 11
482.42857100000037
 21
967.98808299999985
 31
0.0
  0
LINE
  5
1E1
  8
SIZE
  6
CONTINUOUS
 62
    30
 10
362.5
 20
837.96975599999985
 30
0.0
 11
357.5
 21
837.96975599999985
 31
0.0
  0
LINE
  5
1E2
  8
SIZE
  6
CONTINUOUS
 62
    30
 10
372.5
 20
967.98808299999985
 30
0.0
 11
377.5
 21
967.98808299999985
 31
0.0
  0
CIRCLE
  5
1E3
  8
SIZE
  6
CONTINUOUS
 62
    30
 10
367.5
 20
967.98808299999985
 30
0.0
 40
5.0
  0
LINE
  5
1E4
  8
SIZE
  6
CONTINUOUS
 62
    30
 10
362.5
 20
1093.756433
 30
0.0
 11
357.5
 21
1093.756433
 31
0.0
  0
CIRCLE
  5
1E5
  8
SIZE
  6
CONTINUOUS
 62
    30
 10
367.5
 20
1093.756433
 30
0.0
 40
5.0
  0
LINE
  5
1E6
  8
SIZE
  6
CONTINUOUS
 62
    30
 10
576.87223300000005
 20
507.0
 30
0.0
 11
576.87223300000005
 21
670.85714300000006
 31
0.0
  0
LINE
  5
1E7
  8
SIZE
  6
CONTINUOUS
 62
    30
 10
576.87223300000005
 20
502.0
 30
0.0
 11
576.87223300000005
 21
497.0
 31
0.0
  0
CIRCLE
  5
1E8
  8
SIZE
  6
CONTINUOUS
 62
    30
 10
576.87223300000005
 20
507.0
 30
0.0
 40
5.0
  0
LINE
  5
1E9
  8
SIZE
  6
CONTINUOUS
 62
    30
 10
576.87223300000005
 20
392.0
 30
0.0
 11
576.87223300000005
 21
397.0
 31
0.0
  0
CIRCLE
  5
1EA
  8
SIZE
  6
CONTINUOUS
 62
    30
 10
576.87223300000005
 20
387.0
 30
0.0
 40
5.0
  0
LINE
  5
1EB
  8
SIZE
  6
CONTINUOUS
 62
    30
 10
576.87223300000005
 20
397.0
 30
0.0
 11
576.87223300000005
 21
497.0
 31
0.0
  0
TEXT
  5
1EC
  8
NOTE
  6
CONTINUOUS
 62
     4
 10
471.0204230892395
 20
751.66654380107275
 30
0.0
 40
60.0
  1
AH M10ボルト用
 50
0.000003
 41
0.7
  7
STANDARD1
  0
LINE
  5
1ED
  8
DETAIL
  6
CONTINUOUS
 62
     5
 10
365.50000000000091
 20
203.4978430000001
 30
0.0
 11
400.14466100000112
 21
180.14250399999989
 31
0.0
  0
LINE
  5
1EE
  8
DETAIL
  6
CONTINUOUS
 62
     5
 10
-119.85533899999881
 20
85.721148000000042
 30
0.0
 11
-85.210677999998552
 21
62.115808999999892
 31
0.0
  0
LINE
  5
1EF
  8
DETAIL
  6
CONTINUOUS
 62
     5
 10
400.14466100000112
 20
85.721148000000042
 30
0.0
 11
364.78932200000139
 21
62.115808999999892
 31
0.0
  0
LINE
  5
1F0
  8
DETAIL
  6
CONTINUOUS
 62
     5
 10
-84.499999999999062
 20
156.53716500000019
 30
0.0
 11
364.78932200000139
 21
156.53716500000019
 31
0.0
  0
LINE
  5
1F1
  8
DETAIL
  6
CONTINUOUS
 62
     5
 10
-84.499999999999062
 20
109.3264869999998
 30
0.0
 11
364.78932200000139
 21
109.3264869999998
 31
0.0
  0
LINE
  5
1F2
  8
DETAIL
  6
CONTINUOUS
 62
     5
 10
400.14466100000112
 20
180.14250399999989
 30
0.0
 11
364.78932200000139
 21
156.53716500000019
 31
0.0
  0
LINE
  5
1F3
  8
DETAIL
  6
CONTINUOUS
 62
     5
 10
-119.85533899999881
 20
180.14250399999989
 30
0.0
 11
-84.499999999999062
 21
156.53716500000019
 31
0.0
  0
LINE
  5
1F4
  8
DETAIL
  6
CONTINUOUS
 62
     5
 10
-119.85533899999881
 20
180.14250399999989
 30
0.0
 11
-84.499999999999062
 21
203.4978430000001
 31
0.0
  0
LINE
  5
1F5
  8
DETAIL
  6
CONTINUOUS
 62
     5
 10
400.14466100000112
 20
132.931826
 30
0.0
 11
364.78932200000139
 21
156.53716500000019
 31
0.0
  0
LINE
  5
1F6
  8
DETAIL
  6
CONTINUOUS
 62
     5
 10
-119.85533899999881
 20
132.931826
 30
0.0
 11
-84.499999999999062
 21
156.53716500000019
 31
0.0
  0
LINE
  5
1F7
  8
DETAIL
  6
CONTINUOUS
 62
     5
 10
400.14466100000112
 20
132.931826
 30
0.0
 11
364.78932200000139
 21
109.3264869999998
 31
0.0
  0
LINE
  5
1F8
  8
DETAIL
  6
CONTINUOUS
 62
     5
 10
400.14466100000112
 20
85.721148000000042
 30
0.0
 11
364.78932200000139
 21
109.3264869999998
 31
0.0
  0
LINE
  5
1F9
  8
DETAIL
  6
CONTINUOUS
 62
     5
 10
-119.85533899999881
 20
132.931826
 30
0.0
 11
-84.499999999999062
 21
109.3264869999998
 31
0.0
  0
LINE
  5
1FA
  8
DETAIL
  6
CONTINUOUS
 62
     5
 10
-119.85533899999881
 20
85.721148000000042
 30
0.0
 11
-84.499999999999062
 21
109.3264869999998
 31
0.0
  0
LINE
  5
1FB
  8
DETAIL
  6
CONTINUOUS
 62
     5
 10
-119.85533899999881
 20
180.14250399999989
 30
0.0
 11
400.14466100000112
 21
180.14250399999989
 31
0.0
  0
LINE
  5
1FC
  8
DETAIL
  6
CONTINUOUS
 62
     5
 10
-119.85533899999881
 20
132.931826
 30
0.0
 11
400.14466100000112
 21
132.931826
 31
0.0
  0
LINE
  5
1FD
  8
DETAIL
  6
CONTINUOUS
 62
     5
 10
-119.85533899999881
 20
85.721148000000042
 30
0.0
 11
400.14466100000112
 21
85.721148000000042
 31
0.0
  0
LINE
  5
1FE
  8
DETAIL
  6
CONTINUOUS
 62
     5
 10
364.78932200000139
 20
62.115808999999892
 30
0.0
 11
364.78932200000139
 21
47.11580900000034
 31
0.0
  0
LINE
  5
1FF
  8
DETAIL
  6
CONTINUOUS
 62
     5
 10
-85.210677999998552
 20
62.115808999999892
 30
0.0
 11
-85.210677999998552
 21
47.11580900000034
 31
0.0
  0
LINE
  5
200
  8
DETAIL
  6
CONTINUOUS
 62
     5
 10
-85.210677999998552
 20
62.115808999999892
 30
0.0
 11
364.78932200000139
 21
62.115808999999892
 31
0.0
  0
LINE
  5
201
  8
DETAIL
  6
CONTINUOUS
 62
     5
 10
-84.499999999999062
 20
203.4978430000001
 30
0.0
 11
365.50000000000091
 21
203.4978430000001
 31
0.0
  0
LINE
  5
202
  8
DETAIL
  6
CONTINUOUS
 62
     5
 10
365.50000000000091
 20
203.4978430000001
 30
0.0
 11
365.50000000000148
 21
214.0
 31
0.0
  0
LINE
  5
203
  8
DETAIL
  6
CONTINUOUS
 62
     5
 10
-84.499999999999062
 20
203.4978430000001
 30
0.0
 11
-84.499999999999062
 21
214.0
 31
0.0
  0
LINE
  5
204
  8
OUTLINE
  6
CONTINUOUS
 62
     3
 10
-84.499999999999062
 20
203.4978430000001
 30
0.0
 11
-84.499999999999062
 21
214.0
 31
0.0
  0
LINE
  5
205
  8
OUTLINE
  6
CONTINUOUS
 62
     3
 10
365.50000000000091
 20
203.4978430000001
 30
0.0
 11
365.50000000000148
 21
214.0
 31
0.0
  0
LINE
  5
206
  8
OUTLINE
  6
CONTINUOUS
 62
     3
 10
-85.210677999998552
 20
62.115808999999892
 30
0.0
 11
-85.210677999998552
 21
47.11580900000034
 31
0.0
  0
LINE
  5
207
  8
OUTLINE
  6
CONTINUOUS
 62
     3
 10
364.78932200000139
 20
62.115808999999892
 30
0.0
 11
364.78932200000139
 21
47.11580900000034
 31
0.0
  0
LINE
  5
208
  8
OUTLINE
  6
CONTINUOUS
 62
     3
 10
-119.85533899999881
 20
85.721148000000042
 30
0.0
 11
-84.499999999999062
 21
109.3264869999998
 31
0.0
  0
LINE
  5
209
  8
OUTLINE
  6
CONTINUOUS
 62
     3
 10
-119.85533899999881
 20
132.931826
 30
0.0
 11
-84.499999999999062
 21
109.3264869999998
 31
0.0
  0
LINE
  5
20A
  8
OUTLINE
  6
CONTINUOUS
 62
     3
 10
400.14466100000112
 20
85.721148000000042
 30
0.0
 11
364.78932200000139
 21
109.3264869999998
 31
0.0
  0
LINE
  5
20B
  8
OUTLINE
  6
CONTINUOUS
 62
     3
 10
400.14466100000112
 20
132.931826
 30
0.0
 11
364.78932200000139
 21
109.3264869999998
 31
0.0
  0
LINE
  5
20C
  8
OUTLINE
  6
CONTINUOUS
 62
     3
 10
-119.85533899999881
 20
132.931826
 30
0.0
 11
-84.499999999999062
 21
156.53716500000019
 31
0.0
  0
LINE
  5
20D
  8
OUTLINE
  6
CONTINUOUS
 62
     3
 10
400.14466100000112
 20
132.931826
 30
0.0
 11
364.78932200000139
 21
156.53716500000019
 31
0.0
  0
LINE
  5
20E
  8
OUTLINE
  6
CONTINUOUS
 62
     3
 10
-119.85533899999881
 20
180.14250399999989
 30
0.0
 11
-84.499999999999062
 21
203.4978430000001
 31
0.0
  0
LINE
  5
20F
  8
OUTLINE
  6
CONTINUOUS
 62
     3
 10
-119.85533899999881
 20
180.14250399999989
 30
0.0
 11
-84.499999999999062
 21
156.53716500000019
 31
0.0
  0
LINE
  5
210
  8
OUTLINE
  6
CONTINUOUS
 62
     3
 10
400.14466100000112
 20
180.14250399999989
 30
0.0
 11
364.78932200000139
 21
156.53716500000019
 31
0.0
  0
LINE
  5
211
  8
OUTLINE
  6
CONTINUOUS
 62
     3
 10
400.14466100000112
 20
85.721148000000042
 30
0.0
 11
364.78932200000139
 21
62.115808999999892
 31
0.0
  0
LINE
  5
212
  8
OUTLINE
  6
CONTINUOUS
 62
     3
 10
-119.85533899999881
 20
85.721148000000042
 30
0.0
 11
-85.210677999998552
 21
62.115808999999892
 31
0.0
  0
LINE
  5
213
  8
OUTLINE
  6
CONTINUOUS
 62
     3
 10
365.50000000000091
 20
203.4978430000001
 30
0.0
 11
400.14466100000112
 21
180.14250399999989
 31
0.0
  0
ENDSEC
  0
EOF
