  0
SECTION
  2
HEADER
  9
$ACADVER
  1
AC1009
  9
$INSBASE
 10
0.0
 20
0.0
 30
0.0
  9
$EXTMIN
 10
-1457.05791022825
 20
-1171.591043045511
 30
-0.0000000349181948
  9
$EXTMAX
 10
1373.491846823563
 20
1146.0005576473011
 30
0.0000000814935747
  9
$LIMMIN
 10
-4267.1522210000003
 20
-2696.0832100000011
  9
$LIMMAX
 10
7190.7174229999991
 20
5141.1553640000002
  9
$ORTHOMODE
 70
     1
  9
$REGENMODE
 70
     1
  9
$FILLMODE
 70
     1
  9
$QTEXTMODE
 70
     0
  9
$MIRRTEXT
 70
     0
  9
$DRAGMODE
 70
     2
  9
$LTSCALE
 40
20.0
  9
$OSMODE
 70
   431
  9
$ATTMODE
 70
     1
  9
$TEXTSIZE
 40
64.0
  9
$TRACEWID
 40
0.05
  9
$TEXTSTYLE
  7
STANDARD
  9
$CLAYER
  8
SYMBOLLINE
  9
$CELTYPE
  6
CONTINUOUS
  9
$CECOLOR
 62
     7
  9
$DIMSCALE
 40
1.0
  9
$DIMASZ
 40
10.0
  9
$DIMEXO
 40
20.0
  9
$DIMDLI
 40
200.0
  9
$DIMRND
 40
0.0
  9
$DIMDLE
 40
0.0
  9
$DIMEXE
 40
30.0
  9
$DIMTP
 40
0.0
  9
$DIMTM
 40
0.0
  9
$DIMTXT
 40
55.0
  9
$DIMCEN
 40
0.0
  9
$DIMTSZ
 40
0.0
  9
$DIMTOL
 70
     0
  9
$DIMLIM
 70
     0
  9
$DIMTIH
 70
     0
  9
$DIMTOH
 70
     0
  9
$DIMSE1
 70
     0
  9
$DIMSE2
 70
     0
  9
$DIMTAD
 70
     1
  9
$DIMZIN
 70
     8
  9
$DIMBLK
  1

  9
$DIMASO
 70
     1
  9
$DIMSHO
 70
     0
  9
$DIMPOST
  1

  9
$DIMAPOST
  1

  9
$DIMALT
 70
     0
  9
$DIMALTD
 70
     2
  9
$DIMALTF
 40
25.399999999999999
  9
$DIMLFAC
 40
1.0
  9
$DIMTOFL
 70
     1
  9
$DIMTVP
 40
0.0
  9
$DIMTIX
 70
     1
  9
$DIMSOXD
 70
     0
  9
$DIMSAH
 70
     1
  9
$DIMBLK1
  1
DOTBLANK
  9
$DIMBLK2
  1
DOTBLANK
  9
$DIMSTYLE
  2
STANDARD
  9
$DIMCLRD
 70
     0
  9
$DIMCLRE
 70
     0
  9
$DIMCLRT
 70
     0
  9
$DIMTFAC
 40
1.0
  9
$DIMGAP
 40
0.09
  9
$LUNITS
 70
     2
  9
$LUPREC
 70
     4
  9
$SKETCHINC
 40
0.1
  9
$FILLETRAD
 40
0.0
  9
$AUNITS
 70
     1
  9
$AUPREC
 70
     3
  9
$MENU
  1
ACAD
  9
$ELEVATION
 40
0.0
  9
$PELEVATION
 40
0.0
  9
$THICKNESS
 40
0.0
  9
$LIMCHECK
 70
     0
  9
$BLIPMODE
 70
     0
  9
$CHAMFERA
 40
0.0
  9
$CHAMFERB
 40
0.0
  9
$SKPOLY
 70
     0
  9
$TDCREATE
 40
2450330.4399309959
  9
$TDUPDATE
 40
2457086.6989730559
  9
$TDINDWG
 40
3.7887779744999999
  9
$TDUSRTIMER
 40
3.7887655439999999
  9
$USRTIMER
 70
     1
  9
$ANGBASE
 50
0.0
  9
$ANGDIR
 70
     0
  9
$PDMODE
 70
     3
  9
$PDSIZE
 40
-2.0
  9
$PLINEWID
 40
0.0
  9
$COORDS
 70
     1
  9
$SPLFRAME
 70
     0
  9
$SPLINETYPE
 70
     6
  9
$SPLINESEGS
 70
     8
  9
$ATTDIA
 70
     1
  9
$ATTREQ
 70
     1
  9
$HANDLING
 70
     1
  9
$HANDSEED
  5
50E
  9
$SURFTAB1
 70
     6
  9
$SURFTAB2
 70
     6
  9
$SURFTYPE
 70
     6
  9
$SURFU
 70
     6
  9
$SURFV
 70
     6
  9
$UCSNAME
  2

  9
$UCSORG
 10
0.0
 20
0.0
 30
0.0
  9
$UCSXDIR
 10
1.0
 20
0.0
 30
0.0
  9
$UCSYDIR
 10
0.0
 20
1.0
 30
0.0
  9
$PUCSNAME
  2

  9
$PUCSORG
 10
0.0
 20
0.0
 30
0.0
  9
$PUCSXDIR
 10
1.0
 20
0.0
 30
0.0
  9
$PUCSYDIR
 10
0.0
 20
1.0
 30
0.0
  9
$USERI1
 70
     0
  9
$USERI2
 70
     0
  9
$USERI3
 70
     0
  9
$USERI4
 70
     0
  9
$USERI5
 70
     0
  9
$USERR1
 40
20.0
  9
$USERR2
 40
0.0
  9
$USERR3
 40
0.0
  9
$USERR4
 40
0.0
  9
$USERR5
 40
0.0
  9
$WORLDVIEW
 70
     1
  9
$SHADEDGE
 70
     3
  9
$SHADEDIF
 70
    70
  9
$TILEMODE
 70
     1
  9
$MAXACTVP
 70
    64
  9
$PLIMCHECK
 70
     0
  9
$PEXTMIN
 10
1.0000000000000000E+020
 20
1.0000000000000000E+020
 30
1.0000000000000000E+020
  9
$PEXTMAX
 10
-1.0000000000000000E+020
 20
-1.0000000000000000E+020
 30
-1.0000000000000000E+020
  9
$PLIMMIN
 10
0.0
 20
0.0
  9
$PLIMMAX
 10
12.0
 20
9.0
  9
$UNITMODE
 70
     0
  9
$VISRETAIN
 70
     1
  9
$PLINEGEN
 70
     0
  9
$PSLTSCALE
 70
     1
  0
ENDSEC
  0
SECTION
  2
TABLES
  0
TABLE
  2
VPORT
 70
     1
  0
VPORT
  2
*ACTIVE
 70
     0
 10
0.0
 20
0.0
 11
1.0
 21
1.0
 12
-41.783031702343742
 22
-12.795242699105071
 13
0.0
 23
0.0
 14
50.0
 24
50.0
 15
100.0
 25
100.0
 16
0.0
 26
0.0
 36
1.0
 17
0.0
 27
0.0
 37
0.0
 40
2335.7925818500862
 41
1.6159895150720831
 42
50.0
 43
0.0
 44
0.0
 50
0.0
 51
0.0
 71
     0
 72
  1000
 73
     1
 74
     0
 75
     0
 76
     0
 77
     0
 78
     0
  0
ENDTAB
  0
TABLE
  2
LTYPE
 70
     4
  0
LTYPE
  2
CONTINUOUS
 70
     0
  3
実線
 72
    65
 73
     0
 40
0.0
  0
LTYPE
  2
DASHDOT
 70
     0
  3
____ _ ____ _ ____ _ ____ _ ____ _ ____ _ ____
 72
    65
 73
     4
 40
5.5
 49
4.0
 49
-0.6
 49
0.3
 49
-0.6
  0
ENDTAB
  0
TABLE
  2
LAYER
 70
    12
  0
LAYER
  2
0
 70
     0
 62
     7
  6
CONTINUOUS
  0
LAYER
  2
SYMBOLLINE
 70
     0
 62
    15
  6
CONTINUOUS
  0
LAYER
  2
OUTLINE
 70
     0
 62
     3
  6
CONTINUOUS
  0
LAYER
  2
DETAIL
 70
     0
 62
     5
  6
CONTINUOUS
  0
LAYER
  2
BASIS
 70
     0
 62
     6
  6
DASHDOT
  0
LAYER
  2
SIZE
 70
     0
 62
    30
  6
CONTINUOUS
  0
LAYER
  2
NOTE
 70
     0
 62
     4
  6
CONTINUOUS
  0
LAYER
  2
ARRANGE
 70
     0
 62
     1
  6
CONTINUOUS
  0
LAYER
  2
FIX
 70
     0
 62
    11
  6
CONTINUOUS
  0
LAYER
  2
SERVICESPACE
 70
     0
 62
     2
  6
DASHDOT
  0
LAYER
  2
ETC
 70
     0
 62
    61
  6
CONTINUOUS
  0
LAYER
  2
DEFPOINTS
 70
     0
 62
     7
  6
CONTINUOUS
  0
ENDTAB
  0
TABLE
  2
STYLE
 70
     3
  0
STYLE
  2
STANDARD
 70
     0
 40
0.0
 41
0.9
 50
0.0
 71
     0
 42
64.0
  3
SIMPLEX
  4
BIGFONT
  0
STYLE
  2
ANNOTATIVE
 70
     0
 40
0.0
 41
1.0
 50
0.0
 71
     0
 42
0.2
  3
txt
  4

  0
STYLE
  2
STANDARD1
 70
     0
 40
0.0
 41
1.0
 50
0.0
 71
     0
 42
64.0
  3
MONOTXT
  4
BIGFONT
  0
ENDTAB
  0
TABLE
  2
VIEW
 70
     1
  0
VIEW
  2
ALL
 70
     0
 40
9000.0
 10
241.50664699999999
 20
0.0
 41
12483.01
 11
0.0
 21
0.0
 31
1.0
 12
0.0
 22
0.0
 32
0.0
 42
50.0
 43
0.0
 44
0.0
 50
0.0
 71
     0
  0
ENDTAB
  0
TABLE
  2
UCS
 70
     0
  0
ENDTAB
  0
TABLE
  2
APPID
 70
     5
  0
APPID
  2
ACAD
 70
     0
  0
APPID
  2
ACADANNOTATIVE
 70
     0
  0
APPID
  2
ACAD_MLEADERVER
 70
     0
  0
APPID
  2
ACAD_EXEMPT_FROM_CAD_STANDARDS
 70
     0
  0
APPID
  2
ACAD_NAV_VCDISPLAY
 70
     0
  0
ENDTAB
  0
TABLE
  2
DIMSTYLE
 70
     3
  0
DIMSTYLE
  2
STANDARD
 70
     0
  3

  4

  5

  6

  7

 40
1.0
 41
0.18
 42
0.0625
 43
0.38
 44
0.18
 45
0.0
 46
0.0
 47
0.0
 48
0.0
140
0.18
141
0.09
142
0.0
143
25.399999999999999
144
1.0
145
0.0
146
1.0
147
0.09
 71
     0
 72
     0
 73
     1
 74
     1
 75
     0
 76
     0
 77
     0
 78
     0
170
     0
171
     2
172
     0
173
     0
174
     0
175
     0
176
     0
177
     0
178
     0
  0
DIMSTYLE
  2
ANNOTATIVE
 70
     0
  3

  4

  5

  6

  7

 40
1.0
 41
0.18
 42
0.0625
 43
0.38
 44
0.18
 45
0.0
 46
0.0
 47
0.0
 48
0.0
140
0.18
141
0.09
142
0.0
143
25.399999999999999
144
1.0
145
0.0
146
1.0
147
0.09
 71
     0
 72
     0
 73
     1
 74
     1
 75
     0
 76
     0
 77
     0
 78
     0
170
     0
171
     2
172
     0
173
     0
174
     0
175
     0
176
     0
177
     0
178
     0
  0
ENDTAB
  0
ENDSEC
  0
SECTION
  2
BLOCKS
  0
BLOCK
  8
0
  2
$MODEL_SPACE
 70
     0
 10
0.0
 20
0.0
 30
0.0
  3
$MODEL_SPACE
  1

  0
ENDBLK
  5
375
  8
0
  0
BLOCK
 67
     1
  8
0
  2
$PAPER_SPACE
 70
     0
 10
0.0
 20
0.0
 30
0.0
  3
$PAPER_SPACE
  1

  0
ENDBLK
  5
371
 67
     1
  8
0
  0
BLOCK
  8
0
  2
_DOTBLANK
 70
     0
 10
0.0
 20
0.0
 30
0.0
  3
_DOTBLANK
  1

  0
CIRCLE
  5
8C
  8
0
  6
CONTINUOUS
 62
     7
 10
0.0
 20
0.0
 30
0.0
 40
0.5
  0
LINE
  5
8D
  8
0
  6
CONTINUOUS
 62
     7
 10
-0.5
 20
0.0
 30
0.0
 11
-1.0
 21
0.0
 31
0.0
  0
ENDBLK
  5
8E
  8
0
  0
ENDSEC
  0
SECTION
  2
ENTITIES
  0
LINE
  5
8F
  8
SIZE
  6
CONTINUOUS
 62
    30
 10
-610.0
 20
784.04486399999985
 30
0.0
 11
610.0
 21
784.04486399999985
 31
0.0
  0
LINE
  5
90
  8
SIZE
  6
CONTINUOUS
 62
    30
 10
-590.0
 20
647.57195100000001
 30
0.0
 11
590.0
 21
647.57195100000001
 31
0.0
  0
LINE
  5
91
  8
SIZE
  6
CONTINUOUS
 62
    30
 10
-586.0
 20
-1141.0053333135279
 30
0.0
 11
586.0
 21
-1141.0053333135279
 31
0.0
  0
TEXT
  5
92
  8
SIZE
  6
CONTINUOUS
 62
    30
 10
-347.20714285714268
 20
-990.24763731352766
 30
0.0
 40
55.0
  1
1146(吊りボルトピッチ)
 41
0.9
 72
     1
 11
0.0
 21
-990.24763731352766
 31
0.0
  0
LINE
  5
93
  8
SIZE
  6
CONTINUOUS
 62
    30
 10
-688.0
 20
-1006.652399313528
 30
0.0
 11
688.0
 21
-1006.652399313528
 31
0.0
  0
LINE
  5
94
  8
SIZE
  6
CONTINUOUS
 62
    30
 10
-560.0
 20
-892.92339931352774
 30
0.0
 11
695.0
 21
-892.92339931352774
 31
0.0
  0
LINE
  5
99
  8
DETAIL
  6
CONTINUOUS
 62
     5
 10
-620.0
 20
442.49999999999989
 30
0.0
 11
620.0
 21
442.49999999999989
 31
0.0
  0
LINE
  5
9A
  8
OUTLINE
  6
CONTINUOUS
 62
     3
 10
-620.0
 20
442.49999999999989
 30
0.0
 11
620.0
 21
442.49999999999989
 31
0.0
  0
LINE
  5
9B
  8
OUTLINE
  6
CONTINUOUS
 62
     3
 10
580.0
 20
367.5
 30
0.0
 11
-580.0
 21
367.5
 31
0.0
  0
LINE
  5
9C
  8
OUTLINE
  6
CONTINUOUS
 62
     3
 10
-580.0
 20
-367.5
 30
0.0
 11
580.0
 21
-367.5
 31
0.0
  0
LINE
  5
9D
  8
SERVICESPACE
  6
DASHDOT
 62
     2
 10
-600.0
 20
-140.5
 30
0.0
 11
600.0
 21
-140.5
 31
0.0
  0
LINE
  5
9E
  8
SERVICESPACE
  6
DASHDOT
 62
     2
 10
-600.0
 20
425.49999999999989
 30
0.0
 11
600.0
 21
425.49999999999989
 31
0.0
  0
LINE
  5
9F
  8
DETAIL
  6
CONTINUOUS
 62
     5
 10
-596.0
 20
367.5
 30
0.0
 11
596.0
 21
367.5
 31
0.0
  0
LINE
  5
A0
  8
DETAIL
  6
CONTINUOUS
 62
     5
 10
-596.0
 20
-367.5
 30
0.0
 11
596.0
 21
-367.5
 31
0.0
  0
LINE
  5
A1
  8
DETAIL
  6
CONTINUOUS
 62
     5
 10
-547.0
 20
350.5
 30
0.0
 11
547.0
 21
350.5
 31
0.0
  0
LINE
  5
A2
  8
SIZE
  6
CONTINUOUS
 62
    30
 10
-622.00914900000021
 20
-155.5
 30
0.0
 11
-622.00914900000021
 21
192.33787599999999
 31
0.0
  0
LINE
  5
A3
  8
SIZE
  6
CONTINUOUS
 62
    30
 10
-580.0
 20
-165.0
 30
0.0
 11
-580.0
 21
192.33787599999999
 31
0.0
  0
LINE
  5
A4
  8
DETAIL
  6
CONTINUOUS
 62
     5
 10
-620.0
 20
-157.5
 30
0.0
 11
-620.0
 21
442.49999999999989
 31
0.0
  0
LINE
  5
A5
  8
OUTLINE
  6
CONTINUOUS
 62
     3
 10
-620.0
 20
-157.5
 30
0.0
 11
-620.0
 21
442.49999999999989
 31
0.0
  0
LINE
  5
A6
  8
SIZE
  6
CONTINUOUS
 62
    30
 10
-614.0
 20
-74.5
 30
0.0
 11
-614.0
 21
65.647389000000004
 31
0.0
  0
LINE
  5
A7
  8
SIZE
  6
CONTINUOUS
 62
    30
 10
-580.0
 20
-58.142904000000001
 30
0.0
 11
-580.0
 21
65.647389000000004
 31
0.0
  0
TEXT
  5
A8
  8
SIZE
  6
CONTINUOUS
 62
    30
 10
-1401.6873769171709
 20
-63.642857142857139
 30
0.0
 40
55.0
  1
735
 50
90.0
 41
0.9
 72
     1
 11
-1401.6873769171709
 21
0.0
 31
0.0
  0
LINE
  5
A9
  8
SIZE
  6
CONTINUOUS
 62
    30
 10
-1383.6873769171709
 20
-357.5
 30
0.0
 11
-1383.6873769171709
 21
357.5
 31
0.0
  0
LINE
  5
AB
  8
OUTLINE
  6
CONTINUOUS
 62
     3
 10
-580.0
 20
367.5
 30
0.0
 11
-580.0
 21
-367.5
 31
0.0
  0
LINE
  5
AC
  8
SERVICESPACE
  6
DASHDOT
 62
     2
 10
-600.0
 20
425.49999999999989
 30
0.0
 11
-600.0
 21
-140.5
 31
0.0
  0
LINE
  5
AE
  8
DETAIL
  6
CONTINUOUS
 62
     5
 10
-580.0
 20
-306.89987000000002
 30
0.0
 11
-580.0
 21
306.89987000000002
 31
0.0
  0
LINE
  5
AF
  8
SIZE
  6
CONTINUOUS
 62
    30
 10
-596.0
 20
-387.5
 30
0.0
 11
-596.0
 21
-1171.0053333135279
 31
0.0
  0
LINE
  5
B0
  8
SIZE
  6
CONTINUOUS
 62
    30
 10
-573.0
 20
-368.49516599999998
 30
0.0
 11
-573.0
 21
-1036.6523993135279
 31
0.0
  0
LINE
  5
B1
  8
SIZE
  6
CONTINUOUS
 62
    30
 10
-580.0
 20
-387.5
 30
0.0
 11
-580.0
 21
-922.92339931352763
 31
0.0
  0
LINE
  5
B2
  8
SIZE
  6
CONTINUOUS
 62
    30
 10
-573.0
 20
-368.49516599999998
 30
0.0
 11
-573.0
 21
-1036.6523993135279
 31
0.0
  0
LINE
  5
B3
  8
SIZE
  6
CONTINUOUS
 62
    30
 10
-596.0
 20
-387.5
 30
0.0
 11
-596.0
 21
-1036.6523993135279
 31
0.0
  0
LINE
  5
B4
  8
SIZE
  6
CONTINUOUS
 62
    30
 10
-580.0
 20
-326.89987000000002
 30
0.0
 11
-580.0
 21
-922.92339931352763
 31
0.0
  0
LINE
  5
B5
  8
SIZE
  6
CONTINUOUS
 62
    30
 10
-596.0
 20
-387.5
 30
0.0
 11
-596.0
 21
-922.92339931352763
 31
0.0
  0
LINE
  5
B6
  8
SIZE
  6
CONTINUOUS
 62
    30
 10
-591.0
 20
-1141.0053333135279
 30
0.0
 11
-586.0
 21
-1141.0053333135279
 31
0.0
  0
CIRCLE
  5
B7
  8
SIZE
  6
CONTINUOUS
 62
    30
 10
-596.0
 20
-1141.0053333135279
 30
0.0
 40
5.0
  0
TEXT
  5
B8
  8
SIZE
  6
CONTINUOUS
 62
    30
 10
-714.14285757142841
 20
-988.65239931352789
 30
0.0
 40
55.0
  1
23
 41
0.9
 72
     1
 11
-674.07142899999985
 21
-988.65239931352789
 31
0.0
  0
LINE
  5
B9
  8
SIZE
  6
CONTINUOUS
 62
    30
 10
-606.0
 20
-1006.652399313528
 30
0.0
 11
-732.14285700000005
 21
-1006.652399313528
 31
0.0
  0
TEXT
  5
BA
  8
SIZE
  6
CONTINUOUS
 62
    30
 10
-702.35714242857102
 20
-874.92339931352751
 30
0.0
 40
55.0
  1
16
 41
0.9
 72
     1
 11
-668.17857099999958
 21
-874.92339931352751
 31
0.0
  0
LINE
  5
BB
  8
SIZE
  6
CONTINUOUS
 62
    30
 10
-596.0
 20
-892.92339931352774
 30
0.0
 11
-709.95086399999968
 21
-892.92344931352773
 31
0.0
  0
LINE
  5
BC
  8
SIZE
  6
CONTINUOUS
 62
    30
 10
-693.0
 20
-1006.652399313528
 30
0.0
 11
-688.0
 21
-1006.652399313528
 31
0.0
  0
CIRCLE
  5
BD
  8
SIZE
  6
CONTINUOUS
 62
    30
 10
-573.0
 20
-1006.652399313528
 30
0.0
 40
5.0
  0
LINE
  5
BE
  8
SIZE
  6
CONTINUOUS
 62
    30
 10
-726.0
 20
-1006.652399313528
 30
0.0
 11
-731.0
 21
-1006.652399313528
 31
0.0
  0
CIRCLE
  5
BF
  8
SIZE
  6
CONTINUOUS
 62
    30
 10
-596.0
 20
-1006.652399313528
 30
0.0
 40
5.0
  0
LINE
  5
C0
  8
SIZE
  6
CONTINUOUS
 62
    30
 10
-693.0
 20
-1006.652399313528
 30
0.0
 11
-688.0
 21
-1006.652399313528
 31
0.0
  0
CIRCLE
  5
C1
  8
SIZE
  6
CONTINUOUS
 62
    30
 10
-573.0
 20
-1006.652399313528
 30
0.0
 40
5.0
  0
LINE
  5
C2
  8
SIZE
  6
CONTINUOUS
 62
    30
 10
-573.0
 20
-1006.652399313528
 30
0.0
 11
-596.0
 21
-1006.652399313528
 31
0.0
  0
LINE
  5
C3
  8
SIZE
  6
CONTINUOUS
 62
    30
 10
-688.0
 20
-1006.652399313528
 30
0.0
 11
-678.0
 21
-1006.652399313528
 31
0.0
  0
LINE
  5
C4
  8
SIZE
  6
CONTINUOUS
 62
    30
 10
-575.0
 20
-892.92339931352774
 30
0.0
 11
-570.0
 21
-892.92339931352774
 31
0.0
  0
CIRCLE
  5
C5
  8
SIZE
  6
CONTINUOUS
 62
    30
 10
-580.0
 20
-892.92339931352774
 30
0.0
 40
5.0
  0
LINE
  5
C6
  8
SIZE
  6
CONTINUOUS
 62
    30
 10
-601.0
 20
-892.92339931352774
 30
0.0
 11
-606.0
 21
-892.92339931352774
 31
0.0
  0
CIRCLE
  5
C7
  8
SIZE
  6
CONTINUOUS
 62
    30
 10
-596.0
 20
-892.92339931352774
 30
0.0
 40
5.0
  0
LINE
  5
C8
  8
SIZE
  6
CONTINUOUS
 62
    30
 10
-570.0
 20
-892.92339931352774
 30
0.0
 11
-575.0
 21
-892.92339931352774
 31
0.0
  0
CIRCLE
  5
C9
  8
SIZE
  6
CONTINUOUS
 62
    30
 10
-580.0
 20
-892.92339931352774
 30
0.0
 40
5.0
  0
LINE
  5
CA
  8
SIZE
  6
CONTINUOUS
 62
    30
 10
-580.0
 20
-892.92339931352774
 30
0.0
 11
-596.0
 21
-892.92339931352774
 31
0.0
  0
LINE
  5
CB
  8
SIZE
  6
CONTINUOUS
 62
    30
 10
-570.0
 20
-892.92339931352774
 30
0.0
 11
-560.0
 21
-892.92339931352774
 31
0.0
  0
LINE
  5
CC
  8
SIZE
  6
CONTINUOUS
 62
    30
 10
-600.0
 20
-367.5
 30
0.0
 11
-1413.68737691717
 21
-367.5
 31
0.0
  0
TEXT
  5
CE
  8
SIZE
  6
CONTINUOUS
 62
    30
 10
-1274.792726917171
 20
-294.64285714285711
 30
0.0
 40
55.0
  1
273
 50
90.0
 41
0.9
 72
     1
 11
-1274.792726917171
 21
-231.0
 31
0.0
  0
LINE
  5
CF
  8
NOTE
  6
CONTINUOUS
 62
     4
 10
-874.09282623532943
 20
-22.913780534946682
 30
0.0
 11
-1264.6737391854299
 21
-22.913780534946682
 31
0.0
  0
TEXT
  5
D0
  8
NOTE
  6
CONTINUOUS
 62
     4
 10
-1243.0228688391489
 20
-10.34270878127756
 30
0.0
 40
60.0
  1
RG %%C15.88
 50
0.000003
 41
0.7
  7
STANDARD1
  0
LINE
  5
D2
  8
SIZE
  6
CONTINUOUS
 62
    30
 10
-1383.6873769171709
 20
-362.5
 30
0.0
 11
-1383.6873769171709
 21
-357.5
 31
0.0
  0
CIRCLE
  5
D3
  8
SIZE
  6
CONTINUOUS
 62
    30
 10
-1383.6873769171709
 20
-367.5
 30
0.0
 40
5.0
  0
LINE
  5
D6
  8
SIZE
  6
CONTINUOUS
 62
    30
 10
-1383.6873769171709
 20
-357.5
 30
0.0
 11
-1383.6873769171709
 21
-347.5
 31
0.0
  0
LINE
  5
D7
  8
SIZE
  6
CONTINUOUS
 62
    30
 10
-1383.6873769171709
 20
-362.5
 30
0.0
 11
-1383.6873769171709
 21
-357.5
 31
0.0
  0
LINE
  5
D9
  8
SIZE
  6
CONTINUOUS
 62
    30
 10
-632.00914899999998
 20
-259.5
 30
0.0
 11
-632.00914899999998
 21
-785.86037131352805
 31
0.0
  0
LINE
  5
DA
  8
SIZE
  6
CONTINUOUS
 62
    30
 10
-1256.792726917171
 20
-104.5
 30
0.0
 11
-1256.792726917171
 21
-357.5
 31
0.0
  0
TEXT
  5
DB
  8
SIZE
  6
CONTINUOUS
 62
    30
 10
-1156.298339917171
 20
-362.42857142857139
 30
0.0
 40
55.0
  1
128
 50
90.0
 41
0.9
 72
     1
 11
-1156.298339917171
 21
-303.5
 31
0.0
  0
LINE
  5
DC
  8
SIZE
  6
CONTINUOUS
 62
    30
 10
-1138.298339917171
 20
-367.5
 30
0.0
 11
-1138.298339917171
 21
-239.5
 31
0.0
  0
LINE
  5
DE
  8
DETAIL
  6
CONTINUOUS
 62
     5
 10
-558.02933499999995
 20
-367.5
 30
0.0
 11
-558.02933499999995
 21
-306.89987000000002
 31
0.0
  0
LINE
  5
DF
  8
DETAIL
  6
CONTINUOUS
 62
     5
 10
-596.0
 20
-306.89987000000002
 30
0.0
 11
-596.0
 21
-327.5
 31
0.0
  0
LINE
  5
E0
  8
SIZE
  6
CONTINUOUS
 62
    30
 10
-642.00914899999987
 20
-755.86037131352805
 30
0.0
 11
-765.79486299999985
 21
-755.86037131352805
 31
0.0
  0
LINE
  5
E1
  8
SIZE
  6
CONTINUOUS
 62
    30
 10
-616.0
 20
-367.5
 30
0.0
 11
-1286.792726917171
 21
-367.5
 31
0.0
  0
LINE
  5
E2
  8
SIZE
  6
CONTINUOUS
 62
    30
 10
-600.0
 20
-367.5
 30
0.0
 11
-1168.2983399171701
 21
-367.5
 31
0.0
  0
TEXT
  5
E3
  8
SIZE
  6
CONTINUOUS
 62
    30
 10
-748.97343457142824
 20
-737.86037131352805
 30
0.0
 40
55.0
  1
52
 41
0.9
 72
     1
 11
-708.90200599999957
 21
-737.86037131352805
 31
0.0
  0
LINE
  5
E4
  8
SIZE
  6
CONTINUOUS
 62
    30
 10
-1256.792726917171
 20
-362.5
 30
0.0
 11
-1256.792726917171
 21
-357.5
 31
0.0
  0
CIRCLE
  5
E5
  8
SIZE
  6
CONTINUOUS
 62
    30
 10
-1256.792726917171
 20
-367.5
 30
0.0
 40
5.0
  0
CIRCLE
  5
E6
  8
SIZE
  6
CONTINUOUS
 62
    30
 10
-1138.298339917171
 20
-367.5
 30
0.0
 40
5.0
  0
LINE
  5
E7
  8
SIZE
  6
CONTINUOUS
 62
    30
 10
-580.0
 20
-326.89987000000002
 30
0.0
 11
-580.0
 21
-785.86037131352805
 31
0.0
  0
LINE
  5
E9
  8
SIZE
  6
CONTINUOUS
 62
    30
 10
-637.00914899999998
 20
-755.86037131352805
 30
0.0
 11
-642.00914899999987
 21
-755.86037131352805
 31
0.0
  0
CIRCLE
  5
EA
  8
SIZE
  6
CONTINUOUS
 62
    30
 10
-632.00914899999998
 20
-755.86037131352805
 30
0.0
 40
5.0
  0
CIRCLE
  5
EB
  8
SIZE
  6
CONTINUOUS
 62
    30
 10
-580.0
 20
-755.86037131352805
 30
0.0
 40
5.0
  0
LINE
  5
EC
  8
SIZE
  6
CONTINUOUS
 62
    30
 10
-580.0
 20
-755.86037131352805
 30
0.0
 11
-627.00914899999975
 21
-755.86037131352805
 31
0.0
  0
CIRCLE
  5
F0
  8
FIX
  6
CONTINUOUS
 62
    11
 10
-573.0
 20
-333.5
 30
0.0
 40
12.421498
  0
LINE
  5
F1
  8
NOTE
  6
CONTINUOUS
 62
     4
 10
-573.0
 20
-318.50483400000002
 30
0.0
 11
-573.0
 21
-348.4951660000001
 31
0.0
  0
LINE
  5
F2
  8
NOTE
  6
CONTINUOUS
 62
     4
 10
-587.99516600000015
 20
-333.5
 30
0.0
 11
-558.00483400000007
 21
-333.5
 31
0.0
  0
LINE
  5
F3
  8
DETAIL
  6
CONTINUOUS
 62
     5
 10
-596.0
 20
-339.5
 30
0.0
 11
-596.0
 21
-367.5
 31
0.0
  0
LINE
  5
F4
  8
DETAIL
  6
CONTINUOUS
 62
     5
 10
-566.0
 20
-341.5
 30
0.0
 11
-566.0
 21
-325.5
 31
0.0
  0
LINE
  5
F5
  8
DETAIL
  6
CONTINUOUS
 62
     5
 10
-580.0
 20
-339.5
 30
0.0
 11
-596.0
 21
-339.5
 31
0.0
  0
LINE
  5
F6
  8
DETAIL
  6
CONTINUOUS
 62
     5
 10
-580.0
 20
-327.5
 30
0.0
 11
-596.0
 21
-327.5
 31
0.0
  0
LINE
  5
F7
  8
DETAIL
  6
CONTINUOUS
 62
     5
 10
-580.0
 20
-327.5
 30
0.0
 11
-580.0
 21
-325.5
 31
0.0
  0
ARC
  5
F8
  8
DETAIL
  6
CONTINUOUS
 62
     5
 10
-573.0
 20
-341.5
 30
0.0
 40
7.0
 50
180.0
 51
0.0
  0
ARC
  5
F9
  8
DETAIL
  6
CONTINUOUS
 62
     5
 10
-573.0
 20
-325.5
 30
0.0
 40
7.0
 50
0.0
 51
180.0
  0
LINE
  5
FA
  8
DETAIL
  6
CONTINUOUS
 62
     5
 10
-580.0
 20
-341.5
 30
0.0
 11
-580.0
 21
-339.5
 31
0.0
  0
LINE
  5
FB
  8
DETAIL
  6
CONTINUOUS
 62
     5
 10
-580.0
 20
-341.5
 30
0.0
 11
-580.0
 21
-339.5
 31
0.0
  0
ARC
  5
FC
  8
DETAIL
  6
CONTINUOUS
 62
     5
 10
-573.0
 20
-325.5
 30
0.0
 40
7.0
 50
0.0
 51
180.0
  0
ARC
  5
FD
  8
DETAIL
  6
CONTINUOUS
 62
     5
 10
-573.0
 20
-341.5
 30
0.0
 40
7.0
 50
180.0
 51
0.0
  0
LINE
  5
FE
  8
DETAIL
  6
CONTINUOUS
 62
     5
 10
-580.0
 20
-327.5
 30
0.0
 11
-580.0
 21
-325.5
 31
0.0
  0
LINE
  5
FF
  8
DETAIL
  6
CONTINUOUS
 62
     5
 10
-580.0
 20
-327.5
 30
0.0
 11
-596.0
 21
-327.5
 31
0.0
  0
LINE
  5
100
  8
DETAIL
  6
CONTINUOUS
 62
     5
 10
-580.0
 20
-339.5
 30
0.0
 11
-596.0
 21
-339.5
 31
0.0
  0
LINE
  5
101
  8
DETAIL
  6
CONTINUOUS
 62
     5
 10
-566.0
 20
-341.5
 30
0.0
 11
-566.0
 21
-325.5
 31
0.0
  0
LINE
  5
105
  8
SIZE
  6
CONTINUOUS
 62
    30
 10
-650.71665199999984
 20
-94.500000000000014
 30
0.0
 11
-1286.792726917171
 21
-94.500000000000014
 31
0.0
  0
LINE
  5
106
  8
SIZE
  6
CONTINUOUS
 62
    30
 10
-645.5
 20
-175.5
 30
0.0
 11
-1168.2983399171701
 21
-175.5
 31
0.0
  0
LINE
  5
107
  8
SIZE
  6
CONTINUOUS
 62
    30
 10
-655.26829699999985
 20
-239.5
 30
0.0
 11
-1168.2983399171701
 21
-239.5
 31
0.0
  0
LINE
  5
108
  8
SIZE
  6
CONTINUOUS
 62
    30
 10
-655.26829699999985
 20
-239.5
 30
0.0
 11
-1168.2983399171701
 21
-239.5
 31
0.0
  0
TEXT
  5
109
  8
SIZE
  6
CONTINUOUS
 62
    30
 10
-1156.082504917171
 20
-225.41654199999999
 30
0.0
 40
55.0
  1
64
 50
90.0
 41
0.9
 72
     1
 11
-1156.082504917171
 21
-184.16654199999999
 31
0.0
  0
LINE
  5
10A
  8
SIZE
  6
CONTINUOUS
 62
    30
 10
-1138.298339917171
 20
-180.5
 30
0.0
 11
-1138.298339917171
 21
-185.5
 31
0.0
  0
CIRCLE
  5
10B
  8
SIZE
  6
CONTINUOUS
 62
    30
 10
-1138.298339917171
 20
-175.5
 30
0.0
 40
5.0
  0
LINE
  5
10C
  8
SIZE
  6
CONTINUOUS
 62
    30
 10
-1138.298339917171
 20
-234.5
 30
0.0
 11
-1138.298339917171
 21
-229.5
 31
0.0
  0
CIRCLE
  5
10D
  8
SIZE
  6
CONTINUOUS
 62
    30
 10
-1138.298339917171
 20
-239.5
 30
0.0
 40
5.0
  0
LINE
  5
10E
  8
SIZE
  6
CONTINUOUS
 62
    30
 10
-1138.298339917171
 20
-229.5
 30
0.0
 11
-1138.298339917171
 21
-185.5
 31
0.0
  0
LINE
  5
10F
  8
SIZE
  6
CONTINUOUS
 62
    30
 10
-1138.298339917171
 20
-234.5
 30
0.0
 11
-1138.298339917171
 21
-229.5
 31
0.0
  0
CIRCLE
  5
110
  8
SIZE
  6
CONTINUOUS
 62
    30
 10
-1138.298339917171
 20
-239.5
 30
0.0
 40
5.0
  0
LINE
  5
111
  8
SIZE
  6
CONTINUOUS
 62
    30
 10
-1138.298339917171
 20
-229.5
 30
0.0
 11
-1138.298339917171
 21
-219.5
 31
0.0
  0
LINE
  5
112
  8
SIZE
  6
CONTINUOUS
 62
    30
 10
-1256.792726917171
 20
-99.500000000000014
 30
0.0
 11
-1256.792726917171
 21
-104.5
 31
0.0
  0
CIRCLE
  5
113
  8
SIZE
  6
CONTINUOUS
 62
    30
 10
-1256.792726917171
 20
-94.500000000000014
 30
0.0
 40
5.0
  0
LINE
  5
115
  8
NOTE
  6
CONTINUOUS
 62
     4
 10
-622.0
 20
-170.00000800000001
 30
0.0
 11
-622.0
 21
-180.99999199999999
 31
0.0
  0
LINE
  5
116
  8
DETAIL
  6
CONTINUOUS
 62
     5
 10
-603.00914900000009
 20
-181.0
 30
0.0
 11
-580.0
 21
-181.0
 31
0.0
  0
LINE
  5
117
  8
DETAIL
  6
CONTINUOUS
 62
     5
 10
-602.00914899999975
 20
-185.0
 30
0.0
 11
-579.99999999999977
 21
-185.0
 31
0.0
  0
LINE
  5
118
  8
DETAIL
  6
CONTINUOUS
 62
     5
 10
-602.00914899999975
 20
-166.0
 30
0.0
 11
-579.99999999999977
 21
-166.0
 31
0.0
  0
LINE
  5
119
  8
DETAIL
  6
CONTINUOUS
 62
     5
 10
-603.00914900000009
 20
-170.0
 30
0.0
 11
-580.0
 21
-170.0
 31
0.0
  0
LINE
  5
11A
  8
DETAIL
  6
CONTINUOUS
 62
     5
 10
-619.00914899999998
 20
-186.0
 30
0.0
 11
-606.00914899999975
 21
-186.0
 31
0.0
  0
LINE
  5
11B
  8
DETAIL
  6
CONTINUOUS
 62
     5
 10
-618.00914899999975
 20
-181.0
 30
0.0
 11
-605.00914899999975
 21
-181.0
 31
0.0
  0
LINE
  5
11C
  8
DETAIL
  6
CONTINUOUS
 62
     5
 10
-605.00914899999975
 20
-185.0
 30
0.0
 11
-606.00914899999975
 21
-186.0
 31
0.0
  0
LINE
  5
11D
  8
DETAIL
  6
CONTINUOUS
 62
     5
 10
-603.00914900000009
 20
-184.0
 30
0.0
 11
-602.00914899999975
 21
-185.0
 31
0.0
  0
LINE
  5
11E
  8
DETAIL
  6
CONTINUOUS
 62
     5
 10
-618.00914899999975
 20
-181.0
 30
0.0
 11
-619.00914899999998
 21
-180.0
 31
0.0
  0
LINE
  5
11F
  8
DETAIL
  6
CONTINUOUS
 62
     5
 10
-618.00914899999975
 20
-181.0
 30
0.0
 11
-619.00914899999998
 21
-182.0
 31
0.0
  0
LINE
  5
120
  8
DETAIL
  6
CONTINUOUS
 62
     5
 10
-605.00914899999975
 20
-178.67500000000001
 30
0.0
 11
-603.00914900000009
 21
-178.67500000000001
 31
0.0
  0
LINE
  5
121
  8
DETAIL
  6
CONTINUOUS
 62
     5
 10
-603.00914900000009
 20
-184.0
 30
0.0
 11
-603.00914900000009
 21
-167.0
 31
0.0
  0
LINE
  5
122
  8
DETAIL
  6
CONTINUOUS
 62
     5
 10
-605.00914899999975
 20
-185.0
 30
0.0
 11
-605.00914899999975
 21
-166.0
 31
0.0
  0
LINE
  5
123
  8
DETAIL
  6
CONTINUOUS
 62
     5
 10
-619.00914899999998
 20
-165.0
 30
0.0
 11
-606.00914899999975
 21
-165.0
 31
0.0
  0
LINE
  5
124
  8
DETAIL
  6
CONTINUOUS
 62
     5
 10
-619.00914899999998
 20
-186.0
 30
0.0
 11
-619.00914899999998
 21
-165.0
 31
0.0
  0
LINE
  5
125
  8
DETAIL
  6
CONTINUOUS
 62
     5
 10
-618.00914899999975
 20
-170.0
 30
0.0
 11
-605.00914899999975
 21
-170.0
 31
0.0
  0
LINE
  5
126
  8
DETAIL
  6
CONTINUOUS
 62
     5
 10
-606.00914899999975
 20
-165.0
 30
0.0
 11
-605.00914899999975
 21
-166.0
 31
0.0
  0
LINE
  5
127
  8
DETAIL
  6
CONTINUOUS
 62
     5
 10
-603.00914900000009
 20
-167.0
 30
0.0
 11
-602.00914899999975
 21
-166.0
 31
0.0
  0
LINE
  5
128
  8
DETAIL
  6
CONTINUOUS
 62
     5
 10
-618.00914899999975
 20
-170.0
 30
0.0
 11
-619.00914899999998
 21
-169.0
 31
0.0
  0
LINE
  5
129
  8
DETAIL
  6
CONTINUOUS
 62
     5
 10
-618.00914899999975
 20
-170.0
 30
0.0
 11
-619.00914899999998
 21
-171.0
 31
0.0
  0
LINE
  5
12A
  8
DETAIL
  6
CONTINUOUS
 62
     5
 10
-605.00914899999975
 20
-172.32499999999999
 30
0.0
 11
-603.00914900000009
 21
-172.32499999999999
 31
0.0
  0
LINE
  5
12B
  8
DETAIL
  6
CONTINUOUS
 62
     5
 10
-622.0
 20
-181.0
 30
0.0
 11
-622.0
 21
-170.0
 31
0.0
  0
LINE
  5
12C
  8
DETAIL
  6
CONTINUOUS
 62
     5
 10
-622.0
 20
-181.0
 30
0.0
 11
-619.00914899999998
 21
-186.0
 31
0.0
  0
LINE
  5
12D
  8
DETAIL
  6
CONTINUOUS
 62
     5
 10
-618.00914899999975
 20
-170.0
 30
0.0
 11
-605.00914899999975
 21
-170.0
 31
0.0
  0
LINE
  5
12E
  8
DETAIL
  6
CONTINUOUS
 62
     5
 10
-622.0
 20
-170.0
 30
0.0
 11
-619.00914899999998
 21
-165.0
 31
0.0
  0
LINE
  5
12F
  8
NOTE
  6
CONTINUOUS
 62
     4
 10
-632.0
 20
-228.25000399999999
 30
0.0
 11
-632.0
 21
-250.74999600000001
 31
0.0
  0
LINE
  5
130
  8
DETAIL
  6
CONTINUOUS
 62
     5
 10
-632.0
 20
-228.25
 30
0.0
 11
-632.0
 21
-250.75
 31
0.0
  0
LINE
  5
131
  8
DETAIL
  6
CONTINUOUS
 62
     5
 10
-580.0
 20
-251.0
 30
0.0
 11
-607.01829700000019
 21
-251.0
 31
0.0
  0
LINE
  5
132
  8
DETAIL
  6
CONTINUOUS
 62
     5
 10
-580.0
 20
-228.0
 30
0.0
 11
-607.01829700000019
 21
-228.0
 31
0.0
  0
LINE
  5
133
  8
DETAIL
  6
CONTINUOUS
 62
     5
 10
-627.01829699999985
 20
-246.5
 30
0.0
 11
-629.01829699999996
 21
-248.5
 31
0.0
  0
LINE
  5
134
  8
DETAIL
  6
CONTINUOUS
 62
     5
 10
-627.01829699999985
 20
-246.5
 30
0.0
 11
-629.01829699999996
 21
-244.5
 31
0.0
  0
LINE
  5
135
  8
DETAIL
  6
CONTINUOUS
 62
     5
 10
-627.01829699999985
 20
-232.5
 30
0.0
 11
-629.01829699999996
 21
-234.5
 31
0.0
  0
LINE
  5
136
  8
DETAIL
  6
CONTINUOUS
 62
     5
 10
-627.01829699999985
 20
-232.5
 30
0.0
 11
-629.01829699999996
 21
-230.5
 31
0.0
  0
LINE
  5
137
  8
DETAIL
  6
CONTINUOUS
 62
     5
 10
-615.01829700000019
 20
-232.5
 30
0.0
 11
-613.01829699999985
 21
-230.5
 31
0.0
  0
LINE
  5
138
  8
DETAIL
  6
CONTINUOUS
 62
     5
 10
-615.01829700000019
 20
-232.5
 30
0.0
 11
-613.01829699999985
 21
-234.5
 31
0.0
  0
LINE
  5
139
  8
DETAIL
  6
CONTINUOUS
 62
     5
 10
-615.01829700000019
 20
-246.5
 30
0.0
 11
-613.01829699999985
 21
-244.5
 31
0.0
  0
LINE
  5
13A
  8
DETAIL
  6
CONTINUOUS
 62
     5
 10
-615.01829700000019
 20
-246.5
 30
0.0
 11
-613.01829699999985
 21
-248.5
 31
0.0
  0
LINE
  5
13B
  8
DETAIL
  6
CONTINUOUS
 62
     5
 10
-615.01829700000019
 20
-246.5
 30
0.0
 11
-627.01829699999985
 21
-246.5
 31
0.0
  0
LINE
  5
13C
  8
DETAIL
  6
CONTINUOUS
 62
     5
 10
-615.01829700000019
 20
-246.5
 30
0.0
 11
-627.01829699999985
 21
-246.5
 31
0.0
  0
LINE
  5
13D
  8
DETAIL
  6
CONTINUOUS
 62
     5
 10
-615.01829700000019
 20
-232.5
 30
0.0
 11
-627.01829699999985
 21
-232.5
 31
0.0
  0
LINE
  5
13E
  8
DETAIL
  6
CONTINUOUS
 62
     5
 10
-613.01829699999985
 20
-250.5
 30
0.0
 11
-615.01829700000019
 21
-252.5
 31
0.0
  0
LINE
  5
13F
  8
DETAIL
  6
CONTINUOUS
 62
     5
 10
-613.01829699999985
 20
-228.5
 30
0.0
 11
-615.01829700000019
 21
-226.5
 31
0.0
  0
LINE
  5
140
  8
DETAIL
  6
CONTINUOUS
 62
     5
 10
-632.0
 20
-250.75
 30
0.0
 11
-629.01829699999996
 21
-252.5
 31
0.0
  0
LINE
  5
141
  8
DETAIL
  6
CONTINUOUS
 62
     5
 10
-629.01829699999996
 20
-226.5
 30
0.0
 11
-632.0
 21
-228.25000399999999
 31
0.0
  0
LINE
  5
142
  8
DETAIL
  6
CONTINUOUS
 62
     5
 10
-629.01829699999996
 20
-226.5
 30
0.0
 11
-629.01829699999996
 21
-252.5
 31
0.0
  0
LINE
  5
143
  8
DETAIL
  6
CONTINUOUS
 62
     5
 10
-615.01829700000019
 20
-252.5
 30
0.0
 11
-629.01829699999996
 21
-252.5
 31
0.0
  0
LINE
  5
144
  8
DETAIL
  6
CONTINUOUS
 62
     5
 10
-615.01829700000019
 20
-226.5
 30
0.0
 11
-629.01829699999996
 21
-226.5
 31
0.0
  0
LINE
  5
145
  8
DETAIL
  6
CONTINUOUS
 62
     5
 10
-609.01829699999985
 20
-230.0
 30
0.0
 11
-607.01829700000019
 21
-228.0
 31
0.0
  0
LINE
  5
146
  8
DETAIL
  6
CONTINUOUS
 62
     5
 10
-609.01829699999985
 20
-249.0
 30
0.0
 11
-607.01829700000019
 21
-251.0
 31
0.0
  0
LINE
  5
147
  8
DETAIL
  6
CONTINUOUS
 62
     5
 10
-609.01829699999985
 20
-230.0
 30
0.0
 11
-609.01829699999985
 21
-249.0
 31
0.0
  0
LINE
  5
148
  8
DETAIL
  6
CONTINUOUS
 62
     5
 10
-613.01829699999985
 20
-228.5
 30
0.0
 11
-613.01829699999985
 21
-250.5
 31
0.0
  0
LINE
  5
149
  8
DETAIL
  6
CONTINUOUS
 62
     5
 10
-613.01829699999985
 20
-233.15000000000001
 30
0.0
 11
-613.01829699999985
 21
-245.84999999999999
 31
0.0
  0
LINE
  5
14A
  8
DETAIL
  6
CONTINUOUS
 62
     5
 10
-613.01829699999985
 20
-245.84999999999999
 30
0.0
 11
-609.01829699999985
 21
-245.84999999999999
 31
0.0
  0
LINE
  5
14B
  8
DETAIL
  6
CONTINUOUS
 62
     5
 10
-613.01829699999985
 20
-233.15000000000001
 30
0.0
 11
-609.01829699999985
 21
-233.15000000000001
 31
0.0
  0
LINE
  5
14C
  8
DETAIL
  6
CONTINUOUS
 62
     5
 10
-609.01829699999985
 20
-230.0
 30
0.0
 11
-609.01829699999985
 21
-249.0
 31
0.0
  0
LINE
  5
14D
  8
DETAIL
  6
CONTINUOUS
 62
     5
 10
-580.0
 20
-157.5
 30
0.0
 11
-620.0
 21
-157.5
 31
0.0
  0
LINE
  5
14E
  8
OUTLINE
  6
CONTINUOUS
 62
     3
 10
-580.0
 20
-157.5
 30
0.0
 11
-620.0
 21
-157.5
 31
0.0
  0
LINE
  5
14F
  8
NOTE
  6
CONTINUOUS
 62
     4
 10
-620.76744599999995
 20
-239.5
 30
0.0
 11
-643.26744600000018
 21
-239.5
 31
0.0
  0
LINE
  5
152
  8
NOTE
  6
CONTINUOUS
 62
     4
 10
-616.5
 20
-175.5
 30
0.0
 11
-627.5
 21
-175.5
 31
0.0
  0
LINE
  5
154
  8
DETAIL
  6
CONTINUOUS
 62
     5
 10
-558.02933499999995
 20
-306.89987000000002
 30
0.0
 11
-596.0
 21
-306.89987000000002
 31
0.0
  0
LINE
  5
155
  8
NOTE
  6
CONTINUOUS
 62
     4
 10
-597.28334799999982
 20
-94.500000000000014
 30
0.0
 11
-630.71665199999984
 21
-94.500000000000014
 31
0.0
  0
LINE
  5
156
  8
NOTE
  6
CONTINUOUS
 62
     4
 10
-614.0
 20
-77.783348000000004
 30
0.0
 11
-614.0
 21
-111.216652
 31
0.0
  0
LINE
  5
159
  8
DETAIL
  6
CONTINUOUS
 62
     5
 10
-589.0
 20
-110.7
 30
0.0
 11
-580.0
 21
-110.857096
 31
0.0
  0
LINE
  5
15A
  8
DETAIL
  6
CONTINUOUS
 62
     5
 10
-589.0
 20
-78.299999999999983
 30
0.0
 11
-580.0
 21
-78.142904000000001
 31
0.0
  0
ARC
  5
15B
  8
DETAIL
  6
CONTINUOUS
 62
     5
 10
-613.49999999999977
 20
-110.0
 30
0.0
 40
0.5
 50
180.0
 51
270.0
  0
ARC
  5
15C
  8
DETAIL
  6
CONTINUOUS
 62
     5
 10
-613.49999999999977
 20
-79.0
 30
0.0
 40
0.5
 50
90.0
 51
180.0
  0
LINE
  5
15D
  8
DETAIL
  6
CONTINUOUS
 62
     5
 10
-589.0
 20
-78.299999999999983
 30
0.0
 11
-589.0
 21
-110.7
 31
0.0
  0
LINE
  5
15E
  8
DETAIL
  6
CONTINUOUS
 62
     5
 10
-589.0
 20
-110.5
 30
0.0
 11
-613.49999999999977
 21
-110.5
 31
0.0
  0
LINE
  5
15F
  8
DETAIL
  6
CONTINUOUS
 62
     5
 10
-589.0
 20
-78.5
 30
0.0
 11
-613.49999999999977
 21
-78.5
 31
0.0
  0
LINE
  5
160
  8
DETAIL
  6
CONTINUOUS
 62
     5
 10
-614.0
 20
-79.0
 30
0.0
 11
-614.0
 21
-110.0
 31
0.0
  0
ARC
  5
161
  8
DETAIL
  6
CONTINUOUS
 62
     5
 10
-613.49999999999977
 20
-79.0
 30
0.0
 40
0.5
 50
90.0
 51
180.0
  0
ARC
  5
162
  8
DETAIL
  6
CONTINUOUS
 62
     5
 10
-613.49999999999977
 20
-110.0
 30
0.0
 40
0.5
 50
180.0
 51
270.0
  0
LINE
  5
163
  8
DETAIL
  6
CONTINUOUS
 62
     5
 10
-589.0
 20
-110.7
 30
0.0
 11
-580.0
 21
-110.857096
 31
0.0
  0
LINE
  5
164
  8
DETAIL
  6
CONTINUOUS
 62
     5
 10
-589.0
 20
-78.299999999999983
 30
0.0
 11
-580.0
 21
-78.142904000000001
 31
0.0
  0
LINE
  5
165
  8
SIZE
  6
CONTINUOUS
 62
    30
 10
-620.0
 20
462.5
 30
0.0
 11
-620.0
 21
814.04486399999985
 31
0.0
  0
LINE
  5
166
  8
SIZE
  6
CONTINUOUS
 62
    30
 10
-600.0
 20
445.5
 30
0.0
 11
-600.0
 21
677.57195100000001
 31
0.0
  0
LINE
  5
167
  8
SIZE
  6
CONTINUOUS
 62
    30
 10
-616.0
 20
367.5
 30
0.0
 11
-1413.68737691717
 21
367.5
 31
0.0
  0
LINE
  5
168
  8
NOTE
  6
CONTINUOUS
 62
     4
 10
-818.70323981619742
 20
264.45195401309053
 30
0.0
 11
-1170.2851282438669
 21
264.45195401309053
 31
0.0
  0
TEXT
  5
169
  8
NOTE
  6
CONTINUOUS
 62
     4
 10
-1148.6098562438681
 20
280.27848501309052
 30
0.0
 40
60.0
  1
D1 VP-25
 50
0.000003
 41
0.7
  7
STANDARD1
  0
LINE
  5
16A
  8
NOTE
  6
CONTINUOUS
 62
     4
 10
-852.10933478407514
 20
102.086283755488
 30
0.0
 11
-1208.0919242447801
 21
102.086283755488
 31
0.0
  0
TEXT
  5
16B
  8
NOTE
  6
CONTINUOUS
 62
     4
 10
-1186.4166522447799
 20
117.9128147554879
 30
0.0
 40
60.0
  1
RL %%C9.52
 50
0.000003
 41
0.7
  7
STANDARD1
  0
LINE
  5
16C
  8
SIZE
  6
CONTINUOUS
 62
    30
 10
-1383.6873769171709
 20
362.5
 30
0.0
 11
-1383.6873769171709
 21
357.5
 31
0.0
  0
CIRCLE
  5
16D
  8
SIZE
  6
CONTINUOUS
 62
    30
 10
-1383.6873769171709
 20
367.5
 30
0.0
 40
5.0
  0
LINE
  5
16E
  8
SIZE
  6
CONTINUOUS
 62
    30
 10
-570.0
 20
35.647388999999997
 30
0.0
 11
-434.24440099999998
 21
35.647388999999997
 31
0.0
  0
LINE
  5
16F
  8
SIZE
  6
CONTINUOUS
 62
    30
 10
-575.0
 20
35.647388999999997
 30
0.0
 11
-570.0
 21
35.647388999999997
 31
0.0
  0
CIRCLE
  5
170
  8
SIZE
  6
CONTINUOUS
 62
    30
 10
-580.0
 20
35.647388999999997
 30
0.0
 40
5.0
  0
CIRCLE
  5
171
  8
SIZE
  6
CONTINUOUS
 62
    30
 10
-614.0
 20
35.647388999999997
 30
0.0
 40
5.0
  0
LINE
  5
172
  8
SIZE
  6
CONTINUOUS
 62
    30
 10
-614.0
 20
35.647388999999997
 30
0.0
 11
-580.0
 21
35.647388999999997
 31
0.0
  0
TEXT
  5
173
  8
SIZE
  6
CONTINUOUS
 62
    30
 10
-534.74440099999993
 20
53.647388999999983
 30
0.0
 40
55.0
  1
34
 41
0.9
 72
     1
 11
-493.49440099999993
 21
53.647388999999983
 31
0.0
  0
TEXT
  5
174
  8
SIZE
  6
CONTINUOUS
 62
    30
 10
-543.17857157142839
 20
180.33787599999999
 30
0.0
 40
55.0
  1
42
 41
0.9
 72
     1
 11
-503.10714299999989
 21
180.33787599999999
 31
0.0
  0
LINE
  5
175
  8
SIZE
  6
CONTINUOUS
 62
    30
 10
-570.0
 20
162.33787599999999
 30
0.0
 11
-446.21428600000002
 21
162.33787599999999
 31
0.0
  0
LINE
  5
176
  8
SIZE
  6
CONTINUOUS
 62
    30
 10
-575.0
 20
162.33787599999999
 30
0.0
 11
-570.0
 21
162.33787599999999
 31
0.0
  0
CIRCLE
  5
177
  8
SIZE
  6
CONTINUOUS
 62
    30
 10
-580.0
 20
162.33787599999999
 30
0.0
 40
5.0
  0
CIRCLE
  5
178
  8
SIZE
  6
CONTINUOUS
 62
    30
 10
-622.00914900000021
 20
162.33787599999999
 30
0.0
 40
5.0
  0
LINE
  5
179
  8
SIZE
  6
CONTINUOUS
 62
    30
 10
-617.00914899999987
 20
162.33787599999999
 30
0.0
 11
-580.0
 21
162.33787599999999
 31
0.0
  0
LINE
  5
17A
  8
SIZE
  6
CONTINUOUS
 62
    30
 10
-630.0
 20
529.40981199999999
 30
0.0
 11
-756.14285700000005
 21
529.40981199999999
 31
0.0
  0
TEXT
  5
17B
  8
SIZE
  6
CONTINUOUS
 62
    30
 10
-738.14285757142829
 20
547.40981199999976
 30
0.0
 40
55.0
  1
20
 41
0.9
 72
     1
 11
-698.07142899999985
 21
547.40981199999976
 31
0.0
  0
LINE
  5
17C
  8
SIZE
  6
CONTINUOUS
 62
    30
 10
-596.0
 20
387.5
 30
0.0
 11
-596.0
 21
559.40981199999987
 31
0.0
  0
LINE
  5
17D
  8
SIZE
  6
CONTINUOUS
 62
    30
 10
-600.0
 20
445.5
 30
0.0
 11
-600.0
 21
559.40981199999987
 31
0.0
  0
LINE
  5
17E
  8
SIZE
  6
CONTINUOUS
 62
    30
 10
-600.0
 20
445.5
 30
0.0
 11
-600.0
 21
559.40981199999987
 31
0.0
  0
CIRCLE
  5
17F
  8
FIX
  6
CONTINUOUS
 62
    11
 10
-573.0
 20
336.5
 30
0.0
 40
12.421498
  0
LINE
  5
180
  8
NOTE
  6
CONTINUOUS
 62
     4
 10
-573.0
 20
351.49516599999998
 30
0.0
 11
-573.0
 21
321.50483400000002
 31
0.0
  0
LINE
  5
181
  8
NOTE
  6
CONTINUOUS
 62
     4
 10
-587.99516600000015
 20
336.5
 30
0.0
 11
-558.00483400000007
 21
336.5
 31
0.0
  0
LINE
  5
182
  8
DETAIL
  6
CONTINUOUS
 62
     5
 10
-558.02933499999995
 20
367.5
 30
0.0
 11
-558.02933499999995
 21
306.89987000000002
 31
0.0
  0
LINE
  5
183
  8
DETAIL
  6
CONTINUOUS
 62
     5
 10
-596.0
 20
342.5
 30
0.0
 11
-596.0
 21
367.5
 31
0.0
  0
LINE
  5
184
  8
DETAIL
  6
CONTINUOUS
 62
     5
 10
-596.0
 20
306.89987000000002
 30
0.0
 11
-596.0
 21
330.5
 31
0.0
  0
LINE
  5
185
  8
DETAIL
  6
CONTINUOUS
 62
     5
 10
-558.02933499999995
 20
306.89987000000002
 30
0.0
 11
-596.0
 21
306.89987000000002
 31
0.0
  0
LINE
  5
186
  8
DETAIL
  6
CONTINUOUS
 62
     5
 10
-566.0
 20
344.5
 30
0.0
 11
-566.0
 21
328.5
 31
0.0
  0
LINE
  5
187
  8
DETAIL
  6
CONTINUOUS
 62
     5
 10
-580.0
 20
342.5
 30
0.0
 11
-596.0
 21
342.5
 31
0.0
  0
LINE
  5
188
  8
DETAIL
  6
CONTINUOUS
 62
     5
 10
-580.0
 20
330.5
 30
0.0
 11
-596.0
 21
330.5
 31
0.0
  0
LINE
  5
189
  8
DETAIL
  6
CONTINUOUS
 62
     5
 10
-580.0
 20
330.5
 30
0.0
 11
-580.0
 21
328.5
 31
0.0
  0
ARC
  5
18A
  8
DETAIL
  6
CONTINUOUS
 62
     5
 10
-573.0
 20
344.5
 30
0.0
 40
7.0
 50
0.0
 51
180.0
  0
ARC
  5
18B
  8
DETAIL
  6
CONTINUOUS
 62
     5
 10
-573.0
 20
328.5
 30
0.0
 40
7.0
 50
180.0
 51
0.0
  0
LINE
  5
18C
  8
DETAIL
  6
CONTINUOUS
 62
     5
 10
-580.0
 20
344.5
 30
0.0
 11
-580.0
 21
342.5
 31
0.0
  0
LINE
  5
18D
  8
DETAIL
  6
CONTINUOUS
 62
     5
 10
-580.0
 20
344.5
 30
0.0
 11
-580.0
 21
342.5
 31
0.0
  0
ARC
  5
18E
  8
DETAIL
  6
CONTINUOUS
 62
     5
 10
-573.0
 20
328.5
 30
0.0
 40
7.0
 50
180.0
 51
0.0
  0
ARC
  5
18F
  8
DETAIL
  6
CONTINUOUS
 62
     5
 10
-573.0
 20
344.5
 30
0.0
 40
7.0
 50
0.0
 51
180.0
  0
LINE
  5
190
  8
DETAIL
  6
CONTINUOUS
 62
     5
 10
-580.0
 20
330.5
 30
0.0
 11
-580.0
 21
328.5
 31
0.0
  0
LINE
  5
191
  8
DETAIL
  6
CONTINUOUS
 62
     5
 10
-580.0
 20
330.5
 30
0.0
 11
-596.0
 21
330.5
 31
0.0
  0
LINE
  5
192
  8
DETAIL
  6
CONTINUOUS
 62
     5
 10
-580.0
 20
342.5
 30
0.0
 11
-596.0
 21
342.5
 31
0.0
  0
LINE
  5
193
  8
DETAIL
  6
CONTINUOUS
 62
     5
 10
-566.0
 20
344.5
 30
0.0
 11
-566.0
 21
328.5
 31
0.0
  0
LINE
  5
194
  8
DETAIL
  6
CONTINUOUS
 62
     5
 10
-550.0
 20
353.5
 30
0.0
 11
-547.0
 21
350.5
 31
0.0
  0
LINE
  5
195
  8
DETAIL
  6
CONTINUOUS
 62
     5
 10
-550.0
 20
353.5
 30
0.0
 11
-550.0
 21
367.5
 31
0.0
  0
LINE
  5
196
  8
DETAIL
  6
CONTINUOUS
 62
     5
 10
-550.0
 20
353.5
 30
0.0
 11
-550.0
 21
367.5
 31
0.0
  0
LINE
  5
197
  8
DETAIL
  6
CONTINUOUS
 62
     5
 10
-550.0
 20
353.5
 30
0.0
 11
-547.0
 21
350.5
 31
0.0
  0
TEXT
  5
198
  8
SIZE
  6
CONTINUOUS
 62
    30
 10
-549.33914942857109
 20
547.40981199999976
 30
0.0
 40
55.0
  1
4
 41
0.9
 72
     1
 11
-531.66057799999965
 21
547.40981199999976
 31
0.0
  0
LINE
  5
199
  8
SIZE
  6
CONTINUOUS
 62
    30
 10
-495.98200700000001
 20
529.40981199999999
 30
0.0
 11
-596.0
 21
529.40981199999999
 31
0.0
  0
LINE
  5
19A
  8
SIZE
  6
CONTINUOUS
 62
    30
 10
-591.0
 20
529.40981199999999
 30
0.0
 11
-586.0
 21
529.40981199999999
 31
0.0
  0
CIRCLE
  5
19B
  8
SIZE
  6
CONTINUOUS
 62
    30
 10
-596.0
 20
529.40981199999999
 30
0.0
 40
5.0
  0
LINE
  5
19C
  8
SIZE
  6
CONTINUOUS
 62
    30
 10
-605.0
 20
529.40981199999999
 30
0.0
 11
-610.0
 21
529.40981199999999
 31
0.0
  0
CIRCLE
  5
19D
  8
SIZE
  6
CONTINUOUS
 62
    30
 10
-600.0
 20
529.40981199999999
 30
0.0
 40
5.0
  0
LINE
  5
19E
  8
SIZE
  6
CONTINUOUS
 62
    30
 10
-600.0
 20
529.40981199999999
 30
0.0
 11
-596.0
 21
529.40981199999999
 31
0.0
  0
LINE
  5
19F
  8
SIZE
  6
CONTINUOUS
 62
    30
 10
-600.0
 20
529.40981199999999
 30
0.0
 11
-596.0
 21
529.40981199999999
 31
0.0
  0
LINE
  5
1A0
  8
SIZE
  6
CONTINUOUS
 62
    30
 10
-586.0
 20
529.40981199999999
 30
0.0
 11
-576.0
 21
529.40981199999999
 31
0.0
  0
LINE
  5
1A1
  8
SIZE
  6
CONTINUOUS
 62
    30
 10
-610.0
 20
529.40981199999999
 30
0.0
 11
-620.0
 21
529.40981199999999
 31
0.0
  0
LINE
  5
1A2
  8
SIZE
  6
CONTINUOUS
 62
    30
 10
-625.0
 20
529.40981199999999
 30
0.0
 11
-630.0
 21
529.40981199999999
 31
0.0
  0
CIRCLE
  5
1A3
  8
SIZE
  6
CONTINUOUS
 62
    30
 10
-620.0
 20
529.40981199999999
 30
0.0
 40
5.0
  0
LINE
  5
1A4
  8
SIZE
  6
CONTINUOUS
 62
    30
 10
-595.0
 20
529.40981199999999
 30
0.0
 11
-590.0
 21
529.40981199999999
 31
0.0
  0
CIRCLE
  5
1A5
  8
SIZE
  6
CONTINUOUS
 62
    30
 10
-600.0
 20
529.40981199999999
 30
0.0
 40
5.0
  0
LINE
  5
1A6
  8
SIZE
  6
CONTINUOUS
 62
    30
 10
-600.0
 20
529.40981199999999
 30
0.0
 11
-620.0
 21
529.40981199999999
 31
0.0
  0
LINE
  5
1A7
  8
SIZE
  6
CONTINUOUS
 62
    30
 10
-590.0
 20
529.40981199999999
 30
0.0
 11
-580.0
 21
529.40981199999999
 31
0.0
  0
LINE
  5
1A8
  8
SIZE
  6
CONTINUOUS
 62
    30
 10
-620.0
 20
462.5
 30
0.0
 11
-620.0
 21
559.40981199999987
 31
0.0
  0
LINE
  5
1A9
  8
SIZE
  6
CONTINUOUS
 62
    30
 10
-595.0
 20
647.57195100000001
 30
0.0
 11
-590.0
 21
647.57195100000001
 31
0.0
  0
CIRCLE
  5
1AA
  8
SIZE
  6
CONTINUOUS
 62
    30
 10
-600.0
 20
647.57195100000001
 30
0.0
 40
5.0
  0
LINE
  5
1AB
  8
SIZE
  6
CONTINUOUS
 62
    30
 10
-615.0
 20
784.04486399999985
 30
0.0
 11
-610.0
 21
784.04486399999985
 31
0.0
  0
CIRCLE
  5
1AC
  8
SIZE
  6
CONTINUOUS
 62
    30
 10
-620.0
 20
784.04486399999985
 30
0.0
 40
5.0
  0
LINE
  5
1AD
  8
BASIS
  6
DASHDOT
 62
     6
 10
0.0
 20
500.0
 30
0.0
 11
0.0
 21
-500.0
 31
0.0
  0
CIRCLE
  5
1AE
  8
ARRANGE
  6
CONTINUOUS
 62
     1
 10
0.0
 20
0.0
 30
0.0
 40
50.0
  0
LINE
  5
1AF
  8
SIZE
  6
CONTINUOUS
 62
    30
 10
875.36766599999964
 20
326.5
 30
0.0
 11
875.36766599999964
 21
-323.5
 31
0.0
  0
TEXT
  5
1B0
  8
SIZE
  6
CONTINUOUS
 62
    30
 10
940.85447807577634
 20
-133.28483
 30
0.0
 40
60.0
  1
(吊りボルトピッチ)
 50
90.000003000000007
 41
0.7
  7
STANDARD1
  0
LINE
  5
1B1
  8
SIZE
  6
CONTINUOUS
 62
    30
 10
1343.0652219999999
 20
-147.5
 30
0.0
 11
1343.0652219999999
 21
432.5
 31
0.0
  0
TEXT
  5
1B2
  8
SIZE
  6
CONTINUOUS
 62
    30
 10
1173.333089
 20
-131.1642857142856
 30
0.0
 40
55.0
  1
566(天井開口寸法)
 50
90.0
 41
0.9
 72
     1
 11
1173.333089
 21
142.5
 31
0.0
  0
LINE
  5
1B3
  8
SIZE
  6
CONTINUOUS
 62
    30
 10
1189.7378510000001
 20
-130.5
 30
0.0
 11
1189.7378510000001
 21
415.5
 31
0.0
  0
LINE
  5
1B4
  8
DETAIL
  6
CONTINUOUS
 62
     5
 10
620.0
 20
442.49999999999989
 30
0.0
 11
620.0
 21
-157.5
 31
0.0
  0
LINE
  5
1B5
  8
OUTLINE
  6
CONTINUOUS
 62
     3
 10
620.0
 20
442.49999999999989
 30
0.0
 11
620.0
 21
-157.5
 31
0.0
  0
LINE
  5
1B6
  8
OUTLINE
  6
CONTINUOUS
 62
     3
 10
580.0
 20
-367.5
 30
0.0
 11
580.0
 21
367.5
 31
0.0
  0
LINE
  5
1B7
  8
SERVICESPACE
  6
DASHDOT
 62
     2
 10
600.0
 20
-140.5
 30
0.0
 11
600.0
 21
425.49999999999989
 31
0.0
  0
LINE
  5
1B8
  8
ARRANGE
  6
CONTINUOUS
 62
     1
 10
49.963763
 20
49.596595000000001
 30
0.0
 11
-49.963763
 21
-49.596595000000001
 31
0.0
  0
LINE
  5
1B9
  8
ARRANGE
  6
CONTINUOUS
 62
     1
 10
50.037350000000004
 20
-49.522353000000003
 30
0.0
 11
-50.037350000000004
 21
49.522353000000003
 31
0.0
  0
LINE
  5
1BA
  8
DETAIL
  6
CONTINUOUS
 62
     5
 10
580.0
 20
-306.89987000000002
 30
0.0
 11
580.0
 21
306.89987000000002
 31
0.0
  0
LINE
  5
1BB
  8
SIZE
  6
CONTINUOUS
 62
    30
 10
607.99516599999981
 20
-333.5
 30
0.0
 11
905.36766599999964
 21
-333.5
 31
0.0
  0
LINE
  5
1BC
  8
SIZE
  6
CONTINUOUS
 62
    30
 10
640.0
 20
-157.5
 30
0.0
 11
1373.0652219999999
 21
-157.5
 31
0.0
  0
LINE
  5
1BD
  8
SIZE
  6
CONTINUOUS
 62
    30
 10
640.0
 20
-157.5
 30
0.0
 11
1373.0652219999999
 21
-157.5
 31
0.0
  0
LINE
  5
1BE
  8
SIZE
  6
CONTINUOUS
 62
    30
 10
620.0
 20
-140.5
 30
0.0
 11
1219.7378510000001
 21
-140.5
 31
0.0
  0
LINE
  5
1BF
  8
SIZE
  6
CONTINUOUS
 62
    30
 10
620.0
 20
-140.5
 30
0.0
 11
1219.7378510000001
 21
-140.5
 31
0.0
  0
LINE
  5
1C0
  8
SIZE
  6
CONTINUOUS
 62
    30
 10
616.0
 20
-367.5
 30
0.0
 11
1219.7378510000001
 21
-367.5
 31
0.0
  0
TEXT
  5
1C1
  8
SIZE
  6
CONTINUOUS
 62
    30
 10
721.39267399999983
 20
-266.21428585714278
 30
0.0
 40
55.0
  1
17
 50
90.0
 41
0.9
 72
     1
 11
721.39267399999983
 21
-230.85714300000001
 31
0.0
  0
LINE
  5
1C2
  8
SIZE
  6
CONTINUOUS
 62
    30
 10
640.0
 20
-157.5
 30
0.0
 11
769.39267400000006
 21
-157.5
 31
0.0
  0
LINE
  5
1C3
  8
SIZE
  6
CONTINUOUS
 62
    30
 10
620.0
 20
-140.5
 30
0.0
 11
769.39267400000006
 21
-140.5
 31
0.0
  0
TEXT
  5
1C4
  8
SIZE
  6
CONTINUOUS
 62
    30
 10
637.67985042857163
 20
-988.65239931352789
 30
0.0
 40
55.0
  1
23
 41
0.9
 72
     1
 11
677.75127900000018
 21
-988.65239931352789
 31
0.0
  0
LINE
  5
1C5
  8
SIZE
  6
CONTINUOUS
 62
    30
 10
735.82270799999981
 20
-1006.652399313528
 30
0.0
 11
596.0
 21
-1006.652399313528
 31
0.0
  0
TEXT
  5
1C6
  8
SIZE
  6
CONTINUOUS
 62
    30
 10
636.10371357142844
 20
-874.92339931352751
 30
0.0
 40
55.0
  1
16
 41
0.9
 72
     1
 11
670.282285
 21
-874.92339931352751
 31
0.0
  0
LINE
  5
1C7
  8
SIZE
  6
CONTINUOUS
 62
    30
 10
722.46085700000003
 20
-892.92339931352774
 30
0.0
 11
596.0
 21
-892.92339931352774
 31
0.0
  0
LINE
  5
1C9
  8
SIZE
  6
CONTINUOUS
 62
    30
 10
596.0
 20
-387.5
 30
0.0
 11
596.0
 21
-1171.0053333135279
 31
0.0
  0
LINE
  5
1CA
  8
SIZE
  6
CONTINUOUS
 62
    30
 10
573.0
 20
-368.49516599999998
 30
0.0
 11
573.0
 21
-1036.6523993135279
 31
0.0
  0
LINE
  5
1CB
  8
SIZE
  6
CONTINUOUS
 62
    30
 10
580.0
 20
-387.5
 30
0.0
 11
580.0
 21
-922.92339931352763
 31
0.0
  0
LINE
  5
1D0
  8
SIZE
  6
CONTINUOUS
 62
    30
 10
596.0
 20
-387.5
 30
0.0
 11
596.0
 21
-1036.6523993135279
 31
0.0
  0
LINE
  5
1D1
  8
SIZE
  6
CONTINUOUS
 62
    30
 10
573.0
 20
-368.49516599999998
 30
0.0
 11
573.0
 21
-1036.6523993135279
 31
0.0
  0
LINE
  5
1D2
  8
SIZE
  6
CONTINUOUS
 62
    30
 10
596.0
 20
-387.5
 30
0.0
 11
596.0
 21
-922.92339931352763
 31
0.0
  0
LINE
  5
1D3
  8
SIZE
  6
CONTINUOUS
 62
    30
 10
580.0
 20
-387.5
 30
0.0
 11
580.0
 21
-922.92339931352763
 31
0.0
  0
TEXT
  5
1D4
  8
SIZE
  6
CONTINUOUS
 62
    30
 10
-77.785714285714278
 20
-1123.0053333135279
 30
0.0
 40
55.0
  1
1192
 41
0.9
 72
     1
 11
0.0
 21
-1123.0053333135279
 31
0.0
  0
TEXT
  5
1D5
  8
SIZE
  6
CONTINUOUS
 62
    30
 10
-77.785714285714292
 20
-874.92339931352751
 30
0.0
 40
55.0
  1
1160
 41
0.9
 72
     1
 11
0.0
 21
-874.92339931352751
 31
0.0
  0
LINE
  5
1D6
  8
SIZE
  6
CONTINUOUS
 62
    30
 10
591.0
 20
-1141.0053333135279
 30
0.0
 11
586.0
 21
-1141.0053333135279
 31
0.0
  0
CIRCLE
  5
1D7
  8
SIZE
  6
CONTINUOUS
 62
    30
 10
596.0
 20
-1141.0053333135279
 30
0.0
 40
5.0
  0
LINE
  5
1D8
  8
SIZE
  6
CONTINUOUS
 62
    30
 10
688.0
 20
-1006.652399313528
 30
0.0
 11
678.0
 21
-1006.652399313528
 31
0.0
  0
LINE
  5
1D9
  8
SIZE
  6
CONTINUOUS
 62
    30
 10
693.0
 20
-1006.652399313528
 30
0.0
 11
688.0
 21
-1006.652399313528
 31
0.0
  0
CIRCLE
  5
1DA
  8
SIZE
  6
CONTINUOUS
 62
    30
 10
573.0
 20
-1006.652399313528
 30
0.0
 40
5.0
  0
LINE
  5
1DB
  8
SIZE
  6
CONTINUOUS
 62
    30
 10
601.0
 20
-1006.652399313528
 30
0.0
 11
606.0
 21
-1006.652399313528
 31
0.0
  0
CIRCLE
  5
1DC
  8
SIZE
  6
CONTINUOUS
 62
    30
 10
596.0
 20
-1006.652399313528
 30
0.0
 40
5.0
  0
LINE
  5
1DD
  8
SIZE
  6
CONTINUOUS
 62
    30
 10
693.0
 20
-1006.652399313528
 30
0.0
 11
688.0
 21
-1006.652399313528
 31
0.0
  0
CIRCLE
  5
1DE
  8
SIZE
  6
CONTINUOUS
 62
    30
 10
573.0
 20
-1006.652399313528
 30
0.0
 40
5.0
  0
LINE
  5
1DF
  8
SIZE
  6
CONTINUOUS
 62
    30
 10
573.0
 20
-1006.652399313528
 30
0.0
 11
596.0
 21
-1006.652399313528
 31
0.0
  0
LINE
  5
1E0
  8
SIZE
  6
CONTINUOUS
 62
    30
 10
573.0
 20
-1006.652399313528
 30
0.0
 11
596.0
 21
-1006.652399313528
 31
0.0
  0
LINE
  5
1E1
  8
SIZE
  6
CONTINUOUS
 62
    30
 10
606.0
 20
-1006.652399313528
 30
0.0
 11
616.0
 21
-1006.652399313528
 31
0.0
  0
LINE
  5
1E2
  8
SIZE
  6
CONTINUOUS
 62
    30
 10
700.0
 20
-892.92339931352774
 30
0.0
 11
695.0
 21
-892.92339931352774
 31
0.0
  0
CIRCLE
  5
1E3
  8
SIZE
  6
CONTINUOUS
 62
    30
 10
580.0
 20
-892.92339931352774
 30
0.0
 40
5.0
  0
LINE
  5
1E4
  8
SIZE
  6
CONTINUOUS
 62
    30
 10
601.0
 20
-892.92339931352774
 30
0.0
 11
606.0
 21
-892.92339931352774
 31
0.0
  0
CIRCLE
  5
1E5
  8
SIZE
  6
CONTINUOUS
 62
    30
 10
596.0
 20
-892.92339931352774
 30
0.0
 40
5.0
  0
LINE
  5
1E6
  8
SIZE
  6
CONTINUOUS
 62
    30
 10
700.0
 20
-892.92339931352774
 30
0.0
 11
695.0
 21
-892.92339931352774
 31
0.0
  0
CIRCLE
  5
1E7
  8
SIZE
  6
CONTINUOUS
 62
    30
 10
580.0
 20
-892.92339931352774
 30
0.0
 40
5.0
  0
LINE
  5
1E8
  8
SIZE
  6
CONTINUOUS
 62
    30
 10
580.0
 20
-892.92339931352774
 30
0.0
 11
596.0
 21
-892.92339931352774
 31
0.0
  0
LINE
  5
1E9
  8
SIZE
  6
CONTINUOUS
 62
    30
 10
580.0
 20
-892.92339931352774
 30
0.0
 11
596.0
 21
-892.92339931352774
 31
0.0
  0
LINE
  5
1EA
  8
SIZE
  6
CONTINUOUS
 62
    30
 10
606.0
 20
-892.92339931352774
 30
0.0
 11
616.0
 21
-892.92339931352774
 31
0.0
  0
LINE
  5
1EB
  8
SIZE
  6
CONTINUOUS
 62
    30
 10
695.0
 20
-892.92339931352774
 30
0.0
 11
685.0
 21
-892.92339931352774
 31
0.0
  0
LINE
  5
1FD
  8
DETAIL
  6
CONTINUOUS
 62
     5
 10
596.0
 20
-306.89987000000002
 30
0.0
 11
596.0
 21
-327.5
 31
0.0
  0
LINE
  5
1FE
  8
DETAIL
  6
CONTINUOUS
 62
     5
 10
558.02933499999995
 20
-367.5
 30
0.0
 11
558.02933499999995
 21
-306.89987000000002
 31
0.0
  0
CIRCLE
  5
212
  8
FIX
  6
CONTINUOUS
 62
    11
 10
573.0
 20
-333.5
 30
0.0
 40
12.421498
  0
LINE
  5
213
  8
NOTE
  6
CONTINUOUS
 62
     4
 10
573.0
 20
-318.50483400000002
 30
0.0
 11
573.0
 21
-348.4951660000001
 31
0.0
  0
LINE
  5
214
  8
NOTE
  6
CONTINUOUS
 62
     4
 10
558.00483400000007
 20
-333.5
 30
0.0
 11
587.99516600000015
 21
-333.5
 31
0.0
  0
LINE
  5
215
  8
DETAIL
  6
CONTINUOUS
 62
     5
 10
596.0
 20
-339.5
 30
0.0
 11
596.0
 21
-367.5
 31
0.0
  0
LINE
  5
216
  8
DETAIL
  6
CONTINUOUS
 62
     5
 10
566.0
 20
-341.5
 30
0.0
 11
566.0
 21
-325.5
 31
0.0
  0
LINE
  5
217
  8
DETAIL
  6
CONTINUOUS
 62
     5
 10
580.0
 20
-339.5
 30
0.0
 11
596.0
 21
-339.5
 31
0.0
  0
LINE
  5
218
  8
DETAIL
  6
CONTINUOUS
 62
     5
 10
580.0
 20
-327.5
 30
0.0
 11
596.0
 21
-327.5
 31
0.0
  0
LINE
  5
219
  8
DETAIL
  6
CONTINUOUS
 62
     5
 10
580.0
 20
-327.5
 30
0.0
 11
580.0
 21
-325.5
 31
0.0
  0
ARC
  5
21A
  8
DETAIL
  6
CONTINUOUS
 62
     5
 10
573.0
 20
-341.5
 30
0.0
 40
7.0
 50
180.0
 51
0.0
  0
ARC
  5
21B
  8
DETAIL
  6
CONTINUOUS
 62
     5
 10
573.0
 20
-325.5
 30
0.0
 40
7.0
 50
0.0
 51
180.0
  0
LINE
  5
21C
  8
DETAIL
  6
CONTINUOUS
 62
     5
 10
580.0
 20
-341.5
 30
0.0
 11
580.0
 21
-339.5
 31
0.0
  0
LINE
  5
21D
  8
DETAIL
  6
CONTINUOUS
 62
     5
 10
580.0
 20
-341.5
 30
0.0
 11
580.0
 21
-339.5
 31
0.0
  0
ARC
  5
21E
  8
DETAIL
  6
CONTINUOUS
 62
     5
 10
573.0
 20
-325.5
 30
0.0
 40
7.0
 50
0.0
 51
180.0
  0
ARC
  5
21F
  8
DETAIL
  6
CONTINUOUS
 62
     5
 10
573.0
 20
-341.5
 30
0.0
 40
7.0
 50
180.0
 51
0.0
  0
LINE
  5
220
  8
DETAIL
  6
CONTINUOUS
 62
     5
 10
580.0
 20
-327.5
 30
0.0
 11
580.0
 21
-325.5
 31
0.0
  0
LINE
  5
221
  8
DETAIL
  6
CONTINUOUS
 62
     5
 10
580.0
 20
-327.5
 30
0.0
 11
596.0
 21
-327.5
 31
0.0
  0
LINE
  5
222
  8
DETAIL
  6
CONTINUOUS
 62
     5
 10
580.0
 20
-339.5
 30
0.0
 11
596.0
 21
-339.5
 31
0.0
  0
LINE
  5
223
  8
DETAIL
  6
CONTINUOUS
 62
     5
 10
566.0
 20
-341.5
 30
0.0
 11
566.0
 21
-325.5
 31
0.0
  0
LINE
  5
224
  8
DETAIL
  6
CONTINUOUS
 62
     5
 10
620.0
 20
-157.5
 30
0.0
 11
580.0
 21
-157.5
 31
0.0
  0
LINE
  5
225
  8
OUTLINE
  6
CONTINUOUS
 62
     3
 10
620.0
 20
-157.5
 30
0.0
 11
580.0
 21
-157.5
 31
0.0
  0
LINE
  5
226
  8
DETAIL
  6
CONTINUOUS
 62
     5
 10
558.02933499999995
 20
-306.89987000000002
 30
0.0
 11
596.0
 21
-306.89987000000002
 31
0.0
  0
TEXT
  5
229
  8
SIZE
  6
CONTINUOUS
 62
    30
 10
861.89219299999968
 20
45.021385415236871
 30
0.0
 40
55.0
  1
670
 50
90.0
 41
0.9
 72
     1
 11
861.89219299999968
 21
108.664242558094
 31
0.0
  0
LINE
  5
22A
  8
SIZE
  6
CONTINUOUS
 62
    30
 10
875.36766599999964
 20
-328.5
 30
0.0
 11
875.36766599999964
 21
-323.5
 31
0.0
  0
CIRCLE
  5
22B
  8
SIZE
  6
CONTINUOUS
 62
    30
 10
875.36766599999964
 20
-333.5
 30
0.0
 40
5.0
  0
CIRCLE
  5
22C
  8
SIZE
  6
CONTINUOUS
 62
    30
 10
739.39267400000006
 20
-157.5
 30
0.0
 40
5.0
  0
LINE
  5
22D
  8
SIZE
  6
CONTINUOUS
 62
    30
 10
739.39267400000006
 20
-140.5
 30
0.0
 11
739.39267400000006
 21
-157.5
 31
0.0
  0
LINE
  5
22E
  8
SIZE
  6
CONTINUOUS
 62
    30
 10
739.39267400000006
 20
-162.5
 30
0.0
 11
739.39267400000006
 21
-167.5
 31
0.0
  0
LINE
  5
22F
  8
SIZE
  6
CONTINUOUS
 62
    30
 10
739.39267400000006
 20
-167.5
 30
0.0
 11
739.39267400000006
 21
-284.21428600000002
 31
0.0
  0
CIRCLE
  5
230
  8
SIZE
  6
CONTINUOUS
 62
    30
 10
739.39267400000006
 20
-140.5
 30
0.0
 40
5.0
  0
TEXT
  5
231
  8
SIZE
  6
CONTINUOUS
 62
    30
 10
1171.7378510000001
 20
-317.64285714285711
 30
0.0
 40
55.0
  1
227
 50
90.0
 41
0.9
 72
     1
 11
1171.7378510000001
 21
-254.0
 31
0.0
  0
LINE
  5
232
  8
SIZE
  6
CONTINUOUS
 62
    30
 10
1189.7378510000001
 20
-357.5
 30
0.0
 11
1189.7378510000001
 21
-150.5
 31
0.0
  0
LINE
  5
233
  8
SIZE
  6
CONTINUOUS
 62
    30
 10
1189.7378510000001
 20
-362.5
 30
0.0
 11
1189.7378510000001
 21
-357.5
 31
0.0
  0
CIRCLE
  5
234
  8
SIZE
  6
CONTINUOUS
 62
    30
 10
1189.7378510000001
 20
-367.5
 30
0.0
 40
5.0
  0
LINE
  5
235
  8
SIZE
  6
CONTINUOUS
 62
    30
 10
1189.7378510000001
 20
-135.5
 30
0.0
 11
1189.7378510000001
 21
-130.5
 31
0.0
  0
CIRCLE
  5
236
  8
SIZE
  6
CONTINUOUS
 62
    30
 10
1189.7378510000001
 20
-140.5
 30
0.0
 40
5.0
  0
LINE
  5
237
  8
SIZE
  6
CONTINUOUS
 62
    30
 10
1189.7378510000001
 20
-145.5
 30
0.0
 11
1189.7378510000001
 21
-150.5
 31
0.0
  0
CIRCLE
  5
238
  8
SIZE
  6
CONTINUOUS
 62
    30
 10
1189.7378510000001
 20
-140.5
 30
0.0
 40
5.0
  0
CIRCLE
  5
239
  8
SIZE
  6
CONTINUOUS
 62
    30
 10
1343.0652219999999
 20
-157.5
 30
0.0
 40
5.0
  0
CIRCLE
  5
23A
  8
SIZE
  6
CONTINUOUS
 62
    30
 10
1343.0652219999999
 20
-157.5
 30
0.0
 40
5.0
  0
LINE
  5
23B
  8
SIZE
  6
CONTINUOUS
 62
    30
 10
1343.0652219999999
 20
-152.5
 30
0.0
 11
1343.0652219999999
 21
-147.5
 31
0.0
  0
LINE
  5
23C
  8
BASIS
  6
DASHDOT
 62
     6
 10
675.0
 20
0.0
 30
0.0
 11
-675.0
 21
0.0
 31
0.0
  0
LINE
  5
23D
  8
SIZE
  6
CONTINUOUS
 62
    30
 10
607.99516599999981
 20
336.5
 30
0.0
 11
905.36766599999964
 21
336.5
 31
0.0
  0
LINE
  5
23E
  8
SIZE
  6
CONTINUOUS
 62
    30
 10
640.0
 20
442.49999999999989
 30
0.0
 11
1373.0652219999999
 21
442.49999999999989
 31
0.0
  0
LINE
  5
23F
  8
SIZE
  6
CONTINUOUS
 62
    30
 10
620.0
 20
425.49999999999989
 30
0.0
 11
1219.7378510000001
 21
425.49999999999989
 31
0.0
  0
LINE
  5
240
  8
SIZE
  6
CONTINUOUS
 62
    30
 10
607.99516599999981
 20
336.5
 30
0.0
 11
905.36766599999964
 21
336.5
 31
0.0
  0
LINE
  5
241
  8
SIZE
  6
CONTINUOUS
 62
    30
 10
616.0
 20
367.5
 30
0.0
 11
905.36766599999964
 21
367.5
 31
0.0
  0
LINE
  5
242
  8
SIZE
  6
CONTINUOUS
 62
    30
 10
616.0
 20
367.5
 30
0.0
 11
905.36766599999964
 21
367.5
 31
0.0
  0
LINE
  5
243
  8
SIZE
  6
CONTINUOUS
 62
    30
 10
620.0
 20
425.49999999999989
 30
0.0
 11
905.36766599999964
 21
425.49999999999989
 31
0.0
  0
LINE
  5
244
  8
SIZE
  6
CONTINUOUS
 62
    30
 10
620.0
 20
425.49999999999989
 30
0.0
 11
905.36766599999964
 21
425.49999999999989
 31
0.0
  0
LINE
  5
245
  8
SIZE
  6
CONTINUOUS
 62
    30
 10
640.0
 20
442.49999999999989
 30
0.0
 11
905.36766599999964
 21
442.49999999999989
 31
0.0
  0
TEXT
  5
246
  8
SIZE
  6
CONTINUOUS
 62
    30
 10
658.0000004285713
 20
547.40981199999976
 30
0.0
 40
55.0
  1
20
 41
0.9
 72
     1
 11
698.07142899999985
 21
547.40981199999976
 31
0.0
  0
LINE
  5
247
  8
SIZE
  6
CONTINUOUS
 62
    30
 10
630.0
 20
529.40981199999999
 30
0.0
 11
756.14285700000005
 21
529.40981199999999
 31
0.0
  0
LINE
  5
248
  8
SIZE
  6
CONTINUOUS
 62
    30
 10
620.0
 20
462.5
 30
0.0
 11
620.0
 21
814.04486399999985
 31
0.0
  0
LINE
  5
249
  8
SIZE
  6
CONTINUOUS
 62
    30
 10
600.0
 20
445.5
 30
0.0
 11
600.0
 21
677.57195100000001
 31
0.0
  0
LINE
  5
24A
  8
SIZE
  6
CONTINUOUS
 62
    30
 10
596.0
 20
387.5
 30
0.0
 11
596.0
 21
559.40981199999987
 31
0.0
  0
LINE
  5
24B
  8
SIZE
  6
CONTINUOUS
 62
    30
 10
600.0
 20
445.5
 30
0.0
 11
600.0
 21
559.40981199999987
 31
0.0
  0
LINE
  5
24C
  8
SIZE
  6
CONTINUOUS
 62
    30
 10
600.0
 20
445.5
 30
0.0
 11
600.0
 21
559.40981199999987
 31
0.0
  0
LINE
  5
24D
  8
DETAIL
  6
CONTINUOUS
 62
     5
 10
547.0
 20
350.5
 30
0.0
 11
550.0
 21
353.5
 31
0.0
  0
LINE
  5
24E
  8
DETAIL
  6
CONTINUOUS
 62
     5
 10
550.0
 20
353.5
 30
0.0
 11
550.0
 21
367.5
 31
0.0
  0
LINE
  5
24F
  8
DETAIL
  6
CONTINUOUS
 62
     5
 10
550.0
 20
353.5
 30
0.0
 11
550.0
 21
367.5
 31
0.0
  0
LINE
  5
250
  8
DETAIL
  6
CONTINUOUS
 62
     5
 10
547.0
 20
350.5
 30
0.0
 11
550.0
 21
353.5
 31
0.0
  0
CIRCLE
  5
251
  8
FIX
  6
CONTINUOUS
 62
    11
 10
573.0
 20
336.5
 30
0.0
 40
12.421498
  0
LINE
  5
252
  8
NOTE
  6
CONTINUOUS
 62
     4
 10
573.0
 20
351.49516599999998
 30
0.0
 11
573.0
 21
321.50483400000002
 31
0.0
  0
LINE
  5
253
  8
NOTE
  6
CONTINUOUS
 62
     4
 10
558.00483400000007
 20
336.5
 30
0.0
 11
587.99516600000015
 21
336.5
 31
0.0
  0
LINE
  5
254
  8
DETAIL
  6
CONTINUOUS
 62
     5
 10
596.0
 20
330.5
 30
0.0
 11
596.0
 21
306.89987000000002
 31
0.0
  0
LINE
  5
255
  8
DETAIL
  6
CONTINUOUS
 62
     5
 10
596.0
 20
367.5
 30
0.0
 11
596.0
 21
342.5
 31
0.0
  0
LINE
  5
256
  8
DETAIL
  6
CONTINUOUS
 62
     5
 10
558.02933499999995
 20
367.5
 30
0.0
 11
558.02933499999995
 21
306.89987000000002
 31
0.0
  0
LINE
  5
257
  8
DETAIL
  6
CONTINUOUS
 62
     5
 10
558.02933499999995
 20
306.89987000000002
 30
0.0
 11
596.0
 21
306.89987000000002
 31
0.0
  0
LINE
  5
258
  8
DETAIL
  6
CONTINUOUS
 62
     5
 10
566.0
 20
344.5
 30
0.0
 11
566.0
 21
328.5
 31
0.0
  0
LINE
  5
259
  8
DETAIL
  6
CONTINUOUS
 62
     5
 10
580.0
 20
342.5
 30
0.0
 11
596.0
 21
342.5
 31
0.0
  0
LINE
  5
25A
  8
DETAIL
  6
CONTINUOUS
 62
     5
 10
580.0
 20
330.5
 30
0.0
 11
596.0
 21
330.5
 31
0.0
  0
LINE
  5
25B
  8
DETAIL
  6
CONTINUOUS
 62
     5
 10
580.0
 20
330.5
 30
0.0
 11
580.0
 21
328.5
 31
0.0
  0
ARC
  5
25C
  8
DETAIL
  6
CONTINUOUS
 62
     5
 10
573.0
 20
344.5
 30
0.0
 40
7.0
 50
0.0
 51
180.0
  0
ARC
  5
25D
  8
DETAIL
  6
CONTINUOUS
 62
     5
 10
573.0
 20
328.5
 30
0.0
 40
7.0
 50
180.0
 51
0.0
  0
LINE
  5
25E
  8
DETAIL
  6
CONTINUOUS
 62
     5
 10
580.0
 20
344.5
 30
0.0
 11
580.0
 21
342.5
 31
0.0
  0
LINE
  5
25F
  8
DETAIL
  6
CONTINUOUS
 62
     5
 10
580.0
 20
344.5
 30
0.0
 11
580.0
 21
342.5
 31
0.0
  0
ARC
  5
260
  8
DETAIL
  6
CONTINUOUS
 62
     5
 10
573.0
 20
328.5
 30
0.0
 40
7.0
 50
180.0
 51
0.0
  0
ARC
  5
261
  8
DETAIL
  6
CONTINUOUS
 62
     5
 10
573.0
 20
344.5
 30
0.0
 40
7.0
 50
0.0
 51
180.0
  0
LINE
  5
262
  8
DETAIL
  6
CONTINUOUS
 62
     5
 10
580.0
 20
330.5
 30
0.0
 11
580.0
 21
328.5
 31
0.0
  0
LINE
  5
263
  8
DETAIL
  6
CONTINUOUS
 62
     5
 10
580.0
 20
330.5
 30
0.0
 11
596.0
 21
330.5
 31
0.0
  0
LINE
  5
264
  8
DETAIL
  6
CONTINUOUS
 62
     5
 10
580.0
 20
342.5
 30
0.0
 11
596.0
 21
342.5
 31
0.0
  0
LINE
  5
265
  8
DETAIL
  6
CONTINUOUS
 62
     5
 10
566.0
 20
344.5
 30
0.0
 11
566.0
 21
328.5
 31
0.0
  0
LINE
  5
266
  8
SIZE
  6
CONTINUOUS
 62
    30
 10
495.98200700000001
 20
529.40981199999999
 30
0.0
 11
596.0
 21
529.40981199999999
 31
0.0
  0
TEXT
  5
267
  8
SIZE
  6
CONTINUOUS
 62
    30
 10
513.98200657142831
 20
547.40981199999976
 30
0.0
 40
55.0
  1
4
 41
0.9
 72
     1
 11
531.66057799999965
 21
547.40981199999976
 31
0.0
  0
LINE
  5
268
  8
SIZE
  6
CONTINUOUS
 62
    30
 10
591.0
 20
529.40981199999999
 30
0.0
 11
586.0
 21
529.40981199999999
 31
0.0
  0
CIRCLE
  5
269
  8
SIZE
  6
CONTINUOUS
 62
    30
 10
596.0
 20
529.40981199999999
 30
0.0
 40
5.0
  0
LINE
  5
26A
  8
SIZE
  6
CONTINUOUS
 62
    30
 10
605.0
 20
529.40981199999999
 30
0.0
 11
610.0
 21
529.40981199999999
 31
0.0
  0
CIRCLE
  5
26B
  8
SIZE
  6
CONTINUOUS
 62
    30
 10
600.0
 20
529.40981199999999
 30
0.0
 40
5.0
  0
LINE
  5
26C
  8
SIZE
  6
CONTINUOUS
 62
    30
 10
600.0
 20
529.40981199999999
 30
0.0
 11
596.0
 21
529.40981199999999
 31
0.0
  0
LINE
  5
26D
  8
SIZE
  6
CONTINUOUS
 62
    30
 10
600.0
 20
529.40981199999999
 30
0.0
 11
596.0
 21
529.40981199999999
 31
0.0
  0
LINE
  5
26E
  8
SIZE
  6
CONTINUOUS
 62
    30
 10
586.0
 20
529.40981199999999
 30
0.0
 11
576.0
 21
529.40981199999999
 31
0.0
  0
LINE
  5
26F
  8
SIZE
  6
CONTINUOUS
 62
    30
 10
610.0
 20
529.40981199999999
 30
0.0
 11
620.0
 21
529.40981199999999
 31
0.0
  0
LINE
  5
270
  8
SIZE
  6
CONTINUOUS
 62
    30
 10
625.0
 20
529.40981199999999
 30
0.0
 11
630.0
 21
529.40981199999999
 31
0.0
  0
CIRCLE
  5
271
  8
SIZE
  6
CONTINUOUS
 62
    30
 10
620.0
 20
529.40981199999999
 30
0.0
 40
5.0
  0
LINE
  5
272
  8
SIZE
  6
CONTINUOUS
 62
    30
 10
595.0
 20
529.40981199999999
 30
0.0
 11
590.0
 21
529.40981199999999
 31
0.0
  0
CIRCLE
  5
273
  8
SIZE
  6
CONTINUOUS
 62
    30
 10
600.0
 20
529.40981199999999
 30
0.0
 40
5.0
  0
LINE
  5
274
  8
SIZE
  6
CONTINUOUS
 62
    30
 10
600.0
 20
529.40981199999999
 30
0.0
 11
620.0
 21
529.40981199999999
 31
0.0
  0
LINE
  5
275
  8
SIZE
  6
CONTINUOUS
 62
    30
 10
590.0
 20
529.40981199999999
 30
0.0
 11
580.0
 21
529.40981199999999
 31
0.0
  0
LINE
  5
276
  8
SIZE
  6
CONTINUOUS
 62
    30
 10
620.0
 20
462.5
 30
0.0
 11
620.0
 21
559.40981199999987
 31
0.0
  0
TEXT
  5
277
  8
SIZE
  6
CONTINUOUS
 62
    30
 10
-292.52142857142837
 20
663.97671300000002
 30
0.0
 40
55.0
  1
1200(天井開口寸法)
 41
0.9
 72
     1
 11
0.0
 21
663.97671300000002
 31
0.0
  0
TEXT
  5
278
  8
SIZE
  6
CONTINUOUS
 62
    30
 10
-82.500000000000014
 20
802.04486399999973
 30
0.0
 40
55.0
  1
1240
 41
0.9
 72
     1
 11
0.0
 21
802.04486399999973
 31
0.0
  0
LINE
  5
279
  8
SIZE
  6
CONTINUOUS
 62
    30
 10
595.0
 20
647.57195100000001
 30
0.0
 11
590.0
 21
647.57195100000001
 31
0.0
  0
CIRCLE
  5
27A
  8
SIZE
  6
CONTINUOUS
 62
    30
 10
600.0
 20
647.57195100000001
 30
0.0
 40
5.0
  0
LINE
  5
27B
  8
SIZE
  6
CONTINUOUS
 62
    30
 10
615.0
 20
784.04486399999985
 30
0.0
 11
610.0
 21
784.04486399999985
 31
0.0
  0
CIRCLE
  5
27C
  8
SIZE
  6
CONTINUOUS
 62
    30
 10
620.0
 20
784.04486399999985
 30
0.0
 40
5.0
  0
LINE
  5
27D
  8
SIZE
  6
CONTINUOUS
 62
    30
 10
875.36766599999964
 20
352.0
 30
0.0
 11
1082.956467253902
 21
297.50617502378759
 31
0.0
  0
TEXT
  5
27E
  8
SIZE
  6
CONTINUOUS
 62
    30
 10
1064.956467253902
 20
220.577603309502
 30
0.0
 40
55.0
  1
31
 50
90.0
 41
0.9
 72
     1
 11
1064.956467253902
 21
250.04188902378769
 31
0.0
  0
LINE
  5
27F
  8
SIZE
  6
CONTINUOUS
 62
    30
 10
1082.956467253902
 20
297.50617502378759
 30
0.0
 11
1082.956467253902
 21
202.57760302378759
 31
0.0
  0
LINE
  5
280
  8
SIZE
  6
CONTINUOUS
 62
    30
 10
875.36766599999964
 20
396.5
 30
0.0
 11
993.44819699999982
 21
469.93164999999999
 31
0.0
  0
LINE
  5
281
  8
SIZE
  6
CONTINUOUS
 62
    30
 10
875.36766599999964
 20
452.5
 30
0.0
 11
875.36766599999964
 21
569.21428600000002
 31
0.0
  0
LINE
  5
282
  8
SIZE
  6
CONTINUOUS
 62
    30
 10
875.36766599999964
 20
331.5
 30
0.0
 11
875.36766599999964
 21
326.5
 31
0.0
  0
CIRCLE
  5
283
  8
SIZE
  6
CONTINUOUS
 62
    30
 10
875.36766599999964
 20
336.5
 30
0.0
 40
5.0
  0
LINE
  5
284
  8
SIZE
  6
CONTINUOUS
 62
    30
 10
875.36766599999964
 20
331.5
 30
0.0
 11
875.36766599999964
 21
326.5
 31
0.0
  0
CIRCLE
  5
285
  8
SIZE
  6
CONTINUOUS
 62
    30
 10
875.36766599999964
 20
336.5
 30
0.0
 40
5.0
  0
LINE
  5
286
  8
SIZE
  6
CONTINUOUS
 62
    30
 10
875.36766599999964
 20
372.5
 30
0.0
 11
875.36766599999964
 21
377.5
 31
0.0
  0
CIRCLE
  5
287
  8
SIZE
  6
CONTINUOUS
 62
    30
 10
875.36766599999964
 20
367.5
 30
0.0
 40
5.0
  0
LINE
  5
288
  8
SIZE
  6
CONTINUOUS
 62
    30
 10
875.36766599999964
 20
367.5
 30
0.0
 11
875.36766599999964
 21
336.5
 31
0.0
  0
LINE
  5
289
  8
SIZE
  6
CONTINUOUS
 62
    30
 10
875.36766599999964
 20
367.5
 30
0.0
 11
875.36766599999964
 21
336.5
 31
0.0
  0
LINE
  5
28A
  8
SIZE
  6
CONTINUOUS
 62
    30
 10
875.36766599999964
 20
326.5
 30
0.0
 11
875.36766599999964
 21
316.5
 31
0.0
  0
LINE
  5
28B
  8
SIZE
  6
CONTINUOUS
 62
    30
 10
875.36766599999964
 20
377.5
 30
0.0
 11
875.36766599999964
 21
387.5
 31
0.0
  0
LINE
  5
28C
  8
SIZE
  6
CONTINUOUS
 62
    30
 10
875.36766599999964
 20
372.5
 30
0.0
 11
875.36766599999964
 21
377.5
 31
0.0
  0
CIRCLE
  5
28D
  8
SIZE
  6
CONTINUOUS
 62
    30
 10
875.36766599999964
 20
367.5
 30
0.0
 40
5.0
  0
LINE
  5
28E
  8
SIZE
  6
CONTINUOUS
 62
    30
 10
875.36766599999964
 20
420.5
 30
0.0
 11
875.36766599999964
 21
415.5
 31
0.0
  0
CIRCLE
  5
28F
  8
SIZE
  6
CONTINUOUS
 62
    30
 10
875.36766599999964
 20
425.49999999999989
 30
0.0
 40
5.0
  0
LINE
  5
290
  8
SIZE
  6
CONTINUOUS
 62
    30
 10
875.36766599999964
 20
415.5
 30
0.0
 11
875.36766599999964
 21
377.5
 31
0.0
  0
LINE
  5
291
  8
SIZE
  6
CONTINUOUS
 62
    30
 10
875.36766599999964
 20
447.5
 30
0.0
 11
875.36766599999964
 21
452.5
 31
0.0
  0
CIRCLE
  5
292
  8
SIZE
  6
CONTINUOUS
 62
    30
 10
875.36766599999964
 20
442.49999999999989
 30
0.0
 40
5.0
  0
LINE
  5
293
  8
SIZE
  6
CONTINUOUS
 62
    30
 10
875.36766599999964
 20
420.5
 30
0.0
 11
875.36766599999964
 21
415.5
 31
0.0
  0
CIRCLE
  5
294
  8
SIZE
  6
CONTINUOUS
 62
    30
 10
875.36766599999964
 20
425.49999999999989
 30
0.0
 40
5.0
  0
LINE
  5
295
  8
SIZE
  6
CONTINUOUS
 62
    30
 10
875.36766599999964
 20
425.49999999999989
 30
0.0
 11
875.36766599999964
 21
442.49999999999989
 31
0.0
  0
LINE
  5
296
  8
SIZE
  6
CONTINUOUS
 62
    30
 10
875.36766599999964
 20
415.5
 30
0.0
 11
875.36766599999964
 21
405.49999999999989
 31
0.0
  0
TEXT
  5
297
  8
SIZE
  6
CONTINUOUS
 62
    30
 10
857.36766599999999
 20
480.50000014285712
 30
0.0
 40
55.0
  1
17
 50
90.0
 41
0.9
 72
     1
 11
857.36766599999999
 21
515.85714299999995
 31
0.0
  0
TEXT
  5
298
  8
SIZE
  6
CONTINUOUS
 62
    30
 10
975.44819699999982
 20
487.93164942857129
 30
0.0
 40
55.0
  1
58
 50
90.0
 41
0.9
 72
     1
 11
975.44819699999982
 21
528.00307799999985
 31
0.0
  0
LINE
  5
299
  8
SIZE
  6
CONTINUOUS
 62
    30
 10
993.44819699999982
 20
469.93164999999999
 30
0.0
 11
993.44819699999982
 21
586.07450700000004
 31
0.0
  0
TEXT
  5
29A
  8
SIZE
  6
CONTINUOUS
 62
    30
 10
1325.0652219999999
 20
78.857142857142861
 30
0.0
 40
55.0
  1
600
 50
90.0
 41
0.9
 72
     1
 11
1325.0652219999999
 21
142.5
 31
0.0
  0
LINE
  5
29B
  8
SIZE
  6
CONTINUOUS
 62
    30
 10
1189.7378510000001
 20
420.5
 30
0.0
 11
1189.7378510000001
 21
415.5
 31
0.0
  0
CIRCLE
  5
29C
  8
SIZE
  6
CONTINUOUS
 62
    30
 10
1189.7378510000001
 20
425.49999999999989
 30
0.0
 40
5.0
  0
LINE
  5
29D
  8
SIZE
  6
CONTINUOUS
 62
    30
 10
1343.0652219999999
 20
437.5
 30
0.0
 11
1343.0652219999999
 21
432.5
 31
0.0
  0
CIRCLE
  5
29E
  8
SIZE
  6
CONTINUOUS
 62
    30
 10
1343.0652219999999
 20
442.49999999999989
 30
0.0
 40
5.0
  0
TEXT
  5
39A
  8
ETC
  6
CONTINUOUS
 62
    61
 10
287.25982764069789
 20
932.37005555373298
 30
0.0
 40
80.0
  1
(角ダクト+キャンバスダクト)
 50
0.000003
 41
0.8
  0
TEXT
  5
39B
  8
ETC
  6
CONTINUOUS
 62
    61
 10
337.84033470928807
 20
1065.7644491595911
 30
0.0
 40
80.0
  1
PDFY-P71_90MG1_1
 50
0.000003
 41
0.8
  0
LINE
  5
3AA
  8
NOTE
  6
CONTINUOUS
 62
     4
 10
-818.70323981619742
 20
264.45195401309053
 30
0.0
 11
-619.01744599999995
 21
-94.500000000000014
 31
0.0
  0
LINE
  5
3AB
  8
NOTE
  6
CONTINUOUS
 62
     4
 10
-852.10933478407514
 20
102.086283755488
 30
0.0
 11
-622.01744599999995
 21
-175.5
 31
0.0
  0
LINE
  5
3AC
  8
NOTE
  6
CONTINUOUS
 62
     4
 10
-874.09282623532943
 20
-22.913780534946682
 30
0.0
 11
-632.01744599999995
 21
-239.5
 31
0.0
  0
LINE
  5
3AD
  8
NOTE
  6
CONTINUOUS
 62
     4
 10
-622.01744599999995
 20
-175.5
 30
0.0
 11
-632.45765665887848
 21
-143.18709999032191
 31
0.0
  0
LINE
  5
3AE
  8
NOTE
  6
CONTINUOUS
 62
     4
 10
-632.01744599999995
 20
-239.5
 30
0.0
 11
-662.42654644437096
 21
-223.44894857092859
 31
0.0
  0
LINE
  5
3AF
  8
NOTE
  6
CONTINUOUS
 62
     4
 10
-632.01744599999995
 20
-239.5
 30
0.0
 11
-650.3269738751344
 21
-210.3948313916616
 31
0.0
  0
LINE
  5
3B0
  8
NOTE
  6
CONTINUOUS
 62
     4
 10
-622.01744599999995
 20
-175.5
 30
0.0
 11
-647.14024756795436
 21
-153.24846929741301
 31
0.0
  0
LINE
  5
3B1
  8
NOTE
  6
CONTINUOUS
 62
     4
 10
-619.01744599999995
 20
-94.500000000000014
 30
0.0
 11
-642.79423529408734
 21
-69.660234623399447
 31
0.0
  0
LINE
  5
3B2
  8
NOTE
  6
CONTINUOUS
 62
     4
 10
-619.01744599999995
 20
-94.500000000000014
 30
0.0
 11
-627.18886571216808
 21
-61.099737159799467
 31
0.0
  0
LINE
  5
3BC
  8
NOTE
  6
CONTINUOUS
 62
     4
 10
-754.71689422863437
 20
434.17897966288081
 30
0.0
 11
-572.99999999999807
 21
336.49999999999909
 31
0.0
  0
LINE
  5
3BD
  8
NOTE
  6
CONTINUOUS
 62
     4
 10
-572.99999999999716
 20
336.4999999999975
 30
0.0
 11
-606.43589008098979
 21
344.52439414972559
 31
0.0
  0
LINE
  5
3BE
  8
NOTE
  6
CONTINUOUS
 62
     4
 10
-572.99999999999716
 20
336.4999999999975
 30
0.0
 11
-597.94413312418123
 21
360.16727514695901
 31
0.0
  0
LINE
  5
3BF
  8
NOTE
  6
CONTINUOUS
 62
     4
 10
-754.71689422863437
 20
434.17897966288081
 30
0.0
 11
-1211.6885265146859
 21
434.17897966288081
 31
0.0
  0
TEXT
  5
3C0
  8
NOTE
  6
CONTINUOUS
 62
     4
 10
-1197.140827514686
 20
450.0055106628804
 30
0.0
 40
60.0
  1
AH M10ボルト用
 50
0.000003
 41
0.7
  7
STANDARD1
  0
LINE
  5
424
  8
DETAIL
  6
CONTINUOUS
 62
     5
 10
542.99999631538208
 20
-397.5
 30
0.0
 11
-547.0000036846177
 21
-397.5
 31
0.0
  0
LINE
  5
425
  8
DETAIL
  6
CONTINUOUS
 62
     5
 10
-547.0000036846177
 20
-367.5
 30
0.0
 11
-547.0000036846177
 21
-397.5
 31
0.0
  0
LINE
  5
426
  8
DETAIL
  6
CONTINUOUS
 62
     5
 10
543.00000109766984
 20
-367.5
 30
0.0
 11
542.99999631538208
 21
-397.5
 31
0.0
  0
LINE
  5
427
  8
NOTE
  6
CONTINUOUS
 62
     4
 10
657.85074390507634
 20
-487.6223200221329
 30
0.0
 11
1151.9901399442799
 21
-487.6223200221329
 31
0.0
  0
TEXT
  5
428
  8
NOTE
  6
CONTINUOUS
 62
     4
 10
677.46525804938108
 20
-471.79575902213207
 30
0.0
 40
60.0
  1
2\U+00D716-%%C3取付穴
 50
359.99999700000001
 41
0.7
  7
STANDARD1
  0
LINE
  5
429
  8
NOTE
  6
CONTINUOUS
 62
     4
 10
657.85074390507634
 20
-487.6223200221329
 30
0.0
 11
487.49999790507621
 21
-387.5
 31
0.0
  0
LINE
  5
42A
  8
NOTE
  6
CONTINUOUS
 62
     4
 10
489.99999790507621
 20
-387.5
 30
0.0
 11
523.07034890507657
 21
-396.91825102213261
 31
0.0
  0
LINE
  5
42B
  8
NOTE
  6
CONTINUOUS
 62
     4
 10
487.49999790507621
 20
-387.5
 30
0.0
 11
511.43068790507641
 21
-412.19163402213229
 31
0.0
  0
LINE
  5
42C
  8
SIZE
  6
CONTINUOUS
 62
    30
 10
-593.0
 20
-367.5
 30
0.0
 11
-844.39702361745867
 21
-367.5
 31
0.0
  0
LINE
  5
42D
  8
SIZE
  6
CONTINUOUS
 62
    30
 10
-550.13754672248979
 20
-397.5
 30
0.0
 11
-844.39702361745867
 21
-397.5
 31
0.0
  0
LINE
  5
42E
  8
SIZE
  6
CONTINUOUS
 62
    30
 10
-814.39702361745879
 20
-377.5
 30
0.0
 11
-814.39702361745879
 21
-387.5
 31
0.0
  0
LINE
  5
42F
  8
SIZE
  6
CONTINUOUS
 62
    30
 10
-814.39702361745879
 20
-397.5
 30
0.0
 11
-814.39702361745879
 21
-501.04504652889318
 31
0.0
  0
LINE
  5
430
  8
SIZE
  6
CONTINUOUS
 62
    30
 10
487.49999790507621
 20
-412.59399902213261
 30
0.0
 11
487.49999790507621
 21
-702.99946730259398
 31
0.0
  0
LINE
  5
431
  8
SIZE
  6
CONTINUOUS
 62
    30
 10
-487.50000209492367
 20
-412.59399902213261
 30
0.0
 11
-487.50000209492367
 21
-702.99946730259398
 31
0.0
  0
LINE
  5
432
  8
SIZE
  6
CONTINUOUS
 62
    30
 10
477.49999790507621
 20
-672.99946730259398
 30
0.0
 11
-477.50000209492379
 21
-672.99946730259398
 31
0.0
  0
LINE
  5
433
  8
SIZE
  6
CONTINUOUS
 62
    30
 10
487.49999790507621
 20
-412.59399902213261
 30
0.0
 11
487.49999790507621
 21
-505.2259360725165
 31
0.0
  0
LINE
  5
434
  8
SIZE
  6
CONTINUOUS
 62
    30
 10
422.49999790507599
 20
-412.59399902213261
 30
0.0
 11
422.49999790507599
 21
-505.2259360725165
 31
0.0
  0
LINE
  5
435
  8
SIZE
  6
CONTINUOUS
 62
    30
 10
497.49999790507621
 20
-475.22593607251611
 30
0.0
 11
507.4999979050757
 21
-475.22593607251611
 31
0.0
  0
LINE
  5
436
  8
SIZE
  6
CONTINUOUS
 62
    30
 10
487.49999790507621
 20
-475.22593607251611
 30
0.0
 11
422.49999790507599
 21
-475.22593607251611
 31
0.0
  0
LINE
  5
437
  8
SIZE
  6
CONTINUOUS
 62
    30
 10
487.49999790507621
 20
-412.59399902213261
 30
0.0
 11
487.49999790507621
 21
-702.99946730259398
 31
0.0
  0
LINE
  5
438
  8
SIZE
  6
CONTINUOUS
 62
    30
 10
580.0
 20
-387.5
 30
0.0
 11
580.0
 21
-702.99946730259398
 31
0.0
  0
LINE
  5
439
  8
SIZE
  6
CONTINUOUS
 62
    30
 10
497.49999790507621
 20
-672.99946730259398
 30
0.0
 11
570.0
 21
-672.99946730259398
 31
0.0
  0
TEXT
  5
43A
  8
SIZE
  6
CONTINUOUS
 62
    30
 10
-63.64285923778089
 20
-654.33337430101437
 30
0.0
 40
55.0
  1
975
 41
0.9
 72
     1
 11
-0.000002094923758
 21
-654.33337430101437
 31
0.0
  0
CIRCLE
  5
43B
  8
SIZE
  6
CONTINUOUS
 62
    30
 10
487.49999790507621
 20
-672.99946730259398
 30
0.0
 40
5.0
  0
LINE
  5
43C
  8
SIZE
  6
CONTINUOUS
 62
    30
 10
482.49999790507599
 20
-672.99946730259398
 30
0.0
 11
477.49999790507621
 21
-672.99946730259398
 31
0.0
  0
CIRCLE
  5
43D
  8
SIZE
  6
CONTINUOUS
 62
    30
 10
422.49999790507599
 20
-475.22593607251611
 30
0.0
 40
5.0
  0
LINE
  5
43E
  8
SIZE
  6
CONTINUOUS
 62
    30
 10
417.49999790507599
 20
-475.22593607251611
 30
0.0
 11
412.49999790507599
 21
-475.22593607251611
 31
0.0
  0
CIRCLE
  5
43F
  8
SIZE
  6
CONTINUOUS
 62
    30
 10
487.49999790507621
 20
-475.22593607251611
 30
0.0
 40
5.0
  0
LINE
  5
440
  8
SIZE
  6
CONTINUOUS
 62
    30
 10
492.49999790507621
 20
-475.22593607251611
 30
0.0
 11
497.49999790507621
 21
-475.22593607251611
 31
0.0
  0
CIRCLE
  5
441
  8
SIZE
  6
CONTINUOUS
 62
    30
 10
580.0
 20
-672.99946730259398
 30
0.0
 40
5.0
  0
LINE
  5
442
  8
SIZE
  6
CONTINUOUS
 62
    30
 10
575.0
 20
-672.99946730259398
 30
0.0
 11
570.0
 21
-672.99946730259398
 31
0.0
  0
CIRCLE
  5
443
  8
SIZE
  6
CONTINUOUS
 62
    30
 10
487.49999790507621
 20
-672.99946730259398
 30
0.0
 40
5.0
  0
LINE
  5
444
  8
SIZE
  6
CONTINUOUS
 62
    30
 10
492.49999790507621
 20
-672.99946730259398
 30
0.0
 11
497.49999790507621
 21
-672.99946730259398
 31
0.0
  0
TEXT
  5
445
  8
SIZE
  6
CONTINUOUS
 62
    30
 10
-835.11341898359012
 20
-490.44040287354898
 30
0.0
 40
55.0
  1
30
 50
90.0
 41
0.9
 72
     1
 11
-835.11341898359012
 21
-450.36897430212048
 31
0.0
  0
CIRCLE
  5
446
  8
SIZE
  6
CONTINUOUS
 62
    30
 10
-814.39702361745879
 20
-397.5
 30
0.0
 40
5.0
  0
LINE
  5
447
  8
SIZE
  6
CONTINUOUS
 62
    30
 10
-814.39702361745879
 20
-392.5
 30
0.0
 11
-814.39702361745879
 21
-387.5
 31
0.0
  0
CIRCLE
  5
448
  8
SIZE
  6
CONTINUOUS
 62
    30
 10
-814.39702361745879
 20
-367.5
 30
0.0
 40
5.0
  0
LINE
  5
449
  8
SIZE
  6
CONTINUOUS
 62
    30
 10
-814.39702361745879
 20
-372.5
 30
0.0
 11
-814.39702361745879
 21
-377.5
 31
0.0
  0
LINE
  5
44A
  8
SIZE
  6
CONTINUOUS
 62
    30
 10
449.35395065827743
 20
-587.32801035411012
 30
0.0
 11
345.49726609286063
 21
-587.32801035411012
 31
0.0
  0
TEXT
  5
44B
  8
SIZE
  6
CONTINUOUS
 62
    30
 10
363.04257881054929
 20
-568.66191735253051
 30
0.0
 40
55.0
  1
65
 41
0.9
 72
     1
 11
403.1140073819779
 21
-568.66191735253051
 31
0.0
  0
LINE
  5
44C
  8
SIZE
  6
CONTINUOUS
 62
    30
 10
529.60276300887608
 20
-792.20619881776292
 30
0.0
 11
345.07842220014669
 21
-792.20619881776292
 31
0.0
  0
TEXT
  5
44D
  8
SIZE
  6
CONTINUOUS
 62
    30
 10
366.40745363744009
 20
-773.54010581618331
 30
0.0
 40
55.0
  1
92.5
 41
0.9
 72
     1
 11
441.83602506601147
 21
-773.54010581618331
 31
0.0
  0
LINE
  5
44E
  8
SIZE
  6
CONTINUOUS
 62
    30
 10
454.99999790507621
 20
-475.22593607251611
 30
0.0
 11
449.35395065827743
 21
-587.32801035411012
 31
0.0
  0
LINE
  5
44F
  8
SIZE
  6
CONTINUOUS
 62
    30
 10
532.49999895253814
 20
-672.99946730259398
 30
0.0
 11
529.60276300887608
 21
-792.20619881776292
 31
0.0
  0
CIRCLE
  5
450
  8
DETAIL
  6
CONTINUOUS
 62
     5
 10
487.49999790507621
 20
-387.5
 30
0.0
 40
1.5
  0
LINE
  5
451
  8
NOTE
  6
CONTINUOUS
 62
     4
 10
487.49999790507599
 20
-392.5
 30
0.0
 11
487.49999790507599
 21
-382.5
 31
0.0
  0
LINE
  5
452
  8
NOTE
  6
CONTINUOUS
 62
     4
 10
482.49999790507633
 20
-387.5
 30
0.0
 11
492.49999790507621
 21
-387.5
 31
0.0
  0
CIRCLE
  5
453
  8
DETAIL
  6
CONTINUOUS
 62
     5
 10
422.49999790507621
 20
-387.5
 30
0.0
 40
1.5
  0
LINE
  5
454
  8
NOTE
  6
CONTINUOUS
 62
     4
 10
422.49999790507599
 20
-392.5
 30
0.0
 11
422.49999790507599
 21
-382.5
 31
0.0
  0
LINE
  5
455
  8
NOTE
  6
CONTINUOUS
 62
     4
 10
417.49999790507621
 20
-387.5
 30
0.0
 11
427.49999790507621
 21
-387.5
 31
0.0
  0
CIRCLE
  5
456
  8
DETAIL
  6
CONTINUOUS
 62
     5
 10
357.49999790507633
 20
-387.5
 30
0.0
 40
1.5
  0
LINE
  5
457
  8
NOTE
  6
CONTINUOUS
 62
     4
 10
357.49999790507599
 20
-392.5
 30
0.0
 11
357.49999790507599
 21
-382.5
 31
0.0
  0
LINE
  5
458
  8
NOTE
  6
CONTINUOUS
 62
     4
 10
352.49999790507633
 20
-387.5
 30
0.0
 11
362.49999790507633
 21
-387.5
 31
0.0
  0
CIRCLE
  5
459
  8
DETAIL
  6
CONTINUOUS
 62
     5
 10
292.4999979050761
 20
-387.5
 30
0.0
 40
1.5
  0
LINE
  5
45A
  8
NOTE
  6
CONTINUOUS
 62
     4
 10
292.4999979050761
 20
-392.5
 30
0.0
 11
292.4999979050761
 21
-382.5
 31
0.0
  0
LINE
  5
45B
  8
NOTE
  6
CONTINUOUS
 62
     4
 10
287.49999790507599
 20
-387.5
 30
0.0
 11
297.49999790507621
 21
-387.5
 31
0.0
  0
CIRCLE
  5
45C
  8
DETAIL
  6
CONTINUOUS
 62
     5
 10
227.49999790507621
 20
-387.5
 30
0.0
 40
1.5
  0
LINE
  5
45D
  8
NOTE
  6
CONTINUOUS
 62
     4
 10
227.49999790507621
 20
-392.5
 30
0.0
 11
227.49999790507621
 21
-382.5
 31
0.0
  0
LINE
  5
45E
  8
NOTE
  6
CONTINUOUS
 62
     4
 10
222.49999790507621
 20
-387.5
 30
0.0
 11
232.49999790507621
 21
-387.5
 31
0.0
  0
CIRCLE
  5
45F
  8
DETAIL
  6
CONTINUOUS
 62
     5
 10
162.49999790507621
 20
-387.5
 30
0.0
 40
1.5
  0
LINE
  5
460
  8
NOTE
  6
CONTINUOUS
 62
     4
 10
162.49999790507599
 20
-392.5
 30
0.0
 11
162.49999790507599
 21
-382.5
 31
0.0
  0
LINE
  5
461
  8
NOTE
  6
CONTINUOUS
 62
     4
 10
157.4999979050761
 20
-387.5
 30
0.0
 11
167.49999790507621
 21
-387.5
 31
0.0
  0
CIRCLE
  5
462
  8
DETAIL
  6
CONTINUOUS
 62
     5
 10
97.499997905076285
 20
-387.5
 30
0.0
 40
1.5
  0
LINE
  5
463
  8
NOTE
  6
CONTINUOUS
 62
     4
 10
97.499997905076043
 20
-392.5
 30
0.0
 11
97.499997905076043
 21
-382.5
 31
0.0
  0
LINE
  5
464
  8
NOTE
  6
CONTINUOUS
 62
     4
 10
92.499997905076285
 20
-387.5
 30
0.0
 11
102.4999979050761
 21
-387.5
 31
0.0
  0
CIRCLE
  5
465
  8
DETAIL
  6
CONTINUOUS
 62
     5
 10
32.499997905076498
 20
-387.5
 30
0.0
 40
1.5
  0
LINE
  5
466
  8
NOTE
  6
CONTINUOUS
 62
     4
 10
32.49999790507627
 20
-392.5
 30
0.0
 11
32.49999790507627
 21
-382.5
 31
0.0
  0
LINE
  5
467
  8
NOTE
  6
CONTINUOUS
 62
     4
 10
27.49999790507627
 20
-387.5
 30
0.0
 11
37.499997905076498
 21
-387.5
 31
0.0
  0
CIRCLE
  5
468
  8
DETAIL
  6
CONTINUOUS
 62
     5
 10
-32.500002094923843
 20
-387.5
 30
0.0
 40
1.5
  0
LINE
  5
469
  8
NOTE
  6
CONTINUOUS
 62
     4
 10
-32.500002094923957
 20
-392.5
 30
0.0
 11
-32.500002094923957
 21
-382.5
 31
0.0
  0
LINE
  5
46A
  8
NOTE
  6
CONTINUOUS
 62
     4
 10
-37.500002094923843
 20
-387.5
 30
0.0
 11
-27.50000209492384
 21
-387.5
 31
0.0
  0
LINE
  5
46B
  8
SIZE
  6
CONTINUOUS
 62
    30
 10
-499.76944370925042
 20
-387.5
 30
0.0
 11
-735.85186301322005
 21
-387.5
 31
0.0
  0
LINE
  5
46C
  8
SIZE
  6
CONTINUOUS
 62
    30
 10
-550.13754672248979
 20
-397.5
 30
0.0
 11
-735.85186301322005
 21
-397.5
 31
0.0
  0
LINE
  5
46D
  8
SIZE
  6
CONTINUOUS
 62
    30
 10
-705.85186301322005
 20
-377.5
 30
0.0
 11
-705.85186301322005
 21
-367.5
 31
0.0
  0
LINE
  5
46E
  8
SIZE
  6
CONTINUOUS
 62
    30
 10
-705.85186301322005
 20
-407.5
 30
0.0
 11
-705.85186301322005
 21
-502.14385694511469
 31
0.0
  0
LINE
  5
46F
  8
SIZE
  6
CONTINUOUS
 62
    30
 10
-705.85186301322005
 20
-387.5
 30
0.0
 11
-705.85186301322005
 21
-397.5
 31
0.0
  0
TEXT
  5
470
  8
SIZE
  6
CONTINUOUS
 62
    30
 10
-721.97880940409755
 20
-495.17309291597451
 30
0.0
 40
55.0
  1
10
 50
90.0
 41
0.9
 72
     1
 11
-721.97880940409755
 21
-459.81595005883167
 31
0.0
  0
CIRCLE
  5
471
  8
SIZE
  6
CONTINUOUS
 62
    30
 10
-705.85186301322005
 20
-397.5
 30
0.0
 40
5.0
  0
LINE
  5
472
  8
SIZE
  6
CONTINUOUS
 62
    30
 10
-705.85186301322005
 20
-402.5
 30
0.0
 11
-705.85186301322005
 21
-407.5
 31
0.0
  0
CIRCLE
  5
473
  8
SIZE
  6
CONTINUOUS
 62
    30
 10
-705.85186301322005
 20
-387.5
 30
0.0
 40
5.0
  0
LINE
  5
474
  8
SIZE
  6
CONTINUOUS
 62
    30
 10
-705.85186301322005
 20
-382.5
 30
0.0
 11
-705.85186301322005
 21
-377.5
 31
0.0
  0
CIRCLE
  5
475
  8
DETAIL
  6
CONTINUOUS
 62
     5
 10
-97.50000209492373
 20
-387.5
 30
0.0
 40
1.5
  0
LINE
  5
476
  8
NOTE
  6
CONTINUOUS
 62
     4
 10
-97.500002094923957
 20
-392.5
 30
0.0
 11
-97.500002094923957
 21
-382.5
 31
0.0
  0
LINE
  5
477
  8
NOTE
  6
CONTINUOUS
 62
     4
 10
-102.5000020949237
 20
-387.5
 30
0.0
 11
-92.50000209492373
 21
-387.5
 31
0.0
  0
CIRCLE
  5
478
  8
DETAIL
  6
CONTINUOUS
 62
     5
 10
-162.5000020949237
 20
-387.5
 30
0.0
 40
1.5
  0
LINE
  5
479
  8
NOTE
  6
CONTINUOUS
 62
     4
 10
-162.5000020949239
 20
-392.5
 30
0.0
 11
-162.5000020949239
 21
-382.5
 31
0.0
  0
LINE
  5
47A
  8
NOTE
  6
CONTINUOUS
 62
     4
 10
-167.5000020949237
 20
-387.5
 30
0.0
 11
-157.5000020949237
 21
-387.5
 31
0.0
  0
CIRCLE
  5
47B
  8
DETAIL
  6
CONTINUOUS
 62
     5
 10
-227.5000020949237
 20
-387.5
 30
0.0
 40
1.5
  0
LINE
  5
47C
  8
NOTE
  6
CONTINUOUS
 62
     4
 10
-227.50000209492401
 20
-392.5
 30
0.0
 11
-227.50000209492401
 21
-382.5
 31
0.0
  0
LINE
  5
47D
  8
NOTE
  6
CONTINUOUS
 62
     4
 10
-232.5000020949237
 20
-387.5
 30
0.0
 11
-222.5000020949237
 21
-387.5
 31
0.0
  0
CIRCLE
  5
47E
  8
DETAIL
  6
CONTINUOUS
 62
     5
 10
-292.50000209492379
 20
-387.5
 30
0.0
 40
1.5
  0
LINE
  5
47F
  8
NOTE
  6
CONTINUOUS
 62
     4
 10
-292.50000209492401
 20
-392.5
 30
0.0
 11
-292.50000209492401
 21
-382.5
 31
0.0
  0
LINE
  5
480
  8
NOTE
  6
CONTINUOUS
 62
     4
 10
-297.50000209492379
 20
-387.5
 30
0.0
 11
-287.50000209492379
 21
-387.5
 31
0.0
  0
CIRCLE
  5
48D
  8
SIZE
  6
CONTINUOUS
 62
    30
 10
-487.50000209492367
 20
-672.99946730259398
 30
0.0
 40
5.0
  0
LINE
  5
48E
  8
SIZE
  6
CONTINUOUS
 62
    30
 10
-482.5000020949239
 20
-672.99946730259398
 30
0.0
 11
-477.50000209492379
 21
-672.99946730259398
 31
0.0
  0
CIRCLE
  5
48F
  8
DETAIL
  6
CONTINUOUS
 62
     5
 10
-357.50000209492379
 20
-387.5
 30
0.0
 40
1.5
  0
LINE
  5
490
  8
NOTE
  6
CONTINUOUS
 62
     4
 10
-357.50000209492401
 20
-392.5
 30
0.0
 11
-357.50000209492401
 21
-382.5
 31
0.0
  0
LINE
  5
491
  8
NOTE
  6
CONTINUOUS
 62
     4
 10
-362.50000209492379
 20
-387.5
 30
0.0
 11
-352.50000209492379
 21
-387.5
 31
0.0
  0
CIRCLE
  5
492
  8
DETAIL
  6
CONTINUOUS
 62
     5
 10
-422.50000209492367
 20
-387.5
 30
0.0
 40
1.5
  0
LINE
  5
493
  8
NOTE
  6
CONTINUOUS
 62
     4
 10
-422.50000209492401
 20
-392.5
 30
0.0
 11
-422.50000209492401
 21
-382.5
 31
0.0
  0
LINE
  5
494
  8
NOTE
  6
CONTINUOUS
 62
     4
 10
-427.50000209492379
 20
-387.5
 30
0.0
 11
-417.50000209492367
 21
-387.5
 31
0.0
  0
CIRCLE
  5
495
  8
DETAIL
  6
CONTINUOUS
 62
     5
 10
-487.50000209492367
 20
-387.5
 30
0.0
 40
1.5
  0
LINE
  5
496
  8
NOTE
  6
CONTINUOUS
 62
     4
 10
-487.50000209492401
 20
-392.5
 30
0.0
 11
-487.50000209492401
 21
-382.5
 31
0.0
  0
LINE
  5
497
  8
NOTE
  6
CONTINUOUS
 62
     4
 10
-492.50000209492367
 20
-387.5
 30
0.0
 11
-482.50000209492379
 21
-387.5
 31
0.0
  0
ENDSEC
  0
EOF
