  0
SECTION
  2
HEADER
  9
$ACADVER
  1
AC1009
  9
$INSBASE
 10
0.0
 20
0.0
 30
0.0
  9
$EXTMIN
 10
-829.4066642117067
 20
-307.57662726651688
 30
-0.0000000000112498
  9
$EXTMAX
 10
931.16380959932201
 20
1227.917495214791
 30
0.0000000000002956
  9
$LIMMIN
 10
-4267.1522210604826
 20
-2696.083210198412
  9
$LIMMAX
 10
7190.7174225864646
 20
5141.155363923066
  9
$ORTHOMODE
 70
     1
  9
$REGENMODE
 70
     1
  9
$FILLMODE
 70
     1
  9
$QTEXTMODE
 70
     0
  9
$MIRRTEXT
 70
     0
  9
$DRAGMODE
 70
     2
  9
$LTSCALE
 40
20.0
  9
$OSMODE
 70
   431
  9
$ATTMODE
 70
     1
  9
$TEXTSIZE
 40
64.0
  9
$TRACEWID
 40
0.05
  9
$TEXTSTYLE
  7
NOTE
  9
$CLAYER
  8
SYMBOLLINE
  9
$CELTYPE
  6
CONTINUOUS
  9
$CECOLOR
 62
     7
  9
$DIMSCALE
 40
1.0
  9
$DIMASZ
 40
30.0
  9
$DIMEXO
 40
10.0
  9
$DIMDLI
 40
70.0
  9
$DIMRND
 40
0.0
  9
$DIMDLE
 40
0.0
  9
$DIMEXE
 40
20.0
  9
$DIMTP
 40
0.0
  9
$DIMTM
 40
0.0
  9
$DIMTXT
 40
50.0
  9
$DIMCEN
 40
0.09
  9
$DIMTSZ
 40
0.0
  9
$DIMTOL
 70
     0
  9
$DIMLIM
 70
     0
  9
$DIMTIH
 70
     0
  9
$DIMTOH
 70
     0
  9
$DIMSE1
 70
     0
  9
$DIMSE2
 70
     0
  9
$DIMTAD
 70
     1
  9
$DIMZIN
 70
     8
  9
$DIMBLK
  1
SMALL
  9
$DIMASO
 70
     1
  9
$DIMSHO
 70
     0
  9
$DIMPOST
  1

  9
$DIMAPOST
  1

  9
$DIMALT
 70
     0
  9
$DIMALTD
 70
     2
  9
$DIMALTF
 40
25.399999999999999
  9
$DIMLFAC
 40
1.0
  9
$DIMTOFL
 70
     1
  9
$DIMTVP
 40
0.0
  9
$DIMTIX
 70
     0
  9
$DIMSOXD
 70
     0
  9
$DIMSAH
 70
     0
  9
$DIMBLK1
  1

  9
$DIMBLK2
  1

  9
$DIMSTYLE
  2
STANDARD
  9
$DIMCLRD
 70
     0
  9
$DIMCLRE
 70
     0
  9
$DIMCLRT
 70
     0
  9
$DIMTFAC
 40
1.0
  9
$DIMGAP
 40
0.09
  9
$LUNITS
 70
     2
  9
$LUPREC
 70
     4
  9
$SKETCHINC
 40
0.1
  9
$FILLETRAD
 40
30.0
  9
$AUNITS
 70
     1
  9
$AUPREC
 70
     3
  9
$MENU
  1
ACAD
  9
$ELEVATION
 40
0.0
  9
$PELEVATION
 40
0.0
  9
$THICKNESS
 40
0.0
  9
$LIMCHECK
 70
     0
  9
$BLIPMODE
 70
     0
  9
$CHAMFERA
 40
0.0
  9
$CHAMFERB
 40
0.0
  9
$SKPOLY
 70
     0
  9
$TDCREATE
 40
2450330.4399309959
  9
$TDUPDATE
 40
2456841.5050078011
  9
$TDINDWG
 40
4.7883312499999997
  9
$TDUSRTIMER
 40
4.7883265045999996
  9
$USRTIMER
 70
     1
  9
$ANGBASE
 50
0.0
  9
$ANGDIR
 70
     0
  9
$PDMODE
 70
     3
  9
$PDSIZE
 40
-2.0
  9
$PLINEWID
 40
0.0
  9
$COORDS
 70
     1
  9
$SPLFRAME
 70
     0
  9
$SPLINETYPE
 70
     6
  9
$SPLINESEGS
 70
     8
  9
$ATTDIA
 70
     1
  9
$ATTREQ
 70
     1
  9
$HANDLING
 70
     1
  9
$HANDSEED
  5
5BA
  9
$SURFTAB1
 70
     6
  9
$SURFTAB2
 70
     6
  9
$SURFTYPE
 70
     6
  9
$SURFU
 70
     6
  9
$SURFV
 70
     6
  9
$UCSNAME
  2

  9
$UCSORG
 10
0.0
 20
0.0
 30
0.0
  9
$UCSXDIR
 10
1.0
 20
0.0
 30
0.0
  9
$UCSYDIR
 10
0.0
 20
1.0
 30
0.0
  9
$PUCSNAME
  2

  9
$PUCSORG
 10
0.0
 20
0.0
 30
0.0
  9
$PUCSXDIR
 10
1.0
 20
0.0
 30
0.0
  9
$PUCSYDIR
 10
0.0
 20
1.0
 30
0.0
  9
$USERI1
 70
     0
  9
$USERI2
 70
     0
  9
$USERI3
 70
     0
  9
$USERI4
 70
     0
  9
$USERI5
 70
     0
  9
$USERR1
 40
20.0
  9
$USERR2
 40
0.0
  9
$USERR3
 40
0.0
  9
$USERR4
 40
0.0
  9
$USERR5
 40
0.0
  9
$WORLDVIEW
 70
     1
  9
$SHADEDGE
 70
     3
  9
$SHADEDIF
 70
    70
  9
$TILEMODE
 70
     1
  9
$MAXACTVP
 70
    64
  9
$PLIMCHECK
 70
     0
  9
$PEXTMIN
 10
1.0000000000000000E+020
 20
1.0000000000000000E+020
 30
1.0000000000000000E+020
  9
$PEXTMAX
 10
-1.0000000000000000E+020
 20
-1.0000000000000000E+020
 30
-1.0000000000000000E+020
  9
$PLIMMIN
 10
0.0
 20
0.0
  9
$PLIMMAX
 10
12.0
 20
9.0
  9
$UNITMODE
 70
     0
  9
$VISRETAIN
 70
     1
  9
$PLINEGEN
 70
     0
  9
$PSLTSCALE
 70
     1
  0
ENDSEC
  0
SECTION
  2
TABLES
  0
TABLE
  2
VPORT
 70
     1
  0
VPORT
  2
*ACTIVE
 70
     0
 10
0.0
 20
0.0
 11
1.0
 21
1.0
 12
50.878572693807762
 22
460.17043397413721
 13
0.0
 23
0.0
 14
50.0
 24
50.0
 15
100.0
 25
100.0
 16
0.0
 26
0.0
 36
1.0
 17
0.0
 27
0.0
 37
0.0
 40
1547.2904921802681
 41
1.58076923076923
 42
50.0
 43
0.0
 44
0.0
 50
0.0
 51
0.0
 71
     0
 72
  1000
 73
     1
 74
     0
 75
     0
 76
     0
 77
     0
 78
     0
  0
ENDTAB
  0
TABLE
  2
LTYPE
 70
     2
  0
LTYPE
  2
CONTINUOUS
 70
     0
  3
実線
 72
    65
 73
     0
 40
0.0
  0
LTYPE
  2
DASHDOT
 70
     0
  3
____ _ ____ _ ____ _ ____ _ ____ _ ____ _ ____
 72
    65
 73
     4
 40
5.5
 49
4.0
 49
-0.6
 49
0.3
 49
-0.6
  0
ENDTAB
  0
TABLE
  2
LAYER
 70
    12
  0
LAYER
  2
0
 70
     0
 62
     7
  6
CONTINUOUS
  0
LAYER
  2
SYMBOLLINE
 70
     0
 62
    15
  6
CONTINUOUS
  0
LAYER
  2
SIZE
 70
     0
 62
    30
  6
CONTINUOUS
  0
LAYER
  2
OUTLINE
 70
     0
 62
     3
  6
CONTINUOUS
  0
LAYER
  2
DETAIL
 70
     0
 62
     5
  6
CONTINUOUS
  0
LAYER
  2
BASIS
 70
     0
 62
     6
  6
DASHDOT
  0
LAYER
  2
NOTE
 70
     0
 62
     4
  6
CONTINUOUS
  0
LAYER
  2
ARRANGE
 70
     0
 62
     1
  6
CONTINUOUS
  0
LAYER
  2
FIX
 70
     0
 62
    11
  6
CONTINUOUS
  0
LAYER
  2
SERVICESPACE
 70
     0
 62
     2
  6
DASHDOT
  0
LAYER
  2
ETC
 70
     0
 62
    61
  6
CONTINUOUS
  0
LAYER
  2
DEFPOINTS
 70
     0
 62
     7
  6
CONTINUOUS
  0
ENDTAB
  0
TABLE
  2
STYLE
 70
     4
  0
STYLE
  2
STANDARD
 70
     0
 40
0.0
 41
0.9
 50
0.0
 71
     0
 42
64.0
  3
SIMPLEX
  4
BIGFONT
  0
STYLE
  2
ANNOTATIVE
 70
     0
 40
0.0
 41
1.0
 50
0.0
 71
     0
 42
0.2
  3
txt
  4

  0
STYLE
  2
NOTE
 70
     0
 40
0.0
 41
0.7
 50
0.0
 71
     0
 42
64.0
  3
SIMPLEX.shx
  4
BIGFONT.shx
  0
STYLE
  2
STANDARD1
 70
     0
 40
0.0
 41
1.0
 50
0.0
 71
     0
 42
64.0
  3
MONOTXT
  4
BIGFONT
  0
ENDTAB
  0
TABLE
  2
VIEW
 70
     1
  0
VIEW
  2
ALL
 70
     0
 40
9000.0
 10
241.50664699999999
 20
0.0
 41
12483.01
 11
0.0
 21
0.0
 31
1.0
 12
0.0
 22
0.0
 32
0.0
 42
50.0
 43
0.0
 44
0.0
 50
0.0
 71
     0
  0
ENDTAB
  0
TABLE
  2
UCS
 70
     0
  0
ENDTAB
  0
TABLE
  2
APPID
 70
     5
  0
APPID
  2
ACAD
 70
     0
  0
APPID
  2
ACADANNOTATIVE
 70
     0
  0
APPID
  2
ACAD_MLEADERVER
 70
     0
  0
APPID
  2
ACAD_EXEMPT_FROM_CAD_STANDARDS
 70
     0
  0
APPID
  2
ACAD_NAV_VCDISPLAY
 70
     0
  0
ENDTAB
  0
TABLE
  2
DIMSTYLE
 70
     2
  0
DIMSTYLE
  2
STANDARD
 70
     0
  3

  4

  5

  6

  7

 40
1.0
 41
0.18
 42
0.0625
 43
0.38
 44
0.18
 45
0.0
 46
0.0
 47
0.0
 48
0.0
140
0.18
141
0.09
142
0.0
143
25.399999999999999
144
1.0
145
0.0
146
1.0
147
0.09
 71
     0
 72
     0
 73
     1
 74
     1
 75
     0
 76
     0
 77
     0
 78
     0
170
     0
171
     2
172
     0
173
     0
174
     0
175
     0
176
     0
177
     0
178
     0
  0
DIMSTYLE
  2
ANNOTATIVE
 70
     0
  3

  4

  5

  6

  7

 40
1.0
 41
0.18
 42
0.0625
 43
0.38
 44
0.18
 45
0.0
 46
0.0
 47
0.0
 48
0.0
140
0.18
141
0.09
142
0.0
143
25.399999999999999
144
1.0
145
0.0
146
1.0
147
0.09
 71
     0
 72
     0
 73
     1
 74
     1
 75
     0
 76
     0
 77
     0
 78
     0
170
     0
171
     2
172
     0
173
     0
174
     0
175
     0
176
     0
177
     0
178
     0
  0
ENDTAB
  0
ENDSEC
  0
SECTION
  2
BLOCKS
  0
BLOCK
  8
0
  2
$MODEL_SPACE
 70
     0
 10
0.0
 20
0.0
 30
0.0
  3
$MODEL_SPACE
  1

  0
ENDBLK
  5
536
  8
0
  0
BLOCK
 67
     1
  8
0
  2
$PAPER_SPACE
 70
     0
 10
0.0
 20
0.0
 30
0.0
  3
$PAPER_SPACE
  1

  0
ENDBLK
  5
532
 67
     1
  8
0
  0
BLOCK
  8
0
  2
_SMALL
 70
     0
 10
0.0
 20
0.0
 30
0.0
  3
_SMALL
  1

  0
CIRCLE
  5
8D
  8
0
  6
CONTINUOUS
 62
     7
 10
0.0
 20
0.0
 30
0.0
 40
0.25
  0
ENDBLK
  5
8E
  8
0
  0
ENDSEC
  0
SECTION
  2
ENTITIES
  0
LINE
  5
8F
  8
DETAIL
  6
CONTINUOUS
 62
     5
 10
-506.49998316272678
 20
-0.000000000000675
 30
0.0
 11
143.49999973691411
 21
-0.000000000000675
 31
0.0
  0
LINE
  5
90
  8
DETAIL
  6
CONTINUOUS
 62
     5
 10
-506.49998316272678
 20
-1.999999973682288
 30
0.0
 11
143.49999973691411
 21
-1.999999973682288
 31
0.0
  0
LINE
  5
91
  8
DETAIL
  6
CONTINUOUS
 62
     5
 10
121.9700003033258
 20
57.999998447822357
 30
0.0
 11
-484.969983729136
 21
57.999998447822357
 31
0.0
  0
LINE
  5
92
  8
NOTE
  6
CONTINUOUS
 62
     4
 10
-538.16163669113882
 20
-0.000000026316567
 30
0.0
 11
-518.16163721731073
 21
19.999999447520722
 31
0.0
  0
LINE
  5
93
  8
NOTE
  6
CONTINUOUS
 62
     4
 10
-533.16163682266961
 20
-0.000000026316567
 30
0.0
 11
-513.16163734884231
 21
19.999999447520722
 31
0.0
  0
LINE
  5
94
  8
NOTE
  6
CONTINUOUS
 62
     4
 10
-528.16163695422313
 20
-0.000000026316567
 30
0.0
 11
-508.16163748039799
 21
19.999999447520722
 31
0.0
  0
LINE
  5
95
  8
NOTE
  6
CONTINUOUS
 62
     4
 10
-496.49998342581108
 20
19.999999447520722
 30
0.0
 11
-589.20407538127211
 21
19.999999447520722
 31
0.0
  0
LINE
  5
96
  8
NOTE
  6
CONTINUOUS
 62
     4
 10
-496.49998342581108
 20
-0.000000026316567
 30
0.0
 11
-589.20407538127211
 21
-0.000000026316567
 31
0.0
  0
LINE
  5
97
  8
NOTE
  6
CONTINUOUS
 62
     4
 10
-556.91202256971042
 20
-0.000000026316567
 30
0.0
 11
-536.91202309588175
 21
19.999999447520722
 31
0.0
  0
LINE
  5
98
  8
NOTE
  6
CONTINUOUS
 62
     4
 10
-561.91202243815815
 20
-0.000000026316567
 30
0.0
 11
-541.91202296432937
 21
19.999999447520722
 31
0.0
  0
LINE
  5
99
  8
NOTE
  6
CONTINUOUS
 62
     4
 10
-566.91202230662282
 20
-0.000000026316567
 30
0.0
 11
-546.91202283279779
 21
19.999999447520722
 31
0.0
  0
LINE
  5
9A
  8
NOTE
  6
CONTINUOUS
 62
     4
 10
-496.49998342581108
 20
-0.000000026316567
 30
0.0
 11
-496.49998342581108
 21
19.999999447520722
 31
0.0
  0
LINE
  5
9B
  8
DETAIL
  6
CONTINUOUS
 62
     5
 10
-484.969983729136
 20
-0.000000000000675
 30
0.0
 11
-484.969983729136
 21
57.999998447822357
 31
0.0
  0
LINE
  5
9C
  8
DETAIL
  6
CONTINUOUS
 62
     5
 10
-506.49998316272678
 20
-2.0
 30
0.0
 11
-506.49998316272678
 21
-0.000000000000675
 31
0.0
  0
LINE
  5
9D
  8
DETAIL
  6
CONTINUOUS
 62
     5
 10
121.9700003033258
 20
-0.000000000000675
 30
0.0
 11
121.9700003033258
 21
57.999998447822357
 31
0.0
  0
LINE
  5
9E
  8
NOTE
  6
CONTINUOUS
 62
     4
 10
233.49999736917491
 20
-0.000000026316567
 30
0.0
 11
133.50000000000179
 21
-0.000000026316567
 31
0.0
  0
LINE
  5
9F
  8
NOTE
  6
CONTINUOUS
 62
     4
 10
233.49999736917491
 20
19.999999447520722
 30
0.0
 11
133.50000000000179
 21
19.999999447520722
 31
0.0
  0
LINE
  5
A0
  8
NOTE
  6
CONTINUOUS
 62
     4
 10
133.50000000000179
 20
-0.000000026316567
 30
0.0
 11
133.50000000000179
 21
19.999999447520722
 31
0.0
  0
LINE
  5
A1
  8
NOTE
  6
CONTINUOUS
 62
     4
 10
151.83834515617619
 20
-0.000000026316567
 30
0.0
 11
171.838344630004
 21
19.999999447520722
 31
0.0
  0
LINE
  5
A2
  8
NOTE
  6
CONTINUOUS
 62
     4
 10
191.8383441038508
 20
-0.000000026316567
 30
0.0
 11
211.8383435776791
 21
19.999999447520722
 31
0.0
  0
LINE
  5
A3
  8
NOTE
  6
CONTINUOUS
 62
     4
 10
156.83834502462281
 20
-0.000000026316567
 30
0.0
 11
176.83834449847001
 21
19.999999447520722
 31
0.0
  0
LINE
  5
A4
  8
NOTE
  6
CONTINUOUS
 62
     4
 10
196.83834397229791
 20
-0.000000026316567
 30
0.0
 11
216.8383434461258
 21
19.999999447520722
 31
0.0
  0
LINE
  5
A5
  8
NOTE
  6
CONTINUOUS
 62
     4
 10
161.83834489309169
 20
-0.000000026316567
 30
0.0
 11
181.8383443669172
 21
19.999999447520722
 31
0.0
  0
LINE
  5
A6
  8
NOTE
  6
CONTINUOUS
 62
     4
 10
201.8383438407667
 20
-0.000000026316567
 30
0.0
 11
221.8383433145909
 21
19.999999447520722
 31
0.0
  0
LINE
  5
A7
  8
DETAIL
  6
CONTINUOUS
 62
     5
 10
143.49999973691411
 20
-1.999999973682288
 30
0.0
 11
143.49999973691411
 21
-0.000000000000675
 31
0.0
  0
ARC
  5
A8
  8
DETAIL
  6
CONTINUOUS
 62
     5
 10
127.5966121996079
 20
328.99999994739142
 30
0.0
 40
9.9999997369176121
 50
0.0
 51
90.0
  0
ARC
  5
A9
  8
DETAIL
  6
CONTINUOUS
 62
     5
 10
127.5966121996079
 20
190.9982068082447
 30
0.0
 40
9.9999997369175357
 50
270.0
 51
0.0
  0
LINE
  5
AA
  8
DETAIL
  6
CONTINUOUS
 62
     5
 10
-338.90000001578568
 20
172.00000000000199
 30
0.0
 11
-110.099999984216
 21
172.00000000000199
 31
0.0
  0
LINE
  5
AB
  8
DETAIL
  6
CONTINUOUS
 62
     5
 10
-109.5000000000018
 20
421.99999999999812
 30
0.0
 11
-299.50246921559932
 21
421.99999999999812
 31
0.0
  0
LINE
  5
AC
  8
DETAIL
  6
CONTINUOUS
 62
     5
 10
-285.0999953802729
 20
158.20327324746
 30
0.0
 11
-202.107505562667
 21
158.20327324746
 31
0.0
  0
LINE
  5
AD
  8
DETAIL
  6
CONTINUOUS
 62
     5
 10
-367.49999999999892
 20
139.9999999999998
 30
0.0
 11
367.5
 21
139.9999999999998
 31
0.0
  0
LINE
  5
AE
  8
DETAIL
  6
CONTINUOUS
 62
     5
 10
367.5
 20
435.0
 30
0.0
 11
-367.49999999999892
 21
435.0
 31
0.0
  0
TEXT
  5
AF
  8
NOTE
  6
CONTINUOUS
 62
     4
 10
-474.38967571518089
 20
321.7988196332027
 30
0.0
 40
40.0
  1
吸込
 50
0.0000025044687019
 41
0.8107143291551278
  7
STANDARD1
  0
LINE
  5
B0
  8
NOTE
  6
CONTINUOUS
 62
     4
 10
-434.8105812051171
 20
310.18374870732828
 30
0.0
 11
-434.8105812051171
 21
300.183748970414
 31
0.0
  0
LINE
  5
B1
  8
NOTE
  6
CONTINUOUS
 62
     4
 10
-414.8105817312898
 20
290.18374923349057
 30
0.0
 11
-434.8105812051171
 21
270.18374975966458
 31
0.0
  0
LINE
  5
B2
  8
NOTE
  6
CONTINUOUS
 62
     4
 10
-414.8105817312898
 20
290.18374923349057
 30
0.0
 11
-434.8105812051171
 21
310.18374870732828
 31
0.0
  0
LINE
  5
B3
  8
NOTE
  6
CONTINUOUS
 62
     4
 10
-434.8105812051171
 20
280.18374949657863
 30
0.0
 11
-434.8105812051171
 21
270.18374975966458
 31
0.0
  0
LINE
  5
B4
  8
NOTE
  6
CONTINUOUS
 62
     4
 10
-454.81058067896311
 20
300.183748970414
 30
0.0
 11
-434.8105812051171
 21
300.183748970414
 31
0.0
  0
LINE
  5
B5
  8
NOTE
  6
CONTINUOUS
 62
     4
 10
-454.81058067896311
 20
280.18374949657863
 30
0.0
 11
-434.8105812051171
 21
280.18374949657863
 31
0.0
  0
LINE
  5
B6
  8
NOTE
  6
CONTINUOUS
 62
     4
 10
-454.81058067896311
 20
300.183748970414
 30
0.0
 11
-454.81058067896311
 21
280.18374949657863
 31
0.0
  0
LINE
  5
B7
  8
DETAIL
  6
CONTINUOUS
 62
     5
 10
-339.50000000000182
 20
267.9999974744041
 30
0.0
 11
-339.50000000000182
 21
172.59999998421719
 31
0.0
  0
LINE
  5
B8
  8
DETAIL
  6
CONTINUOUS
 62
     5
 10
-388.49999999999892
 20
147.18833684770649
 30
0.0
 11
-388.49999999999892
 21
427.18832948139612
 31
0.0
  0
LINE
  5
B9
  8
DETAIL
  6
CONTINUOUS
 62
     5
 10
-367.49999999999892
 20
139.9999999999998
 30
0.0
 11
-367.49999999999892
 21
435.0
 31
0.0
  0
ARC
  5
BA
  8
DETAIL
  6
CONTINUOUS
 62
     5
 10
-338.90000001578568
 20
172.59999998421719
 30
0.0
 40
0.5999999842153863
 50
180.0
 51
270.0
  0
ARC
  5
BB
  8
DETAIL
  6
CONTINUOUS
 62
     5
 10
-342.2999999263443
 20
186.50000048670319
 30
0.0
 40
1.999999947383587
 50
180.0
 51
270.0
  0
ARC
  5
BC
  8
DETAIL
  6
CONTINUOUS
 62
     5
 10
-342.2999999263443
 20
223.4999995132986
 30
0.0
 40
1.9999999473835071
 50
90.0
 51
180.0
  0
LINE
  5
BD
  8
DETAIL
  6
CONTINUOUS
 62
     5
 10
-341.29999995265001
 20
187.50000046038809
 30
0.0
 11
-339.50000000000182
 21
187.50000046038809
 31
0.0
  0
LINE
  5
BE
  8
DETAIL
  6
CONTINUOUS
 62
     5
 10
-341.29999995265001
 20
222.49999953960489
 30
0.0
 11
-339.50000000000182
 21
222.49999953960489
 31
0.0
  0
LINE
  5
BF
  8
DETAIL
  6
CONTINUOUS
 62
     5
 10
-341.29999995265001
 20
184.5000005393176
 30
0.0
 11
-341.29999995265001
 21
225.49999946067521
 31
0.0
  0
LINE
  5
C0
  8
DETAIL
  6
CONTINUOUS
 62
     5
 10
-344.29999987373139
 20
186.50000048670319
 30
0.0
 11
-344.29999987373139
 21
223.4999995132986
 31
0.0
  0
LINE
  5
C1
  8
DETAIL
  6
CONTINUOUS
 62
     5
 10
-342.2999999263443
 20
184.5000005393176
 30
0.0
 11
-341.29999995265001
 21
184.5000005393176
 31
0.0
  0
LINE
  5
C2
  8
DETAIL
  6
CONTINUOUS
 62
     5
 10
-342.2999999263443
 20
225.49999946067521
 30
0.0
 11
-341.29999995265001
 21
225.49999946067521
 31
0.0
  0
LINE
  5
C3
  8
DETAIL
  6
CONTINUOUS
 62
     5
 10
-388.49999999999892
 20
147.18833684770649
 30
0.0
 11
-367.49999999999892
 21
147.18833684770649
 31
0.0
  0
LINE
  5
C4
  8
DETAIL
  6
CONTINUOUS
 62
     5
 10
-288.09999530133291
 20
172.00000000000199
 30
0.0
 11
-288.09999530133291
 21
161.20327316853951
 31
0.0
  0
ARC
  5
C5
  8
DETAIL
  6
CONTINUOUS
 62
     5
 10
-285.0999953802729
 20
161.20327316853951
 30
0.0
 40
2.9999999210753741
 50
180.0
 51
270.0
  0
LINE
  5
C6
  8
DETAIL
  6
CONTINUOUS
 62
     5
 10
-338.90000001578568
 20
268.5999974586195
 30
0.0
 11
-302.5024691366811
 21
268.5999974586195
 31
0.0
  0
LINE
  5
C7
  8
DETAIL
  6
CONTINUOUS
 62
     5
 10
-330.50000015786088
 20
428.30000017627572
 30
0.0
 11
-342.49999984216169
 21
428.30000017627572
 31
0.0
  0
LINE
  5
C8
  8
DETAIL
  6
CONTINUOUS
 62
     5
 10
-348.99999967116491
 20
392.6000011154739
 30
0.0
 11
-310.00000069718487
 21
392.6000011154739
 31
0.0
  0
LINE
  5
C9
  8
DETAIL
  6
CONTINUOUS
 62
     5
 10
-365.9999992239122
 20
430.60000011576051
 30
0.0
 11
-307.00000077610679
 21
430.60000011576051
 31
0.0
  0
ARC
  5
CA
  8
DETAIL
  6
CONTINUOUS
 62
     5
 10
-338.90000001578568
 20
267.9999974744041
 30
0.0
 40
0.5999999842154307
 50
90.0
 51
180.0
  0
LINE
  5
CB
  8
DETAIL
  6
CONTINUOUS
 62
     5
 10
-388.49999999999892
 20
427.18832948139612
 30
0.0
 11
-367.49999999999892
 21
427.18832948139612
 31
0.0
  0
ARC
  5
CC
  8
DETAIL
  6
CONTINUOUS
 62
     5
 10
-348.99999967116491
 20
395.60000103655352
 30
0.0
 40
2.9999999210750641
 50
180.0
 51
270.0
  0
ARC
  5
CD
  8
DETAIL
  6
CONTINUOUS
 62
     5
 10
-345.49999976323892
 20
421.60000035254052
 30
0.0
 40
2.999999921075263
 50
270.0
 51
0.0
  0
LINE
  5
CE
  8
DETAIL
  6
CONTINUOUS
 62
     5
 10
-342.49999984216169
 20
430.60000011576051
 30
0.0
 11
-342.49999984216169
 21
421.60000035254052
 31
0.0
  0
LINE
  5
CF
  8
DETAIL
  6
CONTINUOUS
 62
     5
 10
-345.49999976323892
 20
418.60000043146113
 30
0.0
 11
-362.99999930283508
 21
418.60000043146113
 31
0.0
  0
LINE
  5
D0
  8
DETAIL
  6
CONTINUOUS
 62
     5
 10
-362.99999930283508
 20
415.6000005103906
 30
0.0
 11
-351.99999959222879
 21
415.6000005103906
 31
0.0
  0
LINE
  5
D1
  8
DETAIL
  6
CONTINUOUS
 62
     5
 10
-351.99999959222879
 20
415.6000005103906
 30
0.0
 11
-351.99999959222879
 21
395.60000103655352
 31
0.0
  0
ARC
  5
D2
  8
DETAIL
  6
CONTINUOUS
 62
     5
 10
-362.99999930283508
 20
421.60000035254052
 30
0.0
 40
2.9999999210753741
 50
180.0
 51
270.0
  0
ARC
  5
D3
  8
DETAIL
  6
CONTINUOUS
 62
     5
 10
-362.99999930283508
 20
418.60000043146113
 30
0.0
 40
2.9999999210753741
 50
180.0
 51
270.0
  0
LINE
  5
D4
  8
DETAIL
  6
CONTINUOUS
 62
     5
 10
-365.9999992239122
 20
430.60000011576051
 30
0.0
 11
-365.9999992239122
 21
418.60000043146113
 31
0.0
  0
LINE
  5
D6
  8
DETAIL
  6
CONTINUOUS
 62
     5
 10
-302.5024691366811
 20
419.00000007891879
 30
0.0
 11
-302.5024691366811
 21
268.5999974586195
 31
0.0
  0
LINE
  5
D7
  8
DETAIL
  6
CONTINUOUS
 62
     5
 10
-302.5024691366811
 20
419.00000007891879
 30
0.0
 11
-299.50246921559932
 21
421.99999999999812
 31
0.0
  0
ARC
  5
D8
  8
DETAIL
  6
CONTINUOUS
 62
     5
 10
-310.00000069718487
 20
395.60000103655352
 30
0.0
 40
2.999999921075263
 50
270.0
 51
0.0
  0
LINE
  5
D9
  8
DETAIL
  6
CONTINUOUS
 62
     5
 10
-327.50000023678001
 20
418.60000043146113
 30
0.0
 11
-310.00000069718487
 21
418.60000043146539
 31
0.0
  0
LINE
  5
DA
  8
DETAIL
  6
CONTINUOUS
 62
     5
 10
-307.00000077610679
 20
430.60000011576051
 30
0.0
 11
-307.00000077610679
 21
395.60000103655352
 31
0.0
  0
LINE
  5
DB
  8
DETAIL
  6
CONTINUOUS
 62
     5
 10
-330.50000015786088
 20
430.60000011576051
 30
0.0
 11
-330.50000015786088
 21
421.60000035254052
 31
0.0
  0
ARC
  5
DC
  8
DETAIL
  6
CONTINUOUS
 62
     5
 10
-310.00000069718487
 20
421.60000035254052
 30
0.0
 40
2.999999921075263
 50
270.0
 51
0.0
  0
ARC
  5
DD
  8
DETAIL
  6
CONTINUOUS
 62
     5
 10
-327.50000023678001
 20
421.60000035254052
 30
0.0
 40
2.9999999210750641
 50
180.0
 51
270.0
  0
LINE
  5
DE
  8
DETAIL
  6
CONTINUOUS
 62
     5
 10
-109.5000000000018
 20
172.59999998421719
 30
0.0
 11
-109.5000000000018
 21
421.99999999999812
 31
0.0
  0
LINE
  5
DF
  8
DETAIL
  6
CONTINUOUS
 62
     5
 10
-199.10750564158599
 20
161.20327316853951
 30
0.0
 11
-199.10750564158599
 21
172.00000000000199
 31
0.0
  0
ARC
  5
E0
  8
DETAIL
  6
CONTINUOUS
 62
     5
 10
-202.107505562667
 20
161.20327316853951
 30
0.0
 40
2.999999921075295
 50
270.0
 51
0.0
  0
ARC
  5
E1
  8
DETAIL
  6
CONTINUOUS
 62
     5
 10
-110.099999984216
 20
172.59999998421719
 30
0.0
 40
0.5999999842154307
 50
270.0
 51
0.0
  0
LINE
  5
E2
  8
DETAIL
  6
CONTINUOUS
 62
     5
 10
-118.4999997632207
 20
172.00000000000199
 30
0.0
 11
-110.099999984216
 21
172.00000000000199
 31
0.0
  0
LINE
  5
E3
  8
DETAIL
  6
CONTINUOUS
 62
     5
 10
-106.50000007892091
 20
225.49999946067521
 30
0.0
 11
-107.50000005261511
 21
225.49999946067521
 31
0.0
  0
ARC
  5
E4
  8
DETAIL
  6
CONTINUOUS
 62
     5
 10
-106.50000007892091
 20
223.4999995132986
 30
0.0
 40
1.999999947383263
 50
0.0
 51
90.0
  0
LINE
  5
E5
  8
DETAIL
  6
CONTINUOUS
 62
     5
 10
-107.50000005261511
 20
222.49999953960489
 30
0.0
 11
-109.5000000000018
 21
222.49999953960489
 31
0.0
  0
LINE
  5
E6
  8
DETAIL
  6
CONTINUOUS
 62
     5
 10
-106.50000007892091
 20
184.5000005393176
 30
0.0
 11
-107.50000005261511
 21
184.5000005393176
 31
0.0
  0
LINE
  5
E7
  8
DETAIL
  6
CONTINUOUS
 62
     5
 10
-104.50000013153431
 20
186.50000048670319
 30
0.0
 11
-104.50000013153431
 21
223.4999995132986
 31
0.0
  0
LINE
  5
E8
  8
DETAIL
  6
CONTINUOUS
 62
     5
 10
-107.50000005261511
 20
184.5000005393176
 30
0.0
 11
-107.50000005261511
 21
225.49999946067521
 31
0.0
  0
LINE
  5
E9
  8
DETAIL
  6
CONTINUOUS
 62
     5
 10
-107.50000005261511
 20
187.50000046038809
 30
0.0
 11
-109.5000000000018
 21
187.50000046038809
 31
0.0
  0
ARC
  5
EA
  8
DETAIL
  6
CONTINUOUS
 62
     5
 10
-106.50000007892091
 20
186.50000048670319
 30
0.0
 40
1.9999999473835071
 50
270.0
 51
0.0
  0
CIRCLE
  5
EB
  8
DETAIL
  6
CONTINUOUS
 62
     5
 10
97.596612988847042
 20
246.79820534024489
 30
0.0
 40
19.99999947383505
  0
LINE
  5
EC
  8
DETAIL
  6
CONTINUOUS
 62
     5
 10
-9.4031754360880768
 20
190.9982068082447
 30
0.0
 11
-9.4031754360880768
 21
328.99999994739142
 31
0.0
  0
CIRCLE
  5
ED
  8
DETAIL
  6
CONTINUOUS
 62
     5
 10
97.596612988847042
 20
246.79820534024489
 30
0.0
 40
19.99999947383505
  0
LINE
  5
EE
  8
DETAIL
  6
CONTINUOUS
 62
     5
 10
0.5968243008237552
 20
180.9982070713306
 30
0.0
 11
127.5966121996079
 21
180.9982070713306
 31
0.0
  0
ARC
  5
EF
  8
DETAIL
  6
CONTINUOUS
 62
     5
 10
0.5968243008237552
 20
190.9982068082447
 30
0.0
 40
9.9999997369176121
 50
180.0
 51
270.0
  0
LINE
  5
F0
  8
DETAIL
  6
CONTINUOUS
 62
     5
 10
77.000000460385763
 20
338.99999968430359
 30
0.0
 11
0.5968243008237552
 21
338.99999968430359
 31
0.0
  0
ARC
  5
F1
  8
DETAIL
  6
CONTINUOUS
 62
     5
 10
0.5968243008237552
 20
328.99999994739142
 30
0.0
 40
9.9999997369175464
 50
90.0
 51
180.0
  0
LINE
  5
F2
  8
DETAIL
  6
CONTINUOUS
 62
     5
 10
127.5966121996079
 20
338.99999968430359
 30
0.0
 11
111.9999995396128
 21
338.99999968430359
 31
0.0
  0
LINE
  5
F3
  8
DETAIL
  6
CONTINUOUS
 62
     5
 10
111.9999995396128
 20
327.00000000000369
 30
0.0
 11
111.9999995396128
 21
338.99999968430359
 31
0.0
  0
LINE
  5
F4
  8
DETAIL
  6
CONTINUOUS
 62
     5
 10
77.000000460385763
 20
327.00000000000369
 30
0.0
 11
77.000000460385763
 21
338.99999968430359
 31
0.0
  0
CIRCLE
  5
F5
  8
DETAIL
  6
CONTINUOUS
 62
     5
 10
94.500000000000014
 20
327.00000000000369
 30
0.0
 40
12.99999965799268
  0
CIRCLE
  5
FA
  8
DETAIL
  6
CONTINUOUS
 62
     5
 10
94.500000000000014
 20
327.00000000000369
 30
0.0
 40
17.499999539605572
  0
LINE
  5
FB
  8
NOTE
  6
CONTINUOUS
 62
     4
 10
504.49275600569382
 20
320.67158680787719
 30
0.0
 11
484.49275653184799
 21
340.67158628171472
 31
0.0
  0
LINE
  5
FC
  8
NOTE
  6
CONTINUOUS
 62
     4
 10
504.49275600569382
 20
320.67158680787719
 30
0.0
 11
484.49275653184799
 21
300.67158733405108
 31
0.0
  0
TEXT
  5
FD
  8
NOTE
  6
CONTINUOUS
 62
     4
 10
453.59812452731671
 20
347.36821937922099
 30
0.0
 40
40.0
  1
吹出
 50
0.0000025044687019
 41
0.8107143291551278
  7
STANDARD1
  0
LINE
  5
FE
  8
DETAIL
  6
CONTINUOUS
 62
     5
 10
324.5000002367567
 20
418.60000043146113
 30
0.0
 11
307.00000069716287
 21
418.60000043146113
 31
0.0
  0
LINE
  5
FF
  8
DETAIL
  6
CONTINUOUS
 62
     5
 10
307.00000069716287
 20
415.6000005103906
 30
0.0
 11
318.00000040777161
 21
415.6000005103906
 31
0.0
  0
LINE
  5
100
  8
DETAIL
  6
CONTINUOUS
 62
     5
 10
304.00000077608382
 20
430.60000011576051
 30
0.0
 11
362.99999922389082
 21
430.60000011576051
 31
0.0
  0
LINE
  5
101
  8
DETAIL
  6
CONTINUOUS
 62
     5
 10
137.5966119365207
 20
190.9982068082447
 30
0.0
 11
137.5966119365207
 21
328.99999994739142
 31
0.0
  0
LINE
  5
102
  8
DETAIL
  6
CONTINUOUS
 62
     5
 10
190.0491153719608
 20
229.99607517045681
 30
0.0
 11
190.0491153719608
 21
252.40173481905751
 31
0.0
  0
LINE
  5
103
  8
DETAIL
  6
CONTINUOUS
 62
     5
 10
314.49700035457471
 20
224.99607530198961
 30
0.0
 11
314.49700035457471
 21
408.00187130515047
 31
0.0
  0
LINE
  5
104
  8
DETAIL
  6
CONTINUOUS
 62
     5
 10
246.06786196508389
 20
246.37587062064279
 30
0.0
 11
252.6357239301698
 21
235.0000000000002
 31
0.0
  0
LINE
  5
105
  8
DETAIL
  6
CONTINUOUS
 62
     5
 10
226.2161763071089
 20
235.0000000000002
 30
0.0
 11
232.78403827221311
 21
246.37587062064279
 31
0.0
  0
CIRCLE
  5
106
  8
DETAIL
  6
CONTINUOUS
 62
     5
 10
239.5
 20
235.0000000000002
 30
0.0
 40
17.999999526451461
  0
CIRCLE
  5
107
  8
DETAIL
  6
CONTINUOUS
 62
     5
 10
239.5
 20
235.0000000000002
 30
0.0
 40
20.999999447526861
  0
LINE
  5
108
  8
DETAIL
  6
CONTINUOUS
 62
     5
 10
195.0491152404079
 20
221.99607532830581
 30
0.0
 11
216.500000605092
 21
221.99607532830581
 31
0.0
  0
ARC
  5
109
  8
DETAIL
  6
CONTINUOUS
 62
     5
 10
216.500000605092
 20
226.99607519677301
 30
0.0
 40
4.9999998684587821
 50
270.0
 51
318.17973314728249
  0
ARC
  5
10A
  8
DETAIL
  6
CONTINUOUS
 62
     5
 10
195.0491152404079
 20
226.99607519677301
 30
0.0
 40
4.9999998684588061
 50
180.0
 51
270.0
  0
CIRCLE
  5
10B
  8
DETAIL
  6
CONTINUOUS
 62
     5
 10
175.5
 20
169.99615432117221
 30
0.0
 40
15.749999585645179
  0
CIRCLE
  5
10C
  8
DETAIL
  6
CONTINUOUS
 62
     5
 10
175.5
 20
169.99615432117221
 30
0.0
 40
13.74999963826159
  0
ARC
  5
10E
  8
DETAIL
  6
CONTINUOUS
 62
     5
 10
175.5
 20
170.0000000000019
 30
0.0
 40
20.999999447526861
 50
0.0
 51
180.0
  0
LINE
  5
10F
  8
DETAIL
  6
CONTINUOUS
 62
     5
 10
196.49999944752099
 20
140.0
 30
0.0
 11
196.49999944752099
 21
170.0000000000019
 31
0.0
  0
LINE
  5
110
  8
DETAIL
  6
CONTINUOUS
 62
     5
 10
154.5000005524598
 20
140.0
 30
0.0
 11
154.5000005524598
 21
170.0000000000019
 31
0.0
  0
LINE
  5
111
  8
DETAIL
  6
CONTINUOUS
 62
     5
 10
262.49999939490681
 20
216.99607545984981
 30
0.0
 11
309.49700048612681
 21
216.99607545984981
 31
0.0
  0
ARC
  5
112
  8
DETAIL
  6
CONTINUOUS
 62
     5
 10
309.49700048612681
 20
221.99607532830581
 30
0.0
 40
4.9999998684587581
 50
270.0
 51
0.0
  0
ARC
  5
113
  8
DETAIL
  6
CONTINUOUS
 62
     5
 10
262.49999939490681
 20
221.99607532830581
 30
0.0
 40
4.9999998684596392
 50
188.3308164548678
 51
270.0
  0
LINE
  5
114
  8
DETAIL
  6
CONTINUOUS
 62
     5
 10
226.2161763071089
 20
232.0000000263164
 30
0.0
 11
232.85808815355401
 21
220.49587124889621
 31
0.0
  0
CIRCLE
  5
115
  8
DETAIL
  6
CONTINUOUS
 62
     5
 10
239.5
 20
235.0000000000002
 30
0.0
 40
7.9400000000000004
  0
LINE
  5
116
  8
DETAIL
  6
CONTINUOUS
 62
     5
 10
232.85808815355401
 20
220.49587124889621
 30
0.0
 11
245.99381208374501
 21
220.49587124889621
 31
0.0
  0
LINE
  5
117
  8
DETAIL
  6
CONTINUOUS
 62
     5
 10
245.99381208374501
 20
220.49587124889621
 30
0.0
 11
252.6357239301698
 21
232.0000000263164
 31
0.0
  0
LINE
  5
118
  8
DETAIL
  6
CONTINUOUS
 62
     5
 10
309.49700048612681
 20
413.00187117361742
 30
0.0
 11
147.49564521326781
 21
413.00187117361742
 31
0.0
  0
LINE
  5
119
  8
DETAIL
  6
CONTINUOUS
 62
     5
 10
142.495645344823
 20
408.00187130515047
 30
0.0
 11
142.495645344823
 21
252.7407788610783
 31
0.0
  0
LINE
  5
11A
  8
DETAIL
  6
CONTINUOUS
 62
     5
 10
160.0491161612012
 20
252.7407788610783
 30
0.0
 11
160.0491161612012
 21
253.76581505751369
 31
0.0
  0
ARC
  5
11B
  8
DETAIL
  6
CONTINUOUS
 62
     5
 10
147.49564521326781
 20
252.7407788610783
 30
0.0
 40
4.9999998684588061
 50
180.0
 51
270.0
  0
LINE
  5
11C
  8
DETAIL
  6
CONTINUOUS
 62
     5
 10
147.49564521326781
 20
247.7407789926221
 30
0.0
 11
155.04911629275281
 21
247.7407789926221
 31
0.0
  0
ARC
  5
11D
  8
DETAIL
  6
CONTINUOUS
 62
     5
 10
155.04911629275281
 20
252.7407788610783
 30
0.0
 40
4.9999998684587821
 50
270.0
 51
0.0
  0
ARC
  5
11E
  8
DETAIL
  6
CONTINUOUS
 62
     5
 10
147.49564521326781
 20
408.00187130515047
 30
0.0
 40
4.9999998684587732
 50
90.0
 51
180.0
  0
LINE
  5
11F
  8
DETAIL
  6
CONTINUOUS
 62
     5
 10
180.99999985531301
 20
271.94427167470349
 30
0.0
 11
185.999999723781
 21
263.00000000000199
 31
0.0
  0
LINE
  5
120
  8
DETAIL
  6
CONTINUOUS
 62
     5
 10
170.00000014470601
 20
271.94427167470349
 30
0.0
 11
165.00000027623889
 21
263.00000000000199
 31
0.0
  0
LINE
  5
121
  8
DETAIL
  6
CONTINUOUS
 62
     5
 10
170.00000014470601
 20
254.055728325313
 30
0.0
 11
165.00000027623889
 21
263.00000000000199
 31
0.0
  0
LINE
  5
122
  8
DETAIL
  6
CONTINUOUS
 62
     5
 10
180.99999985531301
 20
254.055728325313
 30
0.0
 11
185.999999723781
 21
263.00000000000199
 31
0.0
  0
LINE
  5
123
  8
DETAIL
  6
CONTINUOUS
 62
     5
 10
180.99999985531301
 20
271.94427167470349
 30
0.0
 11
170.00000014470601
 21
271.94427167470349
 31
0.0
  0
LINE
  5
124
  8
DETAIL
  6
CONTINUOUS
 62
     5
 10
180.99999985531301
 20
254.055728325313
 30
0.0
 11
170.00000014470601
 21
254.055728325313
 31
0.0
  0
CIRCLE
  5
125
  8
DETAIL
  6
CONTINUOUS
 62
     5
 10
175.5
 20
263.00000000000199
 30
0.0
 40
17.999999526451639
  0
CIRCLE
  5
126
  8
DETAIL
  6
CONTINUOUS
 62
     5
 10
175.5
 20
263.00000000000199
 30
0.0
 40
14.999999605376249
  0
CIRCLE
  5
127
  8
DETAIL
  6
CONTINUOUS
 62
     5
 10
175.5
 20
263.00000000000199
 30
0.0
 40
14.999999605376249
  0
CIRCLE
  5
128
  8
DETAIL
  6
CONTINUOUS
 62
     5
 10
175.5
 20
263.00000000000199
 30
0.0
 40
17.999999526451639
  0
CIRCLE
  5
129
  8
DETAIL
  6
CONTINUOUS
 62
     5
 10
175.5
 20
263.00000000000199
 30
0.0
 40
4.759999999999998
  0
ARC
  5
12A
  8
DETAIL
  6
CONTINUOUS
 62
     5
 10
309.49700048612681
 20
408.00187130515047
 30
0.0
 40
4.9999998684586471
 50
0.0
 51
90.0
  0
LINE
  5
12B
  8
DETAIL
  6
CONTINUOUS
 62
     5
 10
246.06786196508389
 20
246.37587062064279
 30
0.0
 11
232.78403827221311
 21
246.37587062064279
 31
0.0
  0
ARC
  5
12C
  8
DETAIL
  6
CONTINUOUS
 62
     5
 10
307.00000069716287
 20
421.60000035254052
 30
0.0
 40
2.99999992107522
 50
180.0
 51
270.0
  0
ARC
  5
12D
  8
DETAIL
  6
CONTINUOUS
 62
     5
 10
307.00000069716287
 20
418.60000043146113
 30
0.0
 40
2.99999992107522
 50
180.0
 51
270.0
  0
LINE
  5
12E
  8
DETAIL
  6
CONTINUOUS
 62
     5
 10
304.00000077608382
 20
430.60000011576051
 30
0.0
 11
304.00000077608382
 21
418.60000043146113
 31
0.0
  0
LINE
  5
12F
  8
DETAIL
  6
CONTINUOUS
 62
     5
 10
382.49999960538111
 20
403.00000084186303
 30
0.0
 11
382.49999960538111
 21
195.0000063139853
 31
0.0
  0
LINE
  5
130
  8
DETAIL
  6
CONTINUOUS
 62
     5
 10
397.49999815843393
 20
199.00000620874749
 30
0.0
 11
397.49999815843393
 21
399.0000009470989
 31
0.0
  0
LINE
  5
131
  8
DETAIL
  6
CONTINUOUS
 62
     5
 10
437.49999815843478
 20
201.5000061429821
 30
0.0
 11
437.49999815843478
 21
396.50000101287719
 31
0.0
  0
LINE
  5
132
  8
DETAIL
  6
CONTINUOUS
 62
     5
 10
367.5
 20
435.0
 30
0.0
 11
367.5
 21
139.9999999999998
 31
0.0
  0
LINE
  5
133
  8
DETAIL
  6
CONTINUOUS
 62
     5
 10
397.49999815843393
 20
199.00000620874749
 30
0.0
 11
437.49999815843478
 21
201.5000061429821
 31
0.0
  0
ARC
  5
134
  8
DETAIL
  6
CONTINUOUS
 62
     5
 10
378.49999971060788
 20
195.0000063139853
 30
0.0
 40
3.9999998947670061
 50
270.0
 51
0.0
  0
LINE
  5
135
  8
DETAIL
  6
CONTINUOUS
 62
     5
 10
378.49999971060788
 20
191.0000064192117
 30
0.0
 11
367.5
 21
191.0000064192117
 31
0.0
  0
LINE
  5
136
  8
DETAIL
  6
CONTINUOUS
 62
     5
 10
397.49999815843393
 20
199.00000620874749
 30
0.0
 11
384.49999955276598
 21
199.00000620874749
 31
0.0
  0
ARC
  5
137
  8
DETAIL
  6
CONTINUOUS
 62
     5
 10
384.49999955276598
 20
197.0000062613617
 30
0.0
 40
1.9999999473835071
 50
90.0
 51
180.0
  0
LINE
  5
138
  8
DETAIL
  6
CONTINUOUS
 62
     5
 10
397.49999815843393
 20
399.0000009470989
 30
0.0
 11
437.49999815843478
 21
396.50000101287719
 31
0.0
  0
ARC
  5
139
  8
DETAIL
  6
CONTINUOUS
 62
     5
 10
378.49999971060788
 20
403.00000084186303
 30
0.0
 40
3.9999998947670061
 50
0.0
 51
90.0
  0
LINE
  5
13A
  8
DETAIL
  6
CONTINUOUS
 62
     5
 10
378.49999971060788
 20
407.00000073663603
 30
0.0
 11
367.5
 21
407.00000073663603
 31
0.0
  0
LINE
  5
13B
  8
DETAIL
  6
CONTINUOUS
 62
     5
 10
397.49999815843393
 20
399.0000009470989
 30
0.0
 11
384.49999955276598
 21
399.0000009470989
 31
0.0
  0
ARC
  5
13C
  8
DETAIL
  6
CONTINUOUS
 62
     5
 10
384.49999955276598
 20
401.00000089448628
 30
0.0
 40
1.999999947383587
 50
180.0
 51
270.0
  0
ARC
  5
13D
  8
DETAIL
  6
CONTINUOUS
 62
     5
 10
359.99999930281172
 20
421.60000035254052
 30
0.0
 40
2.999999921075263
 50
270.0
 51
0.0
  0
ARC
  5
13E
  8
DETAIL
  6
CONTINUOUS
 62
     5
 10
342.499999763218
 20
421.60000035254052
 30
0.0
 40
2.99999992107522
 50
180.0
 51
270.0
  0
ARC
  5
13F
  8
DETAIL
  6
CONTINUOUS
 62
     5
 10
324.5000002367567
 20
421.60000035254052
 30
0.0
 40
2.999999921075263
 50
270.0
 51
0.0
  0
LINE
  5
140
  8
DETAIL
  6
CONTINUOUS
 62
     5
 10
327.50000015783888
 20
430.60000011576051
 30
0.0
 11
327.50000015783888
 21
421.60000035254052
 31
0.0
  0
LINE
  5
141
  8
DETAIL
  6
CONTINUOUS
 62
     5
 10
339.49999984213781
 20
428.30000017627572
 30
0.0
 11
327.50000015783888
 21
428.30000017627572
 31
0.0
  0
LINE
  5
142
  8
DETAIL
  6
CONTINUOUS
 62
     5
 10
318.00000040777161
 20
415.6000005103906
 30
0.0
 11
318.00000040777161
 21
395.60000103655352
 31
0.0
  0
LINE
  5
143
  8
DETAIL
  6
CONTINUOUS
 62
     5
 10
321.00000032883099
 20
392.6000011154739
 30
0.0
 11
359.99999930281172
 21
392.6000011154739
 31
0.0
  0
ARC
  5
144
  8
DETAIL
  6
CONTINUOUS
 62
     5
 10
321.00000032883099
 20
395.60000103655352
 30
0.0
 40
2.99999992107522
 50
180.0
 51
270.0
  0
ARC
  5
145
  8
DETAIL
  6
CONTINUOUS
 62
     5
 10
359.99999930281172
 20
395.60000103655352
 30
0.0
 40
2.999999921075263
 50
270.0
 51
0.0
  0
LINE
  5
146
  8
DETAIL
  6
CONTINUOUS
 62
     5
 10
342.499999763218
 20
418.60000043146113
 30
0.0
 11
359.99999930281172
 21
418.60000043146539
 31
0.0
  0
LINE
  5
147
  8
DETAIL
  6
CONTINUOUS
 62
     5
 10
362.99999922389082
 20
430.60000011576051
 30
0.0
 11
362.99999922389082
 21
395.60000103655352
 31
0.0
  0
LINE
  5
148
  8
DETAIL
  6
CONTINUOUS
 62
     5
 10
339.49999984213781
 20
430.60000011576051
 30
0.0
 11
339.49999984213781
 21
421.60000035254052
 31
0.0
  0
LINE
  5
149
  8
NOTE
  6
CONTINUOUS
 62
     4
 10
464.49275705801972
 20
310.6715870709653
 30
0.0
 11
484.49275653184799
 21
310.6715870709653
 31
0.0
  0
LINE
  5
14A
  8
NOTE
  6
CONTINUOUS
 62
     4
 10
464.49275705801972
 20
330.67158654480062
 30
0.0
 11
484.49275653184799
 21
330.67158654480062
 31
0.0
  0
LINE
  5
14B
  8
NOTE
  6
CONTINUOUS
 62
     4
 10
464.49275705801972
 20
330.67158654480062
 30
0.0
 11
464.49275705801972
 21
310.6715870709653
 31
0.0
  0
LINE
  5
14C
  8
NOTE
  6
CONTINUOUS
 62
     4
 10
484.49275653184799
 20
310.6715870709653
 30
0.0
 11
484.49275653184799
 21
300.67158733405108
 31
0.0
  0
LINE
  5
14D
  8
NOTE
  6
CONTINUOUS
 62
     4
 10
484.49275653184799
 20
340.67158628171472
 30
0.0
 11
484.49275653184799
 21
330.67158654480062
 31
0.0
  0
LINE
  5
14E
  8
NOTE
  6
CONTINUOUS
 62
     4
 10
239.5
 20
213.39501804206711
 30
0.0
 11
239.5
 21
256.6049819579348
 31
0.0
  0
LINE
  5
14F
  8
NOTE
  6
CONTINUOUS
 62
     4
 10
261.10498195792502
 20
232.0000000263164
 30
0.0
 11
217.89501804205671
 21
232.0000000263164
 31
0.0
  0
LINE
  5
150
  8
NOTE
  6
CONTINUOUS
 62
     4
 10
175.5
 20
241.39501804206711
 30
0.0
 11
175.5
 21
284.60498195793491
 31
0.0
  0
LINE
  5
151
  8
NOTE
  6
CONTINUOUS
 62
     4
 10
197.10498195792479
 20
263.00000000000028
 30
0.0
 11
153.89501804205651
 21
263.00000000000028
 31
0.0
  0
LINE
  5
152
  8
NOTE
  6
CONTINUOUS
 62
     4
 10
175.5
 20
148.39501804206711
 30
0.0
 11
175.5
 21
191.60498195793491
 31
0.0
  0
LINE
  5
153
  8
NOTE
  6
CONTINUOUS
 62
     4
 10
197.10498195792479
 20
170.00000000000011
 30
0.0
 11
153.89501804205651
 21
170.00000000000011
 31
0.0
  0
LINE
  5
154
  8
NOTE
  6
CONTINUOUS
 62
     4
 10
97.596612988847042
 20
225.19322338231009
 30
0.0
 11
97.596612988847042
 21
268.4031872981779
 31
0.0
  0
LINE
  5
155
  8
NOTE
  6
CONTINUOUS
 62
     4
 10
119.2015949467727
 20
246.7982053402431
 30
0.0
 11
75.991631030904941
 21
246.7982053402431
 31
0.0
  0
LINE
  5
156
  8
NOTE
  6
CONTINUOUS
 62
     4
 10
94.500000000000014
 20
305.39501804206878
 30
0.0
 11
94.500000000000014
 21
348.60498195793679
 31
0.0
  0
LINE
  5
157
  8
NOTE
  6
CONTINUOUS
 62
     4
 10
116.10498195792481
 20
327.00000000000199
 30
0.0
 11
72.895018042057927
 21
327.00000000000199
 31
0.0
  0
LINE
  5
158
  8
NOTE
  6
CONTINUOUS
 62
     4
 10
-104.50000013152599
 20
183.39501804206901
 30
0.0
 11
-104.50000013152599
 21
226.6049819579367
 31
0.0
  0
LINE
  5
159
  8
NOTE
  6
CONTINUOUS
 62
     4
 10
-82.895018173599965
 20
205.0000000000019
 30
0.0
 11
-126.104982089468
 21
205.0000000000019
 31
0.0
  0
LINE
  5
15A
  8
NOTE
  6
CONTINUOUS
 62
     4
 10
-344.29999987372179
 20
183.39501804206901
 30
0.0
 11
-344.29999987372179
 21
226.6049819579367
 31
0.0
  0
LINE
  5
15B
  8
NOTE
  6
CONTINUOUS
 62
     4
 10
-322.69501791579597
 20
205.0000000000019
 30
0.0
 11
-365.90498183166397
 21
205.0000000000019
 31
0.0
  0
LINE
  5
15C
  8
NOTE
  6
CONTINUOUS
 62
     4
 10
333.49999999999812
 20
408.99501815782787
 30
0.0
 11
333.49999999999812
 21
452.2049820736957
 31
0.0
  0
LINE
  5
15D
  8
NOTE
  6
CONTINUOUS
 62
     4
 10
355.10498195792292
 20
430.60000011576051
 30
0.0
 11
311.89501804205582
 21
430.60000011576051
 31
0.0
  0
CIRCLE
  5
15E
  8
FIX
  6
CONTINUOUS
 62
    11
 10
333.49999999999812
 20
430.60000011576051
 30
0.0
 40
15.469521245178219
  0
LINE
  5
15F
  8
NOTE
  6
CONTINUOUS
 62
     4
 10
-336.50000000000091
 20
408.99501815782787
 30
0.0
 11
-336.50000000000091
 21
452.2049820736957
 31
0.0
  0
LINE
  5
160
  8
NOTE
  6
CONTINUOUS
 62
     4
 10
-314.89501804207521
 20
430.60000011576051
 30
0.0
 11
-358.10498195794202
 21
430.60000011576051
 31
0.0
  0
CIRCLE
  5
161
  8
FIX
  6
CONTINUOUS
 62
    11
 10
-336.50000000000091
 20
430.60000011576051
 30
0.0
 40
15.469521245178219
  0
LINE
  5
162
  8
SIZE
  6
CONTINUOUS
 62
    30
 10
367.5
 20
445.00000000000011
 30
0.0
 11
367.5
 21
972.04587994282156
 31
0.0
  0
LINE
  5
163
  8
SIZE
  6
CONTINUOUS
 62
    30
 10
-367.49999999999892
 20
445.00000000000011
 30
0.0
 11
-367.49999999999892
 21
972.04587994282156
 31
0.0
  0
LINE
  5
164
  8
SIZE
  6
CONTINUOUS
 62
    30
 10
367.5
 20
952.04587994282167
 30
0.0
 11
-367.49999999999892
 21
952.04587994282167
 31
0.0
  0
CIRCLE
  5
165
  8
SIZE
  6
CONTINUOUS
 62
    30
 10
367.5
 20
952.04587994282167
 30
0.0
 40
7.5
  0
CIRCLE
  5
166
  8
SIZE
  6
CONTINUOUS
 62
    30
 10
-367.49999999999892
 20
952.04587994282167
 30
0.0
 40
7.5
  0
TEXT
  5
167
  8
SIZE
  6
CONTINUOUS
 62
    30
 10
-57.857142857142343
 20
967.0458799428219
 30
0.0
 40
50.0
  1
735
 41
0.9
 72
     1
 11
0.0000000000005116
 21
967.0458799428219
 31
0.0
  0
POINT
  5
16A
  8
DEFPOINTS
  6
CONTINUOUS
 62
     7
 10
-367.49999999999892
 20
952.04587994282167
 30
0.0
  0
LINE
  5
16B
  8
SIZE
  6
CONTINUOUS
 62
    30
 10
367.5
 20
445.00000000000011
 30
0.0
 11
367.5
 21
972.04587994282156
 31
0.0
  0
LINE
  5
16C
  8
SIZE
  6
CONTINUOUS
 62
    30
 10
437.49999815843478
 20
420.68648394818052
 30
0.0
 11
437.49999815843478
 21
972.04587994282156
 31
0.0
  0
LINE
  5
16D
  8
SIZE
  6
CONTINUOUS
 62
    30
 10
367.5
 20
952.04587994282167
 30
0.0
 11
437.49999815843478
 21
952.04587994282167
 31
0.0
  0
LINE
  5
16E
  8
SIZE
  6
CONTINUOUS
 62
    30
 10
437.49999815843478
 20
952.04587994282167
 30
0.0
 11
570.35714101557767
 21
952.04587994282167
 31
0.0
  0
CIRCLE
  5
16F
  8
SIZE
  6
CONTINUOUS
 62
    30
 10
367.5
 20
952.04587994282167
 30
0.0
 40
7.5
  0
CIRCLE
  5
170
  8
SIZE
  6
CONTINUOUS
 62
    30
 10
437.49999815843478
 20
952.04587994282167
 30
0.0
 40
7.5
  0
TEXT
  5
171
  8
SIZE
  6
CONTINUOUS
 62
    30
 10
482.49999815843478
 20
967.0458799428219
 30
0.0
 40
50.0
  1
70
 41
0.9
 72
     1
 11
518.92856958700634
 21
967.0458799428219
 31
0.0
  0
POINT
  5
174
  8
DEFPOINTS
  6
CONTINUOUS
 62
     7
 10
437.49999815843478
 20
952.04587994282167
 30
0.0
  0
LINE
  5
175
  8
SIZE
  6
CONTINUOUS
 62
    30
 10
126.10498195792471
 20
327.00000000000199
 30
0.0
 11
608.88402271532095
 21
327.00000000000182
 31
0.0
  0
LINE
  5
176
  8
SIZE
  6
CONTINUOUS
 62
    30
 10
377.49999999999989
 20
435.0
 30
0.0
 11
608.88402271532095
 21
435.0
 31
0.0
  0
LINE
  5
177
  8
SIZE
  6
CONTINUOUS
 62
    30
 10
588.88402271532095
 20
327.00000000000182
 30
0.0
 11
588.88402271532095
 21
435.0
 31
0.0
  0
LINE
  5
178
  8
SIZE
  6
CONTINUOUS
 62
    30
 10
588.88402271532095
 20
435.0
 30
0.0
 11
588.88402271532095
 21
602.14285714285745
 31
0.0
  0
CIRCLE
  5
179
  8
SIZE
  6
CONTINUOUS
 62
    30
 10
588.88402271532095
 20
327.00000000000182
 30
0.0
 40
7.5
  0
CIRCLE
  5
17A
  8
SIZE
  6
CONTINUOUS
 62
    30
 10
588.88402271532095
 20
435.0
 30
0.0
 40
7.5
  0
TEXT
  5
17B
  8
SIZE
  6
CONTINUOUS
 62
    30
 10
573.88402271532073
 20
480.00000000000023
 30
0.0
 40
50.0
  1
108
 50
90.0
 41
0.9
 72
     1
 11
573.88402271532073
 21
533.57142857142878
 31
0.0
  0
POINT
  5
17C
  8
DEFPOINTS
  6
CONTINUOUS
 62
     7
 10
116.10498195792481
 20
327.00000000000199
 30
0.0
  0
POINT
  5
17E
  8
DEFPOINTS
  6
CONTINUOUS
 62
     7
 10
588.88402271532095
 20
435.0
 30
0.0
  0
LINE
  5
17F
  8
SIZE
  6
CONTINUOUS
 62
    30
 10
367.5
 20
129.0000000263164
 30
0.0
 11
367.5
 21
-307.31033460302081
 31
0.0
  0
LINE
  5
180
  8
SIZE
  6
CONTINUOUS
 62
    30
 10
133.50000000000179
 20
-9.0000000263178102
 30
0.0
 11
133.50000000000171
 21
-307.31033460302081
 31
0.0
  0
LINE
  5
181
  8
SIZE
  6
CONTINUOUS
 62
    30
 10
367.5
 20
-287.31033460302081
 30
0.0
 11
133.50000000000171
 21
-287.31033460302081
 31
0.0
  0
CIRCLE
  5
182
  8
SIZE
  6
CONTINUOUS
 62
    30
 10
367.5
 20
-287.31033460302081
 30
0.0
 40
7.5
  0
CIRCLE
  5
183
  8
SIZE
  6
CONTINUOUS
 62
    30
 10
133.50000000000171
 20
-287.31033460302081
 30
0.0
 40
7.5
  0
TEXT
  5
184
  8
SIZE
  6
CONTINUOUS
 62
    30
 10
191.57142857142941
 20
-272.31033460302081
 30
0.0
 40
50.0
  1
234
 41
0.9
 72
     1
 11
250.50000000000091
 21
-272.31033460302081
 31
0.0
  0
POINT
  5
187
  8
DEFPOINTS
  6
CONTINUOUS
 62
     7
 10
133.50000000000171
 20
-287.31033460302081
 30
0.0
  0
LINE
  5
188
  8
SIZE
  6
CONTINUOUS
 62
    30
 10
133.50000000000179
 20
-9.0000000263178102
 30
0.0
 11
133.50000000000171
 21
-307.31033460302081
 31
0.0
  0
LINE
  5
189
  8
SIZE
  6
CONTINUOUS
 62
    30
 10
-496.49998342581108
 20
-9.0000000263178102
 30
0.0
 11
-496.49998342581108
 21
-307.31033460302081
 31
0.0
  0
LINE
  5
18A
  8
SIZE
  6
CONTINUOUS
 62
    30
 10
133.50000000000171
 20
-287.31033460302081
 30
0.0
 11
-496.49998342581108
 21
-287.31033460302081
 31
0.0
  0
CIRCLE
  5
18B
  8
SIZE
  6
CONTINUOUS
 62
    30
 10
133.50000000000171
 20
-287.31033460302081
 30
0.0
 40
7.5
  0
CIRCLE
  5
18C
  8
SIZE
  6
CONTINUOUS
 62
    30
 10
-496.49998342581108
 20
-287.31033460302081
 30
0.0
 40
7.5
  0
TEXT
  5
18D
  8
SIZE
  6
CONTINUOUS
 62
    30
 10
-443.78570599861899
 20
-272.31033460302081
 30
0.0
 40
50.0
  1
630（天井開口寸法）
 41
0.9
 72
     1
 11
-181.4999917129048
 21
-272.31033460302081
 31
0.0
  0
POINT
  5
190
  8
DEFPOINTS
  6
CONTINUOUS
 62
     7
 10
-496.49998342581108
 20
-287.31033460302081
 30
0.0
  0
LINE
  5
191
  8
SIZE
  6
CONTINUOUS
 62
    30
 10
133.50000000000179
 20
-9.0000000263178102
 30
0.0
 11
133.50000000000179
 21
-129.31454373065449
 31
0.0
  0
LINE
  5
192
  8
SIZE
  6
CONTINUOUS
 62
    30
 10
143.49999973691411
 20
-10.99999997368352
 30
0.0
 11
143.49999973691411
 21
-129.31454373065449
 31
0.0
  0
LINE
  5
193
  8
SIZE
  6
CONTINUOUS
 62
    30
 10
133.50000000000179
 20
-109.31454373065451
 30
0.0
 11
103.5000000000018
 21
-109.31454373065451
 31
0.0
  0
LINE
  5
194
  8
SIZE
  6
CONTINUOUS
 62
    30
 10
143.49999973691411
 20
-109.31454373065451
 30
0.0
 11
297.78571402262838
 21
-109.31454373065451
 31
0.0
  0
LINE
  5
195
  8
SIZE
  6
CONTINUOUS
 62
    30
 10
133.50000000000179
 20
-109.31454373065451
 30
0.0
 11
143.49999973691411
 21
-109.31454373065451
 31
0.0
  0
CIRCLE
  5
196
  8
SIZE
  6
CONTINUOUS
 62
    30
 10
133.50000000000179
 20
-109.31454373065451
 30
0.0
 40
7.5
  0
CIRCLE
  5
197
  8
SIZE
  6
CONTINUOUS
 62
    30
 10
143.49999973691411
 20
-109.31454373065451
 30
0.0
 40
7.5
  0
TEXT
  5
198
  8
SIZE
  6
CONTINUOUS
 62
    30
 10
218.49999973691399
 20
-94.314543730654563
 30
0.0
 40
50.0
  1
10
 41
0.9
 72
     1
 11
250.64285687977119
 21
-94.314543730654563
 31
0.0
  0
POINT
  5
19A
  8
DEFPOINTS
  6
CONTINUOUS
 62
     7
 10
143.49999973691411
 20
-1.999999973682288
 30
0.0
  0
POINT
  5
19B
  8
DEFPOINTS
  6
CONTINUOUS
 62
     7
 10
143.49999973691411
 20
-109.31454373065451
 30
0.0
  0
LINE
  5
19C
  8
SIZE
  6
CONTINUOUS
 62
    30
 10
-496.49998342581108
 20
-9.0000000263178102
 30
0.0
 11
-496.49998342581108
 21
-307.31033460302081
 31
0.0
  0
LINE
  5
19D
  8
SIZE
  6
CONTINUOUS
 62
    30
 10
-506.49998316272678
 20
-10.99999997368352
 30
0.0
 11
-506.49998316272678
 21
-307.31033460302081
 31
0.0
  0
LINE
  5
19E
  8
SIZE
  6
CONTINUOUS
 62
    30
 10
-496.49998342581108
 20
-287.31033460302081
 30
0.0
 11
-466.49998342581142
 21
-287.31033460302081
 31
0.0
  0
LINE
  5
19F
  8
SIZE
  6
CONTINUOUS
 62
    30
 10
-506.49998316272678
 20
-287.31033460302081
 30
0.0
 11
-660.78569744844128
 21
-287.31033460302081
 31
0.0
  0
LINE
  5
1A0
  8
SIZE
  6
CONTINUOUS
 62
    30
 10
-496.49998342581108
 20
-287.31033460302081
 30
0.0
 11
-506.49998316272678
 21
-287.31033460302081
 31
0.0
  0
CIRCLE
  5
1A1
  8
SIZE
  6
CONTINUOUS
 62
    30
 10
-496.49998342581108
 20
-287.31033460302081
 30
0.0
 40
7.5
  0
CIRCLE
  5
1A2
  8
SIZE
  6
CONTINUOUS
 62
    30
 10
-506.49998316272678
 20
-287.31033460302081
 30
0.0
 40
7.5
  0
TEXT
  5
1A3
  8
SIZE
  6
CONTINUOUS
 62
    30
 10
-645.78569744844106
 20
-272.31033460302081
 30
0.0
 40
50.0
  1
10
 41
0.9
 72
     1
 11
-613.64284030558395
 21
-272.31033460302081
 31
0.0
  0
POINT
  5
1A5
  8
DEFPOINTS
  6
CONTINUOUS
 62
     7
 10
-506.49998316272678
 20
-0.9999999736835359
 30
0.0
  0
POINT
  5
1A6
  8
DEFPOINTS
  6
CONTINUOUS
 62
     7
 10
-506.49998316272678
 20
-287.31033460302081
 30
0.0
  0
LINE
  5
1A7
  8
SIZE
  6
CONTINUOUS
 62
    30
 10
143.49999973691411
 20
-10.99999997368352
 30
0.0
 11
143.49999973691411
 21
-214.9287191630452
 31
0.0
  0
LINE
  5
1A8
  8
SIZE
  6
CONTINUOUS
 62
    30
 10
-506.49998316272678
 20
-10.99999997368352
 30
0.0
 11
-506.49998316272678
 21
-214.9287191630452
 31
0.0
  0
LINE
  5
1A9
  8
SIZE
  6
CONTINUOUS
 62
    30
 10
143.49999973691411
 20
-194.9287191630452
 30
0.0
 11
-506.49998316272678
 21
-194.9287191630452
 31
0.0
  0
CIRCLE
  5
1AA
  8
SIZE
  6
CONTINUOUS
 62
    30
 10
143.49999973691411
 20
-194.9287191630452
 30
0.0
 40
7.5
  0
CIRCLE
  5
1AB
  8
SIZE
  6
CONTINUOUS
 62
    30
 10
-506.49998316272678
 20
-194.9287191630452
 30
0.0
 40
7.5
  0
TEXT
  5
1AC
  8
SIZE
  6
CONTINUOUS
 62
    30
 10
-239.35713457004931
 20
-179.9287191630452
 30
0.0
 40
50.0
  1
650
 41
0.9
 72
     1
 11
-181.49999171290639
 21
-179.9287191630452
 31
0.0
  0
POINT
  5
1AD
  8
DEFPOINTS
  6
CONTINUOUS
 62
     7
 10
143.49999973691411
 20
-1.999999973682288
 30
0.0
  0
POINT
  5
1AE
  8
DEFPOINTS
  6
CONTINUOUS
 62
     7
 10
-506.49998316272678
 20
-0.9999999736835359
 30
0.0
  0
POINT
  5
1AF
  8
DEFPOINTS
  6
CONTINUOUS
 62
     7
 10
-506.49998316272678
 20
-194.9287191630452
 30
0.0
  0
LINE
  5
1B0
  8
SIZE
  6
CONTINUOUS
 62
    30
 10
-309.50246921559921
 20
421.99999999999812
 30
0.0
 11
-529.94079184946804
 21
421.99999999999812
 31
0.0
  0
LINE
  5
1B1
  8
SIZE
  6
CONTINUOUS
 62
    30
 10
-377.49999999999909
 20
435.0
 30
0.0
 11
-529.94079184946804
 21
435.0
 31
0.0
  0
LINE
  5
1B2
  8
SIZE
  6
CONTINUOUS
 62
    30
 10
-509.94079184946793
 20
421.99999999999812
 30
0.0
 11
-509.94079184946793
 21
391.99999999999829
 31
0.0
  0
LINE
  5
1B3
  8
SIZE
  6
CONTINUOUS
 62
    30
 10
-509.94079184946793
 20
435.0
 30
0.0
 11
-509.94079184946793
 21
589.28571428571422
 31
0.0
  0
LINE
  5
1B4
  8
SIZE
  6
CONTINUOUS
 62
    30
 10
-509.94079184946793
 20
421.99999999999812
 30
0.0
 11
-509.94079184946793
 21
435.0
 31
0.0
  0
CIRCLE
  5
1B5
  8
SIZE
  6
CONTINUOUS
 62
    30
 10
-509.94079184946793
 20
421.99999999999812
 30
0.0
 40
7.5
  0
CIRCLE
  5
1B6
  8
SIZE
  6
CONTINUOUS
 62
    30
 10
-509.94079184946793
 20
435.0
 30
0.0
 40
7.5
  0
TEXT
  5
1B7
  8
SIZE
  6
CONTINUOUS
 62
    30
 10
-524.94079184946816
 20
510.0000000000004
 30
0.0
 40
50.0
  1
13
 50
90.0
 41
0.9
 72
     1
 11
-524.94079184946816
 21
542.14285714285757
 31
0.0
  0
POINT
  5
1B8
  8
DEFPOINTS
  6
CONTINUOUS
 62
     7
 10
-299.50246921559932
 20
421.99999999999812
 30
0.0
  0
POINT
  5
1BA
  8
DEFPOINTS
  6
CONTINUOUS
 62
     7
 10
-509.94079184946793
 20
435.0
 30
0.0
  0
LINE
  5
1BB
  8
SIZE
  6
CONTINUOUS
 62
    30
 10
-309.50246921559921
 20
421.99999999999812
 30
0.0
 11
-529.94079184946781
 21
421.99999999999812
 31
0.0
  0
LINE
  5
1BC
  8
SIZE
  6
CONTINUOUS
 62
    30
 10
-348.90000001578568
 20
172.00000000000199
 30
0.0
 11
-529.94079184946804
 21
172.00000000000199
 31
0.0
  0
LINE
  5
1BD
  8
SIZE
  6
CONTINUOUS
 62
    30
 10
-509.94079184946793
 20
421.99999999999812
 30
0.0
 11
-509.94079184946793
 21
172.00000000000199
 31
0.0
  0
CIRCLE
  5
1BE
  8
SIZE
  6
CONTINUOUS
 62
    30
 10
-509.94079184946793
 20
421.99999999999812
 30
0.0
 40
7.5
  0
CIRCLE
  5
1BF
  8
SIZE
  6
CONTINUOUS
 62
    30
 10
-509.94079184946793
 20
172.00000000000199
 30
0.0
 40
7.5
  0
TEXT
  5
1C0
  8
SIZE
  6
CONTINUOUS
 62
    30
 10
-524.94079184946804
 20
239.14285714285739
 30
0.0
 40
50.0
  1
250
 50
90.0
 41
0.9
 72
     1
 11
-524.94079184946804
 21
297.00000000000028
 31
0.0
  0
POINT
  5
1C1
  8
DEFPOINTS
  6
CONTINUOUS
 62
     7
 10
-299.50246921559932
 20
421.99999999999812
 30
0.0
  0
POINT
  5
1C3
  8
DEFPOINTS
  6
CONTINUOUS
 62
     7
 10
-509.94079184946793
 20
172.00000000000199
 30
0.0
  0
LINE
  5
1C4
  8
SIZE
  6
CONTINUOUS
 62
    30
 10
559.18647852868719
 20
299.00000357792851
 30
0.0
 11
702.69548852843013
 21
299.00000357792851
 31
0.0
  0
LINE
  5
1C5
  8
SIZE
  6
CONTINUOUS
 62
    30
 10
377.49999999999989
 20
435.0
 30
0.0
 11
702.69548852843013
 21
435.0
 31
0.0
  0
LINE
  5
1C6
  8
SIZE
  6
CONTINUOUS
 62
    30
 10
682.69548852843013
 20
299.00000357792851
 30
0.0
 11
682.69548852843013
 21
435.0
 31
0.0
  0
CIRCLE
  5
1C7
  8
SIZE
  6
CONTINUOUS
 62
    30
 10
682.69548852843013
 20
299.00000357792851
 30
0.0
 40
7.5
  0
CIRCLE
  5
1C8
  8
SIZE
  6
CONTINUOUS
 62
    30
 10
682.69548852843013
 20
435.0
 30
0.0
 40
7.5
  0
TEXT
  5
1C9
  8
SIZE
  6
CONTINUOUS
 62
    30
 10
667.69548852843002
 20
314.5000017889646
 30
0.0
 40
50.0
  1
136
 50
90.0
 41
0.9
 72
     1
 11
667.69548852843002
 21
367.0000017889646
 31
0.0
  0
POINT
  5
1CA
  8
DEFPOINTS
  6
CONTINUOUS
 62
     7
 10
549.18647852868685
 20
299.00000357792851
 30
0.0
  0
POINT
  5
1CC
  8
DEFPOINTS
  6
CONTINUOUS
 62
     7
 10
682.69548852843013
 20
435.0
 30
0.0
  0
LINE
  5
1CD
  8
SIZE
  6
CONTINUOUS
 62
    30
 10
377.49999999999989
 20
435.0
 30
0.0
 11
794.94001809815472
 21
435.0
 31
0.0
  0
LINE
  5
1CE
  8
SIZE
  6
CONTINUOUS
 62
    30
 10
207.10498195792471
 20
263.00000000000028
 30
0.0
 11
794.94001809815495
 21
262.99999999999989
 31
0.0
  0
LINE
  5
1CF
  8
SIZE
  6
CONTINUOUS
 62
    30
 10
774.94001809815472
 20
435.0
 30
0.0
 11
774.94001809815472
 21
262.99999999999989
 31
0.0
  0
CIRCLE
  5
1D0
  8
SIZE
  6
CONTINUOUS
 62
    30
 10
774.94001809815472
 20
435.0
 30
0.0
 40
7.5
  0
CIRCLE
  5
1D1
  8
SIZE
  6
CONTINUOUS
 62
    30
 10
774.94001809815472
 20
262.99999999999989
 30
0.0
 40
7.5
  0
TEXT
  5
1D2
  8
SIZE
  6
CONTINUOUS
 62
    30
 10
759.9400180981545
 20
295.42857142857167
 30
0.0
 40
50.0
  1
172
 50
90.0
 41
0.9
 72
     1
 11
759.9400180981545
 21
349.00000000000023
 31
0.0
  0
POINT
  5
1D4
  8
DEFPOINTS
  6
CONTINUOUS
 62
     7
 10
197.10498195792479
 20
263.00000000000028
 30
0.0
  0
POINT
  5
1D5
  8
DEFPOINTS
  6
CONTINUOUS
 62
     7
 10
774.94001809815472
 20
262.99999999999989
 30
0.0
  0
LINE
  5
1D6
  8
SIZE
  6
CONTINUOUS
 62
    30
 10
207.10498195792471
 20
263.00000000000028
 30
0.0
 11
794.94001809815495
 21
262.99999999999989
 31
0.0
  0
LINE
  5
1D7
  8
SIZE
  6
CONTINUOUS
 62
    30
 10
271.10498195792502
 20
235.0000000000002
 30
0.0
 11
794.94001809815472
 21
235.0
 31
0.0
  0
LINE
  5
1D8
  8
SIZE
  6
CONTINUOUS
 62
    30
 10
774.94001809815495
 20
262.99999999999989
 30
0.0
 11
774.94001809815495
 21
292.99999999999989
 31
0.0
  0
LINE
  5
1D9
  8
SIZE
  6
CONTINUOUS
 62
    30
 10
774.94001809815472
 20
235.0
 30
0.0
 11
774.94001809815472
 21
72.142857142857224
 31
0.0
  0
LINE
  5
1DA
  8
SIZE
  6
CONTINUOUS
 62
    30
 10
774.94001809815495
 20
262.99999999999989
 30
0.0
 11
774.94001809815472
 21
235.0
 31
0.0
  0
CIRCLE
  5
1DB
  8
SIZE
  6
CONTINUOUS
 62
    30
 10
774.94001809815495
 20
262.99999999999989
 30
0.0
 40
7.5
  0
CIRCLE
  5
1DC
  8
SIZE
  6
CONTINUOUS
 62
    30
 10
774.94001809815472
 20
235.0
 30
0.0
 40
7.5
  0
TEXT
  5
1DD
  8
SIZE
  6
CONTINUOUS
 62
    30
 10
759.94001809815472
 20
87.142857142857167
 30
0.0
 40
50.0
  1
28
 50
90.0
 41
0.9
 72
     1
 11
759.94001809815472
 21
123.5714285714285
 31
0.0
  0
POINT
  5
1DE
  8
DEFPOINTS
  6
CONTINUOUS
 62
     7
 10
197.10498195792479
 20
263.00000000000028
 30
0.0
  0
POINT
  5
1DF
  8
DEFPOINTS
  6
CONTINUOUS
 62
     7
 10
261.10498195792502
 20
232.0000000263164
 30
0.0
  0
POINT
  5
1E0
  8
DEFPOINTS
  6
CONTINUOUS
 62
     7
 10
774.94001809815472
 20
235.0
 30
0.0
  0
LINE
  5
1E1
  8
SIZE
  6
CONTINUOUS
 62
    30
 10
357.5
 20
435.0
 30
0.0
 11
-53.063611811404321
 21
435.0
 31
0.0
  0
LINE
  5
1E2
  8
SIZE
  6
CONTINUOUS
 62
    30
 10
143.89501804205651
 20
170.00000000000011
 30
0.0
 11
-53.063611811404357
 21
170.00000000000011
 31
0.0
  0
LINE
  5
1E3
  8
SIZE
  6
CONTINUOUS
 62
    30
 10
-33.0636118114043
 20
435.0
 30
0.0
 11
-33.063611811404371
 21
170.00000000000011
 31
0.0
  0
CIRCLE
  5
1E4
  8
SIZE
  6
CONTINUOUS
 62
    30
 10
-33.0636118114043
 20
435.0
 30
0.0
 40
7.5
  0
CIRCLE
  5
1E5
  8
SIZE
  6
CONTINUOUS
 62
    30
 10
-33.063611811404371
 20
170.00000000000011
 30
0.0
 40
7.5
  0
TEXT
  5
1E6
  8
SIZE
  6
CONTINUOUS
 62
    30
 10
-48.0636118114044
 20
244.64285714285739
 30
0.0
 40
50.0
  1
265
 50
90.0
 41
0.9
 72
     1
 11
-48.0636118114044
 21
302.50000000000028
 31
0.0
  0
POINT
  5
1E8
  8
DEFPOINTS
  6
CONTINUOUS
 62
     7
 10
153.89501804205651
 20
170.00000000000011
 30
0.0
  0
POINT
  5
1E9
  8
DEFPOINTS
  6
CONTINUOUS
 62
     7
 10
-33.063611811404371
 20
170.00000000000011
 30
0.0
  0
LINE
  5
1EA
  8
NOTE
  6
CONTINUOUS
 62
     4
 10
437.49999815843478
 20
410.68648394818052
 30
0.0
 11
437.49999815843478
 21
187.3135232076767
 31
0.0
  0
LINE
  5
1EB
  8
NOTE
  6
CONTINUOUS
 62
     4
 10
325.81351778818288
 20
299.00000357792851
 30
0.0
 11
549.18647852868685
 21
299.00000357792851
 31
0.0
  0
LINE
  5
1EC
  8
SIZE
  6
CONTINUOUS
 62
    30
 10
175.5
 20
135.39501806838339
 30
0.0
 11
175.5
 21
38.489853745156559
 31
0.0
  0
LINE
  5
1ED
  8
SIZE
  6
CONTINUOUS
 62
    30
 10
367.5
 20
129.0000000263164
 30
0.0
 11
367.5
 21
38.489853745156559
 31
0.0
  0
LINE
  5
1EE
  8
SIZE
  6
CONTINUOUS
 62
    30
 10
175.5
 20
58.489853745156559
 30
0.0
 11
367.5
 21
58.489853745156559
 31
0.0
  0
CIRCLE
  5
1EF
  8
SIZE
  6
CONTINUOUS
 62
    30
 10
175.5
 20
58.489853745156559
 30
0.0
 40
7.5
  0
CIRCLE
  5
1F0
  8
SIZE
  6
CONTINUOUS
 62
    30
 10
367.5
 20
58.489853745156559
 30
0.0
 40
7.5
  0
TEXT
  5
1F1
  8
SIZE
  6
CONTINUOUS
 62
    30
 10
217.9285714285713
 20
73.48985374515658
 30
0.0
 40
50.0
  1
192
 41
0.9
 72
     1
 11
271.49999999999989
 21
73.48985374515658
 31
0.0
  0
POINT
  5
1F2
  8
DEFPOINTS
  6
CONTINUOUS
 62
     7
 10
175.5
 20
148.39501804206711
 30
0.0
  0
POINT
  5
1F4
  8
DEFPOINTS
  6
CONTINUOUS
 62
     7
 10
367.5
 20
58.489853745156559
 30
0.0
  0
LINE
  5
1F5
  8
SIZE
  6
CONTINUOUS
 62
    30
 10
239.5
 20
266.60498195793502
 30
0.0
 11
239.5
 21
501.61346882155158
 31
0.0
  0
LINE
  5
1F6
  8
SIZE
  6
CONTINUOUS
 62
    30
 10
367.5
 20
445.00000000000011
 30
0.0
 11
367.5
 21
501.61346882155158
 31
0.0
  0
LINE
  5
1F7
  8
SIZE
  6
CONTINUOUS
 62
    30
 10
239.5
 20
481.61346882155169
 30
0.0
 11
367.5
 21
481.61346882155169
 31
0.0
  0
LINE
  5
1F8
  8
SIZE
  6
CONTINUOUS
 62
    30
 10
303.5
 20
481.61346882155169
 30
0.0
 11
317.88517752115968
 21
619.97321645285251
 31
0.0
  0
LINE
  5
1F9
  8
SIZE
  6
CONTINUOUS
 62
    30
 10
317.88517752115968
 20
619.97321645285251
 30
0.0
 11
180.74232037830271
 21
619.97321645285251
 31
0.0
  0
TEXT
  5
1FA
  8
SIZE
  6
CONTINUOUS
 62
    30
 10
195.74232037830271
 20
634.97321645285251
 30
0.0
 40
50.0
  1
128
 41
0.9
 72
     1
 11
249.31374894973129
 21
634.97321645285251
 31
0.0
  0
CIRCLE
  5
1FB
  8
SIZE
  6
CONTINUOUS
 62
    30
 10
239.5
 20
481.61346882155169
 30
0.0
 40
7.5
  0
CIRCLE
  5
1FC
  8
SIZE
  6
CONTINUOUS
 62
    30
 10
367.5
 20
481.61346882155169
 30
0.0
 40
7.5
  0
POINT
  5
1FD
  8
DEFPOINTS
  6
CONTINUOUS
 62
     7
 10
239.5
 20
256.6049819579348
 30
0.0
  0
POINT
  5
1FF
  8
DEFPOINTS
  6
CONTINUOUS
 62
     7
 10
367.5
 20
481.61346882155169
 30
0.0
  0
LINE
  5
200
  8
SIZE
  6
CONTINUOUS
 62
    30
 10
239.5
 20
266.60498195793502
 30
0.0
 11
239.5
 21
501.61346882155158
 31
0.0
  0
LINE
  5
201
  8
SIZE
  6
CONTINUOUS
 62
    30
 10
175.5
 20
294.60498195793508
 30
0.0
 11
175.5
 21
501.61346882155158
 31
0.0
  0
LINE
  5
202
  8
SIZE
  6
CONTINUOUS
 62
    30
 10
239.5
 20
481.61346882155169
 30
0.0
 11
175.5
 21
481.61346882155169
 31
0.0
  0
LINE
  5
203
  8
SIZE
  6
CONTINUOUS
 62
    30
 10
207.5
 20
481.61346882155169
 30
0.0
 11
218.8111682172179
 21
547.55139699593371
 31
0.0
  0
LINE
  5
204
  8
SIZE
  6
CONTINUOUS
 62
    30
 10
218.8111682172179
 20
547.55139699593371
 30
0.0
 11
113.8111682172179
 21
547.55139699593371
 31
0.0
  0
TEXT
  5
205
  8
SIZE
  6
CONTINUOUS
 62
    30
 10
128.8111682172179
 20
562.55139699593371
 30
0.0
 40
50.0
  1
64
 41
0.9
 72
     1
 11
166.3111682172179
 21
562.55139699593371
 31
0.0
  0
CIRCLE
  5
206
  8
SIZE
  6
CONTINUOUS
 62
    30
 10
239.5
 20
481.61346882155169
 30
0.0
 40
7.5
  0
CIRCLE
  5
207
  8
SIZE
  6
CONTINUOUS
 62
    30
 10
175.5
 20
481.61346882155169
 30
0.0
 40
7.5
  0
POINT
  5
208
  8
DEFPOINTS
  6
CONTINUOUS
 62
     7
 10
239.5
 20
256.6049819579348
 30
0.0
  0
POINT
  5
209
  8
DEFPOINTS
  6
CONTINUOUS
 62
     7
 10
175.5
 20
284.60498195793491
 30
0.0
  0
POINT
  5
20A
  8
DEFPOINTS
  6
CONTINUOUS
 62
     7
 10
175.5
 20
481.61346882155169
 30
0.0
  0
LINE
  5
20B
  8
SIZE
  6
CONTINUOUS
 62
    30
 10
367.5
 20
445.00000000000011
 30
0.0
 11
367.5
 21
719.2134453908202
 31
0.0
  0
LINE
  5
20C
  8
SIZE
  6
CONTINUOUS
 62
    30
 10
94.500000000000014
 20
358.60498195793679
 30
0.0
 11
94.500000000000014
 21
719.2134453908202
 31
0.0
  0
LINE
  5
20D
  8
SIZE
  6
CONTINUOUS
 62
    30
 10
367.5
 20
699.21344539082031
 30
0.0
 11
94.500000000000014
 21
699.21344539082031
 31
0.0
  0
CIRCLE
  5
20E
  8
SIZE
  6
CONTINUOUS
 62
    30
 10
367.5
 20
699.21344539082031
 30
0.0
 40
7.5
  0
CIRCLE
  5
20F
  8
SIZE
  6
CONTINUOUS
 62
    30
 10
94.500000000000014
 20
699.21344539082031
 30
0.0
 40
7.5
  0
TEXT
  5
210
  8
SIZE
  6
CONTINUOUS
 62
    30
 10
173.14285714285711
 20
714.21344539082031
 30
0.0
 40
50.0
  1
273
 41
0.9
 72
     1
 11
231.0
 21
714.21344539082031
 31
0.0
  0
POINT
  5
212
  8
DEFPOINTS
  6
CONTINUOUS
 62
     7
 10
94.500000000000014
 20
348.60498195793679
 30
0.0
  0
POINT
  5
213
  8
DEFPOINTS
  6
CONTINUOUS
 62
     7
 10
94.500000000000014
 20
699.21344539082031
 30
0.0
  0
LINE
  5
214
  8
SIZE
  6
CONTINUOUS
 62
    30
 10
367.5
 20
445.00000000000011
 30
0.0
 11
367.5
 21
886.72841190358122
 31
0.0
  0
LINE
  5
215
  8
SIZE
  6
CONTINUOUS
 62
    30
 10
-109.5000000000018
 20
431.99999999999812
 30
0.0
 11
-109.50000000000171
 21
886.72841190358122
 31
0.0
  0
LINE
  5
216
  8
SIZE
  6
CONTINUOUS
 62
    30
 10
367.5
 20
866.72841190358099
 30
0.0
 11
-109.50000000000171
 21
866.72841190358099
 31
0.0
  0
CIRCLE
  5
217
  8
SIZE
  6
CONTINUOUS
 62
    30
 10
367.5
 20
866.72841190358099
 30
0.0
 40
7.5
  0
CIRCLE
  5
218
  8
SIZE
  6
CONTINUOUS
 62
    30
 10
-109.50000000000171
 20
866.72841190358099
 30
0.0
 40
7.5
  0
TEXT
  5
219
  8
SIZE
  6
CONTINUOUS
 62
    30
 10
71.142857142856158
 20
881.7284119035811
 30
0.0
 40
50.0
  1
477
 41
0.9
 72
     1
 11
128.99999999999901
 21
881.7284119035811
 31
0.0
  0
POINT
  5
21B
  8
DEFPOINTS
  6
CONTINUOUS
 62
     7
 10
-109.5000000000018
 20
421.99999999999812
 30
0.0
  0
POINT
  5
21C
  8
DEFPOINTS
  6
CONTINUOUS
 62
     7
 10
-109.50000000000171
 20
866.72841190358099
 30
0.0
  0
LINE
  5
21D
  8
SIZE
  6
CONTINUOUS
 62
    30
 10
-109.5000000000018
 20
431.99999999999812
 30
0.0
 11
-109.50000000000171
 21
886.72841190358122
 31
0.0
  0
LINE
  5
21E
  8
SIZE
  6
CONTINUOUS
 62
    30
 10
-339.50000000000182
 20
277.99999747440432
 30
0.0
 11
-339.50000000000171
 21
886.72841190358122
 31
0.0
  0
LINE
  5
21F
  8
SIZE
  6
CONTINUOUS
 62
    30
 10
-109.50000000000171
 20
866.72841190358099
 30
0.0
 11
-339.50000000000171
 21
866.72841190358099
 31
0.0
  0
CIRCLE
  5
220
  8
SIZE
  6
CONTINUOUS
 62
    30
 10
-109.50000000000171
 20
866.72841190358099
 30
0.0
 40
7.5
  0
CIRCLE
  5
221
  8
SIZE
  6
CONTINUOUS
 62
    30
 10
-339.50000000000171
 20
866.72841190358099
 30
0.0
 40
7.5
  0
TEXT
  5
222
  8
SIZE
  6
CONTINUOUS
 62
    30
 10
-282.35714285714448
 20
881.7284119035811
 30
0.0
 40
50.0
  1
230
 41
0.9
 72
     1
 11
-224.50000000000171
 21
881.7284119035811
 31
0.0
  0
POINT
  5
223
  8
DEFPOINTS
  6
CONTINUOUS
 62
     7
 10
-109.5000000000018
 20
421.99999999999812
 30
0.0
  0
POINT
  5
224
  8
DEFPOINTS
  6
CONTINUOUS
 62
     7
 10
-339.50000000000182
 20
267.9999974744041
 30
0.0
  0
POINT
  5
225
  8
DEFPOINTS
  6
CONTINUOUS
 62
     7
 10
-339.50000000000171
 20
866.72841190358099
 30
0.0
  0
LINE
  5
226
  8
SIZE
  6
CONTINUOUS
 62
    30
 10
-367.49999999999892
 20
445.00000000000011
 30
0.0
 11
-367.49999999999892
 21
972.04587994282156
 31
0.0
  0
LINE
  5
227
  8
SIZE
  6
CONTINUOUS
 62
    30
 10
-388.49999999999892
 20
437.18832948139601
 30
0.0
 11
-388.49999999999892
 21
972.04587994282178
 31
0.0
  0
LINE
  5
228
  8
SIZE
  6
CONTINUOUS
 62
    30
 10
-367.49999999999892
 20
952.04587994282167
 30
0.0
 11
-337.49999999999892
 21
952.04587994282167
 31
0.0
  0
LINE
  5
229
  8
SIZE
  6
CONTINUOUS
 62
    30
 10
-388.49999999999892
 20
952.04587994282167
 30
0.0
 11
-532.07142857142753
 21
952.04587994282167
 31
0.0
  0
LINE
  5
22A
  8
SIZE
  6
CONTINUOUS
 62
    30
 10
-367.49999999999892
 20
952.04587994282167
 30
0.0
 11
-388.49999999999892
 21
952.04587994282167
 31
0.0
  0
CIRCLE
  5
22B
  8
SIZE
  6
CONTINUOUS
 62
    30
 10
-367.49999999999892
 20
952.04587994282167
 30
0.0
 40
7.5
  0
CIRCLE
  5
22C
  8
SIZE
  6
CONTINUOUS
 62
    30
 10
-388.49999999999892
 20
952.04587994282167
 30
0.0
 40
7.5
  0
TEXT
  5
22D
  8
SIZE
  6
CONTINUOUS
 62
    30
 10
-517.07142857142753
 20
967.0458799428219
 30
0.0
 40
50.0
  1
21
 41
0.9
 72
     1
 11
-490.2857142857132
 21
967.0458799428219
 31
0.0
  0
POINT
  5
230
  8
DEFPOINTS
  6
CONTINUOUS
 62
     7
 10
-388.49999999999892
 20
952.04587994282167
 30
0.0
  0
LINE
  5
231
  8
SIZE
  6
CONTINUOUS
 62
    30
 10
437.49999815843478
 20
420.68648394818052
 30
0.0
 11
437.49999815843478
 21
1058.568760256361
 31
0.0
  0
LINE
  5
232
  8
SIZE
  6
CONTINUOUS
 62
    30
 10
-388.49999999999892
 20
437.18832948139601
 30
0.0
 11
-388.49999999999892
 21
1058.568760256361
 31
0.0
  0
LINE
  5
233
  8
SIZE
  6
CONTINUOUS
 62
    30
 10
437.49999815843478
 20
1038.5687602563601
 30
0.0
 11
-388.49999999999892
 21
1038.5687602563601
 31
0.0
  0
CIRCLE
  5
234
  8
SIZE
  6
CONTINUOUS
 62
    30
 10
437.49999815843478
 20
1038.5687602563601
 30
0.0
 40
7.5
  0
CIRCLE
  5
235
  8
SIZE
  6
CONTINUOUS
 62
    30
 10
-388.49999999999892
 20
1038.5687602563601
 30
0.0
 40
7.5
  0
TEXT
  5
236
  8
SIZE
  6
CONTINUOUS
 62
    30
 10
-32.285715206496313
 20
1053.568760256361
 30
0.0
 40
50.0
  1
826
 41
0.9
 72
     1
 11
24.499999079217961
 21
1053.568760256361
 31
0.0
  0
POINT
  5
239
  8
DEFPOINTS
  6
CONTINUOUS
 62
     7
 10
-388.49999999999892
 20
1038.5687602563601
 30
0.0
  0
LINE
  5
23A
  8
SIZE
  6
CONTINUOUS
 62
    30
 10
-599.20407538127199
 20
-0.0000000263165638
 30
0.0
 11
-642.99067682109205
 21
-0.0000000263165514
 31
0.0
  0
LINE
  5
23B
  8
SIZE
  6
CONTINUOUS
 62
    30
 10
-516.49998316272695
 20
-1.9999999736822851
 30
0.0
 11
-642.99067682109205
 21
-1.99999997368225
 31
0.0
  0
LINE
  5
23C
  8
SIZE
  6
CONTINUOUS
 62
    30
 10
-622.99067682109217
 20
-0.0000000263165572
 30
0.0
 11
-622.99067682109217
 21
29.999999973683451
 31
0.0
  0
LINE
  5
23D
  8
SIZE
  6
CONTINUOUS
 62
    30
 10
-622.99067682109217
 20
-1.9999999736822549
 30
0.0
 11
-622.99067682109217
 21
-121.99999997368199
 31
0.0
  0
LINE
  5
23E
  8
SIZE
  6
CONTINUOUS
 62
    30
 10
-622.99067682109217
 20
-0.0000000263165572
 30
0.0
 11
-622.99067682109217
 21
-1.9999999736822549
 31
0.0
  0
CIRCLE
  5
23F
  8
SIZE
  6
CONTINUOUS
 62
    30
 10
-622.99067682109217
 20
-0.0000000263165572
 30
0.0
 40
7.5
  0
CIRCLE
  5
240
  8
SIZE
  6
CONTINUOUS
 62
    30
 10
-622.99067682109217
 20
-1.9999999736822549
 30
0.0
 40
7.5
  0
TEXT
  5
241
  8
SIZE
  6
CONTINUOUS
 62
    30
 10
-637.99067682109205
 20
-106.99999997368231
 30
0.0
 40
50.0
  1
2
 50
90.0
 41
0.9
 72
     1
 11
-637.99067682109205
 21
-91.999999973682307
 31
0.0
  0
POINT
  5
242
  8
DEFPOINTS
  6
CONTINUOUS
 62
     7
 10
-589.20407538127211
 20
-0.000000026316567
 30
0.0
  0
POINT
  5
243
  8
DEFPOINTS
  6
CONTINUOUS
 62
     7
 10
-506.49998316272678
 20
-0.9999999736835359
 30
0.0
  0
POINT
  5
244
  8
DEFPOINTS
  6
CONTINUOUS
 62
     7
 10
-622.99067682109217
 20
-1.9999999736822549
 30
0.0
  0
LINE
  5
245
  8
SIZE
  6
CONTINUOUS
 62
    30
 10
-599.20407538127199
 20
-0.0000000263165638
 30
0.0
 11
-642.99067682109205
 21
-0.0000000263165514
 31
0.0
  0
LINE
  5
246
  8
SIZE
  6
CONTINUOUS
 62
    30
 10
-494.96998372913589
 20
57.999998447822357
 30
0.0
 11
-642.99067682109205
 21
57.999998447822392
 31
0.0
  0
LINE
  5
247
  8
SIZE
  6
CONTINUOUS
 62
    30
 10
-622.99067682109217
 20
-0.0000000263165572
 30
0.0
 11
-622.99067682109217
 21
57.999998447822392
 31
0.0
  0
LINE
  5
248
  8
SIZE
  6
CONTINUOUS
 62
    30
 10
-622.99067682109217
 20
28.999999210752922
 30
0.0
 11
-686.00997198798575
 21
14.382185874425639
 31
0.0
  0
LINE
  5
249
  8
SIZE
  6
CONTINUOUS
 62
    30
 10
-686.00997198798575
 20
14.382185874425639
 30
0.0
 11
-686.00997198798575
 21
117.23932873156841
 31
0.0
  0
TEXT
  5
24A
  8
SIZE
  6
CONTINUOUS
 62
    30
 10
-701.00997198798586
 20
29.382185874425542
 30
0.0
 40
50.0
  1
58
 50
90.0
 41
0.9
 72
     1
 11
-701.00997198798586
 21
65.810757302996961
 31
0.0
  0
CIRCLE
  5
24B
  8
SIZE
  6
CONTINUOUS
 62
    30
 10
-622.99067682109217
 20
-0.0000000263165572
 30
0.0
 40
7.5
  0
CIRCLE
  5
24C
  8
SIZE
  6
CONTINUOUS
 62
    30
 10
-622.99067682109217
 20
57.999998447822392
 30
0.0
 40
7.5
  0
POINT
  5
24D
  8
DEFPOINTS
  6
CONTINUOUS
 62
     7
 10
-589.20407538127211
 20
-0.000000026316567
 30
0.0
  0
POINT
  5
24E
  8
DEFPOINTS
  6
CONTINUOUS
 62
     7
 10
-484.969983729136
 20
57.999998447822357
 30
0.0
  0
POINT
  5
24F
  8
DEFPOINTS
  6
CONTINUOUS
 62
     7
 10
-622.99067682109217
 20
57.999998447822392
 30
0.0
  0
LINE
  5
250
  8
SIZE
  6
CONTINUOUS
 62
    30
 10
-377.49999999999909
 20
139.9999999999998
 30
0.0
 11
-784.20260280827483
 21
139.9999999999998
 31
0.0
  0
LINE
  5
251
  8
SIZE
  6
CONTINUOUS
 62
    30
 10
-516.49998316272695
 20
0.0
 30
0.0
 11
-784.20260280827483
 21
0.0
 31
0.0
  0
LINE
  5
252
  8
SIZE
  6
CONTINUOUS
 62
    30
 10
-764.20260280827483
 20
139.9999999999998
 30
0.0
 11
-764.20260280827483
 21
0.0
 31
0.0
  0
LINE
  5
253
  8
SIZE
  6
CONTINUOUS
 62
    30
 10
-764.20260280827483
 20
0.0
 30
0.0
 11
-764.20260280827483
 21
-288.00000000000051
 31
0.0
  0
CIRCLE
  5
254
  8
SIZE
  6
CONTINUOUS
 62
    30
 10
-764.20260280827483
 20
139.9999999999998
 30
0.0
 40
7.5
  0
CIRCLE
  5
255
  8
SIZE
  6
CONTINUOUS
 62
    30
 10
-764.20260280827483
 20
0.0
 30
0.0
 40
7.5
  0
TEXT
  5
256
  8
SIZE
  6
CONTINUOUS
 62
    30
 10
-779.20260280827483
 20
-267.00000000000068
 30
0.0
 40
50.0
  1
140以上
 50
90.0
 41
0.9
 72
     1
 11
-779.20260280827483
 21
-159.00000000000071
 31
0.0
  0
POINT
  5
258
  8
DEFPOINTS
  6
CONTINUOUS
 62
     7
 10
-506.49998316272678
 20
-0.9999999736835359
 30
0.0
  0
POINT
  5
259
  8
DEFPOINTS
  6
CONTINUOUS
 62
     7
 10
-764.20260280827483
 20
0.0
 30
0.0
  0
LINE
  5
25A
  8
SIZE
  6
CONTINUOUS
 62
    30
 10
-377.49999999999909
 20
139.9999999999998
 30
0.0
 11
-784.20260280827245
 21
139.9999999999998
 31
0.0
  0
LINE
  5
25B
  8
SIZE
  6
CONTINUOUS
 62
    30
 10
-377.49999999999909
 20
435.0
 30
0.0
 11
-784.20260280827245
 21
435.0
 31
0.0
  0
LINE
  5
25C
  8
SIZE
  6
CONTINUOUS
 62
    30
 10
-764.20260280827483
 20
139.9999999999998
 30
0.0
 11
-764.20260280827245
 21
435.0
 31
0.0
  0
CIRCLE
  5
25D
  8
SIZE
  6
CONTINUOUS
 62
    30
 10
-764.20260280827245
 20
139.9999999999998
 30
0.0
 40
7.5
  0
CIRCLE
  5
25E
  8
SIZE
  6
CONTINUOUS
 62
    30
 10
-764.20260280827245
 20
435.0
 30
0.0
 40
7.5
  0
TEXT
  5
25F
  8
SIZE
  6
CONTINUOUS
 62
    30
 10
-779.20260280827245
 20
230.6428571428572
 30
0.0
 40
50.0
  1
295
 50
90.0
 41
0.9
 72
     1
 11
-779.20260280827245
 21
288.50000000000011
 31
0.0
  0
POINT
  5
262
  8
DEFPOINTS
  6
CONTINUOUS
 62
     7
 10
-764.20260280827245
 20
435.0
 30
0.0
  0
LINE
  5
263
  8
SIZE
  6
CONTINUOUS
 62
    30
 10
333.49999999999812
 20
462.20498207369582
 30
0.0
 11
333.49999999999812
 21
806.03011994825454
 31
0.0
  0
LINE
  5
264
  8
SIZE
  6
CONTINUOUS
 62
    30
 10
367.5
 20
445.00000000000011
 30
0.0
 11
367.5
 21
806.03011994825454
 31
0.0
  0
LINE
  5
265
  8
SIZE
  6
CONTINUOUS
 62
    30
 10
333.49999999999812
 20
786.03011994825465
 30
0.0
 11
367.5
 21
786.03011994825465
 31
0.0
  0
LINE
  5
266
  8
SIZE
  6
CONTINUOUS
 62
    30
 10
367.5
 20
786.03011994825465
 30
0.0
 11
537.73894382372384
 21
786.03011994825465
 31
0.0
  0
CIRCLE
  5
267
  8
SIZE
  6
CONTINUOUS
 62
    30
 10
333.49999999999812
 20
786.03011994825465
 30
0.0
 40
7.5
  0
CIRCLE
  5
268
  8
SIZE
  6
CONTINUOUS
 62
    30
 10
367.5
 20
786.03011994825465
 30
0.0
 40
7.5
  0
TEXT
  5
269
  8
SIZE
  6
CONTINUOUS
 62
    30
 10
447.7389438237239
 20
801.03011994825465
 30
0.0
 40
50.0
  1
34
 41
0.9
 72
     1
 11
485.2389438237239
 21
801.03011994825465
 31
0.0
  0
POINT
  5
26A
  8
DEFPOINTS
  6
CONTINUOUS
 62
     7
 10
333.49999999999812
 20
452.2049820736957
 30
0.0
  0
POINT
  5
26C
  8
DEFPOINTS
  6
CONTINUOUS
 62
     7
 10
367.5
 20
786.03011994825465
 30
0.0
  0
LINE
  5
26D
  8
SIZE
  6
CONTINUOUS
 62
    30
 10
333.49999999999812
 20
462.20498207369582
 30
0.0
 11
333.49999999999812
 21
806.03011994825454
 31
0.0
  0
LINE
  5
26E
  8
SIZE
  6
CONTINUOUS
 62
    30
 10
-336.50000000000091
 20
462.20498207369582
 30
0.0
 11
-336.50000000000091
 21
806.03011994825454
 31
0.0
  0
LINE
  5
26F
  8
SIZE
  6
CONTINUOUS
 62
    30
 10
333.49999999999812
 20
786.03011994825465
 30
0.0
 11
-336.50000000000091
 21
786.03011994825465
 31
0.0
  0
CIRCLE
  5
270
  8
SIZE
  6
CONTINUOUS
 62
    30
 10
333.49999999999812
 20
786.03011994825465
 30
0.0
 40
7.5
  0
CIRCLE
  5
271
  8
SIZE
  6
CONTINUOUS
 62
    30
 10
-336.50000000000091
 20
786.03011994825465
 30
0.0
 40
7.5
  0
TEXT
  5
272
  8
SIZE
  6
CONTINUOUS
 62
    30
 10
-271.26358093673031
 20
801.03011994825465
 30
0.0
 40
50.0
  1
670（吊りボルトピッチ）
 41
0.9
 72
     1
 11
45.022133348983957
 21
801.03011994825465
 31
0.0
  0
POINT
  5
273
  8
DEFPOINTS
  6
CONTINUOUS
 62
     7
 10
333.49999999999812
 20
452.2049820736957
 30
0.0
  0
POINT
  5
274
  8
DEFPOINTS
  6
CONTINUOUS
 62
     7
 10
-336.50000000000091
 20
452.2049820736957
 30
0.0
  0
POINT
  5
275
  8
DEFPOINTS
  6
CONTINUOUS
 62
     7
 10
-336.50000000000091
 20
786.03011994825465
 30
0.0
  0
LINE
  5
276
  8
SIZE
  6
CONTINUOUS
 62
    30
 10
397.49999815843393
 20
189.00000620874749
 30
0.0
 11
397.49999815843393
 21
78.095985690734082
 31
0.0
  0
LINE
  5
277
  8
SIZE
  6
CONTINUOUS
 62
    30
 10
437.49999815843478
 20
177.3135232076767
 30
0.0
 11
437.49999815843478
 21
78.095985690734082
 31
0.0
  0
LINE
  5
278
  8
SIZE
  6
CONTINUOUS
 62
    30
 10
397.49999815843393
 20
98.095985690734082
 30
0.0
 11
437.49999815843478
 21
98.095985690734082
 31
0.0
  0
LINE
  5
279
  8
SIZE
  6
CONTINUOUS
 62
    30
 10
437.49999815843478
 20
98.095985690734082
 30
0.0
 11
570.35714101557767
 21
98.095985690734082
 31
0.0
  0
CIRCLE
  5
27A
  8
SIZE
  6
CONTINUOUS
 62
    30
 10
397.49999815843393
 20
98.095985690734082
 30
0.0
 40
7.5
  0
CIRCLE
  5
27B
  8
SIZE
  6
CONTINUOUS
 62
    30
 10
437.49999815843478
 20
98.095985690734082
 30
0.0
 40
7.5
  0
TEXT
  5
27C
  8
SIZE
  6
CONTINUOUS
 62
    30
 10
482.49999815843478
 20
113.0959856907341
 30
0.0
 40
50.0
  1
40
 41
0.9
 72
     1
 11
518.92856958700634
 21
113.0959856907341
 31
0.0
  0
POINT
  5
27F
  8
DEFPOINTS
  6
CONTINUOUS
 62
     7
 10
437.49999815843478
 20
98.095985690734082
 30
0.0
  0
LINE
  5
280
  8
NOTE
  6
CONTINUOUS
 62
     4
 10
931.05059913807179
 20
-10.715871457019359
 30
0.0
 11
480.90472795928559
 21
-10.715871457019359
 31
0.0
  0
TEXT
  5
281
  8
NOTE
  6
CONTINUOUS
 62
     4
 10
486.07070383454879
 20
0.4960425281608507
 30
0.0
 40
45.0
  1
%%C200 吹出円形フランジ
 50
0.0000029999846689
 41
0.7
  7
STANDARD1
  0
LINE
  5
282
  8
NOTE
  6
CONTINUOUS
 62
     4
 10
437.49999815843478
 20
299.00000357792851
 30
0.0
 11
480.90472795928559
 21
-10.715871457019359
 31
0.0
  0
LINE
  5
283
  8
NOTE
  6
CONTINUOUS
 62
     4
 10
-434.0121194170701
 20
633.12677409105322
 30
0.0
 11
-525.23395854602109
 21
633.12677409105322
 31
0.0
  0
TEXT
  5
284
  8
NOTE
  6
CONTINUOUS
 62
     4
 10
-516.14183910219435
 20
644.33868807623378
 30
0.0
 40
45.0
  1
AH
 50
0.0000029999846689
 41
0.7
  7
STANDARD1
  0
LINE
  5
285
  8
NOTE
  6
CONTINUOUS
 62
     4
 10
-336.50000000001
 20
430.60000011576051
 30
0.0
 11
-434.0121194170701
 21
633.12677409105322
 31
0.0
  0
LINE
  5
286
  8
NOTE
  6
CONTINUOUS
 62
     4
 10
55.112817983901088
 20
597.48290906971488
 30
0.0
 11
-187.63445522258499
 21
597.48290906971488
 31
0.0
  0
TEXT
  5
287
  8
NOTE
  6
CONTINUOUS
 62
     4
 10
-184.30908903855101
 20
608.69482305489544
 30
0.0
 40
45.0
  1
D1 VP-25
 50
0.0000029999846689
 41
0.7
  7
STANDARD1
  0
LINE
  5
288
  8
NOTE
  6
CONTINUOUS
 62
     4
 10
175.49999999999091
 20
170.00000000000011
 30
0.0
 11
136.4814199627958
 21
73.452067866497842
 31
0.0
  0
LINE
  5
289
  8
NOTE
  6
CONTINUOUS
 62
     4
 10
136.4814199627958
 20
73.452067866497842
 30
0.0
 11
-173.7133426317732
 21
73.452067866497842
 31
0.0
  0
TEXT
  5
28A
  8
NOTE
  6
CONTINUOUS
 62
     4
 10
-170.38797644773919
 20
84.663981851678045
 30
0.0
 40
45.0
  1
D2（自然排水口）
 50
0.0000029999846689
 41
0.7
  7
STANDARD1
  0
LINE
  5
28B
  8
NOTE
  6
CONTINUOUS
 62
     4
 10
239.49999999998971
 20
235.0000000000002
 30
0.0
 11
493.06188480830559
 21
614.45611872285929
 31
0.0
  0
LINE
  5
28C
  8
NOTE
  6
CONTINUOUS
 62
     4
 10
175.49999999999091
 20
263.00000000000028
 30
0.0
 11
465.1506578786948
 21
698.80945033571152
 31
0.0
  0
LINE
  5
28D
  8
NOTE
  6
CONTINUOUS
 62
     4
 10
-36.947767916163222
 20
462.85043816498899
 30
0.0
 11
-259.31473922092698
 21
462.85043816498899
 31
0.0
  0
TEXT
  5
28E
  8
NOTE
  6
CONTINUOUS
 62
     4
 10
-255.98937303689399
 20
474.06235215016932
 30
0.0
 40
45.0
  1
確認用給水口
 50
0.0000029999846689
 41
0.7
  7
STANDARD1
  0
TEXT
  5
28F
  8
NOTE
  6
CONTINUOUS
 62
     4
 10
-256.03836426047292
 20
523.95546175852382
 30
0.0
 40
45.0
  1
ドレン排水
 50
0.0000029999846689
 41
0.7
  7
STANDARD1
  0
LINE
  5
290
  8
NOTE
  6
CONTINUOUS
 62
     4
 10
97.596612988847042
 20
246.7982053402431
 30
0.0
 11
-36.947767916163222
 21
462.85043816498899
 31
0.0
  0
LINE
  5
291
  8
NOTE
  6
CONTINUOUS
 62
     4
 10
94.499999999989996
 20
327.00000000000199
 30
0.0
 11
55.112817983901088
 21
597.48290906971488
 31
0.0
  0
LINE
  5
292
  8
NOTE
  6
CONTINUOUS
 62
     4
 10
-226.79521293451299
 20
247.2045401425259
 30
0.0
 11
-286.72970975905491
 21
247.2045401425259
 31
0.0
  0
TEXT
  5
293
  8
NOTE
  6
CONTINUOUS
 62
     4
 10
-283.40434357502221
 20
258.41645412770612
 30
0.0
 40
45.0
  1
EL
 50
0.0000029999846689
 41
0.7
  7
STANDARD1
  0
LINE
  5
294
  8
NOTE
  6
CONTINUOUS
 62
     4
 10
-144.2856544988808
 20
247.05232876826469
 30
0.0
 11
-204.22015132342401
 21
247.05232876826469
 31
0.0
  0
TEXT
  5
295
  8
NOTE
  6
CONTINUOUS
 62
     4
 10
-200.89478513939
 20
258.26424275344482
 30
0.0
 40
45.0
  1
CL
 50
0.0000029999846689
 41
0.7
  7
STANDARD1
  0
LINE
  5
296
  8
NOTE
  6
CONTINUOUS
 62
     4
 10
-104.50000013153431
 20
205.0000000000019
 30
0.0
 11
-144.2856544988808
 21
247.05232876826469
 31
0.0
  0
LINE
  5
297
  8
NOTE
  6
CONTINUOUS
 62
     4
 10
-344.29999987373139
 20
205.0000000000019
 30
0.0
 11
-286.72970975905491
 21
247.2045401425259
 31
0.0
  0
LINE
  5
298
  8
NOTE
  6
CONTINUOUS
 62
     4
 10
759.15449483362681
 20
614.45611872285929
 30
0.0
 11
493.06188480830559
 21
614.45611872285929
 31
0.0
  0
TEXT
  5
299
  8
NOTE
  6
CONTINUOUS
 62
     4
 10
496.38725099233977
 20
625.6680327080395
 30
0.0
 40
45.0
  1
RG %%C15.88
 50
0.0000029999846689
 41
0.7
  7
STANDARD1
  0
LINE
  5
29A
  8
NOTE
  6
CONTINUOUS
 62
     4
 10
707.89793108518074
 20
698.80945033571152
 30
0.0
 11
465.1506578786948
 21
698.80945033571152
 31
0.0
  0
TEXT
  5
29B
  8
NOTE
  6
CONTINUOUS
 62
     4
 10
468.47602406272881
 20
710.02136432089162
 30
0.0
 40
45.0
  1
RL %%C9.52
 50
0.0000029999846689
 41
0.7
  7
STANDARD1
  0
LINE
  5
29C
  8
NOTE
  6
CONTINUOUS
 62
     4
 10
437.49999815843478
 20
299.00000357792851
 30
0.0
 11
451.3884716025288
 21
267.54432043285141
 31
0.0
  0
LINE
  5
29D
  8
NOTE
  6
CONTINUOUS
 62
     4
 10
437.49999815843478
 20
299.00000357792851
 30
0.0
 11
433.79992623466001
 21
264.8143466636559
 31
0.0
  0
LINE
  5
29E
  8
NOTE
  6
CONTINUOUS
 62
     4
 10
175.499999999989
 20
169.99999999999841
 30
0.0
 11
171.72846477427581
 21
135.8221530992341
 31
0.0
  0
LINE
  5
29F
  8
NOTE
  6
CONTINUOUS
 62
     4
 10
175.499999999989
 20
169.99999999999841
 30
0.0
 11
155.14483047104289
 21
142.2868849757125
 31
0.0
  0
LINE
  5
2A0
  8
NOTE
  6
CONTINUOUS
 62
     4
 10
239.49999999998701
 20
235.00000000000921
 30
0.0
 11
250.9690894044187
 21
267.41619479464691
 31
0.0
  0
LINE
  5
2A1
  8
NOTE
  6
CONTINUOUS
 62
     4
 10
239.49999999998701
 20
235.00000000000921
 30
0.0
 11
265.64062068759603
 21
257.3387023116486
 31
0.0
  0
LINE
  5
2A2
  8
NOTE
  6
CONTINUOUS
 62
     4
 10
175.49999999997181
 20
262.99999999993292
 30
0.0
 11
186.2553139353567
 21
295.6599589540113
 31
0.0
  0
LINE
  5
2A3
  8
NOTE
  6
CONTINUOUS
 62
     4
 10
175.49999999997181
 20
262.99999999993292
 30
0.0
 11
201.14435510409879
 21
285.90669601212181
 31
0.0
  0
LINE
  5
2A4
  8
NOTE
  6
CONTINUOUS
 62
     4
 10
97.596612988847042
 20
246.7982053402431
 30
0.0
 11
72.270000602607055
 21
270.05572889216108
 31
0.0
  0
LINE
  5
2A5
  8
NOTE
  6
CONTINUOUS
 62
     4
 10
97.596612988847042
 20
246.7982053402431
 30
0.0
 11
87.291886324067946
 21
279.6031177660609
 31
0.0
  0
LINE
  5
2A6
  8
NOTE
  6
CONTINUOUS
 62
     4
 10
94.49999999991995
 20
327.000000000071
 30
0.0
 11
80.093589879576939
 21
358.22186804436592
 31
0.0
  0
LINE
  5
2A7
  8
NOTE
  6
CONTINUOUS
 62
     4
 10
94.49999999991995
 20
327.000000000071
 30
0.0
 11
97.634618062301783
 21
361.242135454866
 31
0.0
  0
LINE
  5
2A8
  8
NOTE
  6
CONTINUOUS
 62
     4
 10
-104.50000013152599
 20
204.9999999999911
 30
0.0
 11
-133.75049073564011
 21
223.07646248991131
 31
0.0
  0
LINE
  5
2A9
  8
NOTE
  6
CONTINUOUS
 62
     4
 10
-104.50000013152599
 20
204.9999999999911
 30
0.0
 11
-120.79343556959741
 21
235.2799212767552
 31
0.0
  0
LINE
  5
2AA
  8
NOTE
  6
CONTINUOUS
 62
     4
 10
-344.29999987373139
 20
205.000000000011
 30
0.0
 11
-322.98422531322188
 21
231.9812425884522
 31
0.0
  0
LINE
  5
2AB
  8
NOTE
  6
CONTINUOUS
 62
     4
 10
-344.29999987373139
 20
205.000000000011
 30
0.0
 11
-312.34937620644718
 21
217.70855295355091
 31
0.0
  0
LINE
  5
2AC
  8
NOTE
  6
CONTINUOUS
 62
     4
 10
-336.49999999999221
 20
430.60000011567359
 30
0.0
 11
-359.22155619046907
 21
456.4085370950126
 31
0.0
  0
LINE
  5
2AD
  8
NOTE
  6
CONTINUOUS
 62
     4
 10
-336.49999999999221
 20
430.60000011567359
 30
0.0
 11
-343.27317511362202
 21
464.31162674183332
 31
0.0
  0
LINE
  5
2AE
  8
BASIS
  6
DASHDOT
 62
     6
 10
0.0
 20
460.58861657854249
 30
0.0
 11
0.0
 21
-78.54481077990566
 31
0.0
  0
LINE
  5
2AF
  8
ARRANGE
  6
CONTINUOUS
 62
     1
 10
50.03735000000006
 20
-49.522353000000969
 30
0.0
 11
-50.03735000000097
 21
49.522352999999619
 31
0.0
  0
LINE
  5
2B0
  8
ARRANGE
  6
CONTINUOUS
 62
     1
 10
49.963762999998849
 20
49.596595000002033
 30
0.0
 11
-49.963763000000199
 21
-49.596595000003383
 31
0.0
  0
CIRCLE
  5
2B1
  8
ARRANGE
  6
CONTINUOUS
 62
     1
 10
0.0
 20
-0.000000000000675
 30
0.0
 40
50.0
  0
LINE
  5
2B2
  8
OUTLINE
  6
CONTINUOUS
 62
     3
 10
-367.49999999999892
 20
435.0
 30
0.0
 11
367.5
 21
435.0
 31
0.0
  0
LINE
  5
2B3
  8
OUTLINE
  6
CONTINUOUS
 62
     3
 10
367.5
 20
435.0
 30
0.0
 11
367.5
 21
139.9999999999998
 31
0.0
  0
LINE
  5
2B4
  8
OUTLINE
  6
CONTINUOUS
 62
     3
 10
367.5
 20
139.9999999999998
 30
0.0
 11
-367.49999999999892
 21
139.9999999999998
 31
0.0
  0
LINE
  5
2B5
  8
OUTLINE
  6
CONTINUOUS
 62
     3
 10
-367.49999999999892
 20
139.9999999999998
 30
0.0
 11
-367.49999999999892
 21
435.0
 31
0.0
  0
LINE
  5
2B6
  8
OUTLINE
  6
CONTINUOUS
 62
     3
 10
-484.969983729136
 20
-0.000000000000675
 30
0.0
 11
-484.969983729136
 21
57.999998447822357
 31
0.0
  0
LINE
  5
2B7
  8
OUTLINE
  6
CONTINUOUS
 62
     3
 10
-484.969983729136
 20
57.999998447822357
 30
0.0
 11
121.9700003033258
 21
57.999998447822357
 31
0.0
  0
LINE
  5
2B8
  8
OUTLINE
  6
CONTINUOUS
 62
     3
 10
121.9700003033258
 20
57.999998447822357
 30
0.0
 11
121.9700003033258
 21
-0.000000000000675
 31
0.0
  0
LINE
  5
2B9
  8
OUTLINE
  6
CONTINUOUS
 62
     3
 10
-506.49998316272678
 20
-2.0
 30
0.0
 11
-506.49998316272678
 21
-0.000000000002494
 31
0.0
  0
LINE
  5
2BA
  8
OUTLINE
  6
CONTINUOUS
 62
     3
 10
-506.49998316272678
 20
-0.000000000002494
 30
0.0
 11
143.49999973691411
 21
-0.000000000000675
 31
0.0
  0
LINE
  5
2BB
  8
OUTLINE
  6
CONTINUOUS
 62
     3
 10
143.49999973691411
 20
-0.000000000000675
 30
0.0
 11
143.49999973691411
 21
-1.999999973682288
 31
0.0
  0
LINE
  5
2BC
  8
OUTLINE
  6
CONTINUOUS
 62
     3
 10
143.49999973691411
 20
-1.999999973682288
 30
0.0
 11
-506.49998316272678
 21
-1.999999973682288
 31
0.0
  0
TEXT
  5
2CD
  8
ETC
  6
CONTINUOUS
 62
    61
 10
-452.17575067941561
 20
1157.3912032566241
 30
0.0
 40
70.0
  1
PDFY-P71_90MG1（後吸込）_5
 50
0.0000029998804485
 41
0.8
  0
ENDSEC
  0
EOF
