  0
SECTION
  2
HEADER
  9
$ACADVER
  1
AC1009
  9
$INSBASE
 10
0.0
 20
0.0
 30
0.0
  9
$EXTMIN
 10
-1440.44875468859
 20
-436.73033910728918
 30
-0.0000000000000058
  9
$EXTMAX
 10
1194.287800211441
 20
1224.3298922412071
 30
0.0000000000000104
  9
$LIMMIN
 10
-4267.1522210000003
 20
-2696.0832100000011
  9
$LIMMAX
 10
7190.7174229999991
 20
5141.1553640000002
  9
$ORTHOMODE
 70
     1
  9
$REGENMODE
 70
     1
  9
$FILLMODE
 70
     1
  9
$QTEXTMODE
 70
     0
  9
$MIRRTEXT
 70
     0
  9
$DRAGMODE
 70
     2
  9
$LTSCALE
 40
20.0
  9
$OSMODE
 70
  3071
  9
$ATTMODE
 70
     1
  9
$TEXTSIZE
 40
64.0
  9
$TRACEWID
 40
0.05
  9
$TEXTSTYLE
  7
STANDARD
  9
$CLAYER
  8
SYMBOLLINE
  9
$CELTYPE
  6
CONTINUOUS
  9
$CECOLOR
 62
     7
  9
$DIMSCALE
 40
1.0
  9
$DIMASZ
 40
10.0
  9
$DIMEXO
 40
20.0
  9
$DIMDLI
 40
200.0
  9
$DIMRND
 40
0.0
  9
$DIMDLE
 40
0.0
  9
$DIMEXE
 40
30.0
  9
$DIMTP
 40
0.0
  9
$DIMTM
 40
0.0
  9
$DIMTXT
 40
55.0
  9
$DIMCEN
 40
0.0
  9
$DIMTSZ
 40
0.0
  9
$DIMTOL
 70
     0
  9
$DIMLIM
 70
     0
  9
$DIMTIH
 70
     0
  9
$DIMTOH
 70
     0
  9
$DIMSE1
 70
     0
  9
$DIMSE2
 70
     0
  9
$DIMTAD
 70
     1
  9
$DIMZIN
 70
     8
  9
$DIMBLK
  1

  9
$DIMASO
 70
     1
  9
$DIMSHO
 70
     0
  9
$DIMPOST
  1

  9
$DIMAPOST
  1

  9
$DIMALT
 70
     0
  9
$DIMALTD
 70
     2
  9
$DIMALTF
 40
25.399999999999999
  9
$DIMLFAC
 40
1.0
  9
$DIMTOFL
 70
     1
  9
$DIMTVP
 40
0.0
  9
$DIMTIX
 70
     1
  9
$DIMSOXD
 70
     0
  9
$DIMSAH
 70
     1
  9
$DIMBLK1
  1
DOTBLANK
  9
$DIMBLK2
  1
DOTBLANK
  9
$DIMSTYLE
  2
STANDARD
  9
$DIMCLRD
 70
     0
  9
$DIMCLRE
 70
     0
  9
$DIMCLRT
 70
     0
  9
$DIMTFAC
 40
1.0
  9
$DIMGAP
 40
0.09
  9
$LUNITS
 70
     2
  9
$LUPREC
 70
     4
  9
$SKETCHINC
 40
0.1
  9
$FILLETRAD
 40
30.0
  9
$AUNITS
 70
     1
  9
$AUPREC
 70
     3
  9
$MENU
  1
ACAD
  9
$ELEVATION
 40
0.0
  9
$PELEVATION
 40
0.0
  9
$THICKNESS
 40
0.0
  9
$LIMCHECK
 70
     0
  9
$BLIPMODE
 70
     0
  9
$CHAMFERA
 40
0.0
  9
$CHAMFERB
 40
0.0
  9
$SKPOLY
 70
     0
  9
$TDCREATE
 40
2450330.4399309959
  9
$TDUPDATE
 40
2456127.4606051161
  9
$TDINDWG
 40
3.5971380555999999
  9
$TDUSRTIMER
 40
3.5971346181000001
  9
$USRTIMER
 70
     1
  9
$ANGBASE
 50
0.0
  9
$ANGDIR
 70
     0
  9
$PDMODE
 70
     3
  9
$PDSIZE
 40
-2.0
  9
$PLINEWID
 40
0.0
  9
$COORDS
 70
     1
  9
$SPLFRAME
 70
     0
  9
$SPLINETYPE
 70
     6
  9
$SPLINESEGS
 70
     8
  9
$ATTDIA
 70
     0
  9
$ATTREQ
 70
     1
  9
$HANDLING
 70
     1
  9
$HANDSEED
  5
9F7
  9
$SURFTAB1
 70
     6
  9
$SURFTAB2
 70
     6
  9
$SURFTYPE
 70
     6
  9
$SURFU
 70
     6
  9
$SURFV
 70
     6
  9
$UCSNAME
  2

  9
$UCSORG
 10
0.0
 20
0.0
 30
0.0
  9
$UCSXDIR
 10
1.0
 20
0.0
 30
0.0
  9
$UCSYDIR
 10
0.0
 20
1.0
 30
0.0
  9
$PUCSNAME
  2

  9
$PUCSORG
 10
0.0
 20
0.0
 30
0.0
  9
$PUCSXDIR
 10
1.0
 20
0.0
 30
0.0
  9
$PUCSYDIR
 10
0.0
 20
1.0
 30
0.0
  9
$USERI1
 70
     0
  9
$USERI2
 70
     0
  9
$USERI3
 70
     0
  9
$USERI4
 70
     0
  9
$USERI5
 70
     0
  9
$USERR1
 40
20.0
  9
$USERR2
 40
0.0
  9
$USERR3
 40
0.0
  9
$USERR4
 40
0.0
  9
$USERR5
 40
0.0
  9
$WORLDVIEW
 70
     1
  9
$SHADEDGE
 70
     3
  9
$SHADEDIF
 70
    70
  9
$TILEMODE
 70
     1
  9
$MAXACTVP
 70
    48
  9
$PLIMCHECK
 70
     0
  9
$PEXTMIN
 10
1.0000000000000000E+020
 20
1.0000000000000000E+020
 30
1.0000000000000000E+020
  9
$PEXTMAX
 10
-1.0000000000000000E+020
 20
-1.0000000000000000E+020
 30
-1.0000000000000000E+020
  9
$PLIMMIN
 10
0.0
 20
0.0
  9
$PLIMMAX
 10
12.0
 20
9.0
  9
$UNITMODE
 70
     0
  9
$VISRETAIN
 70
     1
  9
$PLINEGEN
 70
     0
  9
$PSLTSCALE
 70
     1
  0
ENDSEC
  0
SECTION
  2
TABLES
  0
TABLE
  2
VPORT
 70
     1
  0
VPORT
  2
*ACTIVE
 70
     0
 10
0.0
 20
0.0
 11
1.0
 21
1.0
 12
1461.782600999999
 22
1222.536077
 13
0.0
 23
0.0
 14
50.0
 24
50.0
 15
100.0
 25
100.0
 16
0.0
 26
0.0
 36
1.0
 17
0.0
 27
0.0
 37
0.0
 40
7896.8373464258557
 41
1.552030456852791
 42
50.0
 43
0.0
 44
0.0
 50
0.0
 51
0.0
 71
     0
 72
  1000
 73
     1
 74
     0
 75
     0
 76
     0
 77
     0
 78
     0
  0
ENDTAB
  0
TABLE
  2
LTYPE
 70
     3
  0
LTYPE
  2
CONTINUOUS
 70
     0
  3
実線
 72
    65
 73
     0
 40
0.0
  0
LTYPE
  2
DASHDOT
 70
     0
  3
____ _ ____ _ ____ _ ____ _ ____ _ ____ _ ____
 72
    65
 73
     4
 40
5.5
 49
4.0
 49
-0.6
 49
0.3
 49
-0.6
  0
ENDTAB
  0
TABLE
  2
LAYER
 70
    12
  0
LAYER
  2
0
 70
     0
 62
     7
  6
CONTINUOUS
  0
LAYER
  2
SYMBOLLINE
 70
     0
 62
    15
  6
CONTINUOUS
  0
LAYER
  2
SIZE
 70
     0
 62
    30
  6
CONTINUOUS
  0
LAYER
  2
OUTLINE
 70
     0
 62
     3
  6
CONTINUOUS
  0
LAYER
  2
DETAIL
 70
     0
 62
     5
  6
CONTINUOUS
  0
LAYER
  2
BASIS
 70
     0
 62
     6
  6
DASHDOT
  0
LAYER
  2
NOTE
 70
     0
 62
     4
  6
CONTINUOUS
  0
LAYER
  2
ARRANGE
 70
     0
 62
     1
  6
CONTINUOUS
  0
LAYER
  2
FIX
 70
     0
 62
    11
  6
CONTINUOUS
  0
LAYER
  2
SERVICESPACE
 70
     0
 62
     2
  6
DASHDOT
  0
LAYER
  2
ETC
 70
     0
 62
    61
  6
CONTINUOUS
  0
LAYER
  2
DEFPOINTS
 70
     0
 62
     7
  6
CONTINUOUS
  0
ENDTAB
  0
TABLE
  2
STYLE
 70
     3
  0
STYLE
  2
STANDARD
 70
     0
 40
0.0
 41
0.9
 50
0.0
 71
     0
 42
64.0
  3
SIMPLEX
  4
BIGFONT
  0
STYLE
  2
ANNOTATIVE
 70
     0
 40
0.0
 41
1.0
 50
0.0
 71
     0
 42
0.2
  3
txt
  4

  0
STYLE
  2
STANDARD1
 70
     0
 40
0.0
 41
1.0
 50
0.0
 71
     0
 42
64.0
  3
MONOTXT
  4
BIGFONT
  0
ENDTAB
  0
TABLE
  2
VIEW
 70
     1
  0
VIEW
  2
ALL
 70
     0
 40
9000.0
 10
241.50664699999999
 20
0.0
 41
12483.01
 11
0.0
 21
0.0
 31
1.0
 12
0.0
 22
0.0
 32
0.0
 42
50.0
 43
0.0
 44
0.0
 50
0.0
 71
     0
  0
ENDTAB
  0
TABLE
  2
UCS
 70
     0
  0
ENDTAB
  0
TABLE
  2
APPID
 70
     4
  0
APPID
  2
ACAD
 70
     0
  0
APPID
  2
ACADANNOTATIVE
 70
     0
  0
APPID
  2
ACAD_MLEADERVER
 70
     0
  0
APPID
  2
ACAD_EXEMPT_FROM_CAD_STANDARDS
 70
     0
  0
ENDTAB
  0
TABLE
  2
DIMSTYLE
 70
     3
  0
DIMSTYLE
  2
STANDARD
 70
     0
  3

  4

  5

  6

  7

 40
1.0
 41
0.18
 42
0.0625
 43
0.38
 44
0.18
 45
0.0
 46
0.0
 47
0.0
 48
0.0
140
0.18
141
0.09
142
0.0
143
25.399999999999999
144
1.0
145
0.0
146
1.0
147
0.09
 71
     0
 72
     0
 73
     1
 74
     1
 75
     0
 76
     0
 77
     0
 78
     0
170
     0
171
     2
172
     0
173
     0
174
     0
175
     0
176
     0
177
     0
178
     0
  0
DIMSTYLE
  2
ANNOTATIVE
 70
     0
  3

  4

  5

  6

  7

 40
1.0
 41
0.18
 42
0.0625
 43
0.38
 44
0.18
 45
0.0
 46
0.0
 47
0.0
 48
0.0
140
0.18
141
0.09
142
0.0
143
25.399999999999999
144
1.0
145
0.0
146
1.0
147
0.09
 71
     0
 72
     0
 73
     1
 74
     1
 75
     0
 76
     0
 77
     0
 78
     0
170
     0
171
     2
172
     0
173
     0
174
     0
175
     0
176
     0
177
     0
178
     0
  0
ENDTAB
  0
ENDSEC
  0
SECTION
  2
BLOCKS
  0
BLOCK
  8
0
  2
$MODEL_SPACE
 70
     0
 10
0.0
 20
0.0
 30
0.0
  3
$MODEL_SPACE
  1

  0
ENDBLK
  5
979
  8
0
  0
BLOCK
 67
     1
  8
0
  2
$PAPER_SPACE
 70
     0
 10
0.0
 20
0.0
 30
0.0
  3
$PAPER_SPACE
  1

  0
ENDBLK
  5
975
 67
     1
  8
0
  0
BLOCK
  8
0
  2
_DOTBLANK
 70
     0
 10
0.0
 20
0.0
 30
0.0
  3
_DOTBLANK
  1

  0
CIRCLE
  5
32
  8
0
  6
CONTINUOUS
 62
     7
 10
0.0
 20
0.0
 30
0.0
 40
0.5
  0
LINE
  5
33
  8
0
  6
CONTINUOUS
 62
     7
 10
-0.5
 20
0.0
 30
0.0
 11
-1.0
 21
0.0
 31
0.0
  0
ENDBLK
  5
34
  8
0
  0
BLOCK
  8
0
 62
     7
  2
A$C56BF74E2
 70
     0
 10
0.0
 20
0.0
 30
0.0
  3
A$C56BF74E2
  1

  0
LINE
  5
247
  8
SIZE
  6
CONTINUOUS
 62
    30
 10
1464.923076
 20
436.71809000000002
 30
0.0
 11
445.17584499999981
 21
436.71809000000002
 31
0.0
  0
LINE
  5
248
  8
SIZE
  6
CONTINUOUS
 62
    30
 10
1497.1644719999999
 20
483.7180899999999
 30
0.0
 11
751.54115899999999
 21
483.7180899999999
 31
0.0
  0
LINE
  5
249
  8
SIZE
  6
CONTINUOUS
 62
    30
 10
1465.634472
 20
436.71809000000002
 30
0.0
 11
751.54115899999999
 21
436.71809000000002
 31
0.0
  0
LINE
  5
24A
  8
SIZE
  6
CONTINUOUS
 62
    30
 10
1465.634472
 20
436.71809000000002
 30
0.0
 11
751.54115899999999
 21
436.71809000000002
 31
0.0
  0
LINE
  5
24B
  8
SIZE
  6
CONTINUOUS
 62
    30
 10
1496.334472
 20
428.71809000000002
 30
0.0
 11
751.54115899999999
 21
428.71809000000002
 31
0.0
  0
LINE
  5
24C
  8
SIZE
  6
CONTINUOUS
 62
    30
 10
1285.634472
 20
29.999993
 30
0.0
 11
1492.634472
 21
29.999993
 31
0.0
  0
LINE
  5
24D
  8
SIZE
  6
CONTINUOUS
 62
    30
 10
1393.634472
 20
1209.1657889999999
 30
0.0
 11
1285.634472
 21
1209.1657889999999
 31
0.0
  0
LINE
  5
24E
  8
SIZE
  6
CONTINUOUS
 62
    30
 10
1378.125323
 20
669.720731
 30
0.0
 11
735.58852400000001
 21
669.720731
 31
0.0
  0
LINE
  5
24F
  8
SIZE
  6
CONTINUOUS
 62
    30
 10
1442.125323
 20
697.71808999999985
 30
0.0
 11
735.58852400000001
 21
697.71808999999985
 31
0.0
  0
LINE
  5
250
  8
SIZE
  6
CONTINUOUS
 62
    30
 10
1442.125323
 20
697.71808999999985
 30
0.0
 11
735.58852400000001
 21
697.71808999999985
 31
0.0
  0
LINE
  5
251
  8
NOTE
  6
CONTINUOUS
 62
     4
 10
1190.847033
 20
188.686894
 30
0.0
 11
1467.634472
 21
697.71808999999985
 31
0.0
  0
LINE
  5
252
  8
SIZE
  6
CONTINUOUS
 62
    30
 10
2000.634472
 20
1456.4745230000001
 30
0.0
 11
1285.634472
 21
1456.4745230000001
 31
0.0
  0
CIRCLE
  5
253
  8
SIZE
  6
CONTINUOUS
 62
    30
 10
1309.634472
 20
1330.706173
 30
0.0
 40
5.0
  0
LINE
  5
254
  8
OUTLINE
  6
CONTINUOUS
 62
     3
 10
1275.634472
 20
576.71808999999985
 30
0.0
 11
2010.634472
 21
576.71808999999985
 31
0.0
  0
LINE
  5
255
  8
OUTLINE
  6
CONTINUOUS
 62
     3
 10
2010.634472
 20
869.71808999999985
 30
0.0
 11
1275.634472
 21
869.71808999999985
 31
0.0
  0
LINE
  5
256
  8
NOTE
  6
CONTINUOUS
 62
     4
 10
1147.4799760000001
 20
294.162285
 30
0.0
 11
1403.634472
 21
669.720731
 31
0.0
  0
CIRCLE
  5
257
  8
FIX
  6
CONTINUOUS
 62
    11
 10
1309.634472
 20
869.71808999999985
 30
0.0
 40
12.421498
  0
LINE
  5
258
  8
NOTE
  6
CONTINUOUS
 62
     4
 10
1324.6296380000001
 20
869.71808999999985
 30
0.0
 11
1294.639306
 21
869.71808999999985
 31
0.0
  0
LINE
  5
259
  8
DETAIL
  6
CONTINUOUS
 62
     5
 10
2010.634472
 20
869.71808999999985
 30
0.0
 11
1275.634472
 21
869.71808999999985
 31
0.0
  0
LINE
  5
25A
  8
DETAIL
  6
CONTINUOUS
 62
     5
 10
1317.634219
 20
831.71808999999985
 30
0.0
 11
1278.634104
 21
831.71808999999985
 31
0.0
  0
LINE
  5
25B
  8
DETAIL
  6
CONTINUOUS
 62
     5
 10
1314.134219
 20
857.71808999999985
 30
0.0
 11
1332.134219
 21
857.71808999999985
 31
0.0
  0
LINE
  5
25C
  8
DETAIL
  6
CONTINUOUS
 62
     5
 10
1633.244471
 20
576.71808999999985
 30
0.0
 11
1296.244471
 21
576.71808999999985
 31
0.0
  0
LINE
  5
25D
  8
DETAIL
  6
CONTINUOUS
 62
     5
 10
1275.5841840000001
 20
576.71808999999985
 30
0.0
 11
1649.4794879999999
 21
576.71808999999985
 31
0.0
  0
CIRCLE
  5
25E
  8
SIZE
  6
CONTINUOUS
 62
    30
 10
475.17584499999992
 20
436.71809000000002
 30
0.0
 40
5.0
  0
LINE
  5
25F
  8
SIZE
  6
CONTINUOUS
 62
    30
 10
475.17584499999992
 20
436.71809000000002
 30
0.0
 11
475.17584499999992
 21
72.032375999999999
 31
0.0
  0
CIRCLE
  5
260
  8
SIZE
  6
CONTINUOUS
 62
    30
 10
781.54115899999999
 20
436.71809000000002
 30
0.0
 40
5.0
  0
LINE
  5
261
  8
SIZE
  6
CONTINUOUS
 62
    30
 10
781.54115899999999
 20
460.21809000000002
 30
0.0
 11
655.06683299999975
 21
426.68311599999993
 31
0.0
  0
CIRCLE
  5
262
  8
SIZE
  6
CONTINUOUS
 62
    30
 10
781.54115899999999
 20
436.71809000000002
 30
0.0
 40
5.0
  0
LINE
  5
263
  8
SIZE
  6
CONTINUOUS
 62
    30
 10
781.54115899999999
 20
436.71809000000002
 30
0.0
 11
781.54115899999999
 21
428.71809000000002
 31
0.0
  0
LINE
  5
264
  8
SIZE
  6
CONTINUOUS
 62
    30
 10
1275.634472
 20
643.71809000000019
 30
0.0
 11
1275.634472
 21
-0.000007
 31
0.0
  0
TEXT
  5
265
  8
SIZE
  6
CONTINUOUS
 62
    30
 10
279.416809
 20
118.1568259999999
 30
0.0
 40
55.0
  1
パネル直付時
 50
90.0
 41
0.9
 72
     1
 11
279.416809
 21
289.75682599999999
 31
0.0
  0
TEXT
  5
266
  8
SIZE
  6
CONTINUOUS
 62
    30
 10
457.17584499999992
 20
90.03237585714291
 30
0.0
 40
55.0
  1
140～300
 50
90.0
 41
0.9
 72
     1
 11
457.17584499999992
 21
249.37523300000001
 31
0.0
  0
POLYLINE
  5
267
  8
SIZE
  6
CONTINUOUS
 62
    30
 66
     1
 10
0.0
 20
0.0
 30
0.0
  0
VERTEX
  5
9BE
  8
SIZE
  6
CONTINUOUS
 62
    30
 10
203.224345
 20
124.718132
 30
0.0
 42
0.186174
  0
VERTEX
  5
9BF
  8
SIZE
  6
CONTINUOUS
 62
    30
 10
212.07419300000001
 20
103.76864399999999
 30
0.0
 42
0.082105
  0
VERTEX
  5
9C0
  8
SIZE
  6
CONTINUOUS
 62
    30
 10
227.77669499999999
 20
91.594082999999998
 30
0.0
 42
0.058826
  0
VERTEX
  5
9C1
  8
SIZE
  6
CONTINUOUS
 62
    30
 10
249.56275299999999
 20
82.819156000000007
 30
0.0
 42
0.067494
  0
VERTEX
  5
9C2
  8
SIZE
  6
CONTINUOUS
 62
    30
 10
287.05131299999999
 20
77.873652000000007
 30
0.0
 42
0.067494
  0
VERTEX
  5
9C3
  8
SIZE
  6
CONTINUOUS
 62
    30
 10
324.539873
 20
82.819156000000007
 30
0.0
 42
0.058826
  0
VERTEX
  5
9C4
  8
SIZE
  6
CONTINUOUS
 62
    30
 10
346.32593100000008
 20
91.594082999999998
 30
0.0
 42
0.082105
  0
VERTEX
  5
9C5
  8
SIZE
  6
CONTINUOUS
 62
    30
 10
362.02843300000001
 20
103.76864399999999
 30
0.0
 42
0.186174
  0
VERTEX
  5
9C6
  8
SIZE
  6
CONTINUOUS
 62
    30
 10
370.87828100000002
 20
124.718132
 30
0.0
 42
0.186174
  0
VERTEX
  5
9C7
  8
SIZE
  6
CONTINUOUS
 62
    30
 10
370.87828100000002
 20
124.718132
 30
0.0
 42
0.186174
  0
SEQEND
  5
9C8
  8
SIZE
  6
CONTINUOUS
 62
    30
  0
TEXT
  5
273
  8
SIZE
  6
CONTINUOUS
 62
    30
 10
363.16658799999999
 20
175.0154772857143
 30
0.0
 40
55.0
  1
50～60
 50
90.0
 41
0.9
 72
     1
 11
363.16658799999999
 21
291.92976299999998
 31
0.0
  0
LINE
  5
274
  8
NOTE
  6
CONTINUOUS
 62
     4
 10
856.97525099999984
 20
188.686894
 30
0.0
 11
1190.847033
 21
188.686894
 31
0.0
  0
LINE
  5
275
  8
NOTE
  6
CONTINUOUS
 62
     4
 10
827.75636399999985
 20
294.162285
 30
0.0
 11
1147.4799760000001
 21
294.162285
 31
0.0
  0
TEXT
  5
276
  8
NOTE
  6
CONTINUOUS
 62
     4
 10
829.43649100000005
 20
304.93132100000008
 30
0.0
 40
60.0
  1
RG %%C12.7
 50
359.99999700000001
 41
0.7
  7
STANDARD1
  0
TEXT
  5
277
  8
SIZE
  6
CONTINUOUS
 62
    30
 10
637.06683299999986
 20
328.54025942857152
 30
0.0
 40
55.0
  1
47
 50
90.0
 41
0.9
 72
     1
 11
637.06683299999986
 21
368.61168800000002
 31
0.0
  0
TEXT
  5
278
  8
SIZE
  6
CONTINUOUS
 62
    30
 10
763.54115899999999
 20
357.71809000000002
 30
0.0
 40
55.0
  1
8
 50
90.0
 41
0.9
 72
     1
 11
763.54115899999999
 21
374.21809000000002
 31
0.0
  0
LINE
  5
279
  8
SIZE
  6
CONTINUOUS
 62
    30
 10
655.06683299999975
 20
426.68311599999993
 30
0.0
 11
655.06683299999975
 21
310.54025899999999
 31
0.0
  0
LINE
  5
27A
  8
SIZE
  6
CONTINUOUS
 62
    30
 10
781.54115899999999
 20
431.71809000000002
 30
0.0
 11
781.54115899999999
 21
426.71809000000002
 31
0.0
  0
LINE
  5
27B
  8
SIZE
  6
CONTINUOUS
 62
    30
 10
781.54115899999999
 20
426.71809000000002
 30
0.0
 11
781.54115899999999
 21
416.71808999999979
 31
0.0
  0
LINE
  5
27C
  8
SIZE
  6
CONTINUOUS
 62
    30
 10
781.54115899999999
 20
423.71809000000002
 30
0.0
 11
781.54115899999999
 21
418.71809000000002
 31
0.0
  0
CIRCLE
  5
27D
  8
SIZE
  6
CONTINUOUS
 62
    30
 10
781.54115899999999
 20
428.71809000000002
 30
0.0
 40
5.0
  0
LINE
  5
27E
  8
SIZE
  6
CONTINUOUS
 62
    30
 10
781.54115899999999
 20
418.71809000000002
 30
0.0
 11
781.54115899999999
 21
339.71809000000002
 31
0.0
  0
LINE
  5
27F
  8
SIZE
  6
CONTINUOUS
 62
    30
 10
1280.634472
 20
29.999993
 30
0.0
 11
1285.634472
 21
29.999993
 31
0.0
  0
CIRCLE
  5
280
  8
SIZE
  6
CONTINUOUS
 62
    30
 10
1275.634472
 20
29.999993
 30
0.0
 40
5.0
  0
TEXT
  5
281
  8
NOTE
  6
CONTINUOUS
 62
     4
 10
871.76684599999999
 20
201.56741600000001
 30
0.0
 40
60.0
  1
RL %%C6.35
 50
359.99999700000001
 41
0.7
  7
STANDARD1
  0
TEXT
  5
282
  8
NOTE
  6
CONTINUOUS
 62
     4
 10
414.64620600000001
 20
1096.4879800000001
 30
0.0
 40
60.0
  1
%%C200 吹出円形フランジ
 50
359.99999700000001
 41
0.7
  7
STANDARD1
  0
TEXT
  5
283
  8
SIZE
  6
CONTINUOUS
 62
    30
 10
457.17584499999992
 20
659.57523285714274
 30
0.0
 40
55.0
  1
293
 50
90.0
 41
0.9
 72
     1
 11
457.17584499999992
 21
723.21808999999985
 31
0.0
  0
TEXT
  5
284
  8
ETC
  6
CONTINUOUS
 62
    61
 10
0.000005
 20
1430.551201
 30
0.0
 40
80.0
  1
MPD-RP40_50FA3_4
 50
359.99999700000001
 41
0.8
  0
POLYLINE
  5
285
  8
SIZE
  6
CONTINUOUS
 62
    30
 66
     1
 10
0.0
 20
0.0
 30
0.0
  0
VERTEX
  5
9C9
  8
SIZE
  6
CONTINUOUS
 62
    30
 10
370.87828100000002
 20
452.46375799999998
 30
0.0
 42
0.186174
  0
VERTEX
  5
9CA
  8
SIZE
  6
CONTINUOUS
 62
    30
 10
362.02843300000001
 20
473.41324600000002
 30
0.0
 42
0.082105
  0
VERTEX
  5
9CB
  8
SIZE
  6
CONTINUOUS
 62
    30
 10
346.32593100000008
 20
485.58780700000011
 30
0.0
 42
0.058826
  0
VERTEX
  5
9CC
  8
SIZE
  6
CONTINUOUS
 62
    30
 10
324.539873
 20
494.36273399999988
 30
0.0
 42
0.067494
  0
VERTEX
  5
9CD
  8
SIZE
  6
CONTINUOUS
 62
    30
 10
287.05131299999999
 20
499.30823700000002
 30
0.0
 42
0.067494
  0
VERTEX
  5
9CE
  8
SIZE
  6
CONTINUOUS
 62
    30
 10
249.56275299999999
 20
494.36273399999988
 30
0.0
 42
0.058826
  0
VERTEX
  5
9CF
  8
SIZE
  6
CONTINUOUS
 62
    30
 10
227.77669499999999
 20
485.58780700000011
 30
0.0
 42
0.082105
  0
VERTEX
  5
9D0
  8
SIZE
  6
CONTINUOUS
 62
    30
 10
212.07419300000001
 20
473.41324600000002
 30
0.0
 42
0.186174
  0
VERTEX
  5
9D1
  8
SIZE
  6
CONTINUOUS
 62
    30
 10
203.224345
 20
452.46375799999998
 30
0.0
 42
0.186174
  0
SEQEND
  5
9D2
  8
SIZE
  6
CONTINUOUS
 62
    30
  0
LINE
  5
290
  8
SIZE
  6
CONTINUOUS
 62
    30
 10
1275.634472
 20
889.71808999999985
 30
0.0
 11
1275.634472
 21
1239.1657889999999
 31
0.0
  0
LINE
  5
291
  8
SIZE
  6
CONTINUOUS
 62
    30
 10
1205.634472
 20
851.21808999999985
 30
0.0
 11
1205.634472
 21
1486.4745230000001
 31
0.0
  0
LINE
  5
292
  8
SIZE
  6
CONTINUOUS
 62
    30
 10
1275.634472
 20
889.71808999999985
 30
0.0
 11
1275.634472
 21
1486.4745230000001
 31
0.0
  0
LINE
  5
293
  8
SIZE
  6
CONTINUOUS
 62
    30
 10
1275.634472
 20
889.71808999999985
 30
0.0
 11
1275.634472
 21
1486.4745230000001
 31
0.0
  0
LINE
  5
294
  8
SIZE
  6
CONTINUOUS
 62
    30
 10
1309.634472
 20
904.71325599999989
 30
0.0
 11
1309.634472
 21
1360.706173
 31
0.0
  0
LINE
  5
295
  8
SIZE
  6
CONTINUOUS
 62
    30
 10
1245.634472
 20
853.71808999999985
 30
0.0
 11
1245.634472
 21
1062.788632
 31
0.0
  0
LINE
  5
296
  8
SIZE
  6
CONTINUOUS
 62
    30
 10
1205.634472
 20
851.21808999999985
 30
0.0
 11
1205.634472
 21
1062.788632
 31
0.0
  0
LINE
  5
297
  8
NOTE
  6
CONTINUOUS
 62
     4
 10
1004.880033
 20
1081.692288
 30
0.0
 11
1205.634472
 21
733.71808999999985
 31
0.0
  0
LINE
  5
298
  8
SIZE
  6
CONTINUOUS
 62
    30
 10
1254.923076
 20
576.71808999999985
 30
0.0
 11
445.17584499999981
 21
576.71808999999985
 31
0.0
  0
LINE
  5
299
  8
SIZE
  6
CONTINUOUS
 62
    30
 10
1255.634472
 20
869.71808999999985
 30
0.0
 11
735.58852400000001
 21
869.71808999999985
 31
0.0
  0
TEXT
  5
29A
  8
SIZE
  6
CONTINUOUS
 62
    30
 10
874.59580500000004
 20
897.71808999999985
 30
0.0
 40
55.0
  1
136
 50
90.0
 41
0.9
 72
     1
 11
874.59580500000004
 21
955.46808999999985
 31
0.0
  0
LINE
  5
29B
  8
SIZE
  6
CONTINUOUS
 62
    30
 10
1113.689957
 20
733.71808999999985
 30
0.0
 11
862.59580500000015
 21
733.71808999999985
 31
0.0
  0
LINE
  5
29C
  8
SIZE
  6
CONTINUOUS
 62
    30
 10
1255.634472
 20
869.71808999999985
 30
0.0
 11
862.59580500000015
 21
869.71808999999985
 31
0.0
  0
LINE
  5
29D
  8
SIZE
  6
CONTINUOUS
 62
    30
 10
1255.5841840000001
 20
576.71808999999985
 30
0.0
 11
445.17584499999981
 21
576.71808999999985
 31
0.0
  0
LINE
  5
29E
  8
SIZE
  6
CONTINUOUS
 62
    30
 10
1255.634472
 20
869.71808999999985
 30
0.0
 11
445.17584499999981
 21
869.71808999999985
 31
0.0
  0
TEXT
  5
29F
  8
SIZE
  6
CONTINUOUS
 62
    30
 10
616.8711599999998
 20
712.51983242857136
 30
0.0
 40
55.0
  1
28
 50
90.0
 41
0.9
 72
     1
 11
616.8711599999998
 21
752.59126100000003
 31
0.0
  0
LINE
  5
2A0
  8
SIZE
  6
CONTINUOUS
 62
    30
 10
634.87115999999958
 20
694.51983200000018
 30
0.0
 11
634.87115999999958
 21
810.66268899999989
 31
0.0
  0
TEXT
  5
2A1
  8
SIZE
  6
CONTINUOUS
 62
    30
 10
747.58852400000001
 20
724.7895185714284
 30
0.0
 40
55.0
  1
172
 50
90.0
 41
0.9
 72
     1
 11
747.58852400000001
 21
783.71808999999985
 31
0.0
  0
LINE
  5
2A2
  8
SIZE
  6
CONTINUOUS
 62
    30
 10
765.58852399999989
 20
859.71808999999973
 30
0.0
 11
765.58852399999989
 21
707.71808999999996
 31
0.0
  0
LINE
  5
2A3
  8
SIZE
  6
CONTINUOUS
 62
    30
 10
475.17584499999992
 20
859.71808999999973
 30
0.0
 11
475.17584499999992
 21
586.71809000000007
 31
0.0
  0
LINE
  5
2A4
  8
SIZE
  6
CONTINUOUS
 62
    30
 10
765.58852399999989
 20
683.71941100000004
 30
0.0
 11
634.87115999999958
 21
694.51983200000018
 31
0.0
  0
POINT
  5
2A5
  8
DEFPOINTS
  6
CONTINUOUS
 62
     7
 10
475.17584499999992
 20
436.71809000000002
 30
0.0
  0
LINE
  5
2A6
  8
SIZE
  6
CONTINUOUS
 62
    30
 10
475.17584499999992
 20
441.71808999999979
 30
0.0
 11
475.17584499999992
 21
446.71809000000002
 31
0.0
  0
LINE
  5
2A7
  8
SIZE
  6
CONTINUOUS
 62
    30
 10
475.17584499999992
 20
571.71808999999985
 30
0.0
 11
475.17584499999992
 21
566.71808999999985
 31
0.0
  0
CIRCLE
  5
2A8
  8
SIZE
  6
CONTINUOUS
 62
    30
 10
475.17584499999992
 20
576.71808999999985
 30
0.0
 40
5.0
  0
LINE
  5
2A9
  8
SIZE
  6
CONTINUOUS
 62
    30
 10
475.17584499999992
 20
566.71808999999985
 30
0.0
 11
475.17584499999992
 21
446.71809000000002
 31
0.0
  0
POINT
  5
2AA
  8
DEFPOINTS
  6
CONTINUOUS
 62
     7
 10
475.17584499999992
 20
576.71808999999985
 30
0.0
  0
LINE
  5
2AB
  8
SIZE
  6
CONTINUOUS
 62
    30
 10
475.17584499999992
 20
581.71809000000019
 30
0.0
 11
475.17584499999992
 21
586.71809000000007
 31
0.0
  0
CIRCLE
  5
2AC
  8
SIZE
  6
CONTINUOUS
 62
    30
 10
475.17584499999992
 20
576.71808999999985
 30
0.0
 40
5.0
  0
POINT
  5
2AD
  8
DEFPOINTS
  6
CONTINUOUS
 62
     7
 10
781.54115899999999
 20
483.7180899999999
 30
0.0
  0
LINE
  5
2AE
  8
SIZE
  6
CONTINUOUS
 62
    30
 10
781.54115899999999
 20
488.71809000000002
 30
0.0
 11
781.54115899999999
 21
493.71809000000002
 31
0.0
  0
CIRCLE
  5
2AF
  8
SIZE
  6
CONTINUOUS
 62
    30
 10
781.54115899999999
 20
483.7180899999999
 30
0.0
 40
5.0
  0
LINE
  5
2B0
  8
SIZE
  6
CONTINUOUS
 62
    30
 10
781.54115899999999
 20
436.71809000000002
 30
0.0
 11
781.54115899999999
 21
483.7180899999999
 31
0.0
  0
LINE
  5
2B1
  8
SIZE
  6
CONTINUOUS
 62
    30
 10
781.54115899999999
 20
436.71809000000002
 30
0.0
 11
781.54115899999999
 21
483.7180899999999
 31
0.0
  0
LINE
  5
2B2
  8
SIZE
  6
CONTINUOUS
 62
    30
 10
781.54115899999999
 20
493.71809000000002
 30
0.0
 11
781.54115899999999
 21
503.71809000000002
 31
0.0
  0
POINT
  5
2B3
  8
DEFPOINTS
  6
CONTINUOUS
 62
     7
 10
781.54115899999999
 20
436.71809000000002
 30
0.0
  0
LINE
  5
2B4
  8
SIZE
  6
CONTINUOUS
 62
    30
 10
781.54115899999999
 20
441.71808999999979
 30
0.0
 11
781.54115899999999
 21
446.71809000000002
 31
0.0
  0
LINE
  5
2B5
  8
SIZE
  6
CONTINUOUS
 62
    30
 10
781.54115899999999
 20
446.71809000000002
 30
0.0
 11
781.54115899999999
 21
456.71809000000002
 31
0.0
  0
POINT
  5
2B6
  8
DEFPOINTS
  6
CONTINUOUS
 62
     7
 10
765.58852399999989
 20
669.720731
 30
0.0
  0
LINE
  5
2B7
  8
SIZE
  6
CONTINUOUS
 62
    30
 10
765.58852399999989
 20
664.72073099999966
 30
0.0
 11
765.58852399999989
 21
659.72073099999989
 31
0.0
  0
CIRCLE
  5
2B8
  8
SIZE
  6
CONTINUOUS
 62
    30
 10
765.58852399999989
 20
669.720731
 30
0.0
 40
5.0
  0
LINE
  5
2B9
  8
SIZE
  6
CONTINUOUS
 62
    30
 10
765.58852399999989
 20
702.71809000000019
 30
0.0
 11
765.58852399999989
 21
707.71808999999996
 31
0.0
  0
CIRCLE
  5
2BA
  8
SIZE
  6
CONTINUOUS
 62
    30
 10
765.58852399999989
 20
697.71808999999985
 30
0.0
 40
5.0
  0
LINE
  5
2BB
  8
SIZE
  6
CONTINUOUS
 62
    30
 10
765.58852399999989
 20
697.71808999999985
 30
0.0
 11
765.58852399999989
 21
669.720731
 31
0.0
  0
LINE
  5
2BC
  8
SIZE
  6
CONTINUOUS
 62
    30
 10
765.58852399999989
 20
697.71808999999985
 30
0.0
 11
765.58852399999989
 21
669.720731
 31
0.0
  0
LINE
  5
2BD
  8
SIZE
  6
CONTINUOUS
 62
    30
 10
765.58852399999989
 20
659.72073099999989
 30
0.0
 11
765.58852399999989
 21
649.720731
 31
0.0
  0
LINE
  5
2BE
  8
SIZE
  6
CONTINUOUS
 62
    30
 10
765.58852399999989
 20
707.71808999999996
 30
0.0
 11
765.58852399999989
 21
717.71808999999985
 31
0.0
  0
POINT
  5
2BF
  8
DEFPOINTS
  6
CONTINUOUS
 62
     7
 10
765.58852399999989
 20
697.71808999999985
 30
0.0
  0
LINE
  5
2C0
  8
SIZE
  6
CONTINUOUS
 62
    30
 10
765.58852399999989
 20
702.71809000000019
 30
0.0
 11
765.58852399999989
 21
707.71808999999996
 31
0.0
  0
CIRCLE
  5
2C1
  8
SIZE
  6
CONTINUOUS
 62
    30
 10
765.58852399999989
 20
697.71808999999985
 30
0.0
 40
5.0
  0
LINE
  5
2C2
  8
SIZE
  6
CONTINUOUS
 62
    30
 10
475.17584499999992
 20
864.71808999999985
 30
0.0
 11
475.17584499999992
 21
859.71808999999973
 31
0.0
  0
CIRCLE
  5
2C3
  8
SIZE
  6
CONTINUOUS
 62
    30
 10
475.17584499999992
 20
869.71808999999985
 30
0.0
 40
5.0
  0
LINE
  5
2C4
  8
SIZE
  6
CONTINUOUS
 62
    30
 10
765.58852399999989
 20
864.71808999999985
 30
0.0
 11
765.58852399999989
 21
859.71808999999973
 31
0.0
  0
CIRCLE
  5
2C5
  8
SIZE
  6
CONTINUOUS
 62
    30
 10
765.58852399999989
 20
869.71808999999985
 30
0.0
 40
5.0
  0
LINE
  5
2C6
  8
SIZE
  6
CONTINUOUS
 62
    30
 10
892.59580500000004
 20
738.71808999999985
 30
0.0
 11
892.59580500000004
 21
743.71808999999985
 31
0.0
  0
LINE
  5
2C7
  8
OUTLINE
  6
CONTINUOUS
 62
     3
 10
1275.634472
 20
869.71808999999985
 30
0.0
 11
1275.634472
 21
576.71808999999985
 31
0.0
  0
LINE
  5
2C8
  8
NOTE
  6
CONTINUOUS
 62
     4
 10
1205.634472
 20
733.71808999999985
 30
0.0
 11
1195.245101
 21
766.49629400000003
 31
0.0
  0
LINE
  5
2C9
  8
NOTE
  6
CONTINUOUS
 62
     4
 10
1205.634472
 20
733.71808999999985
 30
0.0
 11
1180.2479109999999
 21
756.91016100000002
 31
0.0
  0
LINE
  5
2CA
  8
NOTE
  6
CONTINUOUS
 62
     4
 10
1205.634472
 20
805.66260499999999
 30
0.0
 11
1205.634472
 21
661.77357500000005
 31
0.0
  0
LINE
  5
2CB
  8
DETAIL
  6
CONTINUOUS
 62
     5
 10
1245.634472
 20
833.71808999999985
 30
0.0
 11
1245.634472
 21
633.71808999999985
 31
0.0
  0
LINE
  5
2CC
  8
DETAIL
  6
CONTINUOUS
 62
     5
 10
1205.634472
 20
831.21808999999973
 30
0.0
 11
1205.634472
 21
636.21809000000019
 31
0.0
  0
LINE
  5
2CD
  8
DETAIL
  6
CONTINUOUS
 62
     5
 10
1275.634472
 20
869.71808999999985
 30
0.0
 11
1275.634472
 21
576.71808999999985
 31
0.0
  0
LINE
  5
2CE
  8
DETAIL
  6
CONTINUOUS
 62
     5
 10
1260.634472
 20
837.71808999999985
 30
0.0
 11
1260.634472
 21
629.71808999999985
 31
0.0
  0
POINT
  5
2CF
  8
DEFPOINTS
  6
CONTINUOUS
 62
     7
 10
892.59580500000004
 20
733.71808999999985
 30
0.0
  0
CIRCLE
  5
2D0
  8
SIZE
  6
CONTINUOUS
 62
    30
 10
892.59580500000004
 20
733.71808999999985
 30
0.0
 40
5.0
  0
POINT
  5
2D1
  8
DEFPOINTS
  6
CONTINUOUS
 62
     7
 10
1274.923076
 20
576.71808999999985
 30
0.0
  0
POINT
  5
2D2
  8
DEFPOINTS
  6
CONTINUOUS
 62
     7
 10
1275.5841840000001
 20
576.71808999999985
 30
0.0
  0
LINE
  5
2D3
  8
NOTE
  6
CONTINUOUS
 62
     4
 10
1277.5789870000001
 20
733.71808999999985
 30
0.0
 11
1133.689957
 21
733.71808999999985
 31
0.0
  0
POINT
  5
2D4
  8
DEFPOINTS
  6
CONTINUOUS
 62
     7
 10
1133.689957
 20
733.71808999999985
 30
0.0
  0
POINT
  5
2D5
  8
DEFPOINTS
  6
CONTINUOUS
 62
     7
 10
1275.634472
 20
663.71808999999985
 30
0.0
  0
ARC
  5
2D6
  8
DETAIL
  6
CONTINUOUS
 62
     5
 10
1258.634472
 20
631.71809000000019
 30
0.0
 40
2.0
 50
0.0
 51
90.0
  0
LINE
  5
2D7
  8
DETAIL
  6
CONTINUOUS
 62
     5
 10
1240.634472
 20
633.71808999999985
 30
0.0
 11
1205.634472
 21
636.21809000000019
 31
0.0
  0
LINE
  5
2D8
  8
DETAIL
  6
CONTINUOUS
 62
     5
 10
1240.634472
 20
633.71808999999985
 30
0.0
 11
1258.634472
 21
633.71808999999985
 31
0.0
  0
LINE
  5
2D9
  8
DETAIL
  6
CONTINUOUS
 62
     5
 10
1264.634472
 20
625.71808999999985
 30
0.0
 11
1275.634472
 21
625.71808999999985
 31
0.0
  0
ARC
  5
2DA
  8
DETAIL
  6
CONTINUOUS
 62
     5
 10
1264.634472
 20
629.71808999999985
 30
0.0
 40
4.0
 50
180.0
 51
270.0
  0
LINE
  5
2DB
  8
SIZE
  6
CONTINUOUS
 62
    30
 10
1195.634472
 20
1032.788632
 30
0.0
 11
1069.4916149999999
 21
1032.788632
 31
0.0
  0
LINE
  5
2DC
  8
SIZE
  6
CONTINUOUS
 62
    30
 10
892.59580500000004
 20
869.71808999999985
 30
0.0
 11
892.59580500000004
 21
1031.2180900000001
 31
0.0
  0
LINE
  5
2DD
  8
SIZE
  6
CONTINUOUS
 62
    30
 10
892.59580500000004
 20
864.71808999999985
 30
0.0
 11
892.59580500000004
 21
859.71808999999973
 31
0.0
  0
CIRCLE
  5
2DE
  8
SIZE
  6
CONTINUOUS
 62
    30
 10
892.59580500000004
 20
869.71808999999985
 30
0.0
 40
5.0
  0
LINE
  5
2DF
  8
SIZE
  6
CONTINUOUS
 62
    30
 10
892.59580500000004
 20
743.71808999999985
 30
0.0
 11
892.59580500000004
 21
859.71808999999973
 31
0.0
  0
POINT
  5
2E0
  8
DEFPOINTS
  6
CONTINUOUS
 62
     7
 10
1275.634472
 20
869.71808999999985
 30
0.0
  0
POINT
  5
2E1
  8
DEFPOINTS
  6
CONTINUOUS
 62
     7
 10
1275.634472
 20
869.71808999999985
 30
0.0
  0
POINT
  5
2E2
  8
DEFPOINTS
  6
CONTINUOUS
 62
     7
 10
1275.634472
 20
869.71808999999985
 30
0.0
  0
POINT
  5
2E3
  8
DEFPOINTS
  6
CONTINUOUS
 62
     7
 10
1275.634472
 20
869.71808999999985
 30
0.0
  0
POINT
  5
2E4
  8
DEFPOINTS
  6
CONTINUOUS
 62
     7
 10
1205.634472
 20
831.21808999999973
 30
0.0
  0
POINT
  5
2E5
  8
DEFPOINTS
  6
CONTINUOUS
 62
     7
 10
1275.634472
 20
869.71808999999985
 30
0.0
  0
POINT
  5
2E6
  8
DEFPOINTS
  6
CONTINUOUS
 62
     7
 10
1275.634472
 20
869.71808999999985
 30
0.0
  0
POINT
  5
2E7
  8
DEFPOINTS
  6
CONTINUOUS
 62
     7
 10
1309.634472
 20
884.713256
 30
0.0
  0
POINT
  5
2E8
  8
DEFPOINTS
  6
CONTINUOUS
 62
     7
 10
1245.634472
 20
833.71808999999985
 30
0.0
  0
POINT
  5
2E9
  8
DEFPOINTS
  6
CONTINUOUS
 62
     7
 10
1205.634472
 20
831.21808999999973
 30
0.0
  0
LINE
  5
2EA
  8
NOTE
  6
CONTINUOUS
 62
     4
 10
1309.634472
 20
884.713256
 30
0.0
 11
1309.634472
 21
854.72292400000003
 31
0.0
  0
LINE
  5
2EB
  8
DETAIL
  6
CONTINUOUS
 62
     5
 10
1275.634104
 20
834.71812199999988
 30
0.0
 11
1275.634472
 21
869.71808999999985
 31
0.0
  0
ARC
  5
2EC
  8
DETAIL
  6
CONTINUOUS
 62
     5
 10
1278.634104
 20
834.71808999999973
 30
0.0
 40
3.0
 50
179.99939800000001
 51
270.0
  0
LINE
  5
2ED
  8
DETAIL
  6
CONTINUOUS
 62
     5
 10
1296.134219
 20
857.71808999999985
 30
0.0
 11
1278.134219
 21
857.71808999999985
 31
0.0
  0
LINE
  5
2EE
  8
DETAIL
  6
CONTINUOUS
 62
     5
 10
1299.134219
 20
869.71808999999985
 30
0.0
 11
1299.134219
 21
860.71808999999985
 31
0.0
  0
ARC
  5
2EF
  8
DETAIL
  6
CONTINUOUS
 62
     5
 10
1278.634219
 20
860.71808999999985
 30
0.0
 40
3.0
 50
180.0
 51
270.0
  0
ARC
  5
2F0
  8
DETAIL
  6
CONTINUOUS
 62
     5
 10
1296.134219
 20
860.71808999999985
 30
0.0
 40
3.0
 50
270.0
 51
0.0
  0
ARC
  5
2F1
  8
DETAIL
  6
CONTINUOUS
 62
     5
 10
1314.134219
 20
860.71808999999985
 30
0.0
 40
3.0
 50
180.0
 51
270.0
  0
LINE
  5
2F2
  8
DETAIL
  6
CONTINUOUS
 62
     5
 10
1311.134219
 20
869.71808999999985
 30
0.0
 11
1311.134219
 21
860.71808999999985
 31
0.0
  0
ARC
  5
2F3
  8
DETAIL
  6
CONTINUOUS
 62
     5
 10
1258.634472
 20
835.71808999999985
 30
0.0
 40
2.0
 50
270.0
 51
0.0
  0
LINE
  5
2F4
  8
DETAIL
  6
CONTINUOUS
 62
     5
 10
1240.634472
 20
833.71808999999985
 30
0.0
 11
1258.634472
 21
833.71808999999985
 31
0.0
  0
LINE
  5
2F5
  8
DETAIL
  6
CONTINUOUS
 62
     5
 10
1240.634472
 20
833.71808999999985
 30
0.0
 11
1205.634472
 21
831.21808999999973
 31
0.0
  0
LINE
  5
2F6
  8
DETAIL
  6
CONTINUOUS
 62
     5
 10
1264.634472
 20
841.71808999999985
 30
0.0
 11
1275.634472
 21
841.71808999999985
 31
0.0
  0
ARC
  5
2F7
  8
DETAIL
  6
CONTINUOUS
 62
     5
 10
1264.634472
 20
837.71808999999985
 30
0.0
 40
4.0
 50
90.0
 51
180.0
  0
CIRCLE
  5
2F8
  8
SIZE
  6
CONTINUOUS
 62
    30
 10
1205.634472
 20
1032.788632
 30
0.0
 40
5.0
  0
LINE
  5
2F9
  8
SIZE
  6
CONTINUOUS
 62
    30
 10
1200.634472
 20
1032.788632
 30
0.0
 11
1195.634472
 21
1032.788632
 31
0.0
  0
POINT
  5
2FA
  8
DEFPOINTS
  6
CONTINUOUS
 62
     7
 10
1245.634472
 20
1032.788632
 30
0.0
  0
LINE
  5
2FB
  8
SIZE
  6
CONTINUOUS
 62
    30
 10
1250.634472
 20
1032.788632
 30
0.0
 11
1255.634472
 21
1032.788632
 31
0.0
  0
CIRCLE
  5
2FC
  8
SIZE
  6
CONTINUOUS
 62
    30
 10
1245.634472
 20
1032.788632
 30
0.0
 40
5.0
  0
LINE
  5
2FD
  8
SIZE
  6
CONTINUOUS
 62
    30
 10
1245.634472
 20
1032.788632
 30
0.0
 11
1205.634472
 21
1032.788632
 31
0.0
  0
LINE
  5
2FE
  8
SIZE
  6
CONTINUOUS
 62
    30
 10
1255.634472
 20
1032.788632
 30
0.0
 11
1265.634472
 21
1032.788632
 31
0.0
  0
LINE
  5
2FF
  8
NOTE
  6
CONTINUOUS
 62
     4
 10
421.90251499999999
 20
1081.692288
 30
0.0
 11
1004.880033
 21
1081.692288
 31
0.0
  0
TEXT
  5
300
  8
SIZE
  6
CONTINUOUS
 62
    30
 10
1067.2911245714281
 20
1227.1657889999999
 30
0.0
 40
55.0
  1
128
 41
0.9
 72
     1
 11
1126.2196960000001
 21
1227.1657889999999
 31
0.0
  0
LINE
  5
301
  8
SIZE
  6
CONTINUOUS
 62
    30
 10
1275.634472
 20
1209.1657889999999
 30
0.0
 11
1049.2911240000001
 21
1209.1657889999999
 31
0.0
  0
TEXT
  5
302
  8
SIZE
  6
CONTINUOUS
 62
    30
 10
1087.491614428571
 20
1050.788632
 30
0.0
 40
55.0
  1
40
 41
0.9
 72
     1
 11
1127.5630430000001
 21
1050.788632
 31
0.0
  0
LINE
  5
303
  8
SIZE
  6
CONTINUOUS
 62
    30
 10
1280.634472
 20
1209.1657889999999
 30
0.0
 11
1285.634472
 21
1209.1657889999999
 31
0.0
  0
CIRCLE
  5
304
  8
SIZE
  6
CONTINUOUS
 62
    30
 10
1275.634472
 20
1209.1657889999999
 30
0.0
 40
5.0
  0
POINT
  5
305
  8
DEFPOINTS
  6
CONTINUOUS
 62
     7
 10
1309.634472
 20
1330.706173
 30
0.0
  0
TEXT
  5
306
  8
SIZE
  6
CONTINUOUS
 62
    30
 10
1200.5630434285711
 20
1474.4745230000001
 30
0.0
 40
55.0
  1
70
 41
0.9
 72
     1
 11
1240.634472
 21
1474.4745230000001
 31
0.0
  0
CIRCLE
  5
307
  8
SIZE
  6
CONTINUOUS
 62
    30
 10
1205.634472
 20
1456.4745230000001
 30
0.0
 40
5.0
  0
LINE
  5
308
  8
SIZE
  6
CONTINUOUS
 62
    30
 10
1200.634472
 20
1456.4745230000001
 30
0.0
 11
1195.634472
 21
1456.4745230000001
 31
0.0
  0
LINE
  5
309
  8
SIZE
  6
CONTINUOUS
 62
    30
 10
1195.634472
 20
1456.4745230000001
 30
0.0
 11
1185.634472
 21
1456.4745230000001
 31
0.0
  0
POINT
  5
30A
  8
DEFPOINTS
  6
CONTINUOUS
 62
     7
 10
1205.634472
 20
1456.4745230000001
 30
0.0
  0
LINE
  5
30B
  8
SIZE
  6
CONTINUOUS
 62
    30
 10
1280.634472
 20
1456.4745230000001
 30
0.0
 11
1285.634472
 21
1456.4745230000001
 31
0.0
  0
CIRCLE
  5
30C
  8
SIZE
  6
CONTINUOUS
 62
    30
 10
1275.634472
 20
1456.4745230000001
 30
0.0
 40
5.0
  0
LINE
  5
30D
  8
SIZE
  6
CONTINUOUS
 62
    30
 10
1275.634472
 20
1456.4745230000001
 30
0.0
 11
1205.634472
 21
1456.4745230000001
 31
0.0
  0
LINE
  5
30E
  8
SIZE
  6
CONTINUOUS
 62
    30
 10
1285.634472
 20
1456.4745230000001
 30
0.0
 11
1295.634472
 21
1456.4745230000001
 31
0.0
  0
POINT
  5
30F
  8
DEFPOINTS
  6
CONTINUOUS
 62
     7
 10
1275.634472
 20
1456.4745230000001
 30
0.0
  0
LINE
  5
310
  8
SIZE
  6
CONTINUOUS
 62
    30
 10
1280.634472
 20
1456.4745230000001
 30
0.0
 11
1285.634472
 21
1456.4745230000001
 31
0.0
  0
CIRCLE
  5
311
  8
SIZE
  6
CONTINUOUS
 62
    30
 10
1275.634472
 20
1456.4745230000001
 30
0.0
 40
5.0
  0
LINE
  5
312
  8
BASIS
  6
DASHDOT
 62
     6
 10
1643.134472
 20
905.28980299999989
 30
0.0
 11
1643.134472
 21
382.83191900000003
 31
0.0
  0
CIRCLE
  5
313
  8
ARRANGE
  6
CONTINUOUS
 62
     1
 10
1643.134472
 20
436.71809000000002
 30
0.0
 40
50.0
  0
LINE
  5
314
  8
OUTLINE
  6
CONTINUOUS
 62
     3
 10
1485.634472
 20
436.71809000000002
 30
0.0
 11
1485.634472
 21
432.71158200000002
 31
0.0
  0
LINE
  5
315
  8
OUTLINE
  6
CONTINUOUS
 62
     3
 10
2085.6344720000002
 20
436.71809000000002
 30
0.0
 11
2085.6344720000002
 21
432.71158200000002
 31
0.0
  0
LINE
  5
316
  8
ARRANGE
  6
CONTINUOUS
 62
     1
 10
1593.170709
 20
486.31468499999988
 30
0.0
 11
1693.0982349999999
 21
387.12149499999998
 31
0.0
  0
LINE
  5
317
  8
ARRANGE
  6
CONTINUOUS
 62
     1
 10
1593.0971219999999
 20
387.19573700000001
 30
0.0
 11
1693.171822
 21
486.2404429999998
 31
0.0
  0
LINE
  5
318
  8
DETAIL
  6
CONTINUOUS
 62
     5
 10
2085.6344720000002
 20
432.71158200000002
 30
0.0
 11
2085.6344720000002
 21
436.71809000000002
 31
0.0
  0
LINE
  5
319
  8
DETAIL
  6
CONTINUOUS
 62
     5
 10
1485.634472
 20
432.71158200000002
 30
0.0
 11
1485.634472
 21
436.71809000000002
 31
0.0
  0
TEXT
  5
31A
  8
SIZE
  6
CONTINUOUS
 62
    30
 10
1510.352165285715
 20
46.404754999999987
 30
0.0
 40
55.0
  1
566(天井開口寸法)
 41
0.9
 72
     1
 11
1784.016451
 21
46.404754999999987
 31
0.0
  0
LINE
  5
31B
  8
SIZE
  6
CONTINUOUS
 62
    30
 10
2058.6344720000002
 20
29.999993
 30
0.0
 11
1512.634472
 21
29.999993
 31
0.0
  0
TEXT
  5
31C
  8
SIZE
  6
CONTINUOUS
 62
    30
 10
1729.6694708571431
 20
204.09143399999999
 30
0.0
 40
55.0
  1
600
 41
0.9
 72
     1
 11
1793.312328
 21
204.09143399999999
 31
0.0
  0
LINE
  5
31D
  8
SIZE
  6
CONTINUOUS
 62
    30
 10
2075.6344720000002
 20
186.09143399999999
 30
0.0
 11
1495.634472
 21
186.09143399999999
 31
0.0
  0
LINE
  5
31E
  8
OUTLINE
  6
CONTINUOUS
 62
     3
 10
1516.334472
 20
428.71809000000002
 30
0.0
 11
2054.9344719999999
 21
428.71809000000002
 31
0.0
  0
LINE
  5
31F
  8
DETAIL
  6
CONTINUOUS
 62
     5
 10
1516.334472
 20
428.71809000000002
 30
0.0
 11
2054.9344719999999
 21
428.71809000000002
 31
0.0
  0
LINE
  5
320
  8
SIZE
  6
CONTINUOUS
 62
    30
 10
1502.634472
 20
417.71809000000002
 30
0.0
 11
1502.634472
 21
-0.000007
 31
0.0
  0
LINE
  5
321
  8
SIZE
  6
CONTINUOUS
 62
    30
 10
1502.634472
 20
417.71809000000002
 30
0.0
 11
1502.634472
 21
-0.000007
 31
0.0
  0
TEXT
  5
322
  8
SIZE
  6
CONTINUOUS
 62
    30
 10
1325.4916148571431
 20
47.999992999999982
 30
0.0
 40
55.0
  1
227
 41
0.9
 72
     1
 11
1389.134472
 21
47.999992999999982
 31
0.0
  0
POINT
  5
323
  8
DEFPOINTS
  6
CONTINUOUS
 62
     7
 10
1502.634472
 20
29.999993
 30
0.0
  0
LINE
  5
324
  8
SIZE
  6
CONTINUOUS
 62
    30
 10
1497.634472
 20
29.999993
 30
0.0
 11
1492.634472
 21
29.999993
 31
0.0
  0
CIRCLE
  5
325
  8
SIZE
  6
CONTINUOUS
 62
    30
 10
1502.634472
 20
29.999993
 30
0.0
 40
5.0
  0
POINT
  5
326
  8
DEFPOINTS
  6
CONTINUOUS
 62
     7
 10
1502.634472
 20
29.999993
 30
0.0
  0
LINE
  5
327
  8
SIZE
  6
CONTINUOUS
 62
    30
 10
1507.634472
 20
29.999993
 30
0.0
 11
1512.634472
 21
29.999993
 31
0.0
  0
CIRCLE
  5
328
  8
SIZE
  6
CONTINUOUS
 62
    30
 10
1502.634472
 20
29.999993
 30
0.0
 40
5.0
  0
LINE
  5
329
  8
SIZE
  6
CONTINUOUS
 62
    30
 10
1512.634472
 20
287.40156200000001
 30
0.0
 11
1629.3487580000001
 21
287.40156200000001
 31
0.0
  0
LINE
  5
32A
  8
SIZE
  6
CONTINUOUS
 62
    30
 10
1502.634472
 20
417.71809000000002
 30
0.0
 11
1502.634472
 21
257.40156200000001
 31
0.0
  0
LINE
  5
32B
  8
SIZE
  6
CONTINUOUS
 62
    30
 10
1485.634472
 20
412.71158199999991
 30
0.0
 11
1485.634472
 21
257.40156200000001
 31
0.0
  0
LINE
  5
32C
  8
SIZE
  6
CONTINUOUS
 62
    30
 10
1485.634472
 20
412.71158199999991
 30
0.0
 11
1485.634472
 21
156.09143399999999
 31
0.0
  0
POINT
  5
32D
  8
DEFPOINTS
  6
CONTINUOUS
 62
     7
 10
1485.634472
 20
186.09143399999999
 30
0.0
  0
LINE
  5
32E
  8
SIZE
  6
CONTINUOUS
 62
    30
 10
1490.634472
 20
186.09143399999999
 30
0.0
 11
1495.634472
 21
186.09143399999999
 31
0.0
  0
CIRCLE
  5
32F
  8
SIZE
  6
CONTINUOUS
 62
    30
 10
1485.634472
 20
186.09143399999999
 30
0.0
 40
5.0
  0
POINT
  5
330
  8
DEFPOINTS
  6
CONTINUOUS
 62
     7
 10
1516.334472
 20
428.71809000000002
 30
0.0
  0
POINT
  5
331
  8
DEFPOINTS
  6
CONTINUOUS
 62
     7
 10
1502.634472
 20
287.40156200000001
 30
0.0
  0
POINT
  5
332
  8
DEFPOINTS
  6
CONTINUOUS
 62
     7
 10
1485.634472
 20
432.71158200000002
 30
0.0
  0
LINE
  5
333
  8
SIZE
  6
CONTINUOUS
 62
    30
 10
1507.634472
 20
287.40156200000001
 30
0.0
 11
1512.634472
 21
287.40156200000001
 31
0.0
  0
CIRCLE
  5
334
  8
SIZE
  6
CONTINUOUS
 62
    30
 10
1502.634472
 20
287.40156200000001
 30
0.0
 40
5.0
  0
LINE
  5
335
  8
SIZE
  6
CONTINUOUS
 62
    30
 10
1480.634472
 20
287.40156200000001
 30
0.0
 11
1475.634472
 21
287.40156200000001
 31
0.0
  0
CIRCLE
  5
336
  8
SIZE
  6
CONTINUOUS
 62
    30
 10
1485.634472
 20
287.40156200000001
 30
0.0
 40
5.0
  0
LINE
  5
337
  8
SIZE
  6
CONTINUOUS
 62
    30
 10
1485.634472
 20
287.40156200000001
 30
0.0
 11
1502.634472
 21
287.40156200000001
 31
0.0
  0
LINE
  5
338
  8
SIZE
  6
CONTINUOUS
 62
    30
 10
1475.634472
 20
287.40156200000001
 30
0.0
 11
1465.634472
 21
287.40156200000001
 31
0.0
  0
POINT
  5
339
  8
DEFPOINTS
  6
CONTINUOUS
 62
     7
 10
1485.634472
 20
432.71158200000002
 30
0.0
  0
ARC
  5
33A
  8
OUTLINE
  6
CONTINUOUS
 62
     3
 10
1516.334472
 20
548.71809000000007
 30
0.0
 40
120.0
 50
255.17703
 51
270.0
  0
ARC
  5
33B
  8
DETAIL
  6
CONTINUOUS
 62
     5
 10
1516.334472
 20
548.71809000000007
 30
0.0
 40
120.0
 50
255.17703
 51
270.0
  0
TEXT
  5
33C
  8
SIZE
  6
CONTINUOUS
 62
    30
 10
1540.634472142857
 20
305.40156200000001
 30
0.0
 40
55.0
  1
17
 41
0.9
 72
     1
 11
1575.9916149999999
 21
305.40156200000001
 31
0.0
  0
LINE
  5
33D
  8
SIZE
  6
CONTINUOUS
 62
    30
 10
2068.6344720000002
 20
417.71809000000002
 30
0.0
 11
2068.6344720000002
 21
-0.000007
 31
0.0
  0
LINE
  5
33E
  8
SIZE
  6
CONTINUOUS
 62
    30
 10
2063.6344720000002
 20
29.999993
 30
0.0
 11
2058.6344720000002
 21
29.999993
 31
0.0
  0
CIRCLE
  5
33F
  8
SIZE
  6
CONTINUOUS
 62
    30
 10
2068.6344720000002
 20
29.999993
 30
0.0
 40
5.0
  0
TEXT
  5
340
  8
SIZE
  6
CONTINUOUS
 62
    30
 10
1959.9201861428569
 20
305.40156200000001
 30
0.0
 40
55.0
  1
17
 41
0.9
 72
     1
 11
1995.277329
 21
305.40156200000001
 31
0.0
  0
LINE
  5
341
  8
SIZE
  6
CONTINUOUS
 62
    30
 10
2058.6344720000002
 20
287.40156200000001
 30
0.0
 11
1941.9201860000001
 21
287.40156200000001
 31
0.0
  0
LINE
  5
342
  8
SIZE
  6
CONTINUOUS
 62
    30
 10
2068.6344720000002
 20
417.71809000000002
 30
0.0
 11
2068.6344720000002
 21
257.40156200000001
 31
0.0
  0
LINE
  5
343
  8
SIZE
  6
CONTINUOUS
 62
    30
 10
2085.6344720000002
 20
412.71158199999991
 30
0.0
 11
2085.6344720000002
 21
257.40156200000001
 31
0.0
  0
LINE
  5
344
  8
SIZE
  6
CONTINUOUS
 62
    30
 10
2085.6344720000002
 20
412.71158199999991
 30
0.0
 11
2085.6344720000002
 21
156.09143399999999
 31
0.0
  0
LINE
  5
345
  8
SIZE
  6
CONTINUOUS
 62
    30
 10
2080.6344720000002
 20
186.09143399999999
 30
0.0
 11
2075.6344720000002
 21
186.09143399999999
 31
0.0
  0
CIRCLE
  5
346
  8
SIZE
  6
CONTINUOUS
 62
    30
 10
2085.6344720000002
 20
186.09143399999999
 30
0.0
 40
5.0
  0
LINE
  5
347
  8
SIZE
  6
CONTINUOUS
 62
    30
 10
2095.6344720000002
 20
287.40156200000001
 30
0.0
 11
2105.6344720000002
 21
287.40156200000001
 31
0.0
  0
POINT
  5
348
  8
DEFPOINTS
  6
CONTINUOUS
 62
     7
 10
2068.6344720000002
 20
287.40156200000001
 30
0.0
  0
POINT
  5
349
  8
DEFPOINTS
  6
CONTINUOUS
 62
     7
 10
2085.6344720000002
 20
432.71158200000002
 30
0.0
  0
LINE
  5
34A
  8
SIZE
  6
CONTINUOUS
 62
    30
 10
2063.6344720000002
 20
287.40156200000001
 30
0.0
 11
2058.6344720000002
 21
287.40156200000001
 31
0.0
  0
CIRCLE
  5
34B
  8
SIZE
  6
CONTINUOUS
 62
    30
 10
2068.6344720000002
 20
287.40156200000001
 30
0.0
 40
5.0
  0
LINE
  5
34C
  8
SIZE
  6
CONTINUOUS
 62
    30
 10
2090.6344720000002
 20
287.40156200000001
 30
0.0
 11
2095.6344720000002
 21
287.40156200000001
 31
0.0
  0
CIRCLE
  5
34D
  8
SIZE
  6
CONTINUOUS
 62
    30
 10
2085.6344720000002
 20
287.40156200000001
 30
0.0
 40
5.0
  0
LINE
  5
34E
  8
SIZE
  6
CONTINUOUS
 62
    30
 10
2085.6344720000002
 20
287.40156200000001
 30
0.0
 11
2068.6344720000002
 21
287.40156200000001
 31
0.0
  0
POINT
  5
34F
  8
DEFPOINTS
  6
CONTINUOUS
 62
     7
 10
2085.6344720000002
 20
432.71158200000002
 30
0.0
  0
ARC
  5
350
  8
OUTLINE
  6
CONTINUOUS
 62
     3
 10
2054.9344719999999
 20
548.71809000000007
 30
0.0
 40
120.0
 50
270.0
 51
284.82297
  0
ARC
  5
351
  8
DETAIL
  6
CONTINUOUS
 62
     5
 10
2054.9344719999999
 20
548.71809000000007
 30
0.0
 40
120.0
 50
270.0
 51
284.82297
  0
LINE
  5
352
  8
NOTE
  6
CONTINUOUS
 62
     4
 10
2140.9852179999998
 20
649.59587199999987
 30
0.0
 11
2543.2544480000001
 21
649.59587199999987
 31
0.0
  0
TEXT
  5
353
  8
NOTE
  6
CONTINUOUS
 62
     4
 10
2139.1756030000001
 20
665.42243299999996
 30
0.0
 40
60.0
  1
4-%%C2.9取付穴
 50
359.99999700000001
 41
0.7
  7
STANDARD1
  0
LINE
  5
354
  8
SIZE
  6
CONTINUOUS
 62
    30
 10
1966.5789870000001
 20
749.71808999999985
 30
0.0
 11
2250.0067049999998
 21
749.71808999999985
 31
0.0
  0
LINE
  5
355
  8
SIZE
  6
CONTINUOUS
 62
    30
 10
2030.634472
 20
869.71808999999985
 30
0.0
 11
2250.0067049999998
 21
869.71808999999985
 31
0.0
  0
LINE
  5
356
  8
NOTE
  6
CONTINUOUS
 62
     4
 10
2108.1066030000002
 20
1095.6851869999989
 30
0.0
 11
2837.2072309999999
 21
1095.6851869999989
 31
0.0
  0
TEXT
  5
357
  8
NOTE
  6
CONTINUOUS
 62
     4
 10
2121.1319589999998
 20
1111.5117479999999
 30
0.0
 40
60.0
  1
AH 4-14×30長穴(M10)
 50
359.99999700000001
 41
0.7
  7
STANDARD1
  0
LINE
  5
358
  8
SIZE
  6
CONTINUOUS
 62
    30
 10
1884.634472
 20
860.8119869999997
 30
0.0
 11
1884.634472
 21
1230.687846
 31
0.0
  0
LINE
  5
359
  8
SIZE
  6
CONTINUOUS
 62
    30
 10
2010.634472
 20
889.71808999999985
 30
0.0
 11
2010.634472
 21
1230.687846
 31
0.0
  0
TEXT
  5
35A
  8
NOTE
  6
CONTINUOUS
 62
     4
 10
1543.2174869999999
 20
1013.489609
 30
0.0
 40
60.0
  1
%%C150
 50
359.99999700000001
 41
0.7
  7
STANDARD1
  0
LINE
  5
35B
  8
SIZE
  6
CONTINUOUS
 62
    30
 10
1467.634472
 20
723.21808199999987
 30
0.0
 11
1467.634472
 21
1239.1657889999999
 31
0.0
  0
LINE
  5
35C
  8
SIZE
  6
CONTINUOUS
 62
    30
 10
1403.634472
 20
695.22072399999968
 30
0.0
 11
1403.634472
 21
1239.1657889999999
 31
0.0
  0
LINE
  5
35D
  8
SIZE
  6
CONTINUOUS
 62
    30
 10
1403.634472
 20
695.22072399999968
 30
0.0
 11
1403.634472
 21
1239.1657889999999
 31
0.0
  0
LINE
  5
35E
  8
NOTE
  6
CONTINUOUS
 62
     4
 10
2108.1066030000002
 20
1095.6851869999989
 30
0.0
 11
1979.634472
 21
869.71808999999985
 31
0.0
  0
LINE
  5
35F
  8
SIZE
  6
CONTINUOUS
 62
    30
 10
2010.634472
 20
889.71808999999985
 30
0.0
 11
2010.634472
 21
1486.4745230000001
 31
0.0
  0
LINE
  5
360
  8
SIZE
  6
CONTINUOUS
 62
    30
 10
1979.634472
 20
904.71325599999989
 30
0.0
 11
1979.634472
 21
1360.706173
 31
0.0
  0
LINE
  5
361
  8
SIZE
  6
CONTINUOUS
 62
    30
 10
1979.634472
 20
904.71325599999989
 30
0.0
 11
1979.634472
 21
1360.706173
 31
0.0
  0
LINE
  5
362
  8
SIZE
  6
CONTINUOUS
 62
    30
 10
2010.634472
 20
889.71808999999985
 30
0.0
 11
2010.634472
 21
1360.706173
 31
0.0
  0
LINE
  5
363
  8
OUTLINE
  6
CONTINUOUS
 62
     3
 10
1485.634472
 20
436.71809000000002
 30
0.0
 11
2085.6344720000002
 21
436.71809000000002
 31
0.0
  0
TEXT
  5
364
  8
SIZE
  6
CONTINUOUS
 62
    30
 10
1748.4430719440729
 20
496.85443061303488
 30
0.0
 40
55.0
  1
%%c172
 50
65.286486999999994
 41
0.9
 72
     1
 11
1782.442043
 21
570.72759699999995
 31
0.0
  0
LINE
  5
365
  8
SIZE
  6
CONTINUOUS
 62
    30
 10
1757.2689809999999
 20
472.97759400000001
 30
0.0
 11
1844.498664
 21
662.51076799999998
 31
0.0
  0
LINE
  5
366
  8
NOTE
  6
CONTINUOUS
 62
     4
 10
1519.2851209999999
 20
995.850188
 30
0.0
 11
1793.947246
 21
995.850188
 31
0.0
  0
LINE
  5
367
  8
OUTLINE
  6
CONTINUOUS
 62
     3
 10
2054.104472
 20
483.7180899999999
 30
0.0
 11
1517.1644719999999
 21
483.7180899999999
 31
0.0
  0
LINE
  5
368
  8
DETAIL
  6
CONTINUOUS
 62
     5
 10
1486.244471
 20
576.71808999999985
 30
0.0
 11
2010.634472
 21
576.71808999999985
 31
0.0
  0
LINE
  5
369
  8
DETAIL
  6
CONTINUOUS
 62
     5
 10
1517.1644719999999
 20
483.7180899999999
 30
0.0
 11
2054.104472
 21
483.7180899999999
 31
0.0
  0
LINE
  5
36A
  8
DETAIL
  6
CONTINUOUS
 62
     5
 10
2054.104472
 20
436.71809000000002
 30
0.0
 11
1512.1644719999999
 21
436.71809000000002
 31
0.0
  0
LINE
  5
36B
  8
NOTE
  6
CONTINUOUS
 62
     4
 10
1402.634472
 20
437.71808999999979
 30
0.0
 11
1502.634472
 21
437.71808999999979
 31
0.0
  0
LINE
  5
36C
  8
NOTE
  6
CONTINUOUS
 62
     4
 10
1402.634472
 20
457.71809000000002
 30
0.0
 11
1502.634472
 21
457.71809000000002
 31
0.0
  0
LINE
  5
36D
  8
NOTE
  6
CONTINUOUS
 62
     4
 10
1444.296126
 20
437.71808999999979
 30
0.0
 11
1424.296126
 21
457.71809000000002
 31
0.0
  0
LINE
  5
36E
  8
NOTE
  6
CONTINUOUS
 62
     4
 10
1439.296126
 20
437.71808999999979
 30
0.0
 11
1419.296126
 21
457.71809000000002
 31
0.0
  0
LINE
  5
36F
  8
NOTE
  6
CONTINUOUS
 62
     4
 10
1434.296126
 20
437.71808999999979
 30
0.0
 11
1414.296126
 21
457.71809000000002
 31
0.0
  0
POINT
  5
370
  8
DEFPOINTS
  6
CONTINUOUS
 62
     7
 10
1484.923076
 20
436.71809000000002
 30
0.0
  0
POINT
  5
371
  8
DEFPOINTS
  6
CONTINUOUS
 62
     7
 10
1517.1644719999999
 20
483.7180899999999
 30
0.0
  0
POINT
  5
372
  8
DEFPOINTS
  6
CONTINUOUS
 62
     7
 10
1485.634472
 20
436.71809000000002
 30
0.0
  0
POINT
  5
373
  8
DEFPOINTS
  6
CONTINUOUS
 62
     7
 10
1485.634472
 20
436.71809000000002
 30
0.0
  0
POINT
  5
374
  8
DEFPOINTS
  6
CONTINUOUS
 62
     7
 10
1502.634472
 20
437.71808999999979
 30
0.0
  0
POINT
  5
375
  8
DEFPOINTS
  6
CONTINUOUS
 62
     7
 10
1502.634472
 20
437.71808999999979
 30
0.0
  0
POINT
  5
376
  8
DEFPOINTS
  6
CONTINUOUS
 62
     7
 10
1502.634472
 20
437.71808999999979
 30
0.0
  0
LINE
  5
377
  8
OUTLINE
  6
CONTINUOUS
 62
     3
 10
1517.1644719999999
 20
483.7180899999999
 30
0.0
 11
1517.1644719999999
 21
436.71809000000002
 31
0.0
  0
LINE
  5
378
  8
NOTE
  6
CONTINUOUS
 62
     4
 10
1502.634472
 20
437.71808999999979
 30
0.0
 11
1502.634472
 21
457.71809000000002
 31
0.0
  0
LINE
  5
379
  8
NOTE
  6
CONTINUOUS
 62
     4
 10
1484.296126
 20
437.71808999999979
 30
0.0
 11
1464.296126
 21
457.71809000000002
 31
0.0
  0
LINE
  5
37A
  8
NOTE
  6
CONTINUOUS
 62
     4
 10
1479.296126
 20
437.71808999999979
 30
0.0
 11
1459.296126
 21
457.71809000000002
 31
0.0
  0
LINE
  5
37B
  8
NOTE
  6
CONTINUOUS
 62
     4
 10
1474.296126
 20
437.71808999999979
 30
0.0
 11
1454.296126
 21
457.71809000000002
 31
0.0
  0
LINE
  5
37C
  8
DETAIL
  6
CONTINUOUS
 62
     5
 10
1517.1644719999999
 20
436.71809000000002
 30
0.0
 11
1485.634472
 21
436.71809000000002
 31
0.0
  0
LINE
  5
37D
  8
DETAIL
  6
CONTINUOUS
 62
     5
 10
1517.1644719999999
 20
436.71809000000002
 30
0.0
 11
1517.1644719999999
 21
483.7180899999999
 31
0.0
  0
POINT
  5
37E
  8
DEFPOINTS
  6
CONTINUOUS
 62
     7
 10
1403.634472
 20
675.22072400000002
 30
0.0
  0
POINT
  5
37F
  8
DEFPOINTS
  6
CONTINUOUS
 62
     7
 10
1403.634472
 20
675.22072400000002
 30
0.0
  0
POINT
  5
380
  8
DEFPOINTS
  6
CONTINUOUS
 62
     7
 10
1398.125323
 20
669.720731
 30
0.0
  0
LINE
  5
381
  8
NOTE
  6
CONTINUOUS
 62
     4
 10
1398.125323
 20
669.720731
 30
0.0
 11
1409.125323
 21
669.720731
 31
0.0
  0
LINE
  5
382
  8
NOTE
  6
CONTINUOUS
 62
     4
 10
1403.634472
 20
675.22072400000002
 30
0.0
 11
1403.634472
 21
664.22073899999998
 31
0.0
  0
LINE
  5
383
  8
NOTE
  6
CONTINUOUS
 62
     4
 10
1403.634472
 20
669.720731
 30
0.0
 11
1378.6132439999999
 21
646.13497600000005
 31
0.0
  0
LINE
  5
384
  8
NOTE
  6
CONTINUOUS
 62
     4
 10
1403.634472
 20
669.720731
 30
0.0
 11
1390.70714
 21
637.85799799999995
 31
0.0
  0
LINE
  5
385
  8
NOTE
  6
CONTINUOUS
 62
     4
 10
1398.125323
 20
669.720731
 30
0.0
 11
1409.125323
 21
669.720731
 31
0.0
  0
LINE
  5
386
  8
NOTE
  6
CONTINUOUS
 62
     4
 10
1403.634472
 20
675.22072400000002
 30
0.0
 11
1403.634472
 21
664.22073899999998
 31
0.0
  0
POINT
  5
387
  8
DEFPOINTS
  6
CONTINUOUS
 62
     7
 10
1467.634472
 20
703.21808199999964
 30
0.0
  0
POINT
  5
388
  8
DEFPOINTS
  6
CONTINUOUS
 62
     7
 10
1462.125323
 20
697.71808999999985
 30
0.0
  0
POINT
  5
389
  8
DEFPOINTS
  6
CONTINUOUS
 62
     7
 10
1462.125323
 20
697.71808999999985
 30
0.0
  0
LINE
  5
38A
  8
NOTE
  6
CONTINUOUS
 62
     4
 10
1467.634472
 20
697.71808999999985
 30
0.0
 11
1445.1072099999999
 21
671.73978899999986
 31
0.0
  0
LINE
  5
38B
  8
NOTE
  6
CONTINUOUS
 62
     4
 10
1467.634472
 20
697.71808999999985
 30
0.0
 11
1457.970877
 21
664.71862599999963
 31
0.0
  0
LINE
  5
38C
  8
NOTE
  6
CONTINUOUS
 62
     4
 10
1462.125323
 20
697.71808999999985
 30
0.0
 11
1473.125323
 21
697.71808999999985
 31
0.0
  0
LINE
  5
38D
  8
NOTE
  6
CONTINUOUS
 62
     4
 10
1467.634472
 20
703.21808199999964
 30
0.0
 11
1467.634472
 21
692.21809800000017
 31
0.0
  0
LINE
  5
38E
  8
NOTE
  6
CONTINUOUS
 62
     4
 10
1462.125323
 20
697.71808999999985
 30
0.0
 11
1473.125323
 21
697.71808999999985
 31
0.0
  0
LINE
  5
38F
  8
NOTE
  6
CONTINUOUS
 62
     4
 10
1467.634472
 20
703.21808199999964
 30
0.0
 11
1467.634472
 21
692.21809800000017
 31
0.0
  0
ARC
  5
390
  8
DETAIL
  6
CONTINUOUS
 62
     5
 10
1331.634219
 20
857.71808999999985
 30
0.0
 40
3.0
 50
270.0
 51
0.0
  0
ARC
  5
391
  8
DETAIL
  6
CONTINUOUS
 62
     5
 10
1317.634219
 20
834.71808999999973
 30
0.0
 40
3.0
 50
270.0
 51
0.0
  0
LINE
  5
392
  8
DETAIL
  6
CONTINUOUS
 62
     5
 10
1334.634219
 20
869.71808999999985
 30
0.0
 11
1334.634219
 21
857.71808999999985
 31
0.0
  0
ARC
  5
393
  8
DETAIL
  6
CONTINUOUS
 62
     5
 10
1331.634219
 20
860.71808999999985
 30
0.0
 40
3.0
 50
270.0
 51
0.0
  0
LINE
  5
394
  8
DETAIL
  6
CONTINUOUS
 62
     5
 10
1331.634219
 20
854.71808999999985
 30
0.0
 11
1320.634219
 21
854.71808999999985
 31
0.0
  0
LINE
  5
395
  8
DETAIL
  6
CONTINUOUS
 62
     5
 10
1320.634219
 20
854.71808999999985
 30
0.0
 11
1320.634219
 21
834.71808999999973
 31
0.0
  0
LINE
  5
396
  8
NOTE
  6
CONTINUOUS
 62
     4
 10
2140.9852179999998
 20
649.59587199999987
 30
0.0
 11
1970.634472
 21
749.71808999999985
 31
0.0
  0
LINE
  5
397
  8
NOTE
  6
CONTINUOUS
 62
     4
 10
1970.634472
 20
749.71808999999985
 30
0.0
 11
2003.704823
 21
740.29994099999988
 31
0.0
  0
LINE
  5
398
  8
NOTE
  6
CONTINUOUS
 62
     4
 10
1970.634472
 20
749.71808999999985
 30
0.0
 11
1994.5651620000001
 21
725.02655800000002
 31
0.0
  0
LINE
  5
399
  8
SIZE
  6
CONTINUOUS
 62
    30
 10
1920.5894659999999
 20
827.84131599999989
 30
0.0
 11
1848.679478
 21
671.59486399999957
 31
0.0
  0
CIRCLE
  5
39A
  8
NOTE
  6
CONTINUOUS
 62
     4
 10
1884.634472
 20
749.71808999999985
 30
0.0
 40
86.0
  0
LINE
  5
39B
  8
NOTE
  6
CONTINUOUS
 62
     4
 10
1884.634472
 20
811.66260499999999
 30
0.0
 11
1884.634472
 21
687.77357500000016
 31
0.0
  0
CIRCLE
  5
39C
  8
DETAIL
  6
CONTINUOUS
 62
     5
 10
1884.634472
 20
749.71808999999985
 30
0.0
 40
75.0
  0
LINE
  5
39D
  8
OUTLINE
  6
CONTINUOUS
 62
     3
 10
2010.634472
 20
576.71808999999985
 30
0.0
 11
2010.634472
 21
869.71808999999985
 31
0.0
  0
LINE
  5
39E
  8
DETAIL
  6
CONTINUOUS
 62
     5
 10
2010.634472
 20
869.71808999999985
 30
0.0
 11
2010.634472
 21
576.71808999999985
 31
0.0
  0
POINT
  5
39F
  8
DEFPOINTS
  6
CONTINUOUS
 62
     7
 10
1848.679478
 20
671.59486399999957
 30
0.0
  0
LINE
  5
3A0
  8
SIZE
  6
CONTINUOUS
 62
    30
 10
1846.5890710000001
 20
667.05281599999989
 30
0.0
 11
1844.498664
 21
662.51076799999998
 31
0.0
  0
CIRCLE
  5
3A1
  8
SIZE
  6
CONTINUOUS
 62
    30
 10
1848.679478
 20
671.59486399999957
 30
0.0
 40
5.0
  0
LINE
  5
3A2
  8
NOTE
  6
CONTINUOUS
 62
     4
 10
1884.634472
 20
658.62419299999988
 30
0.0
 11
1884.634472
 21
668.81198700000004
 31
0.0
  0
LINE
  5
3A3
  8
NOTE
  6
CONTINUOUS
 62
     4
 10
1879.540575
 20
663.71808999999985
 30
0.0
 11
1889.7283689999999
 21
663.71808999999985
 31
0.0
  0
CIRCLE
  5
3A4
  8
DETAIL
  6
CONTINUOUS
 62
     5
 10
1884.634472
 20
663.71808999999985
 30
0.0
 40
1.45
  0
TEXT
  5
3A5
  8
SIZE
  6
CONTINUOUS
 62
    30
 10
2096.6344724285718
 20
535.97541999999999
 30
0.0
 40
55.0
  1
58
 41
0.9
 72
     1
 11
2136.7059009999998
 21
535.97541999999999
 31
0.0
  0
LINE
  5
3A6
  8
SIZE
  6
CONTINUOUS
 62
    30
 10
2068.6344720000002
 20
517.97541999999964
 30
0.0
 11
2194.777329
 21
517.97541999999964
 31
0.0
  0
LINE
  5
3A7
  8
NOTE
  6
CONTINUOUS
 62
     4
 10
2110.2961260000002
 20
437.71808999999979
 30
0.0
 11
2090.2961260000002
 21
457.71809000000002
 31
0.0
  0
LINE
  5
3A8
  8
NOTE
  6
CONTINUOUS
 62
     4
 10
2105.2961260000002
 20
437.71808999999979
 30
0.0
 11
2085.2961260000002
 21
457.71809000000002
 31
0.0
  0
LINE
  5
3A9
  8
NOTE
  6
CONTINUOUS
 62
     4
 10
2100.2961260000002
 20
437.71808999999979
 30
0.0
 11
2080.2961260000002
 21
457.71809000000002
 31
0.0
  0
LINE
  5
3AA
  8
NOTE
  6
CONTINUOUS
 62
     4
 10
2068.6344720000002
 20
457.71809000000002
 30
0.0
 11
2161.3385659999999
 21
457.71809000000002
 31
0.0
  0
LINE
  5
3AB
  8
NOTE
  6
CONTINUOUS
 62
     4
 10
2068.6344720000002
 20
437.71808999999979
 30
0.0
 11
2161.3385659999999
 21
437.71808999999979
 31
0.0
  0
POINT
  5
3AC
  8
DEFPOINTS
  6
CONTINUOUS
 62
     7
 10
2068.6344720000002
 20
517.97541999999964
 30
0.0
  0
POINT
  5
3AD
  8
DEFPOINTS
  6
CONTINUOUS
 62
     7
 10
2068.6344720000002
 20
457.71809000000002
 30
0.0
  0
POINT
  5
3AE
  8
DEFPOINTS
  6
CONTINUOUS
 62
     7
 10
2010.634472
 20
576.71808999999985
 30
0.0
  0
LINE
  5
3AF
  8
SIZE
  6
CONTINUOUS
 62
    30
 10
2063.6344720000002
 20
517.97541999999964
 30
0.0
 11
2058.6344720000002
 21
517.97541999999964
 31
0.0
  0
CIRCLE
  5
3B0
  8
SIZE
  6
CONTINUOUS
 62
    30
 10
2068.6344720000002
 20
517.97541999999964
 30
0.0
 40
5.0
  0
LINE
  5
3B1
  8
SIZE
  6
CONTINUOUS
 62
    30
 10
2015.634472
 20
517.97541999999964
 30
0.0
 11
2020.634472
 21
517.97541999999964
 31
0.0
  0
CIRCLE
  5
3B2
  8
SIZE
  6
CONTINUOUS
 62
    30
 10
2010.634472
 20
517.97541999999964
 30
0.0
 40
5.0
  0
LINE
  5
3B3
  8
SIZE
  6
CONTINUOUS
 62
    30
 10
2020.634472
 20
517.97541999999964
 30
0.0
 11
2058.6344720000002
 21
517.97541999999964
 31
0.0
  0
LINE
  5
3B4
  8
SIZE
  6
CONTINUOUS
 62
    30
 10
2068.6344720000002
 20
477.71809000000002
 30
0.0
 11
2068.6344720000002
 21
547.97541999999999
 31
0.0
  0
LINE
  5
3B5
  8
SIZE
  6
CONTINUOUS
 62
    30
 10
2010.634472
 20
556.71809000000007
 30
0.0
 11
2010.634472
 21
487.97541999999987
 31
0.0
  0
POINT
  5
3B6
  8
DEFPOINTS
  6
CONTINUOUS
 62
     7
 10
2068.6344720000002
 20
437.71808999999979
 30
0.0
  0
POINT
  5
3B7
  8
DEFPOINTS
  6
CONTINUOUS
 62
     7
 10
2068.6344720000002
 20
437.71808999999979
 30
0.0
  0
LINE
  5
3B8
  8
OUTLINE
  6
CONTINUOUS
 62
     3
 10
2054.104472
 20
436.71809000000002
 30
0.0
 11
2054.104472
 21
483.7180899999999
 31
0.0
  0
LINE
  5
3B9
  8
NOTE
  6
CONTINUOUS
 62
     4
 10
2068.6344720000002
 20
437.71808999999979
 30
0.0
 11
2068.6344720000002
 21
457.71809000000002
 31
0.0
  0
LINE
  5
3BA
  8
DETAIL
  6
CONTINUOUS
 62
     5
 10
2054.104472
 20
436.71809000000002
 30
0.0
 11
2054.104472
 21
483.7180899999999
 31
0.0
  0
LINE
  5
3BB
  8
DETAIL
  6
CONTINUOUS
 62
     5
 10
2054.104472
 20
436.71809000000002
 30
0.0
 11
2059.104472
 21
436.71809000000002
 31
0.0
  0
LINE
  5
3BC
  8
DETAIL
  6
CONTINUOUS
 62
     5
 10
2054.104472
 20
436.71809000000002
 30
0.0
 11
2085.6344720000002
 21
436.71809000000002
 31
0.0
  0
LINE
  5
3BD
  8
NOTE
  6
CONTINUOUS
 62
     4
 10
2140.2961260000002
 20
437.71808999999979
 30
0.0
 11
2120.2961260000002
 21
457.71809000000002
 31
0.0
  0
LINE
  5
3BE
  8
NOTE
  6
CONTINUOUS
 62
     4
 10
2145.2961260000002
 20
437.71808999999979
 30
0.0
 11
2125.2961260000002
 21
457.71809000000002
 31
0.0
  0
LINE
  5
3BF
  8
NOTE
  6
CONTINUOUS
 62
     4
 10
2150.2961260000002
 20
437.71808999999979
 30
0.0
 11
2130.2961260000011
 21
457.71809000000002
 31
0.0
  0
LINE
  5
3C0
  8
NOTE
  6
CONTINUOUS
 62
     4
 10
1979.634472
 20
869.71808999999985
 30
0.0
 11
2002.6495359999999
 21
895.26523299999985
 31
0.0
  0
LINE
  5
3C1
  8
NOTE
  6
CONTINUOUS
 62
     4
 10
1979.634472
 20
869.71808999999985
 30
0.0
 11
1986.7925299999999
 21
903.35009700000023
 31
0.0
  0
CIRCLE
  5
3C2
  8
FIX
  6
CONTINUOUS
 62
    11
 10
1979.634472
 20
869.71808999999985
 30
0.0
 40
12.421498
  0
LINE
  5
3C3
  8
NOTE
  6
CONTINUOUS
 62
     4
 10
1994.6296380000001
 20
869.71808999999985
 30
0.0
 11
1964.639306
 21
869.71808999999985
 31
0.0
  0
LINE
  5
3C4
  8
DETAIL
  6
CONTINUOUS
 62
     5
 10
1968.634472
 20
831.71808999999985
 30
0.0
 11
2007.634472
 21
831.71808999999985
 31
0.0
  0
LINE
  5
3C5
  8
NOTE
  6
CONTINUOUS
 62
     4
 10
1793.947246
 20
995.850188
 30
0.0
 11
1884.634472
 21
749.71808999999985
 31
0.0
  0
LINE
  5
3C6
  8
NOTE
  6
CONTINUOUS
 62
     4
 10
1946.5789870000001
 20
749.71808999999985
 30
0.0
 11
1822.689957
 21
749.71808999999985
 31
0.0
  0
LINE
  5
3C7
  8
NOTE
  6
CONTINUOUS
 62
     4
 10
1884.634472
 20
749.71808999999985
 30
0.0
 11
1863.544699
 21
776.876351
 31
0.0
  0
LINE
  5
3C8
  8
NOTE
  6
CONTINUOUS
 62
     4
 10
1798.634472
 20
744.62419299999999
 30
0.0
 11
1798.634472
 21
754.81198700000004
 31
0.0
  0
LINE
  5
3C9
  8
NOTE
  6
CONTINUOUS
 62
     4
 10
1793.540575
 20
749.71808999999985
 30
0.0
 11
1803.7283689999999
 21
749.71808999999985
 31
0.0
  0
CIRCLE
  5
3CA
  8
DETAIL
  6
CONTINUOUS
 62
     5
 10
1798.634472
 20
749.71808999999985
 30
0.0
 40
1.45
  0
POINT
  5
3CB
  8
DEFPOINTS
  6
CONTINUOUS
 62
     7
 10
1920.5894659999999
 20
827.84131599999989
 30
0.0
  0
LINE
  5
3CC
  8
SIZE
  6
CONTINUOUS
 62
    30
 10
1922.679873
 20
832.38336400000003
 30
0.0
 11
1924.77028
 21
836.92541200000005
 31
0.0
  0
CIRCLE
  5
3CD
  8
SIZE
  6
CONTINUOUS
 62
    30
 10
1920.5894659999999
 20
827.84131599999989
 30
0.0
 40
5.0
  0
LINE
  5
3CE
  8
SIZE
  6
CONTINUOUS
 62
    30
 10
1924.77028
 20
836.92541200000005
 30
0.0
 11
1928.9510929999999
 21
846.00950799999998
 31
0.0
  0
POINT
  5
3CF
  8
DEFPOINTS
  6
CONTINUOUS
 62
     7
 10
1946.5789870000001
 20
749.71808999999985
 30
0.0
  0
POINT
  5
3D0
  8
DEFPOINTS
  6
CONTINUOUS
 62
     7
 10
1884.634472
 20
840.81198700000004
 30
0.0
  0
LINE
  5
3D1
  8
NOTE
  6
CONTINUOUS
 62
     4
 10
1884.634472
 20
830.62419299999999
 30
0.0
 11
1884.634472
 21
840.81198700000004
 31
0.0
  0
LINE
  5
3D2
  8
NOTE
  6
CONTINUOUS
 62
     4
 10
1879.540575
 20
835.71808999999985
 30
0.0
 11
1889.7283689999999
 21
835.71808999999985
 31
0.0
  0
LINE
  5
3D3
  8
NOTE
  6
CONTINUOUS
 62
     4
 10
1970.634472
 20
744.62419299999999
 30
0.0
 11
1970.634472
 21
754.81198700000004
 31
0.0
  0
LINE
  5
3D4
  8
NOTE
  6
CONTINUOUS
 62
     4
 10
1965.540575
 20
749.71808999999985
 30
0.0
 11
1975.7283689999999
 21
749.71808999999985
 31
0.0
  0
CIRCLE
  5
3D5
  8
DETAIL
  6
CONTINUOUS
 62
     5
 10
1884.634472
 20
835.71808999999985
 30
0.0
 40
1.45
  0
CIRCLE
  5
3D6
  8
DETAIL
  6
CONTINUOUS
 62
     5
 10
1970.634472
 20
749.71808999999985
 30
0.0
 40
1.45
  0
LINE
  5
3D7
  8
NOTE
  6
CONTINUOUS
 62
     4
 10
1884.634472
 20
749.71808999999985
 30
0.0
 11
1879.9493239999999
 21
783.78272100000004
 31
0.0
  0
POINT
  5
3D8
  8
DEFPOINTS
  6
CONTINUOUS
 62
     7
 10
1979.634472
 20
884.713256
 30
0.0
  0
POINT
  5
3D9
  8
DEFPOINTS
  6
CONTINUOUS
 62
     7
 10
1979.634472
 20
884.713256
 30
0.0
  0
LINE
  5
3DA
  8
NOTE
  6
CONTINUOUS
 62
     4
 10
1979.634472
 20
884.713256
 30
0.0
 11
1979.634472
 21
854.72292400000003
 31
0.0
  0
ARC
  5
3DB
  8
DETAIL
  6
CONTINUOUS
 62
     5
 10
1954.634472
 20
857.71808999999985
 30
0.0
 40
3.0
 50
180.0
 51
270.0
  0
ARC
  5
3DC
  8
DETAIL
  6
CONTINUOUS
 62
     5
 10
1968.634472
 20
834.71808999999973
 30
0.0
 40
3.0
 50
180.0
 51
270.0
  0
LINE
  5
3DD
  8
DETAIL
  6
CONTINUOUS
 62
     5
 10
1951.634472
 20
869.71808999999985
 30
0.0
 11
1951.634472
 21
857.71808999999985
 31
0.0
  0
ARC
  5
3DE
  8
DETAIL
  6
CONTINUOUS
 62
     5
 10
1972.134472
 20
860.71808999999985
 30
0.0
 40
3.0
 50
270.0
 51
0.0
  0
LINE
  5
3DF
  8
DETAIL
  6
CONTINUOUS
 62
     5
 10
1975.134472
 20
869.71808999999985
 30
0.0
 11
1975.134472
 21
860.71808999999985
 31
0.0
  0
LINE
  5
3E0
  8
DETAIL
  6
CONTINUOUS
 62
     5
 10
1972.134472
 20
857.71808999999985
 30
0.0
 11
1954.134472
 21
857.71808999999985
 31
0.0
  0
ARC
  5
3E1
  8
DETAIL
  6
CONTINUOUS
 62
     5
 10
1954.634472
 20
860.71808999999985
 30
0.0
 40
3.0
 50
180.0
 51
270.0
  0
LINE
  5
3E2
  8
DETAIL
  6
CONTINUOUS
 62
     5
 10
1954.634472
 20
854.71808999999985
 30
0.0
 11
1965.634472
 21
854.71808999999985
 31
0.0
  0
LINE
  5
3E3
  8
DETAIL
  6
CONTINUOUS
 62
     5
 10
1965.634472
 20
854.71808999999985
 30
0.0
 11
1965.634472
 21
834.71808999999973
 31
0.0
  0
POINT
  5
3E4
  8
DEFPOINTS
  6
CONTINUOUS
 62
     7
 10
2010.634472
 20
869.71808999999985
 30
0.0
  0
POINT
  5
3E5
  8
DEFPOINTS
  6
CONTINUOUS
 62
     7
 10
2010.634472
 20
869.71808999999985
 30
0.0
  0
POINT
  5
3E6
  8
DEFPOINTS
  6
CONTINUOUS
 62
     7
 10
2010.634472
 20
869.71808999999985
 30
0.0
  0
POINT
  5
3E7
  8
DEFPOINTS
  6
CONTINUOUS
 62
     7
 10
2010.634472
 20
869.71808999999985
 30
0.0
  0
LINE
  5
3E8
  8
DETAIL
  6
CONTINUOUS
 62
     5
 10
2010.634472
 20
869.71808999999985
 30
0.0
 11
2010.634472
 21
834.71808999999973
 31
0.0
  0
ARC
  5
3E9
  8
DETAIL
  6
CONTINUOUS
 62
     5
 10
2007.634472
 20
834.71808999999973
 30
0.0
 40
3.0
 50
270.0
 51
0.0
  0
LINE
  5
3EA
  8
DETAIL
  6
CONTINUOUS
 62
     5
 10
1990.134472
 20
857.71808999999985
 30
0.0
 11
2008.134472
 21
857.71808999999985
 31
0.0
  0
LINE
  5
3EB
  8
DETAIL
  6
CONTINUOUS
 62
     5
 10
1987.134472
 20
869.71808999999985
 30
0.0
 11
1987.134472
 21
860.71808999999985
 31
0.0
  0
ARC
  5
3EC
  8
DETAIL
  6
CONTINUOUS
 62
     5
 10
2007.634472
 20
860.71808999999985
 30
0.0
 40
3.0
 50
270.0
 51
0.0
  0
ARC
  5
3ED
  8
DETAIL
  6
CONTINUOUS
 62
     5
 10
1990.134472
 20
860.71808999999985
 30
0.0
 40
3.0
 50
180.0
 51
270.0
  0
TEXT
  5
3EE
  8
SIZE
  6
CONTINUOUS
 62
    30
 10
2202.0067049999998
 20
897.71808957142866
 30
0.0
 40
55.0
  1
120
 50
90.0
 41
0.9
 72
     1
 11
2202.0067049999998
 21
956.64666099999999
 31
0.0
  0
TEXT
  5
3EF
  8
NOTE
  6
CONTINUOUS
 62
     4
 10
1534.8887010000001
 20
1084.17002
 30
0.0
 40
60.0
  1
外気取入口
 50
359.99999700000001
 41
0.7
  7
STANDARD1
  0
TEXT
  5
3F0
  8
SIZE
  6
CONTINUOUS
 62
    30
 10
1481.950482
 20
1346.7443800000001
 30
0.0
 40
60.0
  1
(吊りボルトピッチ)
 50
359.99999700000001
 41
0.75
  7
STANDARD1
  0
LINE
  5
3F1
  8
SIZE
  6
CONTINUOUS
 62
    30
 10
1969.634472
 20
1330.706173
 30
0.0
 11
1319.634472
 21
1330.706173
 31
0.0
  0
TEXT
  5
3F2
  8
SIZE
  6
CONTINUOUS
 62
    30
 10
1344.071182857143
 20
1349.758951
 30
0.0
 40
55.0
  1
670
 41
0.9
 72
     1
 11
1407.7140400000001
 21
1349.758951
 31
0.0
  0
TEXT
  5
3F3
  8
SIZE
  6
CONTINUOUS
 62
    30
 10
1394.384472
 20
1227.1657889999999
 30
0.0
 40
55.0
  1
64
 41
0.9
 72
     1
 11
1435.634472
 21
1227.1657889999999
 31
0.0
  0
LINE
  5
3F4
  8
SIZE
  6
CONTINUOUS
 62
    30
 10
1403.634472
 20
1209.1657889999999
 30
0.0
 11
1467.634472
 21
1209.1657889999999
 31
0.0
  0
LINE
  5
3F5
  8
SIZE
  6
CONTINUOUS
 62
    30
 10
1398.634472
 20
1209.1657889999999
 30
0.0
 11
1393.634472
 21
1209.1657889999999
 31
0.0
  0
CIRCLE
  5
3F6
  8
SIZE
  6
CONTINUOUS
 62
    30
 10
1403.634472
 20
1209.1657889999999
 30
0.0
 40
5.0
  0
LINE
  5
3F7
  8
SIZE
  6
CONTINUOUS
 62
    30
 10
1393.634472
 20
1209.1657889999999
 30
0.0
 11
1383.634472
 21
1209.1657889999999
 31
0.0
  0
POINT
  5
3F8
  8
DEFPOINTS
  6
CONTINUOUS
 62
     7
 10
1403.634472
 20
1209.1657889999999
 30
0.0
  0
LINE
  5
3F9
  8
SIZE
  6
CONTINUOUS
 62
    30
 10
1398.634472
 20
1209.1657889999999
 30
0.0
 11
1393.634472
 21
1209.1657889999999
 31
0.0
  0
CIRCLE
  5
3FA
  8
SIZE
  6
CONTINUOUS
 62
    30
 10
1403.634472
 20
1209.1657889999999
 30
0.0
 40
5.0
  0
LINE
  5
3FB
  8
SIZE
  6
CONTINUOUS
 62
    30
 10
1314.634472
 20
1330.706173
 30
0.0
 11
1319.634472
 21
1330.706173
 31
0.0
  0
POINT
  5
3FC
  8
DEFPOINTS
  6
CONTINUOUS
 62
     7
 10
1467.634472
 20
1209.1657889999999
 30
0.0
  0
LINE
  5
3FD
  8
SIZE
  6
CONTINUOUS
 62
    30
 10
1472.634472
 20
1209.1657889999999
 30
0.0
 11
1477.634472
 21
1209.1657889999999
 31
0.0
  0
CIRCLE
  5
3FE
  8
SIZE
  6
CONTINUOUS
 62
    30
 10
1467.634472
 20
1209.1657889999999
 30
0.0
 40
5.0
  0
LINE
  5
3FF
  8
SIZE
  6
CONTINUOUS
 62
    30
 10
1477.634472
 20
1209.1657889999999
 30
0.0
 11
1487.634472
 21
1209.1657889999999
 31
0.0
  0
TEXT
  5
400
  8
SIZE
  6
CONTINUOUS
 62
    30
 10
1579.4916148571431
 20
1474.4745230000001
 30
0.0
 40
55.0
  1
735
 41
0.9
 72
     1
 11
1643.134472
 21
1474.4745230000001
 31
0.0
  0
TEXT
  5
401
  8
SIZE
  6
CONTINUOUS
 62
    30
 10
2048.6344722857139
 20
1348.706173
 30
0.0
 40
55.0
  1
31
 41
0.9
 72
     1
 11
2078.0987580000001
 21
1348.706173
 31
0.0
  0
LINE
  5
402
  8
SIZE
  6
CONTINUOUS
 62
    30
 10
1894.634472
 20
1200.687846
 30
0.0
 11
2000.634472
 21
1200.687846
 31
0.0
  0
LINE
  5
403
  8
SIZE
  6
CONTINUOUS
 62
    30
 10
1979.634472
 20
1330.706173
 30
0.0
 11
2010.634472
 21
1330.706173
 31
0.0
  0
CIRCLE
  5
404
  8
SIZE
  6
CONTINUOUS
 62
    30
 10
1884.634472
 20
1200.687846
 30
0.0
 40
5.0
  0
POINT
  5
405
  8
DEFPOINTS
  6
CONTINUOUS
 62
     7
 10
1884.634472
 20
1200.687846
 30
0.0
  0
LINE
  5
406
  8
SIZE
  6
CONTINUOUS
 62
    30
 10
1889.634472
 20
1200.687846
 30
0.0
 11
1894.634472
 21
1200.687846
 31
0.0
  0
LINE
  5
407
  8
SIZE
  6
CONTINUOUS
 62
    30
 10
1974.634472
 20
1330.706173
 30
0.0
 11
1969.634472
 21
1330.706173
 31
0.0
  0
CIRCLE
  5
408
  8
SIZE
  6
CONTINUOUS
 62
    30
 10
1979.634472
 20
1330.706173
 30
0.0
 40
5.0
  0
POINT
  5
409
  8
DEFPOINTS
  6
CONTINUOUS
 62
     7
 10
1979.634472
 20
1330.706173
 30
0.0
  0
LINE
  5
40A
  8
SIZE
  6
CONTINUOUS
 62
    30
 10
1974.634472
 20
1330.706173
 30
0.0
 11
1969.634472
 21
1330.706173
 31
0.0
  0
CIRCLE
  5
40B
  8
SIZE
  6
CONTINUOUS
 62
    30
 10
1979.634472
 20
1330.706173
 30
0.0
 40
5.0
  0
LINE
  5
40C
  8
SIZE
  6
CONTINUOUS
 62
    30
 10
1969.634472
 20
1330.706173
 30
0.0
 11
1959.634472
 21
1330.706173
 31
0.0
  0
CIRCLE
  5
40D
  8
SIZE
  6
CONTINUOUS
 62
    30
 10
2010.634472
 20
1200.687846
 30
0.0
 40
5.0
  0
TEXT
  5
40E
  8
SIZE
  6
CONTINUOUS
 62
    30
 10
2038.634472
 20
1218.687846
 30
0.0
 40
55.0
  1
126
 41
0.9
 72
     1
 11
2096.3844720000002
 21
1218.687846
 31
0.0
  0
LINE
  5
40F
  8
SIZE
  6
CONTINUOUS
 62
    30
 10
2010.634472
 20
1200.687846
 30
0.0
 11
2172.1344720000002
 21
1200.687846
 31
0.0
  0
LINE
  5
410
  8
SIZE
  6
CONTINUOUS
 62
    30
 10
2020.634472
 20
1330.706173
 30
0.0
 11
2125.5630430000001
 21
1330.706173
 31
0.0
  0
LINE
  5
411
  8
SIZE
  6
CONTINUOUS
 62
    30
 10
2005.634472
 20
1200.687846
 30
0.0
 11
2000.634472
 21
1200.687846
 31
0.0
  0
LINE
  5
412
  8
SIZE
  6
CONTINUOUS
 62
    30
 10
2015.634472
 20
1330.706173
 30
0.0
 11
2020.634472
 21
1330.706173
 31
0.0
  0
CIRCLE
  5
413
  8
SIZE
  6
CONTINUOUS
 62
    30
 10
2010.634472
 20
1330.706173
 30
0.0
 40
5.0
  0
LINE
  5
414
  8
SIZE
  6
CONTINUOUS
 62
    30
 10
2005.634472
 20
1456.4745230000001
 30
0.0
 11
2000.634472
 21
1456.4745230000001
 31
0.0
  0
CIRCLE
  5
415
  8
SIZE
  6
CONTINUOUS
 62
    30
 10
2010.634472
 20
1456.4745230000001
 30
0.0
 40
5.0
  0
LINE
  5
416
  8
SIZE
  6
CONTINUOUS
 62
    30
 10
2220.0067049999998
 20
869.71808999999985
 30
0.0
 11
2220.0067049999998
 21
1033.575233
 31
0.0
  0
POINT
  5
417
  8
DEFPOINTS
  6
CONTINUOUS
 62
     7
 10
2220.0067049999998
 20
749.71808999999985
 30
0.0
  0
LINE
  5
418
  8
SIZE
  6
CONTINUOUS
 62
    30
 10
2220.0067049999998
 20
864.71808999999985
 30
0.0
 11
2220.0067049999998
 21
859.71808999999973
 31
0.0
  0
CIRCLE
  5
419
  8
SIZE
  6
CONTINUOUS
 62
    30
 10
2220.0067049999998
 20
869.71808999999985
 30
0.0
 40
5.0
  0
LINE
  5
41A
  8
SIZE
  6
CONTINUOUS
 62
    30
 10
2220.0067049999998
 20
754.71808999999985
 30
0.0
 11
2220.0067049999998
 21
759.71808999999985
 31
0.0
  0
CIRCLE
  5
41B
  8
SIZE
  6
CONTINUOUS
 62
    30
 10
2220.0067049999998
 20
749.71808999999985
 30
0.0
 40
5.0
  0
LINE
  5
41C
  8
SIZE
  6
CONTINUOUS
 62
    30
 10
2220.0067049999998
 20
759.71808999999985
 30
0.0
 11
2220.0067049999998
 21
859.71808999999973
 31
0.0
  0
ENDBLK
  5
41E
  8
0
 62
     7
  0
ENDSEC
  0
SECTION
  2
ENTITIES
  0
LINE
  5
420
  8
SIZE
  6
CONTINUOUS
 62
    30
 10
-178.21139600000001
 20
0.0
 30
0.0
 11
-1197.958627
 21
0.0
 31
0.0
  0
LINE
  5
421
  8
SIZE
  6
CONTINUOUS
 62
    30
 10
-145.97
 20
47.0
 30
0.0
 11
-891.59331299999985
 21
47.0
 31
0.0
  0
LINE
  5
422
  8
SIZE
  6
CONTINUOUS
 62
    30
 10
-177.5
 20
0.0
 30
0.0
 11
-891.59331299999985
 21
0.0
 31
0.0
  0
LINE
  5
423
  8
SIZE
  6
CONTINUOUS
 62
    30
 10
-177.5
 20
0.0
 30
0.0
 11
-891.59331299999985
 21
0.0
 31
0.0
  0
LINE
  5
424
  8
SIZE
  6
CONTINUOUS
 62
    30
 10
-146.80000000000001
 20
-8.0
 30
0.0
 11
-891.59331299999985
 21
-8.0
 31
0.0
  0
LINE
  5
425
  8
SIZE
  6
CONTINUOUS
 62
    30
 10
-357.5
 20
-406.71809699999989
 30
0.0
 11
-150.5
 21
-406.71809699999989
 31
0.0
  0
LINE
  5
426
  8
SIZE
  6
CONTINUOUS
 62
    30
 10
-249.5
 20
774.44769899999983
 30
0.0
 11
-357.5
 21
774.44769899999983
 31
0.0
  0
LINE
  5
427
  8
SIZE
  6
CONTINUOUS
 62
    30
 10
-265.00914899999998
 20
235.00264100000001
 30
0.0
 11
-907.54594799999995
 21
235.00264100000001
 31
0.0
  0
LINE
  5
428
  8
SIZE
  6
CONTINUOUS
 62
    30
 10
-201.00914900000001
 20
263.0
 30
0.0
 11
-907.54594799999995
 21
263.0
 31
0.0
  0
LINE
  5
429
  8
SIZE
  6
CONTINUOUS
 62
    30
 10
-201.00914900000001
 20
263.0
 30
0.0
 11
-907.54594799999995
 21
263.0
 31
0.0
  0
LINE
  5
42A
  8
NOTE
  6
CONTINUOUS
 62
     4
 10
-452.28743899999989
 20
-246.03119599999999
 30
0.0
 11
-175.5
 21
263.0
 31
0.0
  0
LINE
  5
42B
  8
SIZE
  6
CONTINUOUS
 62
    30
 10
357.5
 20
1021.756433
 30
0.0
 11
-357.5
 21
1021.756433
 31
0.0
  0
CIRCLE
  5
42C
  8
SIZE
  6
CONTINUOUS
 62
    30
 10
-333.5
 20
895.98808299999985
 30
0.0
 40
5.0
  0
LINE
  5
42D
  8
OUTLINE
  6
CONTINUOUS
 62
     3
 10
-367.5
 20
140.0
 30
0.0
 11
367.5
 21
140.0
 31
0.0
  0
LINE
  5
42E
  8
OUTLINE
  6
CONTINUOUS
 62
     3
 10
367.5
 20
435.0
 30
0.0
 11
-367.5
 21
435.0
 31
0.0
  0
LINE
  5
42F
  8
NOTE
  6
CONTINUOUS
 62
     4
 10
-495.65449599999999
 20
-140.55580499999999
 30
0.0
 11
-239.5
 21
235.0
 31
0.0
  0
CIRCLE
  5
430
  8
FIX
  6
CONTINUOUS
 62
    11
 10
-333.5
 20
435.0
 30
0.0
 40
12.421498
  0
LINE
  5
431
  8
NOTE
  6
CONTINUOUS
 62
     4
 10
-318.50483400000002
 20
435.0
 30
0.0
 11
-348.4951660000001
 21
435.0
 31
0.0
  0
LINE
  5
432
  8
DETAIL
  6
CONTINUOUS
 62
     5
 10
367.5
 20
435.0
 30
0.0
 11
-367.5
 21
435.0
 31
0.0
  0
LINE
  5
433
  8
DETAIL
  6
CONTINUOUS
 62
     5
 10
-325.50025299999999
 20
397.0
 30
0.0
 11
-364.50036799999998
 21
397.0
 31
0.0
  0
LINE
  5
434
  8
DETAIL
  6
CONTINUOUS
 62
     5
 10
-329.00025299999999
 20
423.0
 30
0.0
 11
-311.50025299999999
 21
423.0
 31
0.0
  0
LINE
  5
435
  8
DETAIL
  6
CONTINUOUS
 62
     5
 10
367.5
 20
140.0
 30
0.0
 11
-367.5
 21
140.0
 31
0.0
  0
CIRCLE
  5
437
  8
SIZE
  6
CONTINUOUS
 62
    30
 10
-1167.958627
 20
0.0
 30
0.0
 40
5.0
  0
LINE
  5
438
  8
SIZE
  6
CONTINUOUS
 62
    30
 10
-1167.958627
 20
0.0
 30
0.0
 11
-1167.958627
 21
-364.68571400000002
 31
0.0
  0
CIRCLE
  5
439
  8
SIZE
  6
CONTINUOUS
 62
    30
 10
-861.59331299999985
 20
0.0
 30
0.0
 40
5.0
  0
LINE
  5
43A
  8
SIZE
  6
CONTINUOUS
 62
    30
 10
-861.59331299999985
 20
23.5
 30
0.0
 11
-988.06763899999987
 21
-10.034974
 31
0.0
  0
CIRCLE
  5
43B
  8
SIZE
  6
CONTINUOUS
 62
    30
 10
-861.59331299999985
 20
0.0
 30
0.0
 40
5.0
  0
LINE
  5
43C
  8
SIZE
  6
CONTINUOUS
 62
    30
 10
-861.59331299999985
 20
0.0
 30
0.0
 11
-861.59331299999985
 21
-8.0
 31
0.0
  0
LINE
  5
43D
  8
SIZE
  6
CONTINUOUS
 62
    30
 10
-367.5
 20
127.58597867295239
 30
0.0
 11
-367.5
 21
-436.71809699999989
 31
0.0
  0
TEXT
  5
43E
  8
SIZE
  6
CONTINUOUS
 62
    30
 10
-1363.7176629999999
 20
-318.56126399999999
 30
0.0
 40
55.0
  1
パネル直付時
 50
90.0
 41
0.9
 72
     1
 11
-1363.7176629999999
 21
-146.961264
 31
0.0
  0
TEXT
  5
43F
  8
SIZE
  6
CONTINUOUS
 62
    30
 10
-1185.958627
 20
-346.68571414285719
 30
0.0
 40
55.0
  1
140～300
 50
90.0
 41
0.9
 72
     1
 11
-1185.958627
 21
-187.34285700000001
 31
0.0
  0
POLYLINE
  5
440
  8
SIZE
  6
CONTINUOUS
 62
    30
 66
     1
 10
0.0
 20
0.0
 30
0.0
  0
VERTEX
  5
9D3
  8
SIZE
  6
CONTINUOUS
 62
    30
 10
-1439.9101270000001
 20
-311.99995799999999
 30
0.0
 42
0.186174
  0
VERTEX
  5
9D4
  8
SIZE
  6
CONTINUOUS
 62
    30
 10
-1431.060279
 20
-332.94944600000002
 30
0.0
 42
0.082105
  0
VERTEX
  5
9D5
  8
SIZE
  6
CONTINUOUS
 62
    30
 10
-1415.3577769999999
 20
-345.12400700000001
 30
0.0
 42
0.058826
  0
VERTEX
  5
9D6
  8
SIZE
  6
CONTINUOUS
 62
    30
 10
-1393.571719
 20
-353.898934
 30
0.0
 42
0.067494
  0
VERTEX
  5
9D7
  8
SIZE
  6
CONTINUOUS
 62
    30
 10
-1356.083159
 20
-358.84443800000008
 30
0.0
 42
0.067494
  0
VERTEX
  5
9D8
  8
SIZE
  6
CONTINUOUS
 62
    30
 10
-1318.594599
 20
-353.898934
 30
0.0
 42
0.058826
  0
VERTEX
  5
9D9
  8
SIZE
  6
CONTINUOUS
 62
    30
 10
-1296.8085410000001
 20
-345.12400700000001
 30
0.0
 42
0.082105
  0
VERTEX
  5
9DA
  8
SIZE
  6
CONTINUOUS
 62
    30
 10
-1281.106039
 20
-332.94944600000002
 30
0.0
 42
0.186174
  0
VERTEX
  5
9DB
  8
SIZE
  6
CONTINUOUS
 62
    30
 10
-1272.2561909999999
 20
-311.99995799999999
 30
0.0
 42
0.186174
  0
VERTEX
  5
9DC
  8
SIZE
  6
CONTINUOUS
 62
    30
 10
-1272.2561909999999
 20
-311.99995799999999
 30
0.0
 42
0.186174
  0
SEQEND
  5
9DD
  8
SIZE
  6
CONTINUOUS
 62
    30
  0
TEXT
  5
44C
  8
SIZE
  6
CONTINUOUS
 62
    30
 10
-1279.9678839999999
 20
-261.70261271428569
 30
0.0
 40
55.0
  1
50～65
 50
90.0
 41
0.9
 72
     1
 11
-1279.9678839999999
 21
-144.78832700000001
 31
0.0
  0
LINE
  5
44D
  8
NOTE
  6
CONTINUOUS
 62
     4
 10
-786.159221
 20
-246.03119599999999
 30
0.0
 11
-452.28743899999989
 21
-246.03119599999999
 31
0.0
  0
LINE
  5
44E
  8
NOTE
  6
CONTINUOUS
 62
     4
 10
-858.87052742423839
 20
-140.55580499999999
 30
0.0
 11
-495.65449599999999
 21
-140.55580499999999
 31
0.0
  0
TEXT
  5
44F
  8
NOTE
  6
CONTINUOUS
 62
     4
 10
-850.68224651556341
 20
-129.78676899999999
 30
0.0
 40
60.0
  1
RG %%C15.88
 50
359.99999700000001
 41
0.7
  7
STANDARD1
  0
TEXT
  5
450
  8
SIZE
  6
CONTINUOUS
 62
    30
 10
-1006.067639
 20
-108.1778305714286
 30
0.0
 40
55.0
  1
47
 50
90.0
 41
0.9
 72
     1
 11
-1006.067639
 21
-68.106402000000003
 31
0.0
  0
TEXT
  5
451
  8
SIZE
  6
CONTINUOUS
 62
    30
 10
-879.59331299999985
 20
-79.0
 30
0.0
 40
55.0
  1
8
 50
90.0
 41
0.9
 72
     1
 11
-879.59331299999985
 21
-62.5
 31
0.0
  0
LINE
  5
452
  8
SIZE
  6
CONTINUOUS
 62
    30
 10
-988.06763899999987
 20
-10.034974
 30
0.0
 11
-988.06763899999987
 21
-126.177831
 31
0.0
  0
LINE
  5
453
  8
SIZE
  6
CONTINUOUS
 62
    30
 10
-861.59331299999985
 20
-5.0
 30
0.0
 11
-861.59331299999985
 21
-10.0
 31
0.0
  0
LINE
  5
454
  8
SIZE
  6
CONTINUOUS
 62
    30
 10
-861.59331299999985
 20
-10.0
 30
0.0
 11
-861.59331299999985
 21
-20.0
 31
0.0
  0
LINE
  5
455
  8
SIZE
  6
CONTINUOUS
 62
    30
 10
-861.59331299999985
 20
-13.0
 30
0.0
 11
-861.59331299999985
 21
-18.0
 31
0.0
  0
CIRCLE
  5
456
  8
SIZE
  6
CONTINUOUS
 62
    30
 10
-861.59331299999985
 20
-8.0
 30
0.0
 40
5.0
  0
LINE
  5
457
  8
SIZE
  6
CONTINUOUS
 62
    30
 10
-861.59331299999985
 20
-18.0
 30
0.0
 11
-861.59331299999985
 21
-97.0
 31
0.0
  0
LINE
  5
458
  8
SIZE
  6
CONTINUOUS
 62
    30
 10
-362.5
 20
-406.71809699999989
 30
0.0
 11
-357.5
 21
-406.71809699999989
 31
0.0
  0
CIRCLE
  5
459
  8
SIZE
  6
CONTINUOUS
 62
    30
 10
-367.5
 20
-406.71809699999989
 30
0.0
 40
5.0
  0
TEXT
  5
45A
  8
NOTE
  6
CONTINUOUS
 62
     4
 10
-771.36762599999975
 20
-233.15067400000001
 30
0.0
 40
60.0
  1
RL %%C9.52
 50
359.99999700000001
 41
0.7
  7
STANDARD1
  0
TEXT
  5
45B
  8
NOTE
  6
CONTINUOUS
 62
     4
 10
-1228.4882660000001
 20
661.76989000000003
 30
0.0
 40
60.0
  1
%%C200 吹出円形フランジ
 50
359.99999700000001
 41
0.7
  7
STANDARD1
  0
TEXT
  5
45C
  8
SIZE
  6
CONTINUOUS
 62
    30
 10
-1185.958627
 20
224.85714285714289
 30
0.0
 40
55.0
  1
295
 50
90.0
 41
0.9
 72
     1
 11
-1185.958627
 21
288.5
 31
0.0
  0
TEXT
  5
45D
  8
ETC
  6
CONTINUOUS
 62
    61
 10
144.3273722146441
 20
1144.142270945991
 30
0.0
 40
80.0
  1
PDFY-P71_90MG1_4
 50
359.99999700000001
 41
0.8
  0
POLYLINE
  5
45E
  8
SIZE
  6
CONTINUOUS
 62
    30
 66
     1
 10
0.0
 20
0.0
 30
0.0
  0
VERTEX
  5
9DE
  8
SIZE
  6
CONTINUOUS
 62
    30
 10
-1272.2561909999999
 20
15.745668
 30
0.0
 42
0.186174
  0
VERTEX
  5
9DF
  8
SIZE
  6
CONTINUOUS
 62
    30
 10
-1281.106039
 20
36.695155999999997
 30
0.0
 42
0.082105
  0
VERTEX
  5
9E0
  8
SIZE
  6
CONTINUOUS
 62
    30
 10
-1296.8085410000001
 20
48.869717000000001
 30
0.0
 42
0.058826
  0
VERTEX
  5
9E1
  8
SIZE
  6
CONTINUOUS
 62
    30
 10
-1318.594599
 20
57.644643999999992
 30
0.0
 42
0.067494
  0
VERTEX
  5
9E2
  8
SIZE
  6
CONTINUOUS
 62
    30
 10
-1356.083159
 20
62.59014699999998
 30
0.0
 42
0.067494
  0
VERTEX
  5
9E3
  8
SIZE
  6
CONTINUOUS
 62
    30
 10
-1393.571719
 20
57.644643999999992
 30
0.0
 42
0.058826
  0
VERTEX
  5
9E4
  8
SIZE
  6
CONTINUOUS
 62
    30
 10
-1415.3577769999999
 20
48.869717000000001
 30
0.0
 42
0.082105
  0
VERTEX
  5
9E5
  8
SIZE
  6
CONTINUOUS
 62
    30
 10
-1431.060279
 20
36.695155999999997
 30
0.0
 42
0.186174
  0
VERTEX
  5
9E6
  8
SIZE
  6
CONTINUOUS
 62
    30
 10
-1439.9101270000001
 20
15.745668
 30
0.0
 42
0.186174
  0
SEQEND
  5
9E7
  8
SIZE
  6
CONTINUOUS
 62
    30
  0
LINE
  5
469
  8
SIZE
  6
CONTINUOUS
 62
    30
 10
-367.5
 20
455.0
 30
0.0
 11
-367.5
 21
804.44769899999972
 31
0.0
  0
LINE
  5
46A
  8
SIZE
  6
CONTINUOUS
 62
    30
 10
-437.5
 20
416.5
 30
0.0
 11
-437.5
 21
1051.756433
 31
0.0
  0
LINE
  5
46B
  8
SIZE
  6
CONTINUOUS
 62
    30
 10
-367.5
 20
455.0
 30
0.0
 11
-367.5
 21
1051.756433
 31
0.0
  0
LINE
  5
46C
  8
SIZE
  6
CONTINUOUS
 62
    30
 10
-367.5
 20
455.0
 30
0.0
 11
-367.5
 21
1051.756433
 31
0.0
  0
LINE
  5
46D
  8
SIZE
  6
CONTINUOUS
 62
    30
 10
-333.5
 20
469.99516599999993
 30
0.0
 11
-333.5
 21
925.98808299999996
 31
0.0
  0
LINE
  5
46E
  8
SIZE
  6
CONTINUOUS
 62
    30
 10
-397.5
 20
419.0
 30
0.0
 11
-397.5
 21
628.07054200000016
 31
0.0
  0
LINE
  5
46F
  8
SIZE
  6
CONTINUOUS
 62
    30
 10
-437.5
 20
416.5
 30
0.0
 11
-437.5
 21
628.07054200000016
 31
0.0
  0
LINE
  5
470
  8
NOTE
  6
CONTINUOUS
 62
     4
 10
-638.25443899999982
 20
646.97419799999955
 30
0.0
 11
-437.5
 21
299.0
 31
0.0
  0
LINE
  5
471
  8
SIZE
  6
CONTINUOUS
 62
    30
 10
-388.21139599999998
 20
140.0
 30
0.0
 11
-1197.958627
 21
140.0
 31
0.0
  0
LINE
  5
472
  8
SIZE
  6
CONTINUOUS
 62
    30
 10
-387.5
 20
435.0
 30
0.0
 11
-907.54594799999995
 21
435.0
 31
0.0
  0
TEXT
  5
473
  8
SIZE
  6
CONTINUOUS
 62
    30
 10
-768.53866700000003
 20
463.0
 30
0.0
 40
55.0
  1
136
 50
90.0
 41
0.9
 72
     1
 11
-768.53866700000003
 21
520.75
 31
0.0
  0
LINE
  5
474
  8
SIZE
  6
CONTINUOUS
 62
    30
 10
-529.44451500000002
 20
299.0
 30
0.0
 11
-780.53866700000003
 21
299.0
 31
0.0
  0
LINE
  5
475
  8
SIZE
  6
CONTINUOUS
 62
    30
 10
-387.5
 20
435.0
 30
0.0
 11
-780.53866700000003
 21
435.0
 31
0.0
  0
LINE
  5
476
  8
SIZE
  6
CONTINUOUS
 62
    30
 10
-387.55028799999991
 20
140.0
 30
0.0
 11
-1197.958627
 21
140.0
 31
0.0
  0
LINE
  5
477
  8
SIZE
  6
CONTINUOUS
 62
    30
 10
-387.5
 20
435.0
 30
0.0
 11
-1197.958627
 21
435.0
 31
0.0
  0
TEXT
  5
478
  8
SIZE
  6
CONTINUOUS
 62
    30
 10
-1026.263312
 20
277.80174242857152
 30
0.0
 40
55.0
  1
28
 50
90.0
 41
0.9
 72
     1
 11
-1026.263312
 21
317.87317100000001
 31
0.0
  0
LINE
  5
479
  8
SIZE
  6
CONTINUOUS
 62
    30
 10
-1008.263312
 20
259.80174199999999
 30
0.0
 11
-1008.263312
 21
375.94459899999998
 31
0.0
  0
TEXT
  5
47A
  8
SIZE
  6
CONTINUOUS
 62
    30
 10
-895.54594799999984
 20
290.07142857142861
 30
0.0
 40
55.0
  1
172
 50
90.0
 41
0.9
 72
     1
 11
-895.54594799999984
 21
349.0
 31
0.0
  0
LINE
  5
47B
  8
SIZE
  6
CONTINUOUS
 62
    30
 10
-877.54594799999984
 20
425.0
 30
0.0
 11
-877.54594799999984
 21
273.0
 31
0.0
  0
LINE
  5
47C
  8
SIZE
  6
CONTINUOUS
 62
    30
 10
-1167.958627
 20
425.0
 30
0.0
 11
-1167.958627
 21
150.0
 31
0.0
  0
LINE
  5
47D
  8
SIZE
  6
CONTINUOUS
 62
    30
 10
-877.54594799999984
 20
249.00132099999999
 30
0.0
 11
-1008.263312
 21
259.80174199999999
 31
0.0
  0
POINT
  5
47E
  8
DEFPOINTS
  6
CONTINUOUS
 62
     7
 10
-1167.958627
 20
0.0
 30
0.0
  0
LINE
  5
47F
  8
SIZE
  6
CONTINUOUS
 62
    30
 10
-1167.958627
 20
5.0
 30
0.0
 11
-1167.958627
 21
10.0
 31
0.0
  0
LINE
  5
480
  8
SIZE
  6
CONTINUOUS
 62
    30
 10
-1167.958627
 20
135.0
 30
0.0
 11
-1167.958627
 21
130.0
 31
0.0
  0
CIRCLE
  5
481
  8
SIZE
  6
CONTINUOUS
 62
    30
 10
-1167.958627
 20
140.0
 30
0.0
 40
5.0
  0
LINE
  5
482
  8
SIZE
  6
CONTINUOUS
 62
    30
 10
-1167.958627
 20
130.0
 30
0.0
 11
-1167.958627
 21
10.0
 31
0.0
  0
POINT
  5
483
  8
DEFPOINTS
  6
CONTINUOUS
 62
     7
 10
-1167.958627
 20
140.0
 30
0.0
  0
LINE
  5
484
  8
SIZE
  6
CONTINUOUS
 62
    30
 10
-1167.958627
 20
145.0
 30
0.0
 11
-1167.958627
 21
150.0
 31
0.0
  0
CIRCLE
  5
485
  8
SIZE
  6
CONTINUOUS
 62
    30
 10
-1167.958627
 20
140.0
 30
0.0
 40
5.0
  0
POINT
  5
486
  8
DEFPOINTS
  6
CONTINUOUS
 62
     7
 10
-861.59331299999985
 20
47.0
 30
0.0
  0
LINE
  5
487
  8
SIZE
  6
CONTINUOUS
 62
    30
 10
-861.59331299999985
 20
52.0
 30
0.0
 11
-861.59331299999985
 21
57.0
 31
0.0
  0
CIRCLE
  5
488
  8
SIZE
  6
CONTINUOUS
 62
    30
 10
-861.59331299999985
 20
47.0
 30
0.0
 40
5.0
  0
LINE
  5
489
  8
SIZE
  6
CONTINUOUS
 62
    30
 10
-861.59331299999985
 20
0.0
 30
0.0
 11
-861.59331299999985
 21
47.0
 31
0.0
  0
LINE
  5
48A
  8
SIZE
  6
CONTINUOUS
 62
    30
 10
-861.59331299999985
 20
0.0
 30
0.0
 11
-861.59331299999985
 21
47.0
 31
0.0
  0
LINE
  5
48B
  8
SIZE
  6
CONTINUOUS
 62
    30
 10
-861.59331299999985
 20
57.0
 30
0.0
 11
-861.59331299999985
 21
67.0
 31
0.0
  0
POINT
  5
48C
  8
DEFPOINTS
  6
CONTINUOUS
 62
     7
 10
-861.59331299999985
 20
0.0
 30
0.0
  0
LINE
  5
48D
  8
SIZE
  6
CONTINUOUS
 62
    30
 10
-861.59331299999985
 20
5.0
 30
0.0
 11
-861.59331299999985
 21
10.0
 31
0.0
  0
LINE
  5
48E
  8
SIZE
  6
CONTINUOUS
 62
    30
 10
-861.59331299999985
 20
10.0
 30
0.0
 11
-861.59331299999985
 21
20.0
 31
0.0
  0
POINT
  5
48F
  8
DEFPOINTS
  6
CONTINUOUS
 62
     7
 10
-877.54594799999984
 20
235.00264100000001
 30
0.0
  0
LINE
  5
490
  8
SIZE
  6
CONTINUOUS
 62
    30
 10
-877.54594799999984
 20
230.00264100000001
 30
0.0
 11
-877.54594799999984
 21
225.00264100000001
 31
0.0
  0
CIRCLE
  5
491
  8
SIZE
  6
CONTINUOUS
 62
    30
 10
-877.54594799999984
 20
235.00264100000001
 30
0.0
 40
5.0
  0
LINE
  5
492
  8
SIZE
  6
CONTINUOUS
 62
    30
 10
-877.54594799999984
 20
268.0
 30
0.0
 11
-877.54594799999984
 21
273.0
 31
0.0
  0
CIRCLE
  5
493
  8
SIZE
  6
CONTINUOUS
 62
    30
 10
-877.54594799999984
 20
263.0
 30
0.0
 40
5.0
  0
LINE
  5
494
  8
SIZE
  6
CONTINUOUS
 62
    30
 10
-877.54594799999984
 20
263.0
 30
0.0
 11
-877.54594799999984
 21
235.00264100000001
 31
0.0
  0
LINE
  5
495
  8
SIZE
  6
CONTINUOUS
 62
    30
 10
-877.54594799999984
 20
263.0
 30
0.0
 11
-877.54594799999984
 21
235.00264100000001
 31
0.0
  0
LINE
  5
496
  8
SIZE
  6
CONTINUOUS
 62
    30
 10
-877.54594799999984
 20
225.00264100000001
 30
0.0
 11
-877.54594799999984
 21
215.00264100000001
 31
0.0
  0
LINE
  5
497
  8
SIZE
  6
CONTINUOUS
 62
    30
 10
-877.54594799999984
 20
273.0
 30
0.0
 11
-877.54594799999984
 21
283.0
 31
0.0
  0
POINT
  5
498
  8
DEFPOINTS
  6
CONTINUOUS
 62
     7
 10
-877.54594799999984
 20
263.0
 30
0.0
  0
LINE
  5
499
  8
SIZE
  6
CONTINUOUS
 62
    30
 10
-877.54594799999984
 20
268.0
 30
0.0
 11
-877.54594799999984
 21
273.0
 31
0.0
  0
CIRCLE
  5
49A
  8
SIZE
  6
CONTINUOUS
 62
    30
 10
-877.54594799999984
 20
263.0
 30
0.0
 40
5.0
  0
LINE
  5
49B
  8
SIZE
  6
CONTINUOUS
 62
    30
 10
-1167.958627
 20
430.0
 30
0.0
 11
-1167.958627
 21
425.0
 31
0.0
  0
CIRCLE
  5
49C
  8
SIZE
  6
CONTINUOUS
 62
    30
 10
-1167.958627
 20
435.0
 30
0.0
 40
5.0
  0
LINE
  5
49D
  8
SIZE
  6
CONTINUOUS
 62
    30
 10
-877.54594799999984
 20
430.0
 30
0.0
 11
-877.54594799999984
 21
425.0
 31
0.0
  0
CIRCLE
  5
49E
  8
SIZE
  6
CONTINUOUS
 62
    30
 10
-877.54594799999984
 20
435.0
 30
0.0
 40
5.0
  0
LINE
  5
49F
  8
SIZE
  6
CONTINUOUS
 62
    30
 10
-750.53866700000003
 20
304.0
 30
0.0
 11
-750.53866700000003
 21
309.0
 31
0.0
  0
LINE
  5
4A0
  8
OUTLINE
  6
CONTINUOUS
 62
     3
 10
-367.5
 20
435.0
 30
0.0
 11
-367.5
 21
140.0
 31
0.0
  0
LINE
  5
4A1
  8
NOTE
  6
CONTINUOUS
 62
     4
 10
-437.5
 20
299.0
 30
0.0
 11
-447.88937099999998
 21
331.77820400000002
 31
0.0
  0
LINE
  5
4A2
  8
NOTE
  6
CONTINUOUS
 62
     4
 10
-437.5
 20
299.0
 30
0.0
 11
-462.88656099999997
 21
322.192071
 31
0.0
  0
LINE
  5
4A3
  8
NOTE
  6
CONTINUOUS
 62
     4
 10
-437.5
 20
370.94451500000002
 30
0.0
 11
-437.5
 21
227.055485
 31
0.0
  0
LINE
  5
4A4
  8
DETAIL
  6
CONTINUOUS
 62
     5
 10
-397.5
 20
399.0
 30
0.0
 11
-397.5
 21
199.0
 31
0.0
  0
LINE
  5
4A5
  8
DETAIL
  6
CONTINUOUS
 62
     5
 10
-437.5
 20
396.5
 30
0.0
 11
-437.5
 21
201.5
 31
0.0
  0
LINE
  5
4A6
  8
DETAIL
  6
CONTINUOUS
 62
     5
 10
-367.5
 20
435.0
 30
0.0
 11
-367.5
 21
140.0
 31
0.0
  0
LINE
  5
4A7
  8
DETAIL
  6
CONTINUOUS
 62
     5
 10
-382.5
 20
403.0
 30
0.0
 11
-382.5
 21
195.0
 31
0.0
  0
POINT
  5
4A8
  8
DEFPOINTS
  6
CONTINUOUS
 62
     7
 10
-750.53866700000003
 20
299.0
 30
0.0
  0
CIRCLE
  5
4A9
  8
SIZE
  6
CONTINUOUS
 62
    30
 10
-750.53866700000003
 20
299.0
 30
0.0
 40
5.0
  0
LINE
  5
4AC
  8
NOTE
  6
CONTINUOUS
 62
     4
 10
-365.55548500000009
 20
299.0
 30
0.0
 11
-509.44451500000002
 21
299.0
 31
0.0
  0
POINT
  5
4AD
  8
DEFPOINTS
  6
CONTINUOUS
 62
     7
 10
-509.44451500000002
 20
299.0
 30
0.0
  0
POINT
  5
4AE
  8
DEFPOINTS
  6
CONTINUOUS
 62
     7
 10
-367.5
 20
229.0
 30
0.0
  0
ARC
  5
4AF
  8
DETAIL
  6
CONTINUOUS
 62
     5
 10
-384.5
 20
197.0
 30
0.0
 40
2.0
 50
0.0
 51
90.0
  0
LINE
  5
4B0
  8
DETAIL
  6
CONTINUOUS
 62
     5
 10
-402.5
 20
199.0
 30
0.0
 11
-437.5
 21
201.5
 31
0.0
  0
LINE
  5
4B1
  8
DETAIL
  6
CONTINUOUS
 62
     5
 10
-402.5
 20
199.0
 30
0.0
 11
-384.5
 21
199.0
 31
0.0
  0
LINE
  5
4B2
  8
DETAIL
  6
CONTINUOUS
 62
     5
 10
-378.5
 20
191.0
 30
0.0
 11
-367.5
 21
191.0
 31
0.0
  0
ARC
  5
4B3
  8
DETAIL
  6
CONTINUOUS
 62
     5
 10
-378.5
 20
195.0
 30
0.0
 40
4.0
 50
180.0
 51
270.0
  0
LINE
  5
4B4
  8
SIZE
  6
CONTINUOUS
 62
    30
 10
-447.5
 20
598.07054200000005
 30
0.0
 11
-573.64285700000005
 21
598.07054200000005
 31
0.0
  0
LINE
  5
4B5
  8
SIZE
  6
CONTINUOUS
 62
    30
 10
-750.53866700000003
 20
435.0
 30
0.0
 11
-750.53866700000003
 21
596.49999999999989
 31
0.0
  0
LINE
  5
4B6
  8
SIZE
  6
CONTINUOUS
 62
    30
 10
-750.53866700000003
 20
430.0
 30
0.0
 11
-750.53866700000003
 21
425.0
 31
0.0
  0
CIRCLE
  5
4B7
  8
SIZE
  6
CONTINUOUS
 62
    30
 10
-750.53866700000003
 20
435.0
 30
0.0
 40
5.0
  0
LINE
  5
4B8
  8
SIZE
  6
CONTINUOUS
 62
    30
 10
-750.53866700000003
 20
309.0
 30
0.0
 11
-750.53866700000003
 21
425.0
 31
0.0
  0
POINT
  5
4B9
  8
DEFPOINTS
  6
CONTINUOUS
 62
     7
 10
-367.5
 20
435.0
 30
0.0
  0
POINT
  5
4BA
  8
DEFPOINTS
  6
CONTINUOUS
 62
     7
 10
-367.5
 20
435.0
 30
0.0
  0
POINT
  5
4BB
  8
DEFPOINTS
  6
CONTINUOUS
 62
     7
 10
-367.5
 20
435.0
 30
0.0
  0
POINT
  5
4BC
  8
DEFPOINTS
  6
CONTINUOUS
 62
     7
 10
-367.5
 20
435.0
 30
0.0
  0
POINT
  5
4BD
  8
DEFPOINTS
  6
CONTINUOUS
 62
     7
 10
-437.5
 20
396.5
 30
0.0
  0
POINT
  5
4BE
  8
DEFPOINTS
  6
CONTINUOUS
 62
     7
 10
-367.5
 20
435.0
 30
0.0
  0
POINT
  5
4BF
  8
DEFPOINTS
  6
CONTINUOUS
 62
     7
 10
-367.5
 20
435.0
 30
0.0
  0
POINT
  5
4C0
  8
DEFPOINTS
  6
CONTINUOUS
 62
     7
 10
-333.5
 20
449.99516599999993
 30
0.0
  0
POINT
  5
4C1
  8
DEFPOINTS
  6
CONTINUOUS
 62
     7
 10
-397.5
 20
399.0
 30
0.0
  0
POINT
  5
4C2
  8
DEFPOINTS
  6
CONTINUOUS
 62
     7
 10
-437.5
 20
396.5
 30
0.0
  0
LINE
  5
4C3
  8
NOTE
  6
CONTINUOUS
 62
     4
 10
-333.5
 20
449.99516599999993
 30
0.0
 11
-333.5
 21
420.00483399999968
 31
0.0
  0
ARC
  5
4C5
  8
DETAIL
  6
CONTINUOUS
 62
     5
 10
-364.50036799999998
 20
400.0
 30
0.0
 40
3.0
 50
179.99939800000001
 51
270.0
  0
LINE
  5
4C6
  8
DETAIL
  6
CONTINUOUS
 62
     5
 10
-347.00025299999999
 20
423.0
 30
0.0
 11
-364.50025299999999
 21
423.0
 31
0.0
  0
LINE
  5
4C7
  8
DETAIL
  6
CONTINUOUS
 62
     5
 10
-344.00025299999999
 20
435.0
 30
0.0
 11
-344.00025299999999
 21
426.0
 31
0.0
  0
ARC
  5
4C8
  8
DETAIL
  6
CONTINUOUS
 62
     5
 10
-364.50025299999999
 20
426.0
 30
0.0
 40
3.0
 50
180.0
 51
270.0
  0
ARC
  5
4C9
  8
DETAIL
  6
CONTINUOUS
 62
     5
 10
-347.00025299999999
 20
426.0
 30
0.0
 40
3.0
 50
270.0
 51
0.0
  0
ARC
  5
4CA
  8
DETAIL
  6
CONTINUOUS
 62
     5
 10
-329.00025299999999
 20
426.0
 30
0.0
 40
3.0
 50
180.0
 51
270.0
  0
LINE
  5
4CB
  8
DETAIL
  6
CONTINUOUS
 62
     5
 10
-332.00025299999999
 20
435.0
 30
0.0
 11
-332.00025299999999
 21
426.0
 31
0.0
  0
ARC
  5
4CC
  8
DETAIL
  6
CONTINUOUS
 62
     5
 10
-384.5
 20
401.0
 30
0.0
 40
2.0
 50
270.0
 51
0.0
  0
LINE
  5
4CD
  8
DETAIL
  6
CONTINUOUS
 62
     5
 10
-402.5
 20
399.0
 30
0.0
 11
-384.5
 21
399.0
 31
0.0
  0
LINE
  5
4CE
  8
DETAIL
  6
CONTINUOUS
 62
     5
 10
-402.5
 20
399.0
 30
0.0
 11
-437.5
 21
396.5
 31
0.0
  0
LINE
  5
4CF
  8
DETAIL
  6
CONTINUOUS
 62
     5
 10
-378.5
 20
407.0
 30
0.0
 11
-367.5
 21
407.0
 31
0.0
  0
ARC
  5
4D0
  8
DETAIL
  6
CONTINUOUS
 62
     5
 10
-378.5
 20
403.0
 30
0.0
 40
4.0
 50
90.0
 51
180.0
  0
CIRCLE
  5
4D1
  8
SIZE
  6
CONTINUOUS
 62
    30
 10
-437.5
 20
598.07054200000005
 30
0.0
 40
5.0
  0
LINE
  5
4D2
  8
SIZE
  6
CONTINUOUS
 62
    30
 10
-442.49999999999989
 20
598.07054200000005
 30
0.0
 11
-447.5
 21
598.07054200000005
 31
0.0
  0
POINT
  5
4D3
  8
DEFPOINTS
  6
CONTINUOUS
 62
     7
 10
-397.5
 20
598.07054200000005
 30
0.0
  0
LINE
  5
4D4
  8
SIZE
  6
CONTINUOUS
 62
    30
 10
-392.5
 20
598.07054200000005
 30
0.0
 11
-387.5
 21
598.07054200000005
 31
0.0
  0
CIRCLE
  5
4D5
  8
SIZE
  6
CONTINUOUS
 62
    30
 10
-397.5
 20
598.07054200000005
 30
0.0
 40
5.0
  0
LINE
  5
4D6
  8
SIZE
  6
CONTINUOUS
 62
    30
 10
-397.5
 20
598.07054200000005
 30
0.0
 11
-437.5
 21
598.07054200000005
 31
0.0
  0
LINE
  5
4D7
  8
SIZE
  6
CONTINUOUS
 62
    30
 10
-387.5
 20
598.07054200000005
 30
0.0
 11
-377.5
 21
598.07054200000005
 31
0.0
  0
LINE
  5
4D8
  8
NOTE
  6
CONTINUOUS
 62
     4
 10
-1221.231957
 20
646.97419799999955
 30
0.0
 11
-638.25443899999982
 21
646.97419799999955
 31
0.0
  0
TEXT
  5
4D9
  8
SIZE
  6
CONTINUOUS
 62
    30
 10
-575.84334742857129
 20
792.44769899999983
 30
0.0
 40
55.0
  1
128
 41
0.9
 72
     1
 11
-516.91477599999985
 21
792.44769899999983
 31
0.0
  0
LINE
  5
4DA
  8
SIZE
  6
CONTINUOUS
 62
    30
 10
-367.5
 20
774.44769899999983
 30
0.0
 11
-593.84334799999965
 21
774.44769899999983
 31
0.0
  0
TEXT
  5
4DB
  8
SIZE
  6
CONTINUOUS
 62
    30
 10
-555.64285757142852
 20
616.07054200000005
 30
0.0
 40
55.0
  1
40
 41
0.9
 72
     1
 11
-515.57142899999985
 21
616.07054200000005
 31
0.0
  0
LINE
  5
4DC
  8
SIZE
  6
CONTINUOUS
 62
    30
 10
-362.5
 20
774.44769899999983
 30
0.0
 11
-357.5
 21
774.44769899999983
 31
0.0
  0
CIRCLE
  5
4DD
  8
SIZE
  6
CONTINUOUS
 62
    30
 10
-367.5
 20
774.44769899999983
 30
0.0
 40
5.0
  0
POINT
  5
4DE
  8
DEFPOINTS
  6
CONTINUOUS
 62
     7
 10
-333.5
 20
895.98808299999985
 30
0.0
  0
TEXT
  5
4DF
  8
SIZE
  6
CONTINUOUS
 62
    30
 10
-442.5714285714285
 20
1039.756433
 30
0.0
 40
55.0
  1
70
 41
0.9
 72
     1
 11
-402.5
 21
1039.756433
 31
0.0
  0
CIRCLE
  5
4E0
  8
SIZE
  6
CONTINUOUS
 62
    30
 10
-437.5
 20
1021.756433
 30
0.0
 40
5.0
  0
LINE
  5
4E1
  8
SIZE
  6
CONTINUOUS
 62
    30
 10
-442.49999999999989
 20
1021.756433
 30
0.0
 11
-447.5
 21
1021.756433
 31
0.0
  0
LINE
  5
4E2
  8
SIZE
  6
CONTINUOUS
 62
    30
 10
-447.5
 20
1021.756433
 30
0.0
 11
-457.5
 21
1021.756433
 31
0.0
  0
POINT
  5
4E3
  8
DEFPOINTS
  6
CONTINUOUS
 62
     7
 10
-437.5
 20
1021.756433
 30
0.0
  0
LINE
  5
4E4
  8
SIZE
  6
CONTINUOUS
 62
    30
 10
-362.5
 20
1021.756433
 30
0.0
 11
-357.5
 21
1021.756433
 31
0.0
  0
CIRCLE
  5
4E5
  8
SIZE
  6
CONTINUOUS
 62
    30
 10
-367.5
 20
1021.756433
 30
0.0
 40
5.0
  0
LINE
  5
4E6
  8
SIZE
  6
CONTINUOUS
 62
    30
 10
-367.5
 20
1021.756433
 30
0.0
 11
-437.5
 21
1021.756433
 31
0.0
  0
LINE
  5
4E7
  8
SIZE
  6
CONTINUOUS
 62
    30
 10
-357.5
 20
1021.756433
 30
0.0
 11
-347.5
 21
1021.756433
 31
0.0
  0
POINT
  5
4E8
  8
DEFPOINTS
  6
CONTINUOUS
 62
     7
 10
-367.5
 20
1021.756433
 30
0.0
  0
LINE
  5
4E9
  8
SIZE
  6
CONTINUOUS
 62
    30
 10
-362.5
 20
1021.756433
 30
0.0
 11
-357.5
 21
1021.756433
 31
0.0
  0
CIRCLE
  5
4EA
  8
SIZE
  6
CONTINUOUS
 62
    30
 10
-367.5
 20
1021.756433
 30
0.0
 40
5.0
  0
LINE
  5
4EB
  8
BASIS
  6
DASHDOT
 62
     6
 10
0.0
 20
468.57171299999987
 30
0.0
 11
0.0
 21
-53.886170999999997
 31
0.0
  0
CIRCLE
  5
4EC
  8
ARRANGE
  6
CONTINUOUS
 62
     1
 10
0.0
 20
0.0
 30
0.0
 40
50.0
  0
LINE
  5
4ED
  8
OUTLINE
  6
CONTINUOUS
 62
     3
 10
-157.5
 20
0.0
 30
0.0
 11
-157.5
 21
-4.0065080000000002
 31
0.0
  0
LINE
  5
4EE
  8
OUTLINE
  6
CONTINUOUS
 62
     3
 10
442.49999999999989
 20
0.0
 30
0.0
 11
442.49999999999989
 21
-4.0065080000000002
 31
0.0
  0
LINE
  5
4EF
  8
ARRANGE
  6
CONTINUOUS
 62
     1
 10
-49.963763
 20
49.596595000000001
 30
0.0
 11
49.963763
 21
-49.596595000000001
 31
0.0
  0
LINE
  5
4F0
  8
ARRANGE
  6
CONTINUOUS
 62
     1
 10
-50.037350000000004
 20
-49.522353000000003
 30
0.0
 11
50.037350000000004
 21
49.522353000000003
 31
0.0
  0
LINE
  5
4F1
  8
DETAIL
  6
CONTINUOUS
 62
     5
 10
442.49999999999989
 20
-4.0065080000000002
 30
0.0
 11
442.49999999999989
 21
0.0
 31
0.0
  0
LINE
  5
4F2
  8
DETAIL
  6
CONTINUOUS
 62
     5
 10
-157.5
 20
-4.0065080000000002
 30
0.0
 11
-157.5
 21
0.0
 31
0.0
  0
TEXT
  5
4F3
  8
SIZE
  6
CONTINUOUS
 62
    30
 10
-131.35793021030489
 20
-390.313335
 30
0.0
 40
55.0
  1
566(天井開口寸法)
 41
0.9
 72
     1
 11
142.30635550398071
 21
-390.313335
 31
0.0
  0
LINE
  5
4F4
  8
SIZE
  6
CONTINUOUS
 62
    30
 10
415.5
 20
-406.71809699999989
 30
0.0
 11
-130.5
 21
-406.71809699999989
 31
0.0
  0
TEXT
  5
4F5
  8
SIZE
  6
CONTINUOUS
 62
    30
 10
78.398966023026958
 20
-232.626656
 30
0.0
 40
55.0
  1
600
 41
0.9
 72
     1
 11
142.0418231658841
 21
-232.626656
 31
0.0
  0
LINE
  5
4F6
  8
SIZE
  6
CONTINUOUS
 62
    30
 10
432.5
 20
-250.626656
 30
0.0
 11
-147.5
 21
-250.626656
 31
0.0
  0
LINE
  5
4F7
  8
OUTLINE
  6
CONTINUOUS
 62
     3
 10
-126.8
 20
-8.0
 30
0.0
 11
411.80000000000001
 21
-8.0
 31
0.0
  0
LINE
  5
4F8
  8
DETAIL
  6
CONTINUOUS
 62
     5
 10
-126.8
 20
-8.0
 30
0.0
 11
411.80000000000001
 21
-8.0
 31
0.0
  0
LINE
  5
4F9
  8
SIZE
  6
CONTINUOUS
 62
    30
 10
-140.5
 20
-19.0
 30
0.0
 11
-140.5
 21
-436.71809699999989
 31
0.0
  0
LINE
  5
4FA
  8
SIZE
  6
CONTINUOUS
 62
    30
 10
-140.5
 20
-19.0
 30
0.0
 11
-140.5
 21
-436.71809699999989
 31
0.0
  0
TEXT
  5
4FB
  8
SIZE
  6
CONTINUOUS
 62
    30
 10
-317.64285714285711
 20
-388.718097
 30
0.0
 40
55.0
  1
227
 41
0.9
 72
     1
 11
-254.0
 21
-388.718097
 31
0.0
  0
POINT
  5
4FC
  8
DEFPOINTS
  6
CONTINUOUS
 62
     7
 10
-140.5
 20
-406.71809699999989
 30
0.0
  0
LINE
  5
4FD
  8
SIZE
  6
CONTINUOUS
 62
    30
 10
-145.5
 20
-406.71809699999989
 30
0.0
 11
-150.5
 21
-406.71809699999989
 31
0.0
  0
CIRCLE
  5
4FE
  8
SIZE
  6
CONTINUOUS
 62
    30
 10
-140.5
 20
-406.71809699999989
 30
0.0
 40
5.0
  0
POINT
  5
4FF
  8
DEFPOINTS
  6
CONTINUOUS
 62
     7
 10
-140.5
 20
-406.71809699999989
 30
0.0
  0
LINE
  5
500
  8
SIZE
  6
CONTINUOUS
 62
    30
 10
-135.5
 20
-406.71809699999989
 30
0.0
 11
-130.5
 21
-406.71809699999989
 31
0.0
  0
CIRCLE
  5
501
  8
SIZE
  6
CONTINUOUS
 62
    30
 10
-140.5
 20
-406.71809699999989
 30
0.0
 40
5.0
  0
LINE
  5
502
  8
SIZE
  6
CONTINUOUS
 62
    30
 10
-130.5
 20
-149.31652800000001
 30
0.0
 11
-13.785714
 21
-149.31652800000001
 31
0.0
  0
LINE
  5
503
  8
SIZE
  6
CONTINUOUS
 62
    30
 10
-140.5
 20
-19.0
 30
0.0
 11
-140.5
 21
-179.31652800000001
 31
0.0
  0
LINE
  5
504
  8
SIZE
  6
CONTINUOUS
 62
    30
 10
-157.5
 20
-24.006508
 30
0.0
 11
-157.5
 21
-179.31652800000001
 31
0.0
  0
LINE
  5
505
  8
SIZE
  6
CONTINUOUS
 62
    30
 10
-157.5
 20
-24.006508
 30
0.0
 11
-157.5
 21
-280.62665600000003
 31
0.0
  0
POINT
  5
506
  8
DEFPOINTS
  6
CONTINUOUS
 62
     7
 10
-157.5
 20
-250.626656
 30
0.0
  0
LINE
  5
507
  8
SIZE
  6
CONTINUOUS
 62
    30
 10
-152.5
 20
-250.626656
 30
0.0
 11
-147.5
 21
-250.626656
 31
0.0
  0
CIRCLE
  5
508
  8
SIZE
  6
CONTINUOUS
 62
    30
 10
-157.5
 20
-250.626656
 30
0.0
 40
5.0
  0
POINT
  5
509
  8
DEFPOINTS
  6
CONTINUOUS
 62
     7
 10
-126.8
 20
-8.0
 30
0.0
  0
POINT
  5
50A
  8
DEFPOINTS
  6
CONTINUOUS
 62
     7
 10
-140.5
 20
-149.31652800000001
 30
0.0
  0
POINT
  5
50B
  8
DEFPOINTS
  6
CONTINUOUS
 62
     7
 10
-157.5
 20
-4.0065080000000002
 30
0.0
  0
LINE
  5
50C
  8
SIZE
  6
CONTINUOUS
 62
    30
 10
-135.5
 20
-149.31652800000001
 30
0.0
 11
-130.5
 21
-149.31652800000001
 31
0.0
  0
CIRCLE
  5
50D
  8
SIZE
  6
CONTINUOUS
 62
    30
 10
-140.5
 20
-149.31652800000001
 30
0.0
 40
5.0
  0
LINE
  5
50E
  8
SIZE
  6
CONTINUOUS
 62
    30
 10
-162.5
 20
-149.31652800000001
 30
0.0
 11
-167.5
 21
-149.31652800000001
 31
0.0
  0
CIRCLE
  5
50F
  8
SIZE
  6
CONTINUOUS
 62
    30
 10
-157.5
 20
-149.31652800000001
 30
0.0
 40
5.0
  0
LINE
  5
510
  8
SIZE
  6
CONTINUOUS
 62
    30
 10
-157.5
 20
-149.31652800000001
 30
0.0
 11
-140.5
 21
-149.31652800000001
 31
0.0
  0
LINE
  5
511
  8
SIZE
  6
CONTINUOUS
 62
    30
 10
-167.5
 20
-149.31652800000001
 30
0.0
 11
-177.5
 21
-149.31652800000001
 31
0.0
  0
POINT
  5
512
  8
DEFPOINTS
  6
CONTINUOUS
 62
     7
 10
-157.5
 20
-4.0065080000000002
 30
0.0
  0
ARC
  5
513
  8
OUTLINE
  6
CONTINUOUS
 62
     3
 10
-126.8
 20
112.0
 30
0.0
 40
120.0
 50
255.17703
 51
270.0
  0
ARC
  5
514
  8
DETAIL
  6
CONTINUOUS
 62
     5
 10
-126.8
 20
112.0
 30
0.0
 40
120.0
 50
255.17703
 51
270.0
  0
TEXT
  5
515
  8
SIZE
  6
CONTINUOUS
 62
    30
 10
-102.4999998571428
 20
-131.31652800000001
 30
0.0
 40
55.0
  1
17
 41
0.9
 72
     1
 11
-67.142856999999992
 21
-131.31652800000001
 31
0.0
  0
LINE
  5
516
  8
SIZE
  6
CONTINUOUS
 62
    30
 10
425.49999999999989
 20
-19.0
 30
0.0
 11
425.49999999999989
 21
-436.71809699999989
 31
0.0
  0
LINE
  5
517
  8
SIZE
  6
CONTINUOUS
 62
    30
 10
420.5
 20
-406.71809699999989
 30
0.0
 11
415.5
 21
-406.71809699999989
 31
0.0
  0
CIRCLE
  5
518
  8
SIZE
  6
CONTINUOUS
 62
    30
 10
425.49999999999989
 20
-406.71809699999989
 30
0.0
 40
5.0
  0
TEXT
  5
519
  8
SIZE
  6
CONTINUOUS
 62
    30
 10
316.78571414285722
 20
-131.31652800000001
 30
0.0
 40
55.0
  1
17
 41
0.9
 72
     1
 11
352.14285699999999
 21
-131.31652800000001
 31
0.0
  0
LINE
  5
51A
  8
SIZE
  6
CONTINUOUS
 62
    30
 10
415.5
 20
-149.31652800000001
 30
0.0
 11
298.78571399999998
 21
-149.31652800000001
 31
0.0
  0
LINE
  5
51B
  8
SIZE
  6
CONTINUOUS
 62
    30
 10
425.49999999999989
 20
-19.0
 30
0.0
 11
425.49999999999989
 21
-179.31652800000001
 31
0.0
  0
LINE
  5
51C
  8
SIZE
  6
CONTINUOUS
 62
    30
 10
442.49999999999989
 20
-24.006508
 30
0.0
 11
442.49999999999989
 21
-179.31652800000001
 31
0.0
  0
LINE
  5
51D
  8
SIZE
  6
CONTINUOUS
 62
    30
 10
442.49999999999989
 20
-24.006508
 30
0.0
 11
442.49999999999989
 21
-280.62665600000003
 31
0.0
  0
LINE
  5
51E
  8
SIZE
  6
CONTINUOUS
 62
    30
 10
437.5
 20
-250.626656
 30
0.0
 11
432.5
 21
-250.626656
 31
0.0
  0
CIRCLE
  5
51F
  8
SIZE
  6
CONTINUOUS
 62
    30
 10
442.49999999999989
 20
-250.626656
 30
0.0
 40
5.0
  0
LINE
  5
520
  8
SIZE
  6
CONTINUOUS
 62
    30
 10
452.5
 20
-149.31652800000001
 30
0.0
 11
462.5
 21
-149.31652800000001
 31
0.0
  0
POINT
  5
521
  8
DEFPOINTS
  6
CONTINUOUS
 62
     7
 10
425.49999999999989
 20
-149.31652800000001
 30
0.0
  0
POINT
  5
522
  8
DEFPOINTS
  6
CONTINUOUS
 62
     7
 10
442.49999999999989
 20
-4.0065080000000002
 30
0.0
  0
LINE
  5
523
  8
SIZE
  6
CONTINUOUS
 62
    30
 10
420.5
 20
-149.31652800000001
 30
0.0
 11
415.5
 21
-149.31652800000001
 31
0.0
  0
CIRCLE
  5
524
  8
SIZE
  6
CONTINUOUS
 62
    30
 10
425.49999999999989
 20
-149.31652800000001
 30
0.0
 40
5.0
  0
LINE
  5
525
  8
SIZE
  6
CONTINUOUS
 62
    30
 10
447.5
 20
-149.31652800000001
 30
0.0
 11
452.5
 21
-149.31652800000001
 31
0.0
  0
CIRCLE
  5
526
  8
SIZE
  6
CONTINUOUS
 62
    30
 10
442.49999999999989
 20
-149.31652800000001
 30
0.0
 40
5.0
  0
LINE
  5
527
  8
SIZE
  6
CONTINUOUS
 62
    30
 10
442.49999999999989
 20
-149.31652800000001
 30
0.0
 11
425.49999999999989
 21
-149.31652800000001
 31
0.0
  0
POINT
  5
528
  8
DEFPOINTS
  6
CONTINUOUS
 62
     7
 10
442.49999999999989
 20
-4.0065080000000002
 30
0.0
  0
ARC
  5
529
  8
OUTLINE
  6
CONTINUOUS
 62
     3
 10
411.80000000000001
 20
112.0
 30
0.0
 40
120.0
 50
270.0
 51
284.82297
  0
ARC
  5
52A
  8
DETAIL
  6
CONTINUOUS
 62
     5
 10
411.80000000000001
 20
112.0
 30
0.0
 40
120.0
 50
270.0
 51
284.82297
  0
LINE
  5
52B
  8
NOTE
  6
CONTINUOUS
 62
     4
 10
497.85074600000002
 20
214.877782
 30
0.0
 11
900.11997599999984
 21
214.877782
 31
0.0
  0
TEXT
  5
52C
  8
NOTE
  6
CONTINUOUS
 62
     4
 10
496.04113099999989
 20
230.70434299999999
 30
0.0
 40
60.0
  1
4-%%C2.9取付穴
 50
359.99999700000001
 41
0.7
  7
STANDARD1
  0
LINE
  5
52D
  8
SIZE
  6
CONTINUOUS
 62
    30
 10
323.44451499999991
 20
315.0
 30
0.0
 11
606.87223300000005
 21
315.0
 31
0.0
  0
LINE
  5
52E
  8
SIZE
  6
CONTINUOUS
 62
    30
 10
387.5
 20
435.0
 30
0.0
 11
606.87223300000005
 21
435.0
 31
0.0
  0
LINE
  5
52F
  8
NOTE
  6
CONTINUOUS
 62
     4
 10
464.97213099999988
 20
660.96709699999985
 30
0.0
 11
1194.0727589999999
 21
660.96709699999985
 31
0.0
  0
TEXT
  5
530
  8
NOTE
  6
CONTINUOUS
 62
     4
 10
477.99748699999998
 20
676.79365800000005
 30
0.0
 40
60.0
  1
AH 4-14×30長穴(M10)
 50
359.99999700000001
 41
0.7
  7
STANDARD1
  0
LINE
  5
531
  8
SIZE
  6
CONTINUOUS
 62
    30
 10
241.5
 20
426.09389700000003
 30
0.0
 11
241.5
 21
795.96975599999985
 31
0.0
  0
LINE
  5
532
  8
SIZE
  6
CONTINUOUS
 62
    30
 10
367.5
 20
455.0
 30
0.0
 11
367.5
 21
795.96975599999985
 31
0.0
  0
TEXT
  5
533
  8
NOTE
  6
CONTINUOUS
 62
     4
 10
-99.916984999999997
 20
578.77151900000001
 30
0.0
 40
60.0
  1
%%C150
 50
359.99999700000001
 41
0.7
  7
STANDARD1
  0
LINE
  5
534
  8
SIZE
  6
CONTINUOUS
 62
    30
 10
-175.5
 20
288.49999200000002
 30
0.0
 11
-175.5
 21
804.44769899999972
 31
0.0
  0
LINE
  5
535
  8
SIZE
  6
CONTINUOUS
 62
    30
 10
-239.5
 20
260.502634
 30
0.0
 11
-239.5
 21
804.44769899999972
 31
0.0
  0
LINE
  5
536
  8
SIZE
  6
CONTINUOUS
 62
    30
 10
-239.5
 20
260.502634
 30
0.0
 11
-239.5
 21
804.44769899999972
 31
0.0
  0
LINE
  5
537
  8
NOTE
  6
CONTINUOUS
 62
     4
 10
464.97213099999988
 20
660.96709699999985
 30
0.0
 11
336.5
 21
435.0
 31
0.0
  0
LINE
  5
538
  8
SIZE
  6
CONTINUOUS
 62
    30
 10
367.5
 20
455.0
 30
0.0
 11
367.5
 21
1051.756433
 31
0.0
  0
LINE
  5
539
  8
SIZE
  6
CONTINUOUS
 62
    30
 10
336.5
 20
469.99516599999993
 30
0.0
 11
336.5
 21
925.98808299999996
 31
0.0
  0
LINE
  5
53A
  8
SIZE
  6
CONTINUOUS
 62
    30
 10
336.5
 20
469.99516599999993
 30
0.0
 11
336.5
 21
925.98808299999996
 31
0.0
  0
LINE
  5
53B
  8
SIZE
  6
CONTINUOUS
 62
    30
 10
367.5
 20
455.0
 30
0.0
 11
367.5
 21
925.98808299999996
 31
0.0
  0
LINE
  5
53C
  8
OUTLINE
  6
CONTINUOUS
 62
     3
 10
-157.5
 20
0.0
 30
0.0
 11
442.49999999999989
 21
0.0
 31
0.0
  0
TEXT
  5
53D
  8
SIZE
  6
CONTINUOUS
 62
    30
 10
105.30859994407329
 20
62.136340613034939
 30
0.0
 40
55.0
  1
%%c172
 50
65.286486999999994
 41
0.9
 72
     1
 11
139.307571
 21
136.00950700000001
 31
0.0
  0
LINE
  5
53E
  8
SIZE
  6
CONTINUOUS
 62
    30
 10
114.13450899999999
 20
38.259504
 30
0.0
 11
201.364192
 21
227.792678
 31
0.0
  0
LINE
  5
53F
  8
NOTE
  6
CONTINUOUS
 62
     4
 10
-123.849351
 20
561.13209800000004
 30
0.0
 11
150.81277399999999
 21
561.13209800000004
 31
0.0
  0
LINE
  5
540
  8
OUTLINE
  6
CONTINUOUS
 62
     3
 10
410.97000000000003
 20
47.0
 30
0.0
 11
-125.97
 21
47.0
 31
0.0
  0
LINE
  5
542
  8
DETAIL
  6
CONTINUOUS
 62
     5
 10
-125.97
 20
47.0
 30
0.0
 11
410.97000000000003
 21
47.0
 31
0.0
  0
LINE
  5
544
  8
NOTE
  6
CONTINUOUS
 62
     4
 10
-240.5
 20
1.0
 30
0.0
 11
-140.5
 21
1.0
 31
0.0
  0
LINE
  5
545
  8
NOTE
  6
CONTINUOUS
 62
     4
 10
-240.5
 20
21.0
 30
0.0
 11
-140.5
 21
21.0
 31
0.0
  0
LINE
  5
546
  8
NOTE
  6
CONTINUOUS
 62
     4
 10
-198.838346
 20
1.0
 30
0.0
 11
-218.838346
 21
21.0
 31
0.0
  0
LINE
  5
547
  8
NOTE
  6
CONTINUOUS
 62
     4
 10
-203.838346
 20
1.0
 30
0.0
 11
-223.838346
 21
21.0
 31
0.0
  0
LINE
  5
548
  8
NOTE
  6
CONTINUOUS
 62
     4
 10
-208.838346
 20
1.0
 30
0.0
 11
-228.838346
 21
21.0
 31
0.0
  0
POINT
  5
549
  8
DEFPOINTS
  6
CONTINUOUS
 62
     7
 10
-158.21139600000001
 20
0.0
 30
0.0
  0
POINT
  5
54A
  8
DEFPOINTS
  6
CONTINUOUS
 62
     7
 10
-125.97
 20
47.0
 30
0.0
  0
POINT
  5
54B
  8
DEFPOINTS
  6
CONTINUOUS
 62
     7
 10
-157.5
 20
0.0
 30
0.0
  0
POINT
  5
54C
  8
DEFPOINTS
  6
CONTINUOUS
 62
     7
 10
-157.5
 20
0.0
 30
0.0
  0
POINT
  5
54D
  8
DEFPOINTS
  6
CONTINUOUS
 62
     7
 10
-140.5
 20
1.0
 30
0.0
  0
POINT
  5
54E
  8
DEFPOINTS
  6
CONTINUOUS
 62
     7
 10
-140.5
 20
1.0
 30
0.0
  0
POINT
  5
54F
  8
DEFPOINTS
  6
CONTINUOUS
 62
     7
 10
-140.5
 20
1.0
 30
0.0
  0
LINE
  5
550
  8
OUTLINE
  6
CONTINUOUS
 62
     3
 10
-125.97
 20
47.0
 30
0.0
 11
-125.97
 21
0.0
 31
0.0
  0
LINE
  5
551
  8
NOTE
  6
CONTINUOUS
 62
     4
 10
-140.5
 20
1.0
 30
0.0
 11
-140.5
 21
21.0
 31
0.0
  0
LINE
  5
552
  8
NOTE
  6
CONTINUOUS
 62
     4
 10
-158.838346
 20
1.0
 30
0.0
 11
-178.838346
 21
21.0
 31
0.0
  0
LINE
  5
553
  8
NOTE
  6
CONTINUOUS
 62
     4
 10
-163.838346
 20
1.0
 30
0.0
 11
-183.838346
 21
21.0
 31
0.0
  0
LINE
  5
554
  8
NOTE
  6
CONTINUOUS
 62
     4
 10
-168.838346
 20
1.0
 30
0.0
 11
-188.838346
 21
21.0
 31
0.0
  0
LINE
  5
556
  8
DETAIL
  6
CONTINUOUS
 62
     5
 10
-125.97
 20
0.0
 30
0.0
 11
-125.97
 21
47.0
 31
0.0
  0
POINT
  5
557
  8
DEFPOINTS
  6
CONTINUOUS
 62
     7
 10
-239.5
 20
240.502634
 30
0.0
  0
POINT
  5
558
  8
DEFPOINTS
  6
CONTINUOUS
 62
     7
 10
-239.5
 20
240.502634
 30
0.0
  0
POINT
  5
559
  8
DEFPOINTS
  6
CONTINUOUS
 62
     7
 10
-245.00914900000009
 20
235.00264100000001
 30
0.0
  0
LINE
  5
55A
  8
NOTE
  6
CONTINUOUS
 62
     4
 10
-245.0
 20
235.0
 30
0.0
 11
-234.0
 21
235.0
 31
0.0
  0
LINE
  5
55B
  8
NOTE
  6
CONTINUOUS
 62
     4
 10
-239.5
 20
240.49999249999999
 30
0.0
 11
-239.5
 21
229.50000750000001
 31
0.0
  0
LINE
  5
55C
  8
NOTE
  6
CONTINUOUS
 62
     4
 10
-239.5
 20
235.0
 30
0.0
 11
-264.52122800000001
 21
211.41424499999999
 31
0.0
  0
LINE
  5
55D
  8
NOTE
  6
CONTINUOUS
 62
     4
 10
-239.5
 20
235.0
 30
0.0
 11
-252.42733200000001
 21
203.13726700000001
 31
0.0
  0
LINE
  5
55E
  8
NOTE
  6
CONTINUOUS
 62
     4
 10
-245.0
 20
235.0
 30
0.0
 11
-234.0
 21
235.0
 31
0.0
  0
LINE
  5
55F
  8
NOTE
  6
CONTINUOUS
 62
     4
 10
-239.5
 20
240.49999249999999
 30
0.0
 11
-239.5
 21
229.50000750000001
 31
0.0
  0
POINT
  5
560
  8
DEFPOINTS
  6
CONTINUOUS
 62
     7
 10
-175.5
 20
268.49999200000002
 30
0.0
  0
POINT
  5
561
  8
DEFPOINTS
  6
CONTINUOUS
 62
     7
 10
-181.00914900000001
 20
263.0
 30
0.0
  0
POINT
  5
562
  8
DEFPOINTS
  6
CONTINUOUS
 62
     7
 10
-181.00914900000001
 20
263.0
 30
0.0
  0
LINE
  5
563
  8
NOTE
  6
CONTINUOUS
 62
     4
 10
-175.5
 20
263.0
 30
0.0
 11
-198.02726200000001
 21
237.02169900000001
 31
0.0
  0
LINE
  5
564
  8
NOTE
  6
CONTINUOUS
 62
     4
 10
-175.5
 20
263.0
 30
0.0
 11
-185.16359499999999
 21
230.00053600000001
 31
0.0
  0
LINE
  5
565
  8
NOTE
  6
CONTINUOUS
 62
     4
 10
-181.0
 20
263.0
 30
0.0
 11
-170.0
 21
263.0
 31
0.0
  0
LINE
  5
566
  8
NOTE
  6
CONTINUOUS
 62
     4
 10
-175.5
 20
268.49999200000002
 30
0.0
 11
-175.5
 21
257.50000799999998
 31
0.0
  0
LINE
  5
567
  8
NOTE
  6
CONTINUOUS
 62
     4
 10
-181.0
 20
263.0
 30
0.0
 11
-170.0
 21
263.0
 31
0.0
  0
LINE
  5
568
  8
NOTE
  6
CONTINUOUS
 62
     4
 10
-175.5
 20
268.49999200000002
 30
0.0
 11
-175.5
 21
257.50000799999998
 31
0.0
  0
ARC
  5
569
  8
DETAIL
  6
CONTINUOUS
 62
     5
 10
-311.50025299999999
 20
423.0
 30
0.0
 40
3.0
 50
270.0
 51
0.0
  0
ARC
  5
56A
  8
DETAIL
  6
CONTINUOUS
 62
     5
 10
-325.50025299999999
 20
400.0
 30
0.0
 40
3.0
 50
270.0
 51
0.0
  0
LINE
  5
56B
  8
DETAIL
  6
CONTINUOUS
 62
     5
 10
-308.50025299999999
 20
435.0
 30
0.0
 11
-308.50025299999999
 21
423.0
 31
0.0
  0
ARC
  5
56C
  8
DETAIL
  6
CONTINUOUS
 62
     5
 10
-311.50025299999999
 20
426.0
 30
0.0
 40
3.0
 50
270.0
 51
0.0
  0
LINE
  5
56D
  8
DETAIL
  6
CONTINUOUS
 62
     5
 10
-311.50025299999999
 20
420.0
 30
0.0
 11
-322.50025299999999
 21
420.0
 31
0.0
  0
LINE
  5
56E
  8
DETAIL
  6
CONTINUOUS
 62
     5
 10
-322.50025299999999
 20
420.0
 30
0.0
 11
-322.50025299999999
 21
400.0
 31
0.0
  0
LINE
  5
56F
  8
NOTE
  6
CONTINUOUS
 62
     4
 10
497.85074600000002
 20
214.877782
 30
0.0
 11
327.5
 21
315.0
 31
0.0
  0
LINE
  5
570
  8
NOTE
  6
CONTINUOUS
 62
     4
 10
327.5
 20
315.0
 30
0.0
 11
360.57035100000002
 21
305.58185099999997
 31
0.0
  0
LINE
  5
571
  8
NOTE
  6
CONTINUOUS
 62
     4
 10
327.5
 20
315.0
 30
0.0
 11
351.43069000000008
 21
290.308468
 31
0.0
  0
LINE
  5
572
  8
SIZE
  6
CONTINUOUS
 62
    30
 10
277.454994
 20
393.12322599999999
 30
0.0
 11
205.545006
 21
236.87677400000001
 31
0.0
  0
CIRCLE
  5
573
  8
NOTE
  6
CONTINUOUS
 62
     4
 10
241.5
 20
315.0
 30
0.0
 40
86.0
  0
LINE
  5
574
  8
NOTE
  6
CONTINUOUS
 62
     4
 10
241.5
 20
376.94451500000002
 30
0.0
 11
241.5
 21
253.055485
 31
0.0
  0
CIRCLE
  5
575
  8
DETAIL
  6
CONTINUOUS
 62
     5
 10
241.5
 20
315.0
 30
0.0
 40
75.0
  0
LINE
  5
576
  8
OUTLINE
  6
CONTINUOUS
 62
     3
 10
367.5
 20
140.0
 30
0.0
 11
367.5
 21
435.0
 31
0.0
  0
LINE
  5
577
  8
DETAIL
  6
CONTINUOUS
 62
     5
 10
367.5
 20
435.0
 30
0.0
 11
367.5
 21
140.0
 31
0.0
  0
POINT
  5
578
  8
DEFPOINTS
  6
CONTINUOUS
 62
     7
 10
205.545006
 20
236.87677400000001
 30
0.0
  0
LINE
  5
579
  8
SIZE
  6
CONTINUOUS
 62
    30
 10
203.454599
 20
232.33472599999999
 30
0.0
 11
201.364192
 21
227.792678
 31
0.0
  0
CIRCLE
  5
57A
  8
SIZE
  6
CONTINUOUS
 62
    30
 10
205.545006
 20
236.87677400000001
 30
0.0
 40
5.0
  0
LINE
  5
57B
  8
NOTE
  6
CONTINUOUS
 62
     4
 10
241.5
 20
223.906103
 30
0.0
 11
241.5
 21
234.093897
 31
0.0
  0
LINE
  5
57C
  8
NOTE
  6
CONTINUOUS
 62
     4
 10
236.406103
 20
229.0
 30
0.0
 11
246.593897
 21
229.0
 31
0.0
  0
CIRCLE
  5
57D
  8
DETAIL
  6
CONTINUOUS
 62
     5
 10
241.5
 20
229.0
 30
0.0
 40
1.45
  0
TEXT
  5
57E
  8
SIZE
  6
CONTINUOUS
 62
    30
 10
453.5000004285713
 20
99.25733000000001
 30
0.0
 40
55.0
  1
58
 41
0.9
 72
     1
 11
493.57142899999991
 21
99.25733000000001
 31
0.0
  0
LINE
  5
57F
  8
SIZE
  6
CONTINUOUS
 62
    30
 10
425.49999999999989
 20
81.257330000000024
 30
0.0
 11
551.64285700000005
 21
81.257330000000024
 31
0.0
  0
LINE
  5
580
  8
NOTE
  6
CONTINUOUS
 62
     4
 10
467.161654
 20
1.0
 30
0.0
 11
447.161654
 21
21.0
 31
0.0
  0
LINE
  5
581
  8
NOTE
  6
CONTINUOUS
 62
     4
 10
462.16165399999988
 20
1.0
 30
0.0
 11
442.161654
 21
21.0
 31
0.0
  0
LINE
  5
582
  8
NOTE
  6
CONTINUOUS
 62
     4
 10
457.16165399999988
 20
1.0
 30
0.0
 11
437.16165399999988
 21
21.0
 31
0.0
  0
LINE
  5
583
  8
NOTE
  6
CONTINUOUS
 62
     4
 10
425.49999999999989
 20
21.0
 30
0.0
 11
518.20409400000005
 21
21.0
 31
0.0
  0
LINE
  5
584
  8
NOTE
  6
CONTINUOUS
 62
     4
 10
425.49999999999989
 20
1.0
 30
0.0
 11
518.20409400000005
 21
1.0
 31
0.0
  0
POINT
  5
585
  8
DEFPOINTS
  6
CONTINUOUS
 62
     7
 10
425.49999999999989
 20
81.257330000000024
 30
0.0
  0
POINT
  5
586
  8
DEFPOINTS
  6
CONTINUOUS
 62
     7
 10
425.49999999999989
 20
21.0
 30
0.0
  0
POINT
  5
587
  8
DEFPOINTS
  6
CONTINUOUS
 62
     7
 10
367.5
 20
140.0
 30
0.0
  0
LINE
  5
588
  8
SIZE
  6
CONTINUOUS
 62
    30
 10
420.5
 20
81.257330000000024
 30
0.0
 11
415.5
 21
81.257330000000024
 31
0.0
  0
CIRCLE
  5
589
  8
SIZE
  6
CONTINUOUS
 62
    30
 10
425.49999999999989
 20
81.257330000000024
 30
0.0
 40
5.0
  0
LINE
  5
58A
  8
SIZE
  6
CONTINUOUS
 62
    30
 10
372.5
 20
81.257330000000024
 30
0.0
 11
377.5
 21
81.257330000000024
 31
0.0
  0
CIRCLE
  5
58B
  8
SIZE
  6
CONTINUOUS
 62
    30
 10
367.5
 20
81.257330000000024
 30
0.0
 40
5.0
  0
LINE
  5
58C
  8
SIZE
  6
CONTINUOUS
 62
    30
 10
377.5
 20
81.257330000000024
 30
0.0
 11
415.5
 21
81.257330000000024
 31
0.0
  0
LINE
  5
58D
  8
SIZE
  6
CONTINUOUS
 62
    30
 10
425.49999999999989
 20
41.0
 30
0.0
 11
425.49999999999989
 21
111.25733
 31
0.0
  0
LINE
  5
58E
  8
SIZE
  6
CONTINUOUS
 62
    30
 10
367.5
 20
120.0
 30
0.0
 11
367.5
 21
51.257330000000003
 31
0.0
  0
POINT
  5
58F
  8
DEFPOINTS
  6
CONTINUOUS
 62
     7
 10
425.49999999999989
 20
1.0
 30
0.0
  0
POINT
  5
590
  8
DEFPOINTS
  6
CONTINUOUS
 62
     7
 10
425.49999999999989
 20
1.0
 30
0.0
  0
LINE
  5
591
  8
OUTLINE
  6
CONTINUOUS
 62
     3
 10
410.97000000000003
 20
0.0
 30
0.0
 11
410.97000000000003
 21
47.0
 31
0.0
  0
LINE
  5
592
  8
NOTE
  6
CONTINUOUS
 62
     4
 10
425.49999999999989
 20
1.0
 30
0.0
 11
425.49999999999989
 21
21.0
 31
0.0
  0
LINE
  5
593
  8
DETAIL
  6
CONTINUOUS
 62
     5
 10
410.97000000000003
 20
0.0
 30
0.0
 11
410.97000000000003
 21
47.0
 31
0.0
  0
LINE
  5
595
  8
DETAIL
  6
CONTINUOUS
 62
     5
 10
-157.5
 20
0.0
 30
0.0
 11
442.49999999999989
 21
0.0
 31
0.0
  0
LINE
  5
596
  8
NOTE
  6
CONTINUOUS
 62
     4
 10
497.161654
 20
1.0
 30
0.0
 11
477.161654
 21
21.0
 31
0.0
  0
LINE
  5
597
  8
NOTE
  6
CONTINUOUS
 62
     4
 10
502.161654
 20
1.0
 30
0.0
 11
482.16165399999988
 21
21.0
 31
0.0
  0
LINE
  5
598
  8
NOTE
  6
CONTINUOUS
 62
     4
 10
507.16165399999988
 20
1.0
 30
0.0
 11
487.16165399999988
 21
21.0
 31
0.0
  0
LINE
  5
599
  8
NOTE
  6
CONTINUOUS
 62
     4
 10
336.5
 20
435.0
 30
0.0
 11
359.515064
 21
460.54714299999989
 31
0.0
  0
LINE
  5
59A
  8
NOTE
  6
CONTINUOUS
 62
     4
 10
336.5
 20
435.0
 30
0.0
 11
343.65805799999998
 21
468.63200699999987
 31
0.0
  0
CIRCLE
  5
59B
  8
FIX
  6
CONTINUOUS
 62
    11
 10
336.5
 20
435.0
 30
0.0
 40
12.421498
  0
LINE
  5
59C
  8
NOTE
  6
CONTINUOUS
 62
     4
 10
351.49516599999998
 20
435.0
 30
0.0
 11
321.50483400000002
 21
435.0
 31
0.0
  0
LINE
  5
59D
  8
DETAIL
  6
CONTINUOUS
 62
     5
 10
325.5
 20
397.0
 30
0.0
 11
364.5
 21
397.0
 31
0.0
  0
LINE
  5
59E
  8
NOTE
  6
CONTINUOUS
 62
     4
 10
150.81277399999999
 20
561.13209800000004
 30
0.0
 11
241.5
 21
315.0
 31
0.0
  0
LINE
  5
59F
  8
NOTE
  6
CONTINUOUS
 62
     4
 10
303.44451500000002
 20
315.0
 30
0.0
 11
179.555485
 21
315.0
 31
0.0
  0
LINE
  5
5A0
  8
NOTE
  6
CONTINUOUS
 62
     4
 10
241.5
 20
315.0
 30
0.0
 11
220.41022699999999
 21
342.15826099999998
 31
0.0
  0
LINE
  5
5A1
  8
NOTE
  6
CONTINUOUS
 62
     4
 10
155.5
 20
309.90610299999997
 30
0.0
 11
155.5
 21
320.09389700000008
 31
0.0
  0
LINE
  5
5A2
  8
NOTE
  6
CONTINUOUS
 62
     4
 10
150.406103
 20
315.0
 30
0.0
 11
160.593897
 21
315.0
 31
0.0
  0
CIRCLE
  5
5A3
  8
DETAIL
  6
CONTINUOUS
 62
     5
 10
155.5
 20
315.0
 30
0.0
 40
1.45
  0
POINT
  5
5A4
  8
DEFPOINTS
  6
CONTINUOUS
 62
     7
 10
277.454994
 20
393.12322599999999
 30
0.0
  0
LINE
  5
5A5
  8
SIZE
  6
CONTINUOUS
 62
    30
 10
279.54540100000003
 20
397.66527400000001
 30
0.0
 11
281.635808
 21
402.20732199999981
 31
0.0
  0
CIRCLE
  5
5A6
  8
SIZE
  6
CONTINUOUS
 62
    30
 10
277.454994
 20
393.12322599999999
 30
0.0
 40
5.0
  0
LINE
  5
5A7
  8
SIZE
  6
CONTINUOUS
 62
    30
 10
281.635808
 20
402.20732199999981
 30
0.0
 11
285.816621
 21
411.29141800000002
 31
0.0
  0
POINT
  5
5A8
  8
DEFPOINTS
  6
CONTINUOUS
 62
     7
 10
303.44451500000002
 20
315.0
 30
0.0
  0
POINT
  5
5A9
  8
DEFPOINTS
  6
CONTINUOUS
 62
     7
 10
241.5
 20
406.09389700000003
 30
0.0
  0
LINE
  5
5AA
  8
NOTE
  6
CONTINUOUS
 62
     4
 10
241.5
 20
395.90610299999997
 30
0.0
 11
241.5
 21
406.09389700000003
 31
0.0
  0
LINE
  5
5AB
  8
NOTE
  6
CONTINUOUS
 62
     4
 10
236.406103
 20
401.0
 30
0.0
 11
246.593897
 21
401.0
 31
0.0
  0
LINE
  5
5AC
  8
NOTE
  6
CONTINUOUS
 62
     4
 10
327.5
 20
309.90610299999997
 30
0.0
 11
327.5
 21
320.09389700000008
 31
0.0
  0
LINE
  5
5AD
  8
NOTE
  6
CONTINUOUS
 62
     4
 10
322.40610299999997
 20
315.0
 30
0.0
 11
332.59389700000008
 21
315.0
 31
0.0
  0
CIRCLE
  5
5AE
  8
DETAIL
  6
CONTINUOUS
 62
     5
 10
241.5
 20
401.0
 30
0.0
 40
1.45
  0
CIRCLE
  5
5AF
  8
DETAIL
  6
CONTINUOUS
 62
     5
 10
327.5
 20
315.0
 30
0.0
 40
1.45
  0
LINE
  5
5B0
  8
NOTE
  6
CONTINUOUS
 62
     4
 10
241.5
 20
315.0
 30
0.0
 11
236.814852
 21
349.06463100000002
 31
0.0
  0
POINT
  5
5B1
  8
DEFPOINTS
  6
CONTINUOUS
 62
     7
 10
336.5
 20
449.99516599999993
 30
0.0
  0
POINT
  5
5B2
  8
DEFPOINTS
  6
CONTINUOUS
 62
     7
 10
336.5
 20
449.99516599999993
 30
0.0
  0
LINE
  5
5B3
  8
NOTE
  6
CONTINUOUS
 62
     4
 10
336.5
 20
449.99516599999993
 30
0.0
 11
336.5
 21
420.00483399999968
 31
0.0
  0
ARC
  5
5B4
  8
DETAIL
  6
CONTINUOUS
 62
     5
 10
311.5
 20
423.0
 30
0.0
 40
3.0
 50
180.0
 51
270.0
  0
ARC
  5
5B5
  8
DETAIL
  6
CONTINUOUS
 62
     5
 10
325.5
 20
400.0
 30
0.0
 40
3.0
 50
180.0
 51
270.0
  0
LINE
  5
5B6
  8
DETAIL
  6
CONTINUOUS
 62
     5
 10
308.5
 20
435.0
 30
0.0
 11
308.5
 21
423.0
 31
0.0
  0
ARC
  5
5B7
  8
DETAIL
  6
CONTINUOUS
 62
     5
 10
329.0
 20
426.0
 30
0.0
 40
3.0
 50
270.0
 51
0.0
  0
LINE
  5
5B8
  8
DETAIL
  6
CONTINUOUS
 62
     5
 10
332.0
 20
435.0
 30
0.0
 11
332.0
 21
426.0
 31
0.0
  0
LINE
  5
5B9
  8
DETAIL
  6
CONTINUOUS
 62
     5
 10
329.0
 20
423.0
 30
0.0
 11
311.5
 21
423.0
 31
0.0
  0
ARC
  5
5BA
  8
DETAIL
  6
CONTINUOUS
 62
     5
 10
311.5
 20
426.0
 30
0.0
 40
3.0
 50
180.0
 51
270.0
  0
LINE
  5
5BB
  8
DETAIL
  6
CONTINUOUS
 62
     5
 10
311.5
 20
420.0
 30
0.0
 11
322.5
 21
420.0
 31
0.0
  0
LINE
  5
5BC
  8
DETAIL
  6
CONTINUOUS
 62
     5
 10
322.5
 20
420.0
 30
0.0
 11
322.5
 21
400.0
 31
0.0
  0
POINT
  5
5BD
  8
DEFPOINTS
  6
CONTINUOUS
 62
     7
 10
367.5
 20
435.0
 30
0.0
  0
POINT
  5
5BE
  8
DEFPOINTS
  6
CONTINUOUS
 62
     7
 10
367.5
 20
435.0
 30
0.0
  0
POINT
  5
5BF
  8
DEFPOINTS
  6
CONTINUOUS
 62
     7
 10
367.5
 20
435.0
 30
0.0
  0
POINT
  5
5C0
  8
DEFPOINTS
  6
CONTINUOUS
 62
     7
 10
367.5
 20
435.0
 30
0.0
  0
ARC
  5
5C2
  8
DETAIL
  6
CONTINUOUS
 62
     5
 10
364.5
 20
400.0
 30
0.0
 40
3.0
 50
270.0
 51
0.0
  0
LINE
  5
5C3
  8
DETAIL
  6
CONTINUOUS
 62
     5
 10
347.0
 20
423.0
 30
0.0
 11
364.5
 21
423.0
 31
0.0
  0
LINE
  5
5C4
  8
DETAIL
  6
CONTINUOUS
 62
     5
 10
344.0
 20
435.0
 30
0.0
 11
344.0
 21
426.0
 31
0.0
  0
ARC
  5
5C5
  8
DETAIL
  6
CONTINUOUS
 62
     5
 10
364.5
 20
426.0
 30
0.0
 40
3.0
 50
270.0
 51
0.0
  0
ARC
  5
5C6
  8
DETAIL
  6
CONTINUOUS
 62
     5
 10
347.0
 20
426.0
 30
0.0
 40
3.0
 50
180.0
 51
270.0
  0
TEXT
  5
5C7
  8
SIZE
  6
CONTINUOUS
 62
    30
 10
558.87223300000005
 20
462.99999957142859
 30
0.0
 40
55.0
  1
120
 50
90.0
 41
0.9
 72
     1
 11
558.87223300000005
 21
521.92857100000003
 31
0.0
  0
TEXT
  5
5C8
  8
NOTE
  6
CONTINUOUS
 62
     4
 10
-108.245771
 20
649.45192999999995
 30
0.0
 40
60.0
  1
外気取入口
 50
359.99999700000001
 41
0.7
  7
STANDARD1
  0
TEXT
  5
5C9
  8
SIZE
  6
CONTINUOUS
 62
    30
 10
-161.18398999999999
 20
912.02629000000002
 30
0.0
 40
60.0
  1
(吊りボルトピッチ)
 50
359.99999700000001
 41
0.75
  7
STANDARD1
  0
LINE
  5
5CA
  8
SIZE
  6
CONTINUOUS
 62
    30
 10
326.5
 20
895.98808299999985
 30
0.0
 11
-323.5
 21
895.98808299999985
 31
0.0
  0
TEXT
  5
5CB
  8
SIZE
  6
CONTINUOUS
 62
    30
 10
-299.06328914285712
 20
915.04086099999995
 30
0.0
 40
55.0
  1
670
 41
0.9
 72
     1
 11
-235.42043200000001
 21
915.04086099999995
 31
0.0
  0
TEXT
  5
5CC
  8
SIZE
  6
CONTINUOUS
 62
    30
 10
-248.75
 20
792.44769899999983
 30
0.0
 40
55.0
  1
64
 41
0.9
 72
     1
 11
-207.5
 21
792.44769899999983
 31
0.0
  0
LINE
  5
5CD
  8
SIZE
  6
CONTINUOUS
 62
    30
 10
-239.5
 20
774.44769899999983
 30
0.0
 11
-175.5
 21
774.44769899999983
 31
0.0
  0
LINE
  5
5CE
  8
SIZE
  6
CONTINUOUS
 62
    30
 10
-244.5
 20
774.44769899999983
 30
0.0
 11
-249.5
 21
774.44769899999983
 31
0.0
  0
CIRCLE
  5
5CF
  8
SIZE
  6
CONTINUOUS
 62
    30
 10
-239.5
 20
774.44769899999983
 30
0.0
 40
5.0
  0
LINE
  5
5D0
  8
SIZE
  6
CONTINUOUS
 62
    30
 10
-249.5
 20
774.44769899999983
 30
0.0
 11
-259.5
 21
774.44769899999983
 31
0.0
  0
POINT
  5
5D1
  8
DEFPOINTS
  6
CONTINUOUS
 62
     7
 10
-239.5
 20
774.44769899999983
 30
0.0
  0
LINE
  5
5D2
  8
SIZE
  6
CONTINUOUS
 62
    30
 10
-244.5
 20
774.44769899999983
 30
0.0
 11
-249.5
 21
774.44769899999983
 31
0.0
  0
CIRCLE
  5
5D3
  8
SIZE
  6
CONTINUOUS
 62
    30
 10
-239.5
 20
774.44769899999983
 30
0.0
 40
5.0
  0
LINE
  5
5D4
  8
SIZE
  6
CONTINUOUS
 62
    30
 10
-328.5
 20
895.98808299999985
 30
0.0
 11
-323.5
 21
895.98808299999985
 31
0.0
  0
POINT
  5
5D5
  8
DEFPOINTS
  6
CONTINUOUS
 62
     7
 10
-175.5
 20
774.44769899999983
 30
0.0
  0
LINE
  5
5D6
  8
SIZE
  6
CONTINUOUS
 62
    30
 10
-170.5
 20
774.44769899999983
 30
0.0
 11
-165.5
 21
774.44769899999983
 31
0.0
  0
CIRCLE
  5
5D7
  8
SIZE
  6
CONTINUOUS
 62
    30
 10
-175.5
 20
774.44769899999983
 30
0.0
 40
5.0
  0
LINE
  5
5D8
  8
SIZE
  6
CONTINUOUS
 62
    30
 10
-165.5
 20
774.44769899999983
 30
0.0
 11
-155.5
 21
774.44769899999983
 31
0.0
  0
TEXT
  5
5D9
  8
SIZE
  6
CONTINUOUS
 62
    30
 10
-63.642857142857139
 20
1039.756433
 30
0.0
 40
55.0
  1
735
 41
0.9
 72
     1
 11
0.0
 21
1039.756433
 31
0.0
  0
TEXT
  5
5DA
  8
SIZE
  6
CONTINUOUS
 62
    30
 10
400.26926621477872
 20
913.98808299999973
 30
0.0
 40
55.0
  1
31
 41
0.9
 72
     1
 11
429.7335519290645
 21
913.98808299999973
 31
0.0
  0
LINE
  5
5DB
  8
SIZE
  6
CONTINUOUS
 62
    30
 10
251.5
 20
765.96975599999985
 30
0.0
 11
357.5
 21
765.96975599999985
 31
0.0
  0
LINE
  5
5DC
  8
SIZE
  6
CONTINUOUS
 62
    30
 10
336.5
 20
895.98808299999985
 30
0.0
 11
367.5
 21
895.98808299999985
 31
0.0
  0
CIRCLE
  5
5DD
  8
SIZE
  6
CONTINUOUS
 62
    30
 10
241.5
 20
765.96975599999985
 30
0.0
 40
5.0
  0
POINT
  5
5DE
  8
DEFPOINTS
  6
CONTINUOUS
 62
     7
 10
241.5
 20
765.96975599999985
 30
0.0
  0
LINE
  5
5DF
  8
SIZE
  6
CONTINUOUS
 62
    30
 10
246.5
 20
765.96975599999985
 30
0.0
 11
251.5
 21
765.96975599999985
 31
0.0
  0
LINE
  5
5E0
  8
SIZE
  6
CONTINUOUS
 62
    30
 10
331.5
 20
895.98808299999985
 30
0.0
 11
326.5
 21
895.98808299999985
 31
0.0
  0
CIRCLE
  5
5E1
  8
SIZE
  6
CONTINUOUS
 62
    30
 10
336.5
 20
895.98808299999985
 30
0.0
 40
5.0
  0
POINT
  5
5E2
  8
DEFPOINTS
  6
CONTINUOUS
 62
     7
 10
336.5
 20
895.98808299999985
 30
0.0
  0
LINE
  5
5E3
  8
SIZE
  6
CONTINUOUS
 62
    30
 10
331.5
 20
895.98808299999985
 30
0.0
 11
326.5
 21
895.98808299999985
 31
0.0
  0
CIRCLE
  5
5E4
  8
SIZE
  6
CONTINUOUS
 62
    30
 10
336.5
 20
895.98808299999985
 30
0.0
 40
5.0
  0
LINE
  5
5E5
  8
SIZE
  6
CONTINUOUS
 62
    30
 10
326.5
 20
895.98808299999985
 30
0.0
 11
316.5
 21
895.98808299999985
 31
0.0
  0
CIRCLE
  5
5E6
  8
SIZE
  6
CONTINUOUS
 62
    30
 10
367.5
 20
765.96975599999985
 30
0.0
 40
5.0
  0
TEXT
  5
5E7
  8
SIZE
  6
CONTINUOUS
 62
    30
 10
390.74487320569818
 20
783.96975599999985
 30
0.0
 40
55.0
  1
126
 41
0.9
 72
     1
 11
448.49487320569818
 21
783.96975599999985
 31
0.0
  0
LINE
  5
5E8
  8
SIZE
  6
CONTINUOUS
 62
    30
 10
367.5
 20
765.96975599999985
 30
0.0
 11
529.0
 21
765.96975599999985
 31
0.0
  0
LINE
  5
5E9
  8
SIZE
  6
CONTINUOUS
 62
    30
 10
377.5
 20
895.98808299999985
 30
0.0
 11
482.42857099999981
 21
895.98808299999985
 31
0.0
  0
LINE
  5
5EA
  8
SIZE
  6
CONTINUOUS
 62
    30
 10
362.5
 20
765.96975599999985
 30
0.0
 11
357.5
 21
765.96975599999985
 31
0.0
  0
LINE
  5
5EB
  8
SIZE
  6
CONTINUOUS
 62
    30
 10
372.5
 20
895.98808299999985
 30
0.0
 11
377.5
 21
895.98808299999985
 31
0.0
  0
CIRCLE
  5
5EC
  8
SIZE
  6
CONTINUOUS
 62
    30
 10
367.5
 20
895.98808299999985
 30
0.0
 40
5.0
  0
LINE
  5
5ED
  8
SIZE
  6
CONTINUOUS
 62
    30
 10
362.5
 20
1021.756433
 30
0.0
 11
357.5
 21
1021.756433
 31
0.0
  0
CIRCLE
  5
5EE
  8
SIZE
  6
CONTINUOUS
 62
    30
 10
367.5
 20
1021.756433
 30
0.0
 40
5.0
  0
LINE
  5
5EF
  8
SIZE
  6
CONTINUOUS
 62
    30
 10
576.87223300000005
 20
435.0
 30
0.0
 11
576.87223300000005
 21
598.85714299999995
 31
0.0
  0
POINT
  5
5F0
  8
DEFPOINTS
  6
CONTINUOUS
 62
     7
 10
576.87223300000005
 20
315.0
 30
0.0
  0
LINE
  5
5F1
  8
SIZE
  6
CONTINUOUS
 62
    30
 10
576.87223300000005
 20
430.0
 30
0.0
 11
576.87223300000005
 21
425.0
 31
0.0
  0
CIRCLE
  5
5F2
  8
SIZE
  6
CONTINUOUS
 62
    30
 10
576.87223300000005
 20
435.0
 30
0.0
 40
5.0
  0
LINE
  5
5F3
  8
SIZE
  6
CONTINUOUS
 62
    30
 10
576.87223300000005
 20
320.0
 30
0.0
 11
576.87223300000005
 21
325.0
 31
0.0
  0
CIRCLE
  5
5F4
  8
SIZE
  6
CONTINUOUS
 62
    30
 10
576.87223300000005
 20
315.0
 30
0.0
 40
5.0
  0
LINE
  5
5F5
  8
SIZE
  6
CONTINUOUS
 62
    30
 10
576.87223300000005
 20
325.0
 30
0.0
 11
576.87223300000005
 21
425.0
 31
0.0
  0
ENDSEC
  0
EOF
