  0
SECTION
  2
HEADER
  9
$ACADVER
  1
AC1009
  9
$INSBASE
 10
0.0
 20
0.0
 30
0.0
  9
$EXTMIN
 10
-1400.2371149609901
 20
-364.97827688386678
 30
-0.0000000349181948
  9
$EXTMAX
 10
1358.6310234459741
 20
1214.762950611417
 30
0.0000000814935747
  9
$LIMMIN
 10
-4267.1522210000003
 20
-2696.0832100000011
  9
$LIMMAX
 10
7190.7174229999991
 20
5141.1553640000002
  9
$ORTHOMODE
 70
     1
  9
$REGENMODE
 70
     1
  9
$FILLMODE
 70
     1
  9
$QTEXTMODE
 70
     0
  9
$MIRRTEXT
 70
     0
  9
$DRAGMODE
 70
     2
  9
$LTSCALE
 40
20.0
  9
$OSMODE
 70
   431
  9
$ATTMODE
 70
     1
  9
$TEXTSIZE
 40
64.0
  9
$TRACEWID
 40
0.05
  9
$TEXTSTYLE
  7
STANDARD
  9
$CLAYER
  8
SYMBOLLINE
  9
$CELTYPE
  6
CONTINUOUS
  9
$CECOLOR
 62
     7
  9
$DIMSCALE
 40
1.0
  9
$DIMASZ
 40
10.0
  9
$DIMEXO
 40
20.0
  9
$DIMDLI
 40
200.0
  9
$DIMRND
 40
0.0
  9
$DIMDLE
 40
0.0
  9
$DIMEXE
 40
30.0
  9
$DIMTP
 40
0.0
  9
$DIMTM
 40
0.0
  9
$DIMTXT
 40
55.0
  9
$DIMCEN
 40
0.0
  9
$DIMTSZ
 40
0.0
  9
$DIMTOL
 70
     0
  9
$DIMLIM
 70
     0
  9
$DIMTIH
 70
     0
  9
$DIMTOH
 70
     0
  9
$DIMSE1
 70
     0
  9
$DIMSE2
 70
     0
  9
$DIMTAD
 70
     1
  9
$DIMZIN
 70
     8
  9
$DIMBLK
  1

  9
$DIMASO
 70
     1
  9
$DIMSHO
 70
     0
  9
$DIMPOST
  1

  9
$DIMAPOST
  1

  9
$DIMALT
 70
     0
  9
$DIMALTD
 70
     2
  9
$DIMALTF
 40
25.399999999999999
  9
$DIMLFAC
 40
1.0
  9
$DIMTOFL
 70
     1
  9
$DIMTVP
 40
0.0
  9
$DIMTIX
 70
     1
  9
$DIMSOXD
 70
     0
  9
$DIMSAH
 70
     1
  9
$DIMBLK1
  1
DOTBLANK
  9
$DIMBLK2
  1
DOTBLANK
  9
$DIMSTYLE
  2
STANDARD
  9
$DIMCLRD
 70
     0
  9
$DIMCLRE
 70
     0
  9
$DIMCLRT
 70
     0
  9
$DIMTFAC
 40
1.0
  9
$DIMGAP
 40
0.09
  9
$LUNITS
 70
     2
  9
$LUPREC
 70
     4
  9
$SKETCHINC
 40
0.1
  9
$FILLETRAD
 40
30.0
  9
$AUNITS
 70
     1
  9
$AUPREC
 70
     3
  9
$MENU
  1
ACAD
  9
$ELEVATION
 40
0.0
  9
$PELEVATION
 40
0.0
  9
$THICKNESS
 40
0.0
  9
$LIMCHECK
 70
     0
  9
$BLIPMODE
 70
     0
  9
$CHAMFERA
 40
0.0
  9
$CHAMFERB
 40
0.0
  9
$SKPOLY
 70
     0
  9
$TDCREATE
 40
2450330.4399309959
  9
$TDUPDATE
 40
2456777.6923756949
  9
$TDINDWG
 40
3.6003292477
  9
$TDUSRTIMER
 40
3.6003279744999999
  9
$USRTIMER
 70
     1
  9
$ANGBASE
 50
0.0
  9
$ANGDIR
 70
     0
  9
$PDMODE
 70
     3
  9
$PDSIZE
 40
-2.0
  9
$PLINEWID
 40
0.0
  9
$COORDS
 70
     1
  9
$SPLFRAME
 70
     0
  9
$SPLINETYPE
 70
     6
  9
$SPLINESEGS
 70
     8
  9
$ATTDIA
 70
     0
  9
$ATTREQ
 70
     1
  9
$HANDLING
 70
     1
  9
$HANDSEED
  5
A11
  9
$SURFTAB1
 70
     6
  9
$SURFTAB2
 70
     6
  9
$SURFTYPE
 70
     6
  9
$SURFU
 70
     6
  9
$SURFV
 70
     6
  9
$UCSNAME
  2

  9
$UCSORG
 10
0.0
 20
0.0
 30
0.0
  9
$UCSXDIR
 10
1.0
 20
0.0
 30
0.0
  9
$UCSYDIR
 10
0.0
 20
1.0
 30
0.0
  9
$PUCSNAME
  2

  9
$PUCSORG
 10
0.0
 20
0.0
 30
0.0
  9
$PUCSXDIR
 10
1.0
 20
0.0
 30
0.0
  9
$PUCSYDIR
 10
0.0
 20
1.0
 30
0.0
  9
$USERI1
 70
     0
  9
$USERI2
 70
     0
  9
$USERI3
 70
     0
  9
$USERI4
 70
     0
  9
$USERI5
 70
     0
  9
$USERR1
 40
20.0
  9
$USERR2
 40
0.0
  9
$USERR3
 40
0.0
  9
$USERR4
 40
0.0
  9
$USERR5
 40
0.0
  9
$WORLDVIEW
 70
     1
  9
$SHADEDGE
 70
     3
  9
$SHADEDIF
 70
    70
  9
$TILEMODE
 70
     1
  9
$MAXACTVP
 70
    48
  9
$PLIMCHECK
 70
     0
  9
$PEXTMIN
 10
1.0000000000000000E+020
 20
1.0000000000000000E+020
 30
1.0000000000000000E+020
  9
$PEXTMAX
 10
-1.0000000000000000E+020
 20
-1.0000000000000000E+020
 30
-1.0000000000000000E+020
  9
$PLIMMIN
 10
0.0
 20
0.0
  9
$PLIMMAX
 10
12.0
 20
9.0
  9
$UNITMODE
 70
     0
  9
$VISRETAIN
 70
     1
  9
$PLINEGEN
 70
     0
  9
$PSLTSCALE
 70
     1
  0
ENDSEC
  0
SECTION
  2
TABLES
  0
TABLE
  2
VPORT
 70
     1
  0
VPORT
  2
*ACTIVE
 70
     0
 10
0.0
 20
0.0
 11
1.0
 21
1.0
 12
1461.782600999999
 22
1222.536077
 13
0.0
 23
0.0
 14
50.0
 24
50.0
 15
100.0
 25
100.0
 16
0.0
 26
0.0
 36
1.0
 17
0.0
 27
0.0
 37
0.0
 40
7896.9129793857883
 41
1.5540025412960601
 42
50.0
 43
0.0
 44
0.0
 50
0.0
 51
0.0
 71
     0
 72
  1000
 73
     1
 74
     0
 75
     0
 76
     0
 77
     0
 78
     0
  0
ENDTAB
  0
TABLE
  2
LTYPE
 70
     3
  0
LTYPE
  2
CONTINUOUS
 70
     0
  3
実線
 72
    65
 73
     0
 40
0.0
  0
LTYPE
  2
DASHDOT
 70
     0
  3
____ _ ____ _ ____ _ ____ _ ____ _ ____ _ ____
 72
    65
 73
     4
 40
5.5
 49
4.0
 49
-0.6
 49
0.3
 49
-0.6
  0
ENDTAB
  0
TABLE
  2
LAYER
 70
    12
  0
LAYER
  2
0
 70
     0
 62
     7
  6
CONTINUOUS
  0
LAYER
  2
SYMBOLLINE
 70
     0
 62
    15
  6
CONTINUOUS
  0
LAYER
  2
SIZE
 70
     0
 62
    30
  6
CONTINUOUS
  0
LAYER
  2
OUTLINE
 70
     0
 62
     3
  6
CONTINUOUS
  0
LAYER
  2
DETAIL
 70
     0
 62
     5
  6
CONTINUOUS
  0
LAYER
  2
BASIS
 70
     0
 62
     6
  6
DASHDOT
  0
LAYER
  2
NOTE
 70
     0
 62
     4
  6
CONTINUOUS
  0
LAYER
  2
ARRANGE
 70
     0
 62
     1
  6
CONTINUOUS
  0
LAYER
  2
FIX
 70
     0
 62
    11
  6
CONTINUOUS
  0
LAYER
  2
SERVICESPACE
 70
     0
 62
     2
  6
DASHDOT
  0
LAYER
  2
ETC
 70
     0
 62
    61
  6
CONTINUOUS
  0
LAYER
  2
DEFPOINTS
 70
     0
 62
     7
  6
CONTINUOUS
  0
ENDTAB
  0
TABLE
  2
STYLE
 70
     3
  0
STYLE
  2
STANDARD
 70
     0
 40
0.0
 41
0.9
 50
0.0
 71
     0
 42
64.0
  3
SIMPLEX
  4
BIGFONT
  0
STYLE
  2
ANNOTATIVE
 70
     0
 40
0.0
 41
1.0
 50
0.0
 71
     0
 42
0.2
  3
txt
  4

  0
STYLE
  2
STANDARD1
 70
     0
 40
0.0
 41
1.0
 50
0.0
 71
     0
 42
64.0
  3
MONOTXT
  4
BIGFONT
  0
ENDTAB
  0
TABLE
  2
VIEW
 70
     1
  0
VIEW
  2
ALL
 70
     0
 40
9000.0
 10
241.50664699999999
 20
0.0
 41
12483.01
 11
0.0
 21
0.0
 31
1.0
 12
0.0
 22
0.0
 32
0.0
 42
50.0
 43
0.0
 44
0.0
 50
0.0
 71
     0
  0
ENDTAB
  0
TABLE
  2
UCS
 70
     0
  0
ENDTAB
  0
TABLE
  2
APPID
 70
     4
  0
APPID
  2
ACAD
 70
     0
  0
APPID
  2
ACADANNOTATIVE
 70
     0
  0
APPID
  2
ACAD_MLEADERVER
 70
     0
  0
APPID
  2
ACAD_EXEMPT_FROM_CAD_STANDARDS
 70
     0
  0
ENDTAB
  0
TABLE
  2
DIMSTYLE
 70
     3
  0
DIMSTYLE
  2
STANDARD
 70
     0
  3

  4

  5

  6

  7

 40
1.0
 41
0.18
 42
0.0625
 43
0.38
 44
0.18
 45
0.0
 46
0.0
 47
0.0
 48
0.0
140
0.18
141
0.09
142
0.0
143
25.399999999999999
144
1.0
145
0.0
146
1.0
147
0.09
 71
     0
 72
     0
 73
     1
 74
     1
 75
     0
 76
     0
 77
     0
 78
     0
170
     0
171
     2
172
     0
173
     0
174
     0
175
     0
176
     0
177
     0
178
     0
  0
DIMSTYLE
  2
ANNOTATIVE
 70
     0
  3

  4

  5

  6

  7

 40
1.0
 41
0.18
 42
0.0625
 43
0.38
 44
0.18
 45
0.0
 46
0.0
 47
0.0
 48
0.0
140
0.18
141
0.09
142
0.0
143
25.399999999999999
144
1.0
145
0.0
146
1.0
147
0.09
 71
     0
 72
     0
 73
     1
 74
     1
 75
     0
 76
     0
 77
     0
 78
     0
170
     0
171
     2
172
     0
173
     0
174
     0
175
     0
176
     0
177
     0
178
     0
  0
ENDTAB
  0
ENDSEC
  0
SECTION
  2
BLOCKS
  0
BLOCK
  8
0
  2
$MODEL_SPACE
 70
     0
 10
0.0
 20
0.0
 30
0.0
  3
$MODEL_SPACE
  1

  0
ENDBLK
  5
993
  8
0
  0
BLOCK
 67
     1
  8
0
  2
$PAPER_SPACE
 70
     0
 10
0.0
 20
0.0
 30
0.0
  3
$PAPER_SPACE
  1

  0
ENDBLK
  5
98F
 67
     1
  8
0
  0
BLOCK
  8
0
  2
_DOTBLANK
 70
     0
 10
0.0
 20
0.0
 30
0.0
  3
_DOTBLANK
  1

  0
CIRCLE
  5
32
  8
0
  6
CONTINUOUS
 62
     7
 10
0.0
 20
0.0
 30
0.0
 40
0.5
  0
LINE
  5
33
  8
0
  6
CONTINUOUS
 62
     7
 10
-0.5
 20
0.0
 30
0.0
 11
-1.0
 21
0.0
 31
0.0
  0
ENDBLK
  5
34
  8
0
  0
BLOCK
  8
0
 62
     7
  2
A$C186E10C4
 70
     0
 10
0.0
 20
0.0
 30
0.0
  3
A$C186E10C4
  1

  0
LINE
  5
2E8
  8
OUTLINE
  6
CONTINUOUS
 62
     3
 10
1260.2607
 20
364.68570999999997
 30
0.0
 11
2460.2606999999998
 21
364.68570999999997
 31
0.0
  0
LINE
  5
2E9
  8
SIZE
  6
CONTINUOUS
 62
    30
 10
2430.2606999999998
 20
185.875821
 30
0.0
 11
1250.2607
 21
185.875821
 31
0.0
  0
TEXT
  5
2EA
  8
SIZE
  6
CONTINUOUS
 62
    30
 10
1493.053557142857
 20
1298.252894
 30
0.0
 40
55.0
  1
1146(吊りボルトピッチ)
 41
0.9
 72
     1
 11
1840.2607
 21
1298.252894
 31
0.0
  0
LINE
  5
2EB
  8
SIZE
  6
CONTINUOUS
 62
    30
 10
2403.2606999999998
 20
1281.8481320000001
 30
0.0
 11
1277.2607
 21
1281.8481320000001
 31
0.0
  0
LINE
  5
2EC
  8
SIZE
  6
CONTINUOUS
 62
    30
 10
2410.2606999999998
 20
1164.7889070000001
 30
0.0
 11
1270.2607
 21
1164.7889070000001
 31
0.0
  0
LINE
  5
2ED
  8
OUTLINE
  6
CONTINUOUS
 62
     3
 10
1260.2607
 20
411.68570999999991
 30
0.0
 11
2420.2606999999998
 21
411.68570999999991
 31
0.0
  0
LINE
  5
2EE
  8
OUTLINE
  6
CONTINUOUS
 62
     3
 10
1273.7307000000001
 20
356.68570999999997
 30
0.0
 11
2406.7907
 21
356.68570999999997
 31
0.0
  0
LINE
  5
2EF
  8
SIZE
  6
CONTINUOUS
 62
    30
 10
2450.2606999999998
 20
39.618248000000001
 30
0.0
 11
1230.2607
 21
39.618248000000001
 31
0.0
  0
LINE
  5
2F0
  8
OUTLINE
  6
CONTINUOUS
 62
     3
 10
1260.2607
 20
504.68570999999991
 30
0.0
 11
2420.2606999999998
 21
504.68570999999991
 31
0.0
  0
LINE
  5
2F1
  8
OUTLINE
  6
CONTINUOUS
 62
     3
 10
2420.2606999999998
 20
797.68570999999974
 30
0.0
 11
1260.2607
 21
797.68570999999974
 31
0.0
  0
LINE
  5
2F2
  8
DETAIL
  6
CONTINUOUS
 62
     5
 10
2420.2606999999998
 20
504.68570999999991
 30
0.0
 11
1260.2607
 21
504.68570999999991
 31
0.0
  0
LINE
  5
2F3
  8
SIZE
  6
CONTINUOUS
 62
    30
 10
2426.2606999999998
 20
1393.835484
 30
0.0
 11
1254.2607
 21
1393.835484
 31
0.0
  0
LINE
  5
2F4
  8
DETAIL
  6
CONTINUOUS
 62
     5
 10
2420.2606999999998
 20
797.68570999999974
 30
0.0
 11
1260.2607
 21
797.68570999999974
 31
0.0
  0
LINE
  5
2F5
  8
DETAIL
  6
CONTINUOUS
 62
     5
 10
2420.2606999999998
 20
797.68570999999974
 30
0.0
 11
1260.2607
 21
797.68570999999974
 31
0.0
  0
LINE
  5
2F6
  8
DETAIL
  6
CONTINUOUS
 62
     5
 10
2402.2606999999998
 20
519.68570999999986
 30
0.0
 11
1278.2607
 21
519.68570999999986
 31
0.0
  0
LINE
  5
2F7
  8
DETAIL
  6
CONTINUOUS
 62
     5
 10
2405.2606999999998
 20
504.68570999999991
 30
0.0
 11
1275.2607
 21
504.68570999999991
 31
0.0
  0
LINE
  5
2F8
  8
DETAIL
  6
CONTINUOUS
 62
     5
 10
2402.2606999999998
 20
519.68570999999986
 30
0.0
 11
1278.2607
 21
519.68570999999986
 31
0.0
  0
LINE
  5
2F9
  8
DETAIL
  6
CONTINUOUS
 62
     5
 10
2405.2606999999998
 20
504.68570999999991
 30
0.0
 11
1275.2607
 21
504.68570999999991
 31
0.0
  0
LINE
  5
2FA
  8
DETAIL
  6
CONTINUOUS
 62
     5
 10
1260.2607
 20
411.68570999999991
 30
0.0
 11
2420.2606999999998
 21
411.68570999999991
 31
0.0
  0
LINE
  5
2FB
  8
DETAIL
  6
CONTINUOUS
 62
     5
 10
1273.7307000000001
 20
356.68570999999997
 30
0.0
 11
2406.7907
 21
356.68570999999997
 31
0.0
  0
LINE
  5
2FC
  8
DETAIL
  6
CONTINUOUS
 62
     5
 10
1260.2607
 20
364.68570999999997
 30
0.0
 11
2460.2606999999998
 21
364.68570999999997
 31
0.0
  0
CIRCLE
  5
2FD
  8
SIZE
  6
CONTINUOUS
 62
    30
 10
774.10452199999975
 20
364.68570999999997
 30
0.0
 40
5.0
  0
LINE
  5
2FE
  8
SIZE
  6
CONTINUOUS
 62
    30
 10
774.10452199999975
 20
364.68570999999997
 30
0.0
 11
774.10452199999975
 21
-0.000004
 31
0.0
  0
CIRCLE
  5
2FF
  8
SIZE
  6
CONTINUOUS
 62
    30
 10
998.61632199999985
 20
364.68570999999997
 30
0.0
 40
5.0
  0
LINE
  5
300
  8
SIZE
  6
CONTINUOUS
 62
    30
 10
998.61632199999985
 20
388.18570999999997
 30
0.0
 11
897.59305999999981
 21
347.16666700000002
 31
0.0
  0
CIRCLE
  5
301
  8
SIZE
  6
CONTINUOUS
 62
    30
 10
998.61632199999985
 20
364.68570999999997
 30
0.0
 40
5.0
  0
LINE
  5
302
  8
SIZE
  6
CONTINUOUS
 62
    30
 10
998.61632199999985
 20
364.68570999999997
 30
0.0
 11
998.61632199999985
 21
356.68570999999997
 31
0.0
  0
TEXT
  5
303
  8
SIZE
  6
CONTINUOUS
 62
    30
 10
584.62788399999999
 20
46.124445999999949
 30
0.0
 40
55.0
  1
パネル直付時
 50
90.0
 41
0.9
 72
     1
 11
584.62788399999999
 21
217.724446
 31
0.0
  0
LINE
  5
304
  8
OUTLINE
  6
CONTINUOUS
 62
     3
 10
1220.2607
 20
360.67920199999998
 30
0.0
 11
1220.2607
 21
364.68570999999997
 31
0.0
  0
LINE
  5
305
  8
DETAIL
  6
CONTINUOUS
 62
     5
 10
1220.2607
 20
360.67920199999998
 30
0.0
 11
1220.2607
 21
364.68570999999997
 31
0.0
  0
POLYLINE
  5
306
  8
SIZE
  6
CONTINUOUS
 62
    30
 66
     1
 10
0.0
 20
0.0
 30
0.0
  0
VERTEX
  5
9D8
  8
SIZE
  6
CONTINUOUS
 62
    30
 10
508.43541999999991
 20
52.685752000000001
 30
0.0
 42
0.186174
  0
VERTEX
  5
9D9
  8
SIZE
  6
CONTINUOUS
 62
    30
 10
517.28526799999997
 20
31.736263999999998
 30
0.0
 42
0.082105
  0
VERTEX
  5
9DA
  8
SIZE
  6
CONTINUOUS
 62
    30
 10
532.98776999999995
 20
19.561703000000001
 30
0.0
 42
0.058826
  0
VERTEX
  5
9DB
  8
SIZE
  6
CONTINUOUS
 62
    30
 10
554.77382799999987
 20
10.786776
 30
0.0
 42
0.067494
  0
VERTEX
  5
9DC
  8
SIZE
  6
CONTINUOUS
 62
    30
 10
592.26238799999976
 20
5.841272
 30
0.0
 42
0.067494
  0
VERTEX
  5
9DD
  8
SIZE
  6
CONTINUOUS
 62
    30
 10
629.75094799999999
 20
10.786776
 30
0.0
 42
0.058826
  0
VERTEX
  5
9DE
  8
SIZE
  6
CONTINUOUS
 62
    30
 10
651.53700599999968
 20
19.561703000000001
 30
0.0
 42
0.082105
  0
VERTEX
  5
9DF
  8
SIZE
  6
CONTINUOUS
 62
    30
 10
667.239508
 20
31.736263999999998
 30
0.0
 42
0.186174
  0
VERTEX
  5
9E0
  8
SIZE
  6
CONTINUOUS
 62
    30
 10
676.08935599999995
 20
52.685752000000001
 30
0.0
 42
0.186174
  0
VERTEX
  5
9E1
  8
SIZE
  6
CONTINUOUS
 62
    30
 10
676.08935599999995
 20
52.685752000000001
 30
0.0
 42
0.186174
  0
SEQEND
  5
9E2
  8
SIZE
  6
CONTINUOUS
 62
    30
  0
TEXT
  5
312
  8
SIZE
  6
CONTINUOUS
 62
    30
 10
668.37766299999976
 20
102.98309728571429
 30
0.0
 40
55.0
  1
50～60
 50
90.0
 41
0.9
 72
     1
 11
668.37766299999976
 21
219.89738299999999
 31
0.0
  0
LINE
  5
313
  8
SIZE
  6
CONTINUOUS
 62
    30
 10
1253.7307000000001
 20
356.68570999999997
 30
0.0
 11
968.61632199999985
 21
356.68570999999997
 31
0.0
  0
LINE
  5
314
  8
SIZE
  6
CONTINUOUS
 62
    30
 10
1051.6453120000001
 20
185.875821
 30
0.0
 11
1220.2607
 21
185.875821
 31
0.0
  0
TEXT
  5
315
  8
SIZE
  6
CONTINUOUS
 62
    30
 10
756.10452199999975
 20
17.999995857142888
 30
0.0
 40
55.0
  1
140～300
 50
90.0
 41
0.9
 72
     1
 11
756.10452199999975
 21
177.34285299999999
 31
0.0
  0
TEXT
  5
316
  8
SIZE
  6
CONTINUOUS
 62
    30
 10
879.59306000000004
 20
249.02380942857141
 30
0.0
 40
55.0
  1
47
 50
90.0
 41
0.9
 72
     1
 11
879.59306000000004
 21
289.09523799999999
 31
0.0
  0
TEXT
  5
317
  8
SIZE
  6
CONTINUOUS
 62
    30
 10
980.61632199999997
 20
285.68570999999997
 30
0.0
 40
55.0
  1
8
 50
90.0
 41
0.9
 72
     1
 11
980.61632199999997
 21
302.18570999999997
 31
0.0
  0
LINE
  5
318
  8
SIZE
  6
CONTINUOUS
 62
    30
 10
897.59305999999981
 20
347.16666700000002
 30
0.0
 11
897.59305999999981
 21
231.02381
 31
0.0
  0
LINE
  5
319
  8
SIZE
  6
CONTINUOUS
 62
    30
 10
998.61632199999985
 20
359.68570999999997
 30
0.0
 11
998.61632199999985
 21
354.68570999999997
 31
0.0
  0
LINE
  5
31A
  8
SIZE
  6
CONTINUOUS
 62
    30
 10
998.61632199999985
 20
354.68570999999997
 30
0.0
 11
998.61632199999985
 21
344.68570999999997
 31
0.0
  0
LINE
  5
31B
  8
SIZE
  6
CONTINUOUS
 62
    30
 10
998.61632199999985
 20
351.68570999999997
 30
0.0
 11
998.61632199999985
 21
346.68570999999997
 31
0.0
  0
CIRCLE
  5
31C
  8
SIZE
  6
CONTINUOUS
 62
    30
 10
998.61632199999985
 20
356.68570999999997
 30
0.0
 40
5.0
  0
LINE
  5
31D
  8
SIZE
  6
CONTINUOUS
 62
    30
 10
998.61632199999985
 20
346.68570999999997
 30
0.0
 11
998.61632199999985
 21
267.68570999999997
 31
0.0
  0
LINE
  5
31E
  8
SIZE
  6
CONTINUOUS
 62
    30
 10
1220.2607
 20
340.67920199999998
 30
0.0
 11
1220.2607
 21
9.6182479999999995
 31
0.0
  0
POINT
  5
31F
  8
DEFPOINTS
  6
CONTINUOUS
 62
     7
 10
1220.2607
 20
39.618248000000001
 30
0.0
  0
LINE
  5
320
  8
SIZE
  6
CONTINUOUS
 62
    30
 10
1225.2607
 20
39.618248000000001
 30
0.0
 11
1230.2607
 21
39.618248000000001
 31
0.0
  0
CIRCLE
  5
321
  8
SIZE
  6
CONTINUOUS
 62
    30
 10
1220.2607
 20
39.618248000000001
 30
0.0
 40
5.0
  0
TEXT
  5
322
  8
SIZE
  6
CONTINUOUS
 62
    30
 10
1069.6453114285709
 20
203.875821
 30
0.0
 40
55.0
  1
20
 41
0.9
 72
     1
 11
1109.7167400000001
 21
203.875821
 31
0.0
  0
LINE
  5
323
  8
SIZE
  6
CONTINUOUS
 62
    30
 10
1220.2607
 20
340.67920199999998
 30
0.0
 11
1220.2607
 21
155.875821
 31
0.0
  0
LINE
  5
324
  8
SIZE
  6
CONTINUOUS
 62
    30
 10
1240.2607
 20
345.68571000000009
 30
0.0
 11
1240.2607
 21
155.875821
 31
0.0
  0
LINE
  5
325
  8
SIZE
  6
CONTINUOUS
 62
    30
 10
1240.2607
 20
345.68571000000009
 30
0.0
 11
1240.2607
 21
155.875821
 31
0.0
  0
POINT
  5
326
  8
DEFPOINTS
  6
CONTINUOUS
 62
     7
 10
1220.2607
 20
185.875821
 30
0.0
  0
LINE
  5
327
  8
SIZE
  6
CONTINUOUS
 62
    30
 10
1215.2607
 20
185.875821
 30
0.0
 11
1210.2607
 21
185.875821
 31
0.0
  0
CIRCLE
  5
328
  8
SIZE
  6
CONTINUOUS
 62
    30
 10
1220.2607
 20
185.875821
 30
0.0
 40
5.0
  0
LINE
  5
329
  8
SIZE
  6
CONTINUOUS
 62
    30
 10
1245.2607
 20
185.875821
 30
0.0
 11
1250.2607
 21
185.875821
 31
0.0
  0
CIRCLE
  5
32A
  8
SIZE
  6
CONTINUOUS
 62
    30
 10
1240.2607
 20
185.875821
 30
0.0
 40
5.0
  0
LINE
  5
32B
  8
SIZE
  6
CONTINUOUS
 62
    30
 10
1240.2607
 20
185.875821
 30
0.0
 11
1220.2607
 21
185.875821
 31
0.0
  0
LINE
  5
32C
  8
SIZE
  6
CONTINUOUS
 62
    30
 10
1240.2607
 20
185.875821
 30
0.0
 11
1220.2607
 21
185.875821
 31
0.0
  0
LINE
  5
32D
  8
SIZE
  6
CONTINUOUS
 62
    30
 10
1210.2607
 20
185.875821
 30
0.0
 11
1200.2607
 21
185.875821
 31
0.0
  0
LINE
  5
32E
  8
SIZE
  6
CONTINUOUS
 62
    30
 10
1250.2607
 20
185.875821
 30
0.0
 11
1260.2607
 21
185.875821
 31
0.0
  0
POINT
  5
32F
  8
DEFPOINTS
  6
CONTINUOUS
 62
     7
 10
1240.2607
 20
185.875821
 30
0.0
  0
LINE
  5
330
  8
SIZE
  6
CONTINUOUS
 62
    30
 10
1245.2607
 20
185.875821
 30
0.0
 11
1250.2607
 21
185.875821
 31
0.0
  0
CIRCLE
  5
331
  8
SIZE
  6
CONTINUOUS
 62
    30
 10
1240.2607
 20
185.875821
 30
0.0
 40
5.0
  0
POINT
  5
332
  8
DEFPOINTS
  6
CONTINUOUS
 62
     7
 10
1273.7307000000001
 20
356.68570999999997
 30
0.0
  0
POINT
  5
333
  8
DEFPOINTS
  6
CONTINUOUS
 62
     7
 10
1220.2607
 20
360.67920199999998
 30
0.0
  0
LINE
  5
334
  8
OUTLINE
  6
CONTINUOUS
 62
     3
 10
1273.7307000000001
 20
356.68570999999997
 30
0.0
 11
1220.2607
 21
360.67920199999998
 31
0.0
  0
POINT
  5
335
  8
DEFPOINTS
  6
CONTINUOUS
 62
     7
 10
1220.2607
 20
360.67920199999998
 30
0.0
  0
LINE
  5
336
  8
DETAIL
  6
CONTINUOUS
 62
     5
 10
1273.7307000000001
 20
356.68570999999997
 30
0.0
 11
1220.2607
 21
360.67920199999998
 31
0.0
  0
POLYLINE
  5
337
  8
SIZE
  6
CONTINUOUS
 62
    30
 66
     1
 10
0.0
 20
0.0
 30
0.0
  0
VERTEX
  5
9E3
  8
SIZE
  6
CONTINUOUS
 62
    30
 10
676.08935599999995
 20
380.431378
 30
0.0
 42
0.186174
  0
VERTEX
  5
9E4
  8
SIZE
  6
CONTINUOUS
 62
    30
 10
667.239508
 20
401.38086600000003
 30
0.0
 42
0.082105
  0
VERTEX
  5
9E5
  8
SIZE
  6
CONTINUOUS
 62
    30
 10
651.53700599999968
 20
413.55542700000001
 30
0.0
 42
0.058826
  0
VERTEX
  5
9E6
  8
SIZE
  6
CONTINUOUS
 62
    30
 10
629.75094799999999
 20
422.33035399999989
 30
0.0
 42
0.067494
  0
VERTEX
  5
9E7
  8
SIZE
  6
CONTINUOUS
 62
    30
 10
592.26238799999976
 20
427.27585699999992
 30
0.0
 42
0.067494
  0
VERTEX
  5
9E8
  8
SIZE
  6
CONTINUOUS
 62
    30
 10
554.77382799999987
 20
422.33035399999989
 30
0.0
 42
0.058826
  0
VERTEX
  5
9E9
  8
SIZE
  6
CONTINUOUS
 62
    30
 10
532.98776999999995
 20
413.55542700000001
 30
0.0
 42
0.082105
  0
VERTEX
  5
9EA
  8
SIZE
  6
CONTINUOUS
 62
    30
 10
517.28526799999997
 20
401.38086600000003
 30
0.0
 42
0.186174
  0
VERTEX
  5
9EB
  8
SIZE
  6
CONTINUOUS
 62
    30
 10
508.43541999999991
 20
380.431378
 30
0.0
 42
0.186174
  0
SEQEND
  5
9EC
  8
SIZE
  6
CONTINUOUS
 62
    30
  0
TEXT
  5
342
  8
ETC
  6
CONTINUOUS
 62
    61
 10
-0.000005
 20
1264.7904920000001
 30
0.0
 40
80.0
  1
MPD-RP71_80FA3_3
 50
359.99999700000001
 41
0.8
  0
LINE
  5
343
  8
NOTE
  6
CONTINUOUS
 62
     4
 10
443.342466
 20
987.36377900000002
 30
0.0
 11
1156.3570749999999
 21
987.36377900000002
 31
0.0
  0
TEXT
  5
344
  8
NOTE
  6
CONTINUOUS
 62
     4
 10
440.28180400000002
 20
1003.19034
 30
0.0
 40
60.0
  1
AH 4-14×30長穴(M10)
 50
359.99999700000001
 41
0.7
  7
STANDARD1
  0
LINE
  5
345
  8
SIZE
  6
CONTINUOUS
 62
    30
 10
1244.2607
 20
813.38571000000002
 30
0.0
 11
1244.2607
 21
1311.8481320000001
 31
0.0
  0
LINE
  5
346
  8
SIZE
  6
CONTINUOUS
 62
    30
 10
1267.2607
 20
832.68087600000001
 30
0.0
 11
1267.2607
 21
1311.8481320000001
 31
0.0
  0
LINE
  5
347
  8
SIZE
  6
CONTINUOUS
 62
    30
 10
1267.2607
 20
832.68087600000001
 30
0.0
 11
1267.2607
 21
1311.8481320000001
 31
0.0
  0
LINE
  5
348
  8
SIZE
  6
CONTINUOUS
 62
    30
 10
1244.2607
 20
813.38571000000002
 30
0.0
 11
1244.2607
 21
1194.7889070000001
 31
0.0
  0
LINE
  5
349
  8
SIZE
  6
CONTINUOUS
 62
    30
 10
1260.2607
 20
817.68570999999986
 30
0.0
 11
1260.2607
 21
1194.7889070000001
 31
0.0
  0
LINE
  5
34A
  8
SIZE
  6
CONTINUOUS
 62
    30
 10
1260.2607
 20
817.68570999999986
 30
0.0
 11
1260.2607
 21
1194.7889070000001
 31
0.0
  0
LINE
  5
34B
  8
NOTE
  6
CONTINUOUS
 62
     4
 10
1156.3570749999999
 20
987.36377900000002
 30
0.0
 11
1267.2606539999999
 21
797.68567999999982
 31
0.0
  0
LINE
  5
34C
  8
SIZE
  6
CONTINUOUS
 62
    30
 10
1244.2607
 20
811.78570999999999
 30
0.0
 11
1244.2607
 21
1423.835484
 31
0.0
  0
LINE
  5
34D
  8
SIZE
  6
CONTINUOUS
 62
    30
 10
1200.5020139999999
 20
364.68570999999997
 30
0.0
 11
744.10452199999975
 21
364.68570999999997
 31
0.0
  0
LINE
  5
34E
  8
SIZE
  6
CONTINUOUS
 62
    30
 10
1240.5020139999999
 20
504.68570999999991
 30
0.0
 11
744.10452199999975
 21
504.68570999999991
 31
0.0
  0
LINE
  5
34F
  8
SIZE
  6
CONTINUOUS
 62
    30
 10
1240.2607
 20
411.68570999999991
 30
0.0
 11
968.61632199999985
 21
411.68570999999991
 31
0.0
  0
LINE
  5
350
  8
SIZE
  6
CONTINUOUS
 62
    30
 10
1200.2607
 20
364.68570999999997
 30
0.0
 11
968.61632199999985
 21
364.68570999999997
 31
0.0
  0
LINE
  5
351
  8
SIZE
  6
CONTINUOUS
 62
    30
 10
1200.2607
 20
364.68570999999997
 30
0.0
 11
968.61632199999985
 21
364.68570999999997
 31
0.0
  0
LINE
  5
352
  8
SIZE
  6
CONTINUOUS
 62
    30
 10
1228.5607
 20
797.68570999999974
 30
0.0
 11
744.10452199999975
 21
797.68570999999974
 31
0.0
  0
LINE
  5
353
  8
SIZE
  6
CONTINUOUS
 62
    30
 10
1240.2607
 20
504.68570999999991
 30
0.0
 11
744.10452199999975
 21
504.68570999999991
 31
0.0
  0
TEXT
  5
354
  8
SIZE
  6
CONTINUOUS
 62
    30
 10
756.10452199999975
 20
587.54285285714275
 30
0.0
 40
55.0
  1
293
 50
90.0
 41
0.9
 72
     1
 11
756.10452199999975
 21
651.18570999999997
 31
0.0
  0
LINE
  5
355
  8
SIZE
  6
CONTINUOUS
 62
    30
 10
774.10452199999975
 20
514.68570999999997
 30
0.0
 11
774.10452199999975
 21
787.68570999999974
 31
0.0
  0
POINT
  5
356
  8
DEFPOINTS
  6
CONTINUOUS
 62
     7
 10
774.10452199999975
 20
364.68570999999997
 30
0.0
  0
LINE
  5
357
  8
SIZE
  6
CONTINUOUS
 62
    30
 10
774.10452199999975
 20
369.68570999999997
 30
0.0
 11
774.10452199999975
 21
374.68570999999997
 31
0.0
  0
LINE
  5
358
  8
SIZE
  6
CONTINUOUS
 62
    30
 10
774.10452199999975
 20
499.6857099999998
 30
0.0
 11
774.10452199999975
 21
494.68570999999991
 31
0.0
  0
CIRCLE
  5
359
  8
SIZE
  6
CONTINUOUS
 62
    30
 10
774.10452199999975
 20
504.68570999999991
 30
0.0
 40
5.0
  0
LINE
  5
35A
  8
SIZE
  6
CONTINUOUS
 62
    30
 10
774.10452199999975
 20
494.68570999999991
 30
0.0
 11
774.10452199999975
 21
374.68570999999997
 31
0.0
  0
LINE
  5
35B
  8
SIZE
  6
CONTINUOUS
 62
    30
 10
774.10452199999975
 20
509.68570999999997
 30
0.0
 11
774.10452199999975
 21
514.68570999999997
 31
0.0
  0
CIRCLE
  5
35C
  8
SIZE
  6
CONTINUOUS
 62
    30
 10
774.10452199999975
 20
504.68570999999991
 30
0.0
 40
5.0
  0
POINT
  5
35D
  8
DEFPOINTS
  6
CONTINUOUS
 62
     7
 10
998.61632199999985
 20
411.68570999999991
 30
0.0
  0
LINE
  5
35E
  8
SIZE
  6
CONTINUOUS
 62
    30
 10
998.61632199999985
 20
416.68570999999991
 30
0.0
 11
998.61632199999985
 21
421.68570999999991
 31
0.0
  0
CIRCLE
  5
35F
  8
SIZE
  6
CONTINUOUS
 62
    30
 10
998.61632199999985
 20
411.68570999999991
 30
0.0
 40
5.0
  0
LINE
  5
360
  8
SIZE
  6
CONTINUOUS
 62
    30
 10
998.61632199999985
 20
364.68570999999997
 30
0.0
 11
998.61632199999985
 21
411.68570999999991
 31
0.0
  0
LINE
  5
361
  8
SIZE
  6
CONTINUOUS
 62
    30
 10
998.61632199999985
 20
364.68570999999997
 30
0.0
 11
998.61632199999985
 21
411.68570999999991
 31
0.0
  0
LINE
  5
362
  8
SIZE
  6
CONTINUOUS
 62
    30
 10
998.61632199999985
 20
421.68570999999991
 30
0.0
 11
998.61632199999985
 21
431.68570999999997
 31
0.0
  0
POINT
  5
363
  8
DEFPOINTS
  6
CONTINUOUS
 62
     7
 10
998.61632199999985
 20
364.68570999999997
 30
0.0
  0
LINE
  5
364
  8
SIZE
  6
CONTINUOUS
 62
    30
 10
998.61632199999985
 20
369.68570999999997
 30
0.0
 11
998.61632199999985
 21
374.68570999999997
 31
0.0
  0
LINE
  5
365
  8
SIZE
  6
CONTINUOUS
 62
    30
 10
998.61632199999985
 20
374.68570999999997
 30
0.0
 11
998.61632199999985
 21
384.68570999999997
 31
0.0
  0
POINT
  5
366
  8
DEFPOINTS
  6
CONTINUOUS
 62
     7
 10
774.10452199999975
 20
797.68570999999974
 30
0.0
  0
LINE
  5
367
  8
SIZE
  6
CONTINUOUS
 62
    30
 10
774.10452199999975
 20
792.68570999999974
 30
0.0
 11
774.10452199999975
 21
787.68570999999974
 31
0.0
  0
CIRCLE
  5
368
  8
SIZE
  6
CONTINUOUS
 62
    30
 10
774.10452199999975
 20
797.68570999999974
 30
0.0
 40
5.0
  0
LINE
  5
369
  8
SIZE
  6
CONTINUOUS
 62
    30
 10
1244.2607
 20
872.68570999999974
 30
0.0
 11
1244.2607
 21
393.455219
 31
0.0
  0
LINE
  5
36A
  8
OUTLINE
  6
CONTINUOUS
 62
     3
 10
1260.2607
 20
797.68570999999974
 30
0.0
 11
1260.2607
 21
504.68570999999991
 31
0.0
  0
LINE
  5
36B
  8
DETAIL
  6
CONTINUOUS
 62
     5
 10
1260.2607
 20
537.08570999999995
 30
0.0
 11
1260.2607
 21
795.08570999999984
 31
0.0
  0
TEXT
  5
36C
  8
SIZE
  6
CONTINUOUS
 62
    30
 10
1282.2606995714291
 20
441.45521900000011
 30
0.0
 40
55.0
  1
4
 41
0.9
 72
     1
 11
1299.939271
 21
441.45521900000011
 31
0.0
  0
LINE
  5
36D
  8
SIZE
  6
CONTINUOUS
 62
    30
 10
1254.2607
 20
423.455219
 30
0.0
 11
1335.617843
 21
423.455219
 31
0.0
  0
LINE
  5
36E
  8
DETAIL
  6
CONTINUOUS
 62
     5
 10
1260.2607
 20
586.88571000000002
 30
0.0
 11
1260.2607
 21
504.68570999999991
 31
0.0
  0
LINE
  5
36F
  8
DETAIL
  6
CONTINUOUS
 62
     5
 10
1260.2607
 20
586.88571000000002
 30
0.0
 11
1260.2607
 21
505.48570999999993
 31
0.0
  0
LINE
  5
370
  8
DETAIL
  6
CONTINUOUS
 62
     5
 10
1260.2607
 20
586.88571000000002
 30
0.0
 11
1260.2607
 21
505.48570999999993
 31
0.0
  0
LINE
  5
371
  8
DETAIL
  6
CONTINUOUS
 62
     5
 10
1275.2607
 20
516.68570999999986
 30
0.0
 11
1275.2607
 21
504.68570999999991
 31
0.0
  0
LINE
  5
372
  8
DETAIL
  6
CONTINUOUS
 62
     5
 10
1275.2607
 20
516.68570999999986
 30
0.0
 11
1275.2607
 21
504.68570999999991
 31
0.0
  0
LINE
  5
373
  8
NOTE
  6
CONTINUOUS
 62
     4
 10
1189.2182600000001
 20
365.68570999999997
 30
0.0
 11
1169.2182600000001
 21
385.68570999999997
 31
0.0
  0
LINE
  5
374
  8
NOTE
  6
CONTINUOUS
 62
     4
 10
1184.2182600000001
 20
365.68570999999997
 30
0.0
 11
1164.2182600000001
 21
385.68570999999997
 31
0.0
  0
LINE
  5
375
  8
NOTE
  6
CONTINUOUS
 62
     4
 10
1179.2182600000001
 20
365.68570999999997
 30
0.0
 11
1159.2182600000001
 21
385.68570999999997
 31
0.0
  0
LINE
  5
376
  8
NOTE
  6
CONTINUOUS
 62
     4
 10
1240.2607
 20
365.68570999999997
 30
0.0
 11
1138.9532509999999
 21
365.68570999999997
 31
0.0
  0
LINE
  5
377
  8
NOTE
  6
CONTINUOUS
 62
     4
 10
1240.2607
 20
385.68570999999997
 30
0.0
 11
1138.9532509999999
 21
385.68570999999997
 31
0.0
  0
POINT
  5
378
  8
DEFPOINTS
  6
CONTINUOUS
 62
     7
 10
1220.5020139999999
 20
364.68570999999997
 30
0.0
  0
POINT
  5
379
  8
DEFPOINTS
  6
CONTINUOUS
 62
     7
 10
1260.5020139999999
 20
504.68570999999991
 30
0.0
  0
POINT
  5
37A
  8
DEFPOINTS
  6
CONTINUOUS
 62
     7
 10
1260.2607
 20
411.68570999999991
 30
0.0
  0
POINT
  5
37B
  8
DEFPOINTS
  6
CONTINUOUS
 62
     7
 10
1220.2607
 20
364.68570999999997
 30
0.0
  0
POINT
  5
37C
  8
DEFPOINTS
  6
CONTINUOUS
 62
     7
 10
1220.2607
 20
364.68570999999997
 30
0.0
  0
POINT
  5
37D
  8
DEFPOINTS
  6
CONTINUOUS
 62
     7
 10
1244.2607
 20
423.455219
 30
0.0
  0
POINT
  5
37E
  8
DEFPOINTS
  6
CONTINUOUS
 62
     7
 10
1240.2607
 20
385.68570999999997
 30
0.0
  0
LINE
  5
37F
  8
SIZE
  6
CONTINUOUS
 62
    30
 10
1249.2607
 20
423.455219
 30
0.0
 11
1254.2607
 21
423.455219
 31
0.0
  0
CIRCLE
  5
380
  8
SIZE
  6
CONTINUOUS
 62
    30
 10
1244.2607
 20
423.455219
 30
0.0
 40
5.0
  0
LINE
  5
381
  8
SIZE
  6
CONTINUOUS
 62
    30
 10
1235.2607
 20
423.455219
 30
0.0
 11
1230.2607
 21
423.455219
 31
0.0
  0
CIRCLE
  5
382
  8
SIZE
  6
CONTINUOUS
 62
    30
 10
1240.2607
 20
423.455219
 30
0.0
 40
5.0
  0
LINE
  5
383
  8
SIZE
  6
CONTINUOUS
 62
    30
 10
1240.2607
 20
423.455219
 30
0.0
 11
1244.2607
 21
423.455219
 31
0.0
  0
LINE
  5
384
  8
SIZE
  6
CONTINUOUS
 62
    30
 10
1230.2607
 20
423.455219
 30
0.0
 11
1220.2607
 21
423.455219
 31
0.0
  0
LINE
  5
385
  8
SIZE
  6
CONTINUOUS
 62
    30
 10
1240.2607
 20
405.68570999999997
 30
0.0
 11
1240.2607
 21
453.455219
 31
0.0
  0
POINT
  5
386
  8
DEFPOINTS
  6
CONTINUOUS
 62
     7
 10
1240.2607
 20
365.68570999999997
 30
0.0
  0
POINT
  5
387
  8
DEFPOINTS
  6
CONTINUOUS
 62
     7
 10
1240.2607
 20
365.68570999999997
 30
0.0
  0
LINE
  5
388
  8
OUTLINE
  6
CONTINUOUS
 62
     3
 10
1260.2607
 20
364.68570999999997
 30
0.0
 11
1220.2607
 21
364.68570999999997
 31
0.0
  0
LINE
  5
389
  8
OUTLINE
  6
CONTINUOUS
 62
     3
 10
1260.2607
 20
364.68570999999997
 30
0.0
 11
1255.2607
 21
364.68570999999997
 31
0.0
  0
LINE
  5
38A
  8
OUTLINE
  6
CONTINUOUS
 62
     3
 10
1260.2607
 20
364.68570999999997
 30
0.0
 11
1260.2607
 21
411.68570999999991
 31
0.0
  0
POINT
  5
38B
  8
DEFPOINTS
  6
CONTINUOUS
 62
     7
 10
1260.2607
 20
504.68570999999991
 30
0.0
  0
LINE
  5
38C
  8
NOTE
  6
CONTINUOUS
 62
     4
 10
1229.2182600000001
 20
365.68570999999997
 30
0.0
 11
1209.2182600000001
 21
385.68570999999997
 31
0.0
  0
LINE
  5
38D
  8
NOTE
  6
CONTINUOUS
 62
     4
 10
1224.2182600000001
 20
365.68570999999997
 30
0.0
 11
1204.2182600000001
 21
385.68570999999997
 31
0.0
  0
LINE
  5
38E
  8
NOTE
  6
CONTINUOUS
 62
     4
 10
1219.2182600000001
 20
365.68570999999997
 30
0.0
 11
1199.2182600000001
 21
385.68570999999997
 31
0.0
  0
LINE
  5
38F
  8
NOTE
  6
CONTINUOUS
 62
     4
 10
1240.2607
 20
365.68570999999997
 30
0.0
 11
1240.2607
 21
385.68570999999997
 31
0.0
  0
LINE
  5
390
  8
DETAIL
  6
CONTINUOUS
 62
     5
 10
1260.2607
 20
364.68570999999997
 30
0.0
 11
1220.2607
 21
364.68570999999997
 31
0.0
  0
LINE
  5
391
  8
DETAIL
  6
CONTINUOUS
 62
     5
 10
1260.2607
 20
364.68570999999997
 30
0.0
 11
1255.2607
 21
364.68570999999997
 31
0.0
  0
LINE
  5
392
  8
DETAIL
  6
CONTINUOUS
 62
     5
 10
1260.2607
 20
364.68570999999997
 30
0.0
 11
1260.2607
 21
411.68570999999991
 31
0.0
  0
LINE
  5
393
  8
DETAIL
  6
CONTINUOUS
 62
     5
 10
1275.2607
 20
516.68570999999986
 30
0.0
 11
1278.2607
 21
519.68570999999986
 31
0.0
  0
LINE
  5
394
  8
DETAIL
  6
CONTINUOUS
 62
     5
 10
1275.2607
 20
516.68570999999986
 30
0.0
 11
1278.2607
 21
519.68570999999986
 31
0.0
  0
LINE
  5
395
  8
NOTE
  6
CONTINUOUS
 62
     4
 10
1267.2603389999999
 20
797.68617900000004
 30
0.0
 11
1258.249433
 21
830.86980800000003
 31
0.0
  0
LINE
  5
396
  8
NOTE
  6
CONTINUOUS
 62
     4
 10
1267.2603389999999
 20
797.68617900000004
 30
0.0
 11
1242.8648499999999
 21
821.91859199999988
 31
0.0
  0
POINT
  5
397
  8
DEFPOINTS
  6
CONTINUOUS
 62
     7
 10
1244.2607
 20
793.3857099999999
 30
0.0
  0
POINT
  5
398
  8
DEFPOINTS
  6
CONTINUOUS
 62
     7
 10
1267.2607
 20
812.6808759999999
 30
0.0
  0
POINT
  5
399
  8
DEFPOINTS
  6
CONTINUOUS
 62
     7
 10
1267.2607
 20
812.6808759999999
 30
0.0
  0
POINT
  5
39A
  8
DEFPOINTS
  6
CONTINUOUS
 62
     7
 10
1244.2607
 20
793.3857099999999
 30
0.0
  0
POINT
  5
39B
  8
DEFPOINTS
  6
CONTINUOUS
 62
     7
 10
1260.2607
 20
797.68570999999974
 30
0.0
  0
POINT
  5
39C
  8
DEFPOINTS
  6
CONTINUOUS
 62
     7
 10
1260.2607
 20
797.68570999999974
 30
0.0
  0
POINT
  5
39D
  8
DEFPOINTS
  6
CONTINUOUS
 62
     7
 10
1248.5607
 20
797.68570999999974
 30
0.0
  0
CIRCLE
  5
39E
  8
FIX
  6
CONTINUOUS
 62
    11
 10
1267.2607
 20
797.68570999999974
 30
0.0
 40
12.421498
  0
LINE
  5
39F
  8
NOTE
  6
CONTINUOUS
 62
     4
 10
1267.2607
 20
782.69054400000005
 30
0.0
 11
1267.2607
 21
812.6808759999999
 31
0.0
  0
LINE
  5
3A0
  8
NOTE
  6
CONTINUOUS
 62
     4
 10
1252.2655339999999
 20
797.68570999999974
 30
0.0
 11
1282.255866
 21
797.68570999999974
 31
0.0
  0
POINT
  5
3A1
  8
DEFPOINTS
  6
CONTINUOUS
 62
     7
 10
1244.2607
 20
791.78570999999988
 30
0.0
  0
LINE
  5
3A2
  8
DETAIL
  6
CONTINUOUS
 62
     5
 10
1260.2607
 20
795.38571000000002
 30
0.0
 11
1248.5607
 21
795.38571000000002
 31
0.0
  0
LINE
  5
3A3
  8
DETAIL
  6
CONTINUOUS
 62
     5
 10
1260.2607
 20
797.68570999999974
 30
0.0
 11
1248.5607
 21
797.68570999999974
 31
0.0
  0
LINE
  5
3A4
  8
DETAIL
  6
CONTINUOUS
 62
     5
 10
1246.5607
 20
785.68570999999986
 30
0.0
 11
1244.2607
 21
785.68570999999986
 31
0.0
  0
LINE
  5
3A5
  8
DETAIL
  6
CONTINUOUS
 62
     5
 10
1246.5607
 20
793.3857099999999
 30
0.0
 11
1246.5607
 21
785.68570999999986
 31
0.0
  0
ARC
  5
3A6
  8
DETAIL
  6
CONTINUOUS
 62
     5
 10
1248.5607
 20
793.3857099999999
 30
0.0
 40
2.0
 50
90.0
 51
180.0
  0
LINE
  5
3A7
  8
DETAIL
  6
CONTINUOUS
 62
     5
 10
1244.2607
 20
793.3857099999999
 30
0.0
 11
1244.2607
 21
785.68570999999986
 31
0.0
  0
ARC
  5
3A8
  8
DETAIL
  6
CONTINUOUS
 62
     5
 10
1248.5607
 20
793.3857099999999
 30
0.0
 40
4.299999999999998
 50
90.0
 51
180.0
  0
LINE
  5
3A9
  8
DETAIL
  6
CONTINUOUS
 62
     5
 10
1246.5607
 20
785.68570999999986
 30
0.0
 11
1244.2607
 21
785.68570999999986
 31
0.0
  0
LINE
  5
3AA
  8
DETAIL
  6
CONTINUOUS
 62
     5
 10
1246.5607
 20
793.3857099999999
 30
0.0
 11
1246.5607
 21
785.68570999999986
 31
0.0
  0
ARC
  5
3AB
  8
DETAIL
  6
CONTINUOUS
 62
     5
 10
1248.5607
 20
793.3857099999999
 30
0.0
 40
2.0
 50
90.0
 51
180.0
  0
LINE
  5
3AC
  8
DETAIL
  6
CONTINUOUS
 62
     5
 10
1260.2607
 20
795.38571000000002
 30
0.0
 11
1248.5607
 21
795.38571000000002
 31
0.0
  0
LINE
  5
3AD
  8
DETAIL
  6
CONTINUOUS
 62
     5
 10
1260.2607
 20
797.68570999999974
 30
0.0
 11
1248.5607
 21
797.68570999999974
 31
0.0
  0
LINE
  5
3AE
  8
DETAIL
  6
CONTINUOUS
 62
     5
 10
1244.2607
 20
793.3857099999999
 30
0.0
 11
1244.2607
 21
785.68570999999986
 31
0.0
  0
ARC
  5
3AF
  8
DETAIL
  6
CONTINUOUS
 62
     5
 10
1248.5607
 20
793.3857099999999
 30
0.0
 40
4.299999999999998
 50
90.0
 51
180.0
  0
LINE
  5
3B0
  8
DETAIL
  6
CONTINUOUS
 62
     5
 10
1260.2607
 20
797.68570999999974
 30
0.0
 11
1260.2607
 21
771.28570999999988
 31
0.0
  0
LINE
  5
3B1
  8
DETAIL
  6
CONTINUOUS
 62
     5
 10
1260.2607
 20
797.68570999999974
 30
0.0
 11
1260.2607
 21
771.28570999999988
 31
0.0
  0
POINT
  5
3B2
  8
DEFPOINTS
  6
CONTINUOUS
 62
     7
 10
1244.2607
 20
892.68570999999986
 30
0.0
  0
CIRCLE
  5
3B3
  8
SIZE
  6
CONTINUOUS
 62
    30
 10
1244.2607
 20
1281.8481320000001
 30
0.0
 40
5.0
  0
CIRCLE
  5
3B4
  8
SIZE
  6
CONTINUOUS
 62
    30
 10
1267.2607
 20
1281.8481320000001
 30
0.0
 40
5.0
  0
CIRCLE
  5
3B5
  8
SIZE
  6
CONTINUOUS
 62
    30
 10
1267.2607
 20
1281.8481320000001
 30
0.0
 40
5.0
  0
TEXT
  5
3B6
  8
SIZE
  6
CONTINUOUS
 62
    30
 10
1143.845669571429
 20
1178.5129469999999
 30
0.0
 40
55.0
  1
16
 41
0.9
 72
     1
 11
1178.0242410000001
 21
1178.5129469999999
 31
0.0
  0
POINT
  5
3B7
  8
DEFPOINTS
  6
CONTINUOUS
 62
     7
 10
1244.2607
 20
1164.7889070000001
 30
0.0
  0
LINE
  5
3B8
  8
SIZE
  6
CONTINUOUS
 62
    30
 10
1239.2607
 20
1164.7889070000001
 30
0.0
 11
1234.2607
 21
1164.7889070000001
 31
0.0
  0
CIRCLE
  5
3B9
  8
SIZE
  6
CONTINUOUS
 62
    30
 10
1244.2607
 20
1164.7889070000001
 30
0.0
 40
5.0
  0
LINE
  5
3BA
  8
SIZE
  6
CONTINUOUS
 62
    30
 10
1265.2607
 20
1164.7889070000001
 30
0.0
 11
1270.2607
 21
1164.7889070000001
 31
0.0
  0
CIRCLE
  5
3BB
  8
SIZE
  6
CONTINUOUS
 62
    30
 10
1260.2607
 20
1164.7889070000001
 30
0.0
 40
5.0
  0
LINE
  5
3BC
  8
SIZE
  6
CONTINUOUS
 62
    30
 10
1260.2607
 20
1164.7889070000001
 30
0.0
 11
1244.2607
 21
1164.7889070000001
 31
0.0
  0
LINE
  5
3BD
  8
SIZE
  6
CONTINUOUS
 62
    30
 10
1234.2607
 20
1164.7889070000001
 30
0.0
 11
1224.2607
 21
1164.7889070000001
 31
0.0
  0
LINE
  5
3BE
  8
SIZE
  6
CONTINUOUS
 62
    30
 10
1270.2607
 20
1164.7889070000001
 30
0.0
 11
1280.2607
 21
1164.7889070000001
 31
0.0
  0
POINT
  5
3BF
  8
DEFPOINTS
  6
CONTINUOUS
 62
     7
 10
1260.2607
 20
1164.7889070000001
 30
0.0
  0
LINE
  5
3C0
  8
SIZE
  6
CONTINUOUS
 62
    30
 10
1265.2607
 20
1164.7889070000001
 30
0.0
 11
1270.2607
 21
1164.7889070000001
 31
0.0
  0
CIRCLE
  5
3C1
  8
SIZE
  6
CONTINUOUS
 62
    30
 10
1260.2607
 20
1164.7889070000001
 30
0.0
 40
5.0
  0
TEXT
  5
3C2
  8
SIZE
  6
CONTINUOUS
 62
    30
 10
1121.6045414285711
 20
1299.8481320000001
 30
0.0
 40
55.0
  1
23
 41
0.9
 72
     1
 11
1161.67597
 21
1299.8481320000001
 31
0.0
  0
LINE
  5
3C3
  8
SIZE
  6
CONTINUOUS
 62
    30
 10
1103.6045409999999
 20
1281.8481320000001
 30
0.0
 11
1244.2607
 21
1281.8481320000001
 31
0.0
  0
POINT
  5
3C4
  8
DEFPOINTS
  6
CONTINUOUS
 62
     7
 10
1244.2607
 20
1281.8481320000001
 30
0.0
  0
LINE
  5
3C5
  8
SIZE
  6
CONTINUOUS
 62
    30
 10
1239.2607
 20
1281.8481320000001
 30
0.0
 11
1234.2607
 21
1281.8481320000001
 31
0.0
  0
LINE
  5
3C6
  8
SIZE
  6
CONTINUOUS
 62
    30
 10
1272.2607
 20
1281.8481320000001
 30
0.0
 11
1277.2607
 21
1281.8481320000001
 31
0.0
  0
LINE
  5
3C7
  8
SIZE
  6
CONTINUOUS
 62
    30
 10
1267.2607
 20
1281.8481320000001
 30
0.0
 11
1244.2607
 21
1281.8481320000001
 31
0.0
  0
LINE
  5
3C8
  8
SIZE
  6
CONTINUOUS
 62
    30
 10
1267.2607
 20
1281.8481320000001
 30
0.0
 11
1244.2607
 21
1281.8481320000001
 31
0.0
  0
LINE
  5
3C9
  8
SIZE
  6
CONTINUOUS
 62
    30
 10
1234.2607
 20
1281.8481320000001
 30
0.0
 11
1224.2607
 21
1281.8481320000001
 31
0.0
  0
LINE
  5
3CA
  8
SIZE
  6
CONTINUOUS
 62
    30
 10
1277.2607
 20
1281.8481320000001
 30
0.0
 11
1287.2607
 21
1281.8481320000001
 31
0.0
  0
POINT
  5
3CB
  8
DEFPOINTS
  6
CONTINUOUS
 62
     7
 10
1267.2607
 20
1281.8481320000001
 30
0.0
  0
LINE
  5
3CC
  8
SIZE
  6
CONTINUOUS
 62
    30
 10
1272.2607
 20
1281.8481320000001
 30
0.0
 11
1277.2607
 21
1281.8481320000001
 31
0.0
  0
POINT
  5
3CD
  8
DEFPOINTS
  6
CONTINUOUS
 62
     7
 10
1244.2607
 20
1393.835484
 30
0.0
  0
LINE
  5
3CE
  8
SIZE
  6
CONTINUOUS
 62
    30
 10
1249.2607
 20
1393.835484
 30
0.0
 11
1254.2607
 21
1393.835484
 31
0.0
  0
CIRCLE
  5
3CF
  8
SIZE
  6
CONTINUOUS
 62
    30
 10
1244.2607
 20
1393.835484
 30
0.0
 40
5.0
  0
LINE
  5
3D0
  8
BASIS
  6
DASHDOT
 62
     6
 10
1840.2607
 20
833.25742300000002
 30
0.0
 11
1840.2607
 21
310.7995390000001
 31
0.0
  0
CIRCLE
  5
3D1
  8
ARRANGE
  6
CONTINUOUS
 62
     1
 10
1840.2607
 20
364.68570999999997
 30
0.0
 40
50.0
  0
LINE
  5
3D2
  8
OUTLINE
  6
CONTINUOUS
 62
     3
 10
2460.2606999999998
 20
360.67920199999998
 30
0.0
 11
2460.2606999999998
 21
364.68570999999997
 31
0.0
  0
LINE
  5
3D3
  8
ARRANGE
  6
CONTINUOUS
 62
     1
 10
1790.2969370000001
 20
414.28230500000001
 30
0.0
 11
1890.224463
 21
315.08911499999999
 31
0.0
  0
LINE
  5
3D4
  8
ARRANGE
  6
CONTINUOUS
 62
     1
 10
1790.22335
 20
315.16335699999991
 30
0.0
 11
1890.2980500000001
 21
414.20806299999992
 31
0.0
  0
LINE
  5
3D5
  8
NOTE
  6
CONTINUOUS
 62
     4
 10
2605.0546020000002
 20
226.49793600000001
 30
0.0
 11
2420.2606999999998
 21
532.68570999999986
 31
0.0
  0
LINE
  5
3D6
  8
DETAIL
  6
CONTINUOUS
 62
     5
 10
2460.2606999999998
 20
360.67920199999998
 30
0.0
 11
2460.2606999999998
 21
364.68570999999997
 31
0.0
  0
LINE
  5
3D7
  8
OUTLINE
  6
CONTINUOUS
 62
     3
 10
2460.2606999999998
 20
360.67920199999998
 30
0.0
 11
2406.7907
 21
356.68570999999997
 31
0.0
  0
LINE
  5
3D8
  8
DETAIL
  6
CONTINUOUS
 62
     5
 10
2460.2606999999998
 20
360.67920199999998
 30
0.0
 11
2406.7907
 21
356.68570999999997
 31
0.0
  0
TEXT
  5
3D9
  8
SIZE
  6
CONTINUOUS
 62
    30
 10
1532.889271428571
 20
203.875821
 30
0.0
 40
55.0
  1
1200（天井開口寸法）
 41
0.9
 72
     1
 11
1840.2607
 21
203.875821
 31
0.0
  0
TEXT
  5
3DA
  8
SIZE
  6
CONTINUOUS
 62
    30
 10
1762.330346
 20
57.618248000000001
 30
0.0
 40
55.0
  1
1240
 41
0.9
 72
     1
 11
1844.830346
 21
57.618248000000001
 31
0.0
  0
LINE
  5
3DB
  8
NOTE
  6
CONTINUOUS
 62
     4
 10
3034.4438789999999
 20
226.49793600000001
 30
0.0
 11
2605.0546020000002
 21
226.49793600000001
 31
0.0
  0
TEXT
  5
3DC
  8
NOTE
  6
CONTINUOUS
 62
     4
 10
2621.1883510000011
 20
242.324467
 30
0.0
 40
60.0
  1
D2（自然排水口）
 50
0.000003
 41
0.7
  7
STANDARD1
  0
LINE
  5
3DD
  8
SIZE
  6
CONTINUOUS
 62
    30
 10
2460.2606999999998
 20
340.67920199999998
 30
0.0
 11
2460.2606999999998
 21
9.6182479999999995
 31
0.0
  0
LINE
  5
3DE
  8
SIZE
  6
CONTINUOUS
 62
    30
 10
2455.2606999999998
 20
39.618248000000001
 30
0.0
 11
2450.2606999999998
 21
39.618248000000001
 31
0.0
  0
CIRCLE
  5
3DF
  8
SIZE
  6
CONTINUOUS
 62
    30
 10
2460.2606999999998
 20
39.618248000000001
 30
0.0
 40
5.0
  0
LINE
  5
3E0
  8
SIZE
  6
CONTINUOUS
 62
    30
 10
2440.2606999999998
 20
345.68571000000009
 30
0.0
 11
2440.2606999999998
 21
155.875821
 31
0.0
  0
TEXT
  5
3E1
  8
SIZE
  6
CONTINUOUS
 62
    30
 10
2498.2607004285719
 20
203.875821
 30
0.0
 40
55.0
  1
20
 41
0.9
 72
     1
 11
2538.3321289999999
 21
203.875821
 31
0.0
  0
LINE
  5
3E2
  8
SIZE
  6
CONTINUOUS
 62
    30
 10
2440.2606999999998
 20
345.68571000000009
 30
0.0
 11
2440.2606999999998
 21
155.875821
 31
0.0
  0
LINE
  5
3E3
  8
SIZE
  6
CONTINUOUS
 62
    30
 10
2460.2606999999998
 20
340.67920199999998
 30
0.0
 11
2460.2606999999998
 21
155.875821
 31
0.0
  0
LINE
  5
3E4
  8
SIZE
  6
CONTINUOUS
 62
    30
 10
2470.2606999999998
 20
185.875821
 30
0.0
 11
2596.4035570000001
 21
185.875821
 31
0.0
  0
LINE
  5
3E5
  8
SIZE
  6
CONTINUOUS
 62
    30
 10
2435.2606999999998
 20
185.875821
 30
0.0
 11
2430.2606999999998
 21
185.875821
 31
0.0
  0
CIRCLE
  5
3E6
  8
SIZE
  6
CONTINUOUS
 62
    30
 10
2440.2606999999998
 20
185.875821
 30
0.0
 40
5.0
  0
POINT
  5
3E7
  8
DEFPOINTS
  6
CONTINUOUS
 62
     7
 10
2440.2606999999998
 20
185.875821
 30
0.0
  0
LINE
  5
3E8
  8
SIZE
  6
CONTINUOUS
 62
    30
 10
2465.2606999999998
 20
185.875821
 30
0.0
 11
2470.2606999999998
 21
185.875821
 31
0.0
  0
CIRCLE
  5
3E9
  8
SIZE
  6
CONTINUOUS
 62
    30
 10
2460.2606999999998
 20
185.875821
 30
0.0
 40
5.0
  0
LINE
  5
3EA
  8
SIZE
  6
CONTINUOUS
 62
    30
 10
2435.2606999999998
 20
185.875821
 30
0.0
 11
2430.2606999999998
 21
185.875821
 31
0.0
  0
CIRCLE
  5
3EB
  8
SIZE
  6
CONTINUOUS
 62
    30
 10
2440.2606999999998
 20
185.875821
 30
0.0
 40
5.0
  0
LINE
  5
3EC
  8
SIZE
  6
CONTINUOUS
 62
    30
 10
2440.2606999999998
 20
185.875821
 30
0.0
 11
2460.2606999999998
 21
185.875821
 31
0.0
  0
LINE
  5
3ED
  8
SIZE
  6
CONTINUOUS
 62
    30
 10
2430.2606999999998
 20
185.875821
 30
0.0
 11
2420.2606999999998
 21
185.875821
 31
0.0
  0
POINT
  5
3EE
  8
DEFPOINTS
  6
CONTINUOUS
 62
     7
 10
2460.2606999999998
 20
360.67920199999998
 30
0.0
  0
POINT
  5
3EF
  8
DEFPOINTS
  6
CONTINUOUS
 62
     7
 10
2460.2606999999998
 20
360.67920199999998
 30
0.0
  0
LINE
  5
3F0
  8
SIZE
  6
CONTINUOUS
 62
    30
 10
2426.2606999999998
 20
423.455219
 30
0.0
 11
2344.9035570000001
 21
423.455219
 31
0.0
  0
LINE
  5
3F1
  8
SIZE
  6
CONTINUOUS
 62
    30
 10
2410.2606999999998
 20
965.93079499999965
 30
0.0
 11
2286.4749859999988
 21
965.93079499999965
 31
0.0
  0
LINE
  5
3F2
  8
SIZE
  6
CONTINUOUS
 62
    30
 10
2408.2606999999998
 20
1281.8481320000001
 30
0.0
 11
2403.2606999999998
 21
1281.8481320000001
 31
0.0
  0
LINE
  5
3F3
  8
SIZE
  6
CONTINUOUS
 62
    30
 10
2408.2606999999998
 20
1281.8481320000001
 30
0.0
 11
2403.2606999999998
 21
1281.8481320000001
 31
0.0
  0
LINE
  5
3F4
  8
SIZE
  6
CONTINUOUS
 62
    30
 10
2410.2606999999998
 20
1164.7889070000001
 30
0.0
 11
2400.2606999999998
 21
1164.7889070000001
 31
0.0
  0
LINE
  5
3F5
  8
SIZE
  6
CONTINUOUS
 62
    30
 10
2410.2606999999998
 20
1067.0399420000001
 30
0.0
 11
2286.4749859999988
 21
1067.0399420000001
 31
0.0
  0
LINE
  5
3F6
  8
SIZE
  6
CONTINUOUS
 62
    30
 10
2410.2606999999998
 20
880.33053099999984
 30
0.0
 11
2281.7606999999998
 21
880.33053099999984
 31
0.0
  0
LINE
  5
3F7
  8
NOTE
  6
CONTINUOUS
 62
     4
 10
2161.3196010000001
 20
931.15527799999995
 30
0.0
 11
2459.2698489999998
 21
625.68570999999974
 31
0.0
  0
CIRCLE
  5
3F8
  8
FIX
  6
CONTINUOUS
 62
    11
 10
2413.2606999999998
 20
797.68570999999974
 30
0.0
 40
12.421498
  0
LINE
  5
3F9
  8
NOTE
  6
CONTINUOUS
 62
     4
 10
2428.255866
 20
797.68570999999974
 30
0.0
 11
2398.2655340000001
 21
797.68570999999974
 31
0.0
  0
TEXT
  5
3FA
  8
NOTE
  6
CONTINUOUS
 62
     4
 10
1834.44433
 20
946.98182199999997
 30
0.0
 40
60.0
  1
RL %%C9.52
 50
359.99999700000001
 41
0.7
  7
STANDARD1
  0
LINE
  5
3FB
  8
NOTE
  6
CONTINUOUS
 62
     4
 10
1817.6060199999999
 20
931.15527799999995
 30
0.0
 11
2161.3196010000001
 21
931.15527799999995
 31
0.0
  0
LINE
  5
3FC
  8
DETAIL
  6
CONTINUOUS
 62
     5
 10
2405.2606999999998
 20
516.68570999999986
 30
0.0
 11
2405.2606999999998
 21
504.68570999999991
 31
0.0
  0
LINE
  5
3FD
  8
DETAIL
  6
CONTINUOUS
 62
     5
 10
2405.2606999999998
 20
516.68570999999986
 30
0.0
 11
2405.2606999999998
 21
504.68570999999991
 31
0.0
  0
TEXT
  5
3FE
  8
SIZE
  6
CONTINUOUS
 62
    30
 10
2362.9035575714279
 20
441.45521900000011
 30
0.0
 40
55.0
  1
4
 41
0.9
 72
     1
 11
2380.5821289999999
 21
441.45521900000011
 31
0.0
  0
LINE
  5
3FF
  8
DETAIL
  6
CONTINUOUS
 62
     5
 10
2402.2606999999998
 20
519.68570999999986
 30
0.0
 11
2405.2606999999998
 21
516.68570999999986
 31
0.0
  0
LINE
  5
400
  8
DETAIL
  6
CONTINUOUS
 62
     5
 10
2402.2606999999998
 20
519.68570999999986
 30
0.0
 11
2405.2606999999998
 21
516.68570999999986
 31
0.0
  0
TEXT
  5
401
  8
SIZE
  6
CONTINUOUS
 62
    30
 10
2299.7606999999998
 20
898.33053099999984
 30
0.0
 40
55.0
  1
34
 41
0.9
 72
     1
 11
2341.0106999999998
 21
898.33053099999984
 31
0.0
  0
TEXT
  5
402
  8
SIZE
  6
CONTINUOUS
 62
    30
 10
1762.474985714286
 20
1182.7889070000001
 30
0.0
 40
55.0
  1
1160
 41
0.9
 72
     1
 11
1840.2607
 21
1182.7889070000001
 31
0.0
  0
TEXT
  5
403
  8
SIZE
  6
CONTINUOUS
 62
    30
 10
1764.6254507142851
 20
1411.835484
 30
0.0
 40
55.0
  1
1192
 41
0.9
 72
     1
 11
1842.4111649999991
 21
1411.835484
 31
0.0
  0
TEXT
  5
404
  8
SIZE
  6
CONTINUOUS
 62
    30
 10
2304.4749858571431
 20
1085.0399420000001
 30
0.0
 40
55.0
  1
39
 41
0.9
 72
     1
 11
2343.367843
 21
1085.0399420000001
 31
0.0
  0
TEXT
  5
405
  8
SIZE
  6
CONTINUOUS
 62
    30
 10
2304.4749858571431
 20
983.93079499999965
 30
0.0
 40
55.0
  1
36
 41
0.9
 72
     1
 11
2343.367843
 21
983.93079499999965
 31
0.0
  0
LINE
  5
406
  8
SIZE
  6
CONTINUOUS
 62
    30
 10
2403.2606999999998
 20
1281.8481320000001
 30
0.0
 11
2393.2606999999998
 21
1281.8481320000001
 31
0.0
  0
LINE
  5
407
  8
SIZE
  6
CONTINUOUS
 62
    30
 10
2420.2606999999998
 20
817.68570999999986
 30
0.0
 11
2420.2606999999998
 21
995.93079499999988
 31
0.0
  0
LINE
  5
408
  8
SIZE
  6
CONTINUOUS
 62
    30
 10
2456.2606999999998
 20
628.93570999999997
 30
0.0
 11
2456.2606999999998
 21
995.93079499999988
 31
0.0
  0
LINE
  5
409
  8
SIZE
  6
CONTINUOUS
 62
    30
 10
2413.2606999999998
 20
832.68087600000001
 30
0.0
 11
2413.2606999999998
 21
1311.8481320000001
 31
0.0
  0
LINE
  5
40A
  8
SIZE
  6
CONTINUOUS
 62
    30
 10
2413.2606999999998
 20
832.68087600000001
 30
0.0
 11
2413.2606999999998
 21
1311.8481320000001
 31
0.0
  0
LINE
  5
40B
  8
SIZE
  6
CONTINUOUS
 62
    30
 10
2436.2606999999998
 20
813.38571000000002
 30
0.0
 11
2436.2606999999998
 21
1311.8481320000001
 31
0.0
  0
LINE
  5
40C
  8
SIZE
  6
CONTINUOUS
 62
    30
 10
2420.2606999999998
 20
817.68570999999986
 30
0.0
 11
2420.2606999999998
 21
1194.7889070000001
 31
0.0
  0
LINE
  5
40D
  8
SIZE
  6
CONTINUOUS
 62
    30
 10
2420.2606999999998
 20
817.68570999999986
 30
0.0
 11
2420.2606999999998
 21
1194.7889070000001
 31
0.0
  0
LINE
  5
40E
  8
SIZE
  6
CONTINUOUS
 62
    30
 10
2436.2606999999998
 20
813.38571000000002
 30
0.0
 11
2436.2606999999998
 21
1194.7889070000001
 31
0.0
  0
LINE
  5
40F
  8
SIZE
  6
CONTINUOUS
 62
    30
 10
2459.2698489999998
 20
645.68570999999974
 30
0.0
 11
2459.2698489999998
 21
1097.0399420000001
 31
0.0
  0
LINE
  5
410
  8
SIZE
  6
CONTINUOUS
 62
    30
 10
2420.2606999999998
 20
817.68570999999986
 30
0.0
 11
2420.2606999999998
 21
1097.0399420000001
 31
0.0
  0
LINE
  5
411
  8
NOTE
  6
CONTINUOUS
 62
     4
 10
2564.2222929999998
 20
1022.955794
 30
0.0
 11
2454.2606999999998
 21
689.68570999999997
 31
0.0
  0
LINE
  5
412
  8
SIZE
  6
CONTINUOUS
 62
    30
 10
2436.2606999999998
 20
811.78570999999999
 30
0.0
 11
2436.2606999999998
 21
1423.835484
 31
0.0
  0
LINE
  5
413
  8
NOTE
  6
CONTINUOUS
 62
     4
 10
2622.045768
 20
378.98082299999999
 30
0.0
 11
2993.5766480000002
 21
378.98082299999999
 31
0.0
  0
TEXT
  5
414
  8
NOTE
  6
CONTINUOUS
 62
     4
 10
2637.2194050000012
 20
394.807367
 30
0.0
 40
60.0
  1
RG %%C15.88
 50
359.99999700000001
 41
0.7
  7
STANDARD1
  0
LINE
  5
415
  8
SIZE
  6
CONTINUOUS
 62
    30
 10
2445.7515510000012
 20
532.68570999999986
 30
0.0
 11
3024.819884
 21
532.68570999999986
 31
0.0
  0
LINE
  5
416
  8
SIZE
  6
CONTINUOUS
 62
    30
 10
2451.9607000000001
 20
797.68570999999974
 30
0.0
 11
3024.819884
 21
797.68570999999974
 31
0.0
  0
LINE
  5
417
  8
SIZE
  6
CONTINUOUS
 62
    30
 10
2766.9807689999998
 20
611.68570999999974
 30
0.0
 11
2869.1808590000001
 21
635.46517400000005
 31
0.0
  0
LINE
  5
418
  8
SIZE
  6
CONTINUOUS
 62
    30
 10
2436.2606999999998
 20
872.68570999999974
 30
0.0
 11
2436.2606999999998
 21
393.455219
 31
0.0
  0
TEXT
  5
419
  8
SIZE
  6
CONTINUOUS
 62
    30
 10
2851.1808590000001
 20
653.46517342857135
 30
0.0
 40
55.0
  1
28
 50
90.0
 41
0.9
 72
     1
 11
2851.1808590000001
 21
693.5366019999999
 31
0.0
  0
TEXT
  5
41A
  8
SIZE
  6
CONTINUOUS
 62
    30
 10
2748.9807689999998
 20
652.75713857142841
 30
0.0
 40
55.0
  1
172
 50
90.0
 41
0.9
 72
     1
 11
2748.9807689999998
 21
711.68570999999974
 31
0.0
  0
LINE
  5
41B
  8
SIZE
  6
CONTINUOUS
 62
    30
 10
2766.9807689999998
 20
787.68570999999974
 30
0.0
 11
2766.9807689999998
 21
635.68570999999997
 31
0.0
  0
LINE
  5
41C
  8
OUTLINE
  6
CONTINUOUS
 62
     3
 10
2420.2606999999998
 20
504.68570999999991
 30
0.0
 11
2420.2606999999998
 21
797.68570999999974
 31
0.0
  0
LINE
  5
41D
  8
DETAIL
  6
CONTINUOUS
 62
     5
 10
2420.2606999999998
 20
794.48570999999981
 30
0.0
 11
2420.2606999999998
 21
586.88571000000002
 31
0.0
  0
LINE
  5
41E
  8
DETAIL
  6
CONTINUOUS
 62
     5
 10
2420.2606999999998
 20
794.48570999999981
 30
0.0
 11
2420.2606999999998
 21
586.88571000000002
 31
0.0
  0
LINE
  5
41F
  8
DETAIL
  6
CONTINUOUS
 62
     5
 10
2420.2606999999998
 20
537.08570999999995
 30
0.0
 11
2420.2606999999998
 21
681.08570999999995
 31
0.0
  0
LINE
  5
420
  8
SIZE
  6
CONTINUOUS
 62
    30
 10
2487.5198489999998
 20
597.68570999999997
 30
0.0
 11
2796.9807690000011
 21
597.68570999999997
 31
0.0
  0
LINE
  5
421
  8
SIZE
  6
CONTINUOUS
 62
    30
 10
2484.7606999999998
 20
625.68570999999974
 30
0.0
 11
2796.9807690000011
 21
625.68570999999974
 31
0.0
  0
LINE
  5
422
  8
SIZE
  6
CONTINUOUS
 62
    30
 10
2484.7606999999998
 20
625.68570999999974
 30
0.0
 11
2796.9807690000011
 21
625.68570999999974
 31
0.0
  0
LINE
  5
423
  8
NOTE
  6
CONTINUOUS
 62
     4
 10
2420.2606999999998
 20
532.68570999999986
 30
0.0
 11
2431.2948339999998
 21
500.11889299999979
 31
0.0
  0
LINE
  5
424
  8
NOTE
  6
CONTINUOUS
 62
     4
 10
2420.2606999999998
 20
532.68570999999986
 30
0.0
 11
2446.0999489999999
 21
509.99908599999998
 31
0.0
  0
LINE
  5
425
  8
NOTE
  6
CONTINUOUS
 62
     4
 10
2622.045768
 20
378.98082299999999
 30
0.0
 11
2456.2606999999998
 21
597.68570999999997
 31
0.0
  0
LINE
  5
426
  8
DETAIL
  6
CONTINUOUS
 62
     5
 10
2420.2606999999998
 20
586.88571000000002
 30
0.0
 11
2420.2606999999998
 21
504.68570999999991
 31
0.0
  0
LINE
  5
427
  8
DETAIL
  6
CONTINUOUS
 62
     5
 10
2420.2606999999998
 20
586.88571000000002
 30
0.0
 11
2420.2606999999998
 21
505.48570999999993
 31
0.0
  0
LINE
  5
428
  8
DETAIL
  6
CONTINUOUS
 62
     5
 10
2420.2606999999998
 20
504.98570999999993
 30
0.0
 11
2420.2606999999998
 21
589.98570999999981
 31
0.0
  0
LINE
  5
429
  8
NOTE
  6
CONTINUOUS
 62
     4
 10
2440.2606999999998
 20
365.68570999999997
 30
0.0
 11
2541.5681490000002
 21
365.68570999999997
 31
0.0
  0
LINE
  5
42A
  8
NOTE
  6
CONTINUOUS
 62
     4
 10
2440.2606999999998
 20
385.68570999999997
 30
0.0
 11
2541.5681490000002
 21
385.68570999999997
 31
0.0
  0
LINE
  5
42B
  8
NOTE
  6
CONTINUOUS
 62
     4
 10
2530.5257080000001
 20
365.68570999999997
 30
0.0
 11
2510.5257080000001
 21
385.68570999999997
 31
0.0
  0
LINE
  5
42C
  8
NOTE
  6
CONTINUOUS
 62
     4
 10
2525.5257080000001
 20
365.68570999999997
 30
0.0
 11
2505.5257080000001
 21
385.68570999999997
 31
0.0
  0
LINE
  5
42D
  8
NOTE
  6
CONTINUOUS
 62
     4
 10
2520.5257080000001
 20
365.68570999999997
 30
0.0
 11
2500.5257080000001
 21
385.68570999999997
 31
0.0
  0
POINT
  5
42E
  8
DEFPOINTS
  6
CONTINUOUS
 62
     7
 10
2436.2606999999998
 20
423.455219
 30
0.0
  0
POINT
  5
42F
  8
DEFPOINTS
  6
CONTINUOUS
 62
     7
 10
2440.2606999999998
 20
385.68570999999997
 30
0.0
  0
LINE
  5
430
  8
SIZE
  6
CONTINUOUS
 62
    30
 10
2431.2606999999998
 20
423.455219
 30
0.0
 11
2426.2606999999998
 21
423.455219
 31
0.0
  0
CIRCLE
  5
431
  8
SIZE
  6
CONTINUOUS
 62
    30
 10
2436.2606999999998
 20
423.455219
 30
0.0
 40
5.0
  0
LINE
  5
432
  8
SIZE
  6
CONTINUOUS
 62
    30
 10
2445.2606999999998
 20
423.455219
 30
0.0
 11
2450.2606999999998
 21
423.455219
 31
0.0
  0
CIRCLE
  5
433
  8
SIZE
  6
CONTINUOUS
 62
    30
 10
2440.2606999999998
 20
423.455219
 30
0.0
 40
5.0
  0
LINE
  5
434
  8
SIZE
  6
CONTINUOUS
 62
    30
 10
2440.2606999999998
 20
423.455219
 30
0.0
 11
2436.2606999999998
 21
423.455219
 31
0.0
  0
LINE
  5
435
  8
SIZE
  6
CONTINUOUS
 62
    30
 10
2450.2606999999998
 20
423.455219
 30
0.0
 11
2460.2606999999998
 21
423.455219
 31
0.0
  0
LINE
  5
436
  8
SIZE
  6
CONTINUOUS
 62
    30
 10
2440.2606999999998
 20
405.68570999999997
 30
0.0
 11
2440.2606999999998
 21
453.455219
 31
0.0
  0
POINT
  5
437
  8
DEFPOINTS
  6
CONTINUOUS
 62
     7
 10
2440.2606999999998
 20
365.68570999999997
 30
0.0
  0
POINT
  5
438
  8
DEFPOINTS
  6
CONTINUOUS
 62
     7
 10
2440.2606999999998
 20
365.68570999999997
 30
0.0
  0
LINE
  5
439
  8
OUTLINE
  6
CONTINUOUS
 62
     3
 10
2420.2606999999998
 20
364.68570999999997
 30
0.0
 11
2420.2606999999998
 21
411.68570999999991
 31
0.0
  0
LINE
  5
43A
  8
OUTLINE
  6
CONTINUOUS
 62
     3
 10
2420.2606999999998
 20
364.68570999999997
 30
0.0
 11
2425.2606999999998
 21
364.68570999999997
 31
0.0
  0
LINE
  5
43B
  8
NOTE
  6
CONTINUOUS
 62
     4
 10
2440.2606999999998
 20
365.68570999999997
 30
0.0
 11
2440.2606999999998
 21
385.68570999999997
 31
0.0
  0
LINE
  5
43C
  8
NOTE
  6
CONTINUOUS
 62
     4
 10
2490.5257080000001
 20
365.68570999999997
 30
0.0
 11
2470.5257080000001
 21
385.68570999999997
 31
0.0
  0
LINE
  5
43D
  8
NOTE
  6
CONTINUOUS
 62
     4
 10
2485.5257080000001
 20
365.68570999999997
 30
0.0
 11
2465.5257080000001
 21
385.68570999999997
 31
0.0
  0
LINE
  5
43E
  8
NOTE
  6
CONTINUOUS
 62
     4
 10
2480.5257080000001
 20
365.68570999999997
 30
0.0
 11
2460.5257080000001
 21
385.68570999999997
 31
0.0
  0
LINE
  5
43F
  8
DETAIL
  6
CONTINUOUS
 62
     5
 10
2420.2606999999998
 20
364.68570999999997
 30
0.0
 11
2420.2606999999998
 21
411.68570999999991
 31
0.0
  0
LINE
  5
440
  8
DETAIL
  6
CONTINUOUS
 62
     5
 10
2420.2606999999998
 20
364.68570999999997
 30
0.0
 11
2425.2606999999998
 21
364.68570999999997
 31
0.0
  0
POINT
  5
441
  8
DEFPOINTS
  6
CONTINUOUS
 62
     7
 10
2456.2606999999998
 20
608.93570999999986
 30
0.0
  0
POINT
  5
442
  8
DEFPOINTS
  6
CONTINUOUS
 62
     7
 10
2459.2698489999998
 20
625.68570999999974
 30
0.0
  0
LINE
  5
443
  8
NOTE
  6
CONTINUOUS
 62
     4
 10
2453.7606999999998
 20
625.68570999999974
 30
0.0
 11
2464.7606999999998
 21
625.68570999999974
 31
0.0
  0
LINE
  5
444
  8
NOTE
  6
CONTINUOUS
 62
     4
 10
2459.2698489999998
 20
631.18570199999976
 30
0.0
 11
2459.2698489999998
 21
620.18571799999995
 31
0.0
  0
LINE
  5
445
  8
NOTE
  6
CONTINUOUS
 62
     4
 10
2459.2698489999998
 20
625.68570999999974
 30
0.0
 11
2441.1039519999999
 21
654.88074200000005
 31
0.0
  0
LINE
  5
446
  8
NOTE
  6
CONTINUOUS
 62
     4
 10
2459.2698489999998
 20
625.68570999999974
 30
0.0
 11
2428.9402049999999
 21
641.88639999999998
 31
0.0
  0
LINE
  5
447
  8
DETAIL
  6
CONTINUOUS
 62
     5
 10
2440.2698489999998
 20
620.18570999999974
 30
0.0
 11
2420.2698489999998
 21
620.18570999999974
 31
0.0
  0
LINE
  5
448
  8
DETAIL
  6
CONTINUOUS
 62
     5
 10
2439.2698489999998
 20
616.18570999999974
 30
0.0
 11
2420.2698489999998
 21
616.18570999999974
 31
0.0
  0
LINE
  5
449
  8
DETAIL
  6
CONTINUOUS
 62
     5
 10
2439.2698489999998
 20
635.18570999999997
 30
0.0
 11
2420.2698489999998
 21
635.18570999999997
 31
0.0
  0
LINE
  5
44A
  8
DETAIL
  6
CONTINUOUS
 62
     5
 10
2440.2698489999998
 20
631.18570999999997
 30
0.0
 11
2420.2698489999998
 21
631.18570999999997
 31
0.0
  0
LINE
  5
44B
  8
DETAIL
  6
CONTINUOUS
 62
     5
 10
2456.2698489999998
 20
615.18570999999986
 30
0.0
 11
2443.2698489999998
 21
615.18570999999986
 31
0.0
  0
LINE
  5
44C
  8
DETAIL
  6
CONTINUOUS
 62
     5
 10
2455.2698489999998
 20
620.18570999999974
 30
0.0
 11
2442.2698489999998
 21
620.18570999999974
 31
0.0
  0
LINE
  5
44D
  8
DETAIL
  6
CONTINUOUS
 62
     5
 10
2459.2698489999998
 20
620.18570999999974
 30
0.0
 11
2459.2698489999998
 21
631.18570999999997
 31
0.0
  0
LINE
  5
44E
  8
DETAIL
  6
CONTINUOUS
 62
     5
 10
2459.2698489999998
 20
620.18570999999974
 30
0.0
 11
2456.2698489999998
 21
615.18570999999986
 31
0.0
  0
LINE
  5
44F
  8
DETAIL
  6
CONTINUOUS
 62
     5
 10
2442.2698489999998
 20
616.18570999999974
 30
0.0
 11
2443.2698489999998
 21
615.18570999999986
 31
0.0
  0
LINE
  5
450
  8
DETAIL
  6
CONTINUOUS
 62
     5
 10
2440.2698489999998
 20
617.18570999999974
 30
0.0
 11
2439.2698489999998
 21
616.18570999999974
 31
0.0
  0
LINE
  5
451
  8
DETAIL
  6
CONTINUOUS
 62
     5
 10
2455.2698489999998
 20
620.18570999999974
 30
0.0
 11
2456.2698489999998
 21
621.18570999999974
 31
0.0
  0
LINE
  5
452
  8
DETAIL
  6
CONTINUOUS
 62
     5
 10
2455.2698489999998
 20
620.18570999999974
 30
0.0
 11
2456.2698489999998
 21
619.18570999999997
 31
0.0
  0
LINE
  5
453
  8
DETAIL
  6
CONTINUOUS
 62
     5
 10
2442.2698489999998
 20
620.93570999999997
 30
0.0
 11
2440.2698489999998
 21
620.93570999999997
 31
0.0
  0
LINE
  5
454
  8
DETAIL
  6
CONTINUOUS
 62
     5
 10
2440.2698489999998
 20
617.18570999999974
 30
0.0
 11
2440.2698489999998
 21
634.18570999999974
 31
0.0
  0
LINE
  5
455
  8
DETAIL
  6
CONTINUOUS
 62
     5
 10
2442.2698489999998
 20
616.18570999999974
 30
0.0
 11
2442.2698489999998
 21
635.18570999999997
 31
0.0
  0
LINE
  5
456
  8
DETAIL
  6
CONTINUOUS
 62
     5
 10
2456.2698489999998
 20
636.18570999999986
 30
0.0
 11
2443.2698489999998
 21
636.18570999999986
 31
0.0
  0
LINE
  5
457
  8
DETAIL
  6
CONTINUOUS
 62
     5
 10
2456.2698489999998
 20
615.18570999999986
 30
0.0
 11
2456.2698489999998
 21
636.18570999999986
 31
0.0
  0
LINE
  5
458
  8
DETAIL
  6
CONTINUOUS
 62
     5
 10
2455.2698489999998
 20
631.18570999999997
 30
0.0
 11
2442.2698489999998
 21
631.18570999999997
 31
0.0
  0
LINE
  5
459
  8
DETAIL
  6
CONTINUOUS
 62
     5
 10
2459.2698489999998
 20
631.18570999999997
 30
0.0
 11
2456.2698489999998
 21
636.18570999999986
 31
0.0
  0
LINE
  5
45A
  8
DETAIL
  6
CONTINUOUS
 62
     5
 10
2443.2698489999998
 20
636.18570999999986
 30
0.0
 11
2442.2698489999998
 21
635.18570999999997
 31
0.0
  0
LINE
  5
45B
  8
DETAIL
  6
CONTINUOUS
 62
     5
 10
2440.2698489999998
 20
634.18570999999974
 30
0.0
 11
2439.2698489999998
 21
635.18570999999997
 31
0.0
  0
LINE
  5
45C
  8
DETAIL
  6
CONTINUOUS
 62
     5
 10
2455.2698489999998
 20
631.18570999999997
 30
0.0
 11
2456.2698489999998
 21
632.18570999999986
 31
0.0
  0
LINE
  5
45D
  8
DETAIL
  6
CONTINUOUS
 62
     5
 10
2455.2698489999998
 20
631.18570999999997
 30
0.0
 11
2456.2698489999998
 21
630.18570999999974
 31
0.0
  0
LINE
  5
45E
  8
DETAIL
  6
CONTINUOUS
 62
     5
 10
2442.2698489999998
 20
630.43570999999974
 30
0.0
 11
2440.2698489999998
 21
630.43570999999974
 31
0.0
  0
LINE
  5
45F
  8
DETAIL
  6
CONTINUOUS
 62
     5
 10
2440.2698489999998
 20
631.18570999999997
 30
0.0
 11
2423.2606999999998
 21
631.18570999999997
 31
0.0
  0
LINE
  5
460
  8
DETAIL
  6
CONTINUOUS
 62
     5
 10
2439.2698489999998
 20
635.18570999999997
 30
0.0
 11
2423.2606999999998
 21
635.18570999999997
 31
0.0
  0
LINE
  5
461
  8
DETAIL
  6
CONTINUOUS
 62
     5
 10
2439.2698489999998
 20
616.18570999999974
 30
0.0
 11
2423.2606999999998
 21
616.18570999999974
 31
0.0
  0
LINE
  5
462
  8
DETAIL
  6
CONTINUOUS
 62
     5
 10
2456.2698489999998
 20
615.18570999999986
 30
0.0
 11
2443.2698489999998
 21
615.18570999999986
 31
0.0
  0
LINE
  5
463
  8
DETAIL
  6
CONTINUOUS
 62
     5
 10
2440.2698489999998
 20
620.18570999999974
 30
0.0
 11
2423.2606999999998
 21
620.18570999999974
 31
0.0
  0
LINE
  5
464
  8
DETAIL
  6
CONTINUOUS
 62
     5
 10
2455.2698489999998
 20
620.18570999999974
 30
0.0
 11
2442.2698489999998
 21
620.18570999999974
 31
0.0
  0
LINE
  5
465
  8
DETAIL
  6
CONTINUOUS
 62
     5
 10
2459.2698489999998
 20
620.18570999999974
 30
0.0
 11
2459.2698489999998
 21
631.18570999999997
 31
0.0
  0
LINE
  5
466
  8
DETAIL
  6
CONTINUOUS
 62
     5
 10
2459.2698489999998
 20
620.18570999999974
 30
0.0
 11
2456.2698489999998
 21
615.18570999999986
 31
0.0
  0
LINE
  5
467
  8
DETAIL
  6
CONTINUOUS
 62
     5
 10
2442.2698489999998
 20
616.18570999999974
 30
0.0
 11
2443.2698489999998
 21
615.18570999999986
 31
0.0
  0
LINE
  5
468
  8
DETAIL
  6
CONTINUOUS
 62
     5
 10
2440.2698489999998
 20
617.18570999999974
 30
0.0
 11
2439.2698489999998
 21
616.18570999999974
 31
0.0
  0
LINE
  5
469
  8
DETAIL
  6
CONTINUOUS
 62
     5
 10
2455.2698489999998
 20
620.18570999999974
 30
0.0
 11
2456.2698489999998
 21
621.18570999999974
 31
0.0
  0
LINE
  5
46A
  8
DETAIL
  6
CONTINUOUS
 62
     5
 10
2455.2698489999998
 20
620.18570999999974
 30
0.0
 11
2456.2698489999998
 21
619.18570999999997
 31
0.0
  0
LINE
  5
46B
  8
DETAIL
  6
CONTINUOUS
 62
     5
 10
2442.2698489999998
 20
620.93570999999997
 30
0.0
 11
2440.2698489999998
 21
620.93570999999997
 31
0.0
  0
LINE
  5
46C
  8
DETAIL
  6
CONTINUOUS
 62
     5
 10
2440.2698489999998
 20
617.18570999999974
 30
0.0
 11
2440.2698489999998
 21
634.18570999999974
 31
0.0
  0
LINE
  5
46D
  8
DETAIL
  6
CONTINUOUS
 62
     5
 10
2442.2698489999998
 20
616.18570999999974
 30
0.0
 11
2442.2698489999998
 21
635.18570999999997
 31
0.0
  0
LINE
  5
46E
  8
DETAIL
  6
CONTINUOUS
 62
     5
 10
2456.2698489999998
 20
636.18570999999986
 30
0.0
 11
2443.2698489999998
 21
636.18570999999986
 31
0.0
  0
LINE
  5
46F
  8
DETAIL
  6
CONTINUOUS
 62
     5
 10
2456.2698489999998
 20
615.18570999999986
 30
0.0
 11
2456.2698489999998
 21
636.18570999999986
 31
0.0
  0
LINE
  5
470
  8
DETAIL
  6
CONTINUOUS
 62
     5
 10
2455.2698489999998
 20
631.18570999999997
 30
0.0
 11
2442.2698489999998
 21
631.18570999999997
 31
0.0
  0
LINE
  5
471
  8
DETAIL
  6
CONTINUOUS
 62
     5
 10
2459.2698489999998
 20
631.18570999999997
 30
0.0
 11
2456.2698489999998
 21
636.18570999999986
 31
0.0
  0
LINE
  5
472
  8
DETAIL
  6
CONTINUOUS
 62
     5
 10
2443.2698489999998
 20
636.18570999999986
 30
0.0
 11
2442.2698489999998
 21
635.18570999999997
 31
0.0
  0
LINE
  5
473
  8
DETAIL
  6
CONTINUOUS
 62
     5
 10
2440.2698489999998
 20
634.18570999999974
 30
0.0
 11
2439.2698489999998
 21
635.18570999999997
 31
0.0
  0
LINE
  5
474
  8
DETAIL
  6
CONTINUOUS
 62
     5
 10
2455.2698489999998
 20
631.18570999999997
 30
0.0
 11
2456.2698489999998
 21
632.18570999999986
 31
0.0
  0
LINE
  5
475
  8
DETAIL
  6
CONTINUOUS
 62
     5
 10
2455.2698489999998
 20
631.18570999999997
 30
0.0
 11
2456.2698489999998
 21
630.18570999999974
 31
0.0
  0
LINE
  5
476
  8
DETAIL
  6
CONTINUOUS
 62
     5
 10
2442.2698489999998
 20
630.43570999999974
 30
0.0
 11
2440.2698489999998
 21
630.43570999999974
 31
0.0
  0
POINT
  5
477
  8
DEFPOINTS
  6
CONTINUOUS
 62
     7
 10
2425.7515510000012
 20
532.68570999999986
 30
0.0
  0
POINT
  5
478
  8
DEFPOINTS
  6
CONTINUOUS
 62
     7
 10
2467.5198489999998
 20
597.68570999999997
 30
0.0
  0
POINT
  5
479
  8
DEFPOINTS
  6
CONTINUOUS
 62
     7
 10
2464.7606999999998
 20
625.68570999999974
 30
0.0
  0
POINT
  5
47A
  8
DEFPOINTS
  6
CONTINUOUS
 62
     7
 10
2464.7606999999998
 20
625.68570999999974
 30
0.0
  0
LINE
  5
47B
  8
NOTE
  6
CONTINUOUS
 62
     4
 10
2414.7515510000012
 20
532.68570999999986
 30
0.0
 11
2425.7515510000012
 21
532.68570999999986
 31
0.0
  0
LINE
  5
47C
  8
NOTE
  6
CONTINUOUS
 62
     4
 10
2420.2606999999998
 20
538.18570199999988
 30
0.0
 11
2420.2606999999998
 21
527.18571799999995
 31
0.0
  0
LINE
  5
47D
  8
NOTE
  6
CONTINUOUS
 62
     4
 10
2445.0198489999998
 20
597.68570999999997
 30
0.0
 11
2467.5198489999998
 21
597.68570999999997
 31
0.0
  0
LINE
  5
47E
  8
NOTE
  6
CONTINUOUS
 62
     4
 10
2456.2606999999998
 20
608.93570599999998
 30
0.0
 11
2456.2606999999998
 21
586.43571399999996
 31
0.0
  0
LINE
  5
47F
  8
NOTE
  6
CONTINUOUS
 62
     4
 10
2456.2606999999998
 20
597.68570999999997
 30
0.0
 11
2470.6663210000002
 21
566.46347800000001
 31
0.0
  0
LINE
  5
480
  8
NOTE
  6
CONTINUOUS
 62
     4
 10
2456.2606999999998
 20
597.68570999999997
 30
0.0
 11
2484.3474500000002
 21
577.84927500000003
 31
0.0
  0
LINE
  5
481
  8
DETAIL
  6
CONTINUOUS
 62
     5
 10
2456.2606999999998
 20
608.93570999999986
 30
0.0
 11
2456.2606999999998
 21
586.43570999999974
 31
0.0
  0
LINE
  5
482
  8
DETAIL
  6
CONTINUOUS
 62
     5
 10
2420.2606999999998
 20
586.18570999999986
 30
0.0
 11
2431.2698489999998
 21
586.18570999999986
 31
0.0
  0
LINE
  5
483
  8
DETAIL
  6
CONTINUOUS
 62
     5
 10
2420.2698489999998
 20
609.18570999999974
 30
0.0
 11
2431.2698489999998
 21
609.18570999999974
 31
0.0
  0
LINE
  5
484
  8
DETAIL
  6
CONTINUOUS
 62
     5
 10
2451.2698489999998
 20
590.68570999999974
 30
0.0
 11
2453.2698489999998
 21
588.68570999999974
 31
0.0
  0
LINE
  5
485
  8
DETAIL
  6
CONTINUOUS
 62
     5
 10
2451.2698489999998
 20
590.68570999999974
 30
0.0
 11
2453.2698489999998
 21
588.68570999999974
 31
0.0
  0
LINE
  5
486
  8
DETAIL
  6
CONTINUOUS
 62
     5
 10
2451.2698489999998
 20
590.68570999999974
 30
0.0
 11
2453.2698489999998
 21
592.68570999999974
 31
0.0
  0
LINE
  5
487
  8
DETAIL
  6
CONTINUOUS
 62
     5
 10
2451.2698489999998
 20
590.68570999999974
 30
0.0
 11
2453.2698489999998
 21
592.68570999999974
 31
0.0
  0
LINE
  5
488
  8
DETAIL
  6
CONTINUOUS
 62
     5
 10
2451.2698489999998
 20
604.68570999999974
 30
0.0
 11
2453.2698489999998
 21
602.68570999999986
 31
0.0
  0
LINE
  5
489
  8
DETAIL
  6
CONTINUOUS
 62
     5
 10
2451.2698489999998
 20
604.68570999999974
 30
0.0
 11
2453.2698489999998
 21
602.68570999999986
 31
0.0
  0
LINE
  5
48A
  8
DETAIL
  6
CONTINUOUS
 62
     5
 10
2451.2698489999998
 20
604.68570999999974
 30
0.0
 11
2453.2698489999998
 21
606.68570999999997
 31
0.0
  0
LINE
  5
48B
  8
DETAIL
  6
CONTINUOUS
 62
     5
 10
2451.2698489999998
 20
604.68570999999974
 30
0.0
 11
2453.2698489999998
 21
606.68570999999997
 31
0.0
  0
LINE
  5
48C
  8
DETAIL
  6
CONTINUOUS
 62
     5
 10
2439.2698489999998
 20
604.68570999999974
 30
0.0
 11
2437.2698489999998
 21
606.68570999999997
 31
0.0
  0
LINE
  5
48D
  8
DETAIL
  6
CONTINUOUS
 62
     5
 10
2439.2698489999998
 20
604.68570999999974
 30
0.0
 11
2437.2698489999998
 21
606.68570999999997
 31
0.0
  0
LINE
  5
48E
  8
DETAIL
  6
CONTINUOUS
 62
     5
 10
2439.2698489999998
 20
604.68570999999974
 30
0.0
 11
2437.2698489999998
 21
602.68570999999986
 31
0.0
  0
LINE
  5
48F
  8
DETAIL
  6
CONTINUOUS
 62
     5
 10
2439.2698489999998
 20
604.68570999999974
 30
0.0
 11
2437.2698489999998
 21
602.68570999999986
 31
0.0
  0
LINE
  5
490
  8
DETAIL
  6
CONTINUOUS
 62
     5
 10
2439.2698489999998
 20
590.68570999999974
 30
0.0
 11
2437.2698489999998
 21
592.68570999999974
 31
0.0
  0
LINE
  5
491
  8
DETAIL
  6
CONTINUOUS
 62
     5
 10
2439.2698489999998
 20
590.68570999999974
 30
0.0
 11
2437.2698489999998
 21
592.68570999999974
 31
0.0
  0
LINE
  5
492
  8
DETAIL
  6
CONTINUOUS
 62
     5
 10
2439.2698489999998
 20
590.68570999999974
 30
0.0
 11
2437.2698489999998
 21
588.68570999999974
 31
0.0
  0
LINE
  5
493
  8
DETAIL
  6
CONTINUOUS
 62
     5
 10
2439.2698489999998
 20
590.68570999999974
 30
0.0
 11
2437.2698489999998
 21
588.68570999999974
 31
0.0
  0
LINE
  5
494
  8
DETAIL
  6
CONTINUOUS
 62
     5
 10
2439.2698489999998
 20
590.68570999999974
 30
0.0
 11
2451.2698489999998
 21
590.68570999999974
 31
0.0
  0
LINE
  5
495
  8
DETAIL
  6
CONTINUOUS
 62
     5
 10
2439.2698489999998
 20
590.68570999999974
 30
0.0
 11
2451.2698489999998
 21
590.68570999999974
 31
0.0
  0
LINE
  5
496
  8
DETAIL
  6
CONTINUOUS
 62
     5
 10
2439.2698489999998
 20
604.68570999999974
 30
0.0
 11
2451.2698489999998
 21
604.68570999999974
 31
0.0
  0
LINE
  5
497
  8
DETAIL
  6
CONTINUOUS
 62
     5
 10
2439.2698489999998
 20
604.68570999999974
 30
0.0
 11
2451.2698489999998
 21
604.68570999999974
 31
0.0
  0
LINE
  5
498
  8
DETAIL
  6
CONTINUOUS
 62
     5
 10
2437.2698489999998
 20
586.68570999999974
 30
0.0
 11
2439.2698489999998
 21
584.68570999999997
 31
0.0
  0
LINE
  5
499
  8
DETAIL
  6
CONTINUOUS
 62
     5
 10
2437.2698489999998
 20
586.68570999999974
 30
0.0
 11
2439.2698489999998
 21
584.68570999999997
 31
0.0
  0
LINE
  5
49A
  8
DETAIL
  6
CONTINUOUS
 62
     5
 10
2437.2698489999998
 20
608.68570999999974
 30
0.0
 11
2439.2698489999998
 21
610.68570999999997
 31
0.0
  0
LINE
  5
49B
  8
DETAIL
  6
CONTINUOUS
 62
     5
 10
2437.2698489999998
 20
608.68570999999974
 30
0.0
 11
2439.2698489999998
 21
610.68570999999997
 31
0.0
  0
LINE
  5
49C
  8
DETAIL
  6
CONTINUOUS
 62
     5
 10
2456.2606999999998
 20
586.43570999999974
 30
0.0
 11
2453.2698489999998
 21
584.68570999999997
 31
0.0
  0
LINE
  5
49D
  8
DETAIL
  6
CONTINUOUS
 62
     5
 10
2453.2698489999998
 20
610.68570999999997
 30
0.0
 11
2456.2606999999998
 21
608.93570599999998
 31
0.0
  0
LINE
  5
49E
  8
DETAIL
  6
CONTINUOUS
 62
     5
 10
2453.2698489999998
 20
610.68570999999997
 30
0.0
 11
2453.2698489999998
 21
584.68570999999997
 31
0.0
  0
LINE
  5
49F
  8
DETAIL
  6
CONTINUOUS
 62
     5
 10
2453.2698489999998
 20
610.68570999999997
 30
0.0
 11
2453.2698489999998
 21
584.68570999999997
 31
0.0
  0
LINE
  5
4A0
  8
DETAIL
  6
CONTINUOUS
 62
     5
 10
2437.2698489999998
 20
608.68570999999974
 30
0.0
 11
2437.2698489999998
 21
586.68570999999974
 31
0.0
  0
LINE
  5
4A1
  8
DETAIL
  6
CONTINUOUS
 62
     5
 10
2437.2698489999998
 20
608.68570999999974
 30
0.0
 11
2437.2698489999998
 21
586.68570999999974
 31
0.0
  0
LINE
  5
4A2
  8
DETAIL
  6
CONTINUOUS
 62
     5
 10
2439.2698489999998
 20
584.68570999999997
 30
0.0
 11
2453.2698489999998
 21
584.68570999999997
 31
0.0
  0
LINE
  5
4A3
  8
DETAIL
  6
CONTINUOUS
 62
     5
 10
2439.2698489999998
 20
584.68570999999997
 30
0.0
 11
2453.2698489999998
 21
584.68570999999997
 31
0.0
  0
LINE
  5
4A4
  8
DETAIL
  6
CONTINUOUS
 62
     5
 10
2439.2698489999998
 20
610.68570999999997
 30
0.0
 11
2453.2698489999998
 21
610.68570999999997
 31
0.0
  0
LINE
  5
4A5
  8
DETAIL
  6
CONTINUOUS
 62
     5
 10
2439.2698489999998
 20
610.68570999999997
 30
0.0
 11
2453.2698489999998
 21
610.68570999999997
 31
0.0
  0
LINE
  5
4A6
  8
DETAIL
  6
CONTINUOUS
 62
     5
 10
2437.2698489999998
 20
605.68570999999997
 30
0.0
 11
2437.2698489999998
 21
589.68570999999997
 31
0.0
  0
LINE
  5
4A7
  8
DETAIL
  6
CONTINUOUS
 62
     5
 10
2437.2698489999998
 20
589.68570999999997
 30
0.0
 11
2433.2698489999998
 21
589.68570999999997
 31
0.0
  0
LINE
  5
4A8
  8
DETAIL
  6
CONTINUOUS
 62
     5
 10
2437.2698489999998
 20
605.68570999999997
 30
0.0
 11
2433.2698489999998
 21
605.68570999999997
 31
0.0
  0
LINE
  5
4A9
  8
DETAIL
  6
CONTINUOUS
 62
     5
 10
2433.2698489999998
 20
607.18570999999986
 30
0.0
 11
2431.2698489999998
 21
609.18570999999974
 31
0.0
  0
LINE
  5
4AA
  8
DETAIL
  6
CONTINUOUS
 62
     5
 10
2433.2698489999998
 20
588.18570999999974
 30
0.0
 11
2431.2698489999998
 21
586.18570999999986
 31
0.0
  0
LINE
  5
4AB
  8
DETAIL
  6
CONTINUOUS
 62
     5
 10
2433.2698489999998
 20
607.18570999999986
 30
0.0
 11
2433.2698489999998
 21
588.18570999999974
 31
0.0
  0
LINE
  5
4AC
  8
DETAIL
  6
CONTINUOUS
 62
     5
 10
2451.2698489999998
 20
590.68570999999974
 30
0.0
 11
2453.2698489999998
 21
588.68570999999974
 31
0.0
  0
LINE
  5
4AD
  8
DETAIL
  6
CONTINUOUS
 62
     5
 10
2451.2698489999998
 20
590.68570999999974
 30
0.0
 11
2453.2698489999998
 21
588.68570999999974
 31
0.0
  0
LINE
  5
4AE
  8
DETAIL
  6
CONTINUOUS
 62
     5
 10
2451.2698489999998
 20
590.68570999999974
 30
0.0
 11
2453.2698489999998
 21
592.68570999999974
 31
0.0
  0
LINE
  5
4AF
  8
DETAIL
  6
CONTINUOUS
 62
     5
 10
2451.2698489999998
 20
590.68570999999974
 30
0.0
 11
2453.2698489999998
 21
592.68570999999974
 31
0.0
  0
LINE
  5
4B0
  8
DETAIL
  6
CONTINUOUS
 62
     5
 10
2451.2698489999998
 20
604.68570999999974
 30
0.0
 11
2453.2698489999998
 21
602.68570999999986
 31
0.0
  0
LINE
  5
4B1
  8
DETAIL
  6
CONTINUOUS
 62
     5
 10
2451.2698489999998
 20
604.68570999999974
 30
0.0
 11
2453.2698489999998
 21
602.68570999999986
 31
0.0
  0
LINE
  5
4B2
  8
DETAIL
  6
CONTINUOUS
 62
     5
 10
2451.2698489999998
 20
604.68570999999974
 30
0.0
 11
2453.2698489999998
 21
606.68570999999997
 31
0.0
  0
LINE
  5
4B3
  8
DETAIL
  6
CONTINUOUS
 62
     5
 10
2451.2698489999998
 20
604.68570999999974
 30
0.0
 11
2453.2698489999998
 21
606.68570999999997
 31
0.0
  0
LINE
  5
4B4
  8
DETAIL
  6
CONTINUOUS
 62
     5
 10
2439.2698489999998
 20
604.68570999999974
 30
0.0
 11
2437.2698489999998
 21
606.68570999999997
 31
0.0
  0
LINE
  5
4B5
  8
DETAIL
  6
CONTINUOUS
 62
     5
 10
2439.2698489999998
 20
604.68570999999974
 30
0.0
 11
2437.2698489999998
 21
606.68570999999997
 31
0.0
  0
LINE
  5
4B6
  8
DETAIL
  6
CONTINUOUS
 62
     5
 10
2439.2698489999998
 20
604.68570999999974
 30
0.0
 11
2437.2698489999998
 21
602.68570999999986
 31
0.0
  0
LINE
  5
4B7
  8
DETAIL
  6
CONTINUOUS
 62
     5
 10
2439.2698489999998
 20
604.68570999999974
 30
0.0
 11
2437.2698489999998
 21
602.68570999999986
 31
0.0
  0
LINE
  5
4B8
  8
DETAIL
  6
CONTINUOUS
 62
     5
 10
2439.2698489999998
 20
590.68570999999974
 30
0.0
 11
2437.2698489999998
 21
592.68570999999974
 31
0.0
  0
LINE
  5
4B9
  8
DETAIL
  6
CONTINUOUS
 62
     5
 10
2439.2698489999998
 20
590.68570999999974
 30
0.0
 11
2437.2698489999998
 21
592.68570999999974
 31
0.0
  0
LINE
  5
4BA
  8
DETAIL
  6
CONTINUOUS
 62
     5
 10
2439.2698489999998
 20
590.68570999999974
 30
0.0
 11
2437.2698489999998
 21
588.68570999999974
 31
0.0
  0
LINE
  5
4BB
  8
DETAIL
  6
CONTINUOUS
 62
     5
 10
2439.2698489999998
 20
590.68570999999974
 30
0.0
 11
2437.2698489999998
 21
588.68570999999974
 31
0.0
  0
LINE
  5
4BC
  8
DETAIL
  6
CONTINUOUS
 62
     5
 10
2439.2698489999998
 20
590.68570999999974
 30
0.0
 11
2451.2698489999998
 21
590.68570999999974
 31
0.0
  0
LINE
  5
4BD
  8
DETAIL
  6
CONTINUOUS
 62
     5
 10
2439.2698489999998
 20
590.68570999999974
 30
0.0
 11
2451.2698489999998
 21
590.68570999999974
 31
0.0
  0
LINE
  5
4BE
  8
DETAIL
  6
CONTINUOUS
 62
     5
 10
2439.2698489999998
 20
604.68570999999974
 30
0.0
 11
2451.2698489999998
 21
604.68570999999974
 31
0.0
  0
LINE
  5
4BF
  8
DETAIL
  6
CONTINUOUS
 62
     5
 10
2439.2698489999998
 20
604.68570999999974
 30
0.0
 11
2451.2698489999998
 21
604.68570999999974
 31
0.0
  0
LINE
  5
4C0
  8
DETAIL
  6
CONTINUOUS
 62
     5
 10
2437.2698489999998
 20
586.68570999999974
 30
0.0
 11
2439.2698489999998
 21
584.68570999999997
 31
0.0
  0
LINE
  5
4C1
  8
DETAIL
  6
CONTINUOUS
 62
     5
 10
2437.2698489999998
 20
586.68570999999974
 30
0.0
 11
2439.2698489999998
 21
584.68570999999997
 31
0.0
  0
LINE
  5
4C2
  8
DETAIL
  6
CONTINUOUS
 62
     5
 10
2437.2698489999998
 20
608.68570999999974
 30
0.0
 11
2439.2698489999998
 21
610.68570999999997
 31
0.0
  0
LINE
  5
4C3
  8
DETAIL
  6
CONTINUOUS
 62
     5
 10
2437.2698489999998
 20
608.68570999999974
 30
0.0
 11
2439.2698489999998
 21
610.68570999999997
 31
0.0
  0
LINE
  5
4C4
  8
DETAIL
  6
CONTINUOUS
 62
     5
 10
2453.2698489999998
 20
610.68570999999997
 30
0.0
 11
2453.2698489999998
 21
584.68570999999997
 31
0.0
  0
LINE
  5
4C5
  8
DETAIL
  6
CONTINUOUS
 62
     5
 10
2453.2698489999998
 20
610.68570999999997
 30
0.0
 11
2453.2698489999998
 21
584.68570999999997
 31
0.0
  0
LINE
  5
4C6
  8
DETAIL
  6
CONTINUOUS
 62
     5
 10
2437.2698489999998
 20
608.68570999999974
 30
0.0
 11
2437.2698489999998
 21
586.68570999999974
 31
0.0
  0
LINE
  5
4C7
  8
DETAIL
  6
CONTINUOUS
 62
     5
 10
2437.2698489999998
 20
608.68570999999974
 30
0.0
 11
2437.2698489999998
 21
586.68570999999974
 31
0.0
  0
LINE
  5
4C8
  8
DETAIL
  6
CONTINUOUS
 62
     5
 10
2439.2698489999998
 20
584.68570999999997
 30
0.0
 11
2453.2698489999998
 21
584.68570999999997
 31
0.0
  0
LINE
  5
4C9
  8
DETAIL
  6
CONTINUOUS
 62
     5
 10
2439.2698489999998
 20
584.68570999999997
 30
0.0
 11
2453.2698489999998
 21
584.68570999999997
 31
0.0
  0
LINE
  5
4CA
  8
DETAIL
  6
CONTINUOUS
 62
     5
 10
2439.2698489999998
 20
610.68570999999997
 30
0.0
 11
2453.2698489999998
 21
610.68570999999997
 31
0.0
  0
LINE
  5
4CB
  8
DETAIL
  6
CONTINUOUS
 62
     5
 10
2439.2698489999998
 20
610.68570999999997
 30
0.0
 11
2453.2698489999998
 21
610.68570999999997
 31
0.0
  0
LINE
  5
4CC
  8
DETAIL
  6
CONTINUOUS
 62
     5
 10
2437.2698489999998
 20
605.68570999999997
 30
0.0
 11
2437.2698489999998
 21
589.68570999999997
 31
0.0
  0
LINE
  5
4CD
  8
DETAIL
  6
CONTINUOUS
 62
     5
 10
2437.2698489999998
 20
589.68570999999997
 30
0.0
 11
2433.2698489999998
 21
589.68570999999997
 31
0.0
  0
LINE
  5
4CE
  8
DETAIL
  6
CONTINUOUS
 62
     5
 10
2437.2698489999998
 20
605.68570999999997
 30
0.0
 11
2433.2698489999998
 21
605.68570999999997
 31
0.0
  0
LINE
  5
4CF
  8
DETAIL
  6
CONTINUOUS
 62
     5
 10
2433.2698489999998
 20
607.18570999999986
 30
0.0
 11
2431.2698489999998
 21
609.18570999999974
 31
0.0
  0
LINE
  5
4D0
  8
DETAIL
  6
CONTINUOUS
 62
     5
 10
2433.2698489999998
 20
588.18570999999974
 30
0.0
 11
2431.2698489999998
 21
586.18570999999986
 31
0.0
  0
LINE
  5
4D1
  8
DETAIL
  6
CONTINUOUS
 62
     5
 10
2433.2698489999998
 20
607.18570999999986
 30
0.0
 11
2433.2698489999998
 21
588.18570999999974
 31
0.0
  0
LINE
  5
4D2
  8
DETAIL
  6
CONTINUOUS
 62
     5
 10
2420.2698489999998
 20
609.18570999999974
 30
0.0
 11
2431.2698489999998
 21
609.18570999999974
 31
0.0
  0
LINE
  5
4D3
  8
DETAIL
  6
CONTINUOUS
 62
     5
 10
2420.2698489999998
 20
586.18570999999986
 30
0.0
 11
2431.2698489999998
 21
586.18570999999986
 31
0.0
  0
POINT
  5
4D4
  8
DEFPOINTS
  6
CONTINUOUS
 62
     7
 10
2766.9807689999998
 20
597.68570999999997
 30
0.0
  0
LINE
  5
4D5
  8
SIZE
  6
CONTINUOUS
 62
    30
 10
2766.9807689999998
 20
592.68570999999974
 30
0.0
 11
2766.9807689999998
 21
587.68570999999974
 31
0.0
  0
CIRCLE
  5
4D6
  8
SIZE
  6
CONTINUOUS
 62
    30
 10
2766.9807689999998
 20
597.68570999999997
 30
0.0
 40
5.0
  0
LINE
  5
4D7
  8
SIZE
  6
CONTINUOUS
 62
    30
 10
2766.9807689999998
 20
630.68570999999997
 30
0.0
 11
2766.9807689999998
 21
635.68570999999997
 31
0.0
  0
CIRCLE
  5
4D8
  8
SIZE
  6
CONTINUOUS
 62
    30
 10
2766.9807689999998
 20
625.68570999999974
 30
0.0
 40
5.0
  0
LINE
  5
4D9
  8
SIZE
  6
CONTINUOUS
 62
    30
 10
2766.9807689999998
 20
625.68570999999974
 30
0.0
 11
2766.9807689999998
 21
597.68570999999997
 31
0.0
  0
LINE
  5
4DA
  8
SIZE
  6
CONTINUOUS
 62
    30
 10
2766.9807689999998
 20
625.68570999999974
 30
0.0
 11
2766.9807689999998
 21
597.68570999999997
 31
0.0
  0
LINE
  5
4DB
  8
SIZE
  6
CONTINUOUS
 62
    30
 10
2766.9807689999998
 20
587.68570999999974
 30
0.0
 11
2766.9807689999998
 21
577.68570999999986
 31
0.0
  0
LINE
  5
4DC
  8
SIZE
  6
CONTINUOUS
 62
    30
 10
2766.9807689999998
 20
635.68570999999997
 30
0.0
 11
2766.9807689999998
 21
645.68570999999974
 31
0.0
  0
POINT
  5
4DD
  8
DEFPOINTS
  6
CONTINUOUS
 62
     7
 10
2766.9807689999998
 20
625.68570999999974
 30
0.0
  0
LINE
  5
4DE
  8
SIZE
  6
CONTINUOUS
 62
    30
 10
2766.9807689999998
 20
630.68570999999997
 30
0.0
 11
2766.9807689999998
 21
635.68570999999997
 31
0.0
  0
CIRCLE
  5
4DF
  8
SIZE
  6
CONTINUOUS
 62
    30
 10
2766.9807689999998
 20
625.68570999999974
 30
0.0
 40
5.0
  0
LINE
  5
4E0
  8
SIZE
  6
CONTINUOUS
 62
    30
 10
2451.9607000000001
 20
797.68570999999974
 30
0.0
 11
2796.9807690000011
 21
797.68570999999974
 31
0.0
  0
LINE
  5
4E1
  8
SIZE
  6
CONTINUOUS
 62
    30
 10
2490.9773519999999
 20
689.68570999999997
 30
0.0
 11
2673.3026300000001
 21
689.68570999999997
 31
0.0
  0
LINE
  5
4E2
  8
SIZE
  6
CONTINUOUS
 62
    30
 10
2451.9607000000001
 20
797.68570999999974
 30
0.0
 11
2673.3026300000001
 21
797.68570999999974
 31
0.0
  0
LINE
  5
4E3
  8
SIZE
  6
CONTINUOUS
 62
    30
 10
2420.2606999999998
 20
817.68570999999986
 30
0.0
 11
2420.2606999999998
 21
910.33053099999995
 31
0.0
  0
LINE
  5
4E4
  8
SIZE
  6
CONTINUOUS
 62
    30
 10
2454.2606999999998
 20
726.40236200000004
 30
0.0
 11
2454.2606999999998
 21
910.33053099999995
 31
0.0
  0
POINT
  5
4E5
  8
DEFPOINTS
  6
CONTINUOUS
 62
     7
 10
2420.2606999999998
 20
797.68570999999974
 30
0.0
  0
POINT
  5
4E6
  8
DEFPOINTS
  6
CONTINUOUS
 62
     7
 10
2413.2606999999998
 20
812.6808759999999
 30
0.0
  0
POINT
  5
4E7
  8
DEFPOINTS
  6
CONTINUOUS
 62
     7
 10
2413.2606999999998
 20
812.6808759999999
 30
0.0
  0
POINT
  5
4E8
  8
DEFPOINTS
  6
CONTINUOUS
 62
     7
 10
2436.2606999999998
 20
793.3857099999999
 30
0.0
  0
POINT
  5
4E9
  8
DEFPOINTS
  6
CONTINUOUS
 62
     7
 10
2420.2606999999998
 20
797.68570999999974
 30
0.0
  0
POINT
  5
4EA
  8
DEFPOINTS
  6
CONTINUOUS
 62
     7
 10
2420.2606999999998
 20
797.68570999999974
 30
0.0
  0
POINT
  5
4EB
  8
DEFPOINTS
  6
CONTINUOUS
 62
     7
 10
2436.2606999999998
 20
793.3857099999999
 30
0.0
  0
POINT
  5
4EC
  8
DEFPOINTS
  6
CONTINUOUS
 62
     7
 10
2420.2606999999998
 20
797.68570999999974
 30
0.0
  0
POINT
  5
4ED
  8
DEFPOINTS
  6
CONTINUOUS
 62
     7
 10
2420.2606999999998
 20
797.68570999999974
 30
0.0
  0
POINT
  5
4EE
  8
DEFPOINTS
  6
CONTINUOUS
 62
     7
 10
2454.2606999999998
 20
706.40236200000004
 30
0.0
  0
POINT
  5
4EF
  8
DEFPOINTS
  6
CONTINUOUS
 62
     7
 10
2431.9607000000001
 20
797.68570999999974
 30
0.0
  0
POINT
  5
4F0
  8
DEFPOINTS
  6
CONTINUOUS
 62
     7
 10
2431.9607000000001
 20
797.68570999999974
 30
0.0
  0
POINT
  5
4F1
  8
DEFPOINTS
  6
CONTINUOUS
 62
     7
 10
2470.9773519999999
 20
689.68570999999997
 30
0.0
  0
POINT
  5
4F2
  8
DEFPOINTS
  6
CONTINUOUS
 62
     7
 10
2431.9607000000001
 20
797.68570999999974
 30
0.0
  0
LINE
  5
4F3
  8
NOTE
  6
CONTINUOUS
 62
     4
 10
2437.5440480000002
 20
689.68570999999997
 30
0.0
 11
2470.9773519999999
 21
689.68570999999997
 31
0.0
  0
LINE
  5
4F4
  8
NOTE
  6
CONTINUOUS
 62
     4
 10
2454.2606999999998
 20
706.40236200000004
 30
0.0
 11
2454.2606999999998
 21
672.96905800000002
 31
0.0
  0
LINE
  5
4F5
  8
NOTE
  6
CONTINUOUS
 62
     4
 10
2454.2606999999998
 20
689.68570999999997
 30
0.0
 11
2473.2246810000001
 21
718.36875499999996
 31
0.0
  0
LINE
  5
4F6
  8
NOTE
  6
CONTINUOUS
 62
     4
 10
2454.2606999999998
 20
689.68570999999997
 30
0.0
 11
2456.342466000001
 21
724.00794699999983
 31
0.0
  0
LINE
  5
4F7
  8
NOTE
  6
CONTINUOUS
 62
     4
 10
2413.2606999999998
 20
782.69054400000005
 30
0.0
 11
2413.2606999999998
 21
812.6808759999999
 31
0.0
  0
POINT
  5
4F8
  8
DEFPOINTS
  6
CONTINUOUS
 62
     7
 10
2436.2606999999998
 20
791.78570999999988
 30
0.0
  0
LINE
  5
4F9
  8
DETAIL
  6
CONTINUOUS
 62
     5
 10
2420.2606999999998
 20
771.28570999999988
 30
0.0
 11
2420.2606999999998
 21
797.68570999999974
 31
0.0
  0
LINE
  5
4FA
  8
DETAIL
  6
CONTINUOUS
 62
     5
 10
2420.2606999999998
 20
771.28570999999988
 30
0.0
 11
2420.2606999999998
 21
797.68570999999974
 31
0.0
  0
LINE
  5
4FB
  8
DETAIL
  6
CONTINUOUS
 62
     5
 10
2420.2606999999998
 20
795.38571000000002
 30
0.0
 11
2431.9607000000001
 21
795.38571000000002
 31
0.0
  0
LINE
  5
4FC
  8
DETAIL
  6
CONTINUOUS
 62
     5
 10
2420.2606999999998
 20
797.68570999999974
 30
0.0
 11
2431.9607000000001
 21
797.68570999999974
 31
0.0
  0
LINE
  5
4FD
  8
DETAIL
  6
CONTINUOUS
 62
     5
 10
2420.2606999999998
 20
796.08570999999984
 30
0.0
 11
2420.2606999999998
 21
793.78570999999999
 31
0.0
  0
LINE
  5
4FE
  8
DETAIL
  6
CONTINUOUS
 62
     5
 10
2433.9607000000001
 20
785.68570999999986
 30
0.0
 11
2436.2606999999998
 21
785.68570999999986
 31
0.0
  0
LINE
  5
4FF
  8
DETAIL
  6
CONTINUOUS
 62
     5
 10
2433.9607000000001
 20
793.3857099999999
 30
0.0
 11
2433.9607000000001
 21
785.68570999999986
 31
0.0
  0
ARC
  5
500
  8
DETAIL
  6
CONTINUOUS
 62
     5
 10
2431.9607000000001
 20
793.3857099999999
 30
0.0
 40
2.0
 50
0.0
 51
90.0
  0
LINE
  5
501
  8
DETAIL
  6
CONTINUOUS
 62
     5
 10
2436.2606999999998
 20
793.3857099999999
 30
0.0
 11
2436.2606999999998
 21
785.68570999999986
 31
0.0
  0
ARC
  5
502
  8
DETAIL
  6
CONTINUOUS
 62
     5
 10
2431.9607000000001
 20
793.3857099999999
 30
0.0
 40
4.299999999999998
 50
0.0
 51
90.0
  0
LINE
  5
503
  8
DETAIL
  6
CONTINUOUS
 62
     5
 10
2420.2606999999998
 20
796.08570999999984
 30
0.0
 11
2420.2606999999998
 21
793.78570999999999
 31
0.0
  0
LINE
  5
504
  8
DETAIL
  6
CONTINUOUS
 62
     5
 10
2433.9607000000001
 20
785.68570999999986
 30
0.0
 11
2436.2606999999998
 21
785.68570999999986
 31
0.0
  0
LINE
  5
505
  8
DETAIL
  6
CONTINUOUS
 62
     5
 10
2433.9607000000001
 20
793.3857099999999
 30
0.0
 11
2433.9607000000001
 21
785.68570999999986
 31
0.0
  0
ARC
  5
506
  8
DETAIL
  6
CONTINUOUS
 62
     5
 10
2431.9607000000001
 20
793.3857099999999
 30
0.0
 40
2.0
 50
0.0
 51
90.0
  0
LINE
  5
507
  8
DETAIL
  6
CONTINUOUS
 62
     5
 10
2420.2606999999998
 20
795.38571000000002
 30
0.0
 11
2431.9607000000001
 21
795.38571000000002
 31
0.0
  0
LINE
  5
508
  8
DETAIL
  6
CONTINUOUS
 62
     5
 10
2420.2606999999998
 20
797.68570999999974
 30
0.0
 11
2431.9607000000001
 21
797.68570999999974
 31
0.0
  0
LINE
  5
509
  8
DETAIL
  6
CONTINUOUS
 62
     5
 10
2436.2606999999998
 20
793.3857099999999
 30
0.0
 11
2436.2606999999998
 21
785.68570999999986
 31
0.0
  0
ARC
  5
50A
  8
DETAIL
  6
CONTINUOUS
 62
     5
 10
2431.9607000000001
 20
793.3857099999999
 30
0.0
 40
4.299999999999998
 50
0.0
 51
90.0
  0
LINE
  5
50B
  8
DETAIL
  6
CONTINUOUS
 62
     5
 10
2420.2606999999998
 20
691.08570999999995
 30
0.0
 11
2420.2606999999998
 21
787.08570999999984
 31
0.0
  0
LINE
  5
50C
  8
DETAIL
  6
CONTINUOUS
 62
     5
 10
2429.2606999999998
 20
705.8857099999999
 30
0.0
 11
2420.2606999999998
 21
706.04280599999981
 31
0.0
  0
ARC
  5
50D
  8
DETAIL
  6
CONTINUOUS
 62
     5
 10
2453.7606999999998
 20
705.18570999999974
 30
0.0
 40
0.5
 50
0.0
 51
90.0
  0
LINE
  5
50E
  8
DETAIL
  6
CONTINUOUS
 62
     5
 10
2429.2606999999998
 20
705.68570999999997
 30
0.0
 11
2453.7606999999998
 21
705.68570999999997
 31
0.0
  0
LINE
  5
50F
  8
DETAIL
  6
CONTINUOUS
 62
     5
 10
2429.2606999999998
 20
673.48570999999981
 30
0.0
 11
2420.2606999999998
 21
673.32861400000002
 31
0.0
  0
ARC
  5
510
  8
DETAIL
  6
CONTINUOUS
 62
     5
 10
2453.7606999999998
 20
674.18570999999974
 30
0.0
 40
0.5
 50
270.0
 51
0.0
  0
LINE
  5
511
  8
DETAIL
  6
CONTINUOUS
 62
     5
 10
2429.2606999999998
 20
673.68570999999986
 30
0.0
 11
2453.7606999999998
 21
673.68570999999986
 31
0.0
  0
LINE
  5
512
  8
DETAIL
  6
CONTINUOUS
 62
     5
 10
2429.2606999999998
 20
705.8857099999999
 30
0.0
 11
2429.2606999999998
 21
673.48570999999981
 31
0.0
  0
LINE
  5
513
  8
DETAIL
  6
CONTINUOUS
 62
     5
 10
2454.2606999999998
 20
705.18570999999974
 30
0.0
 11
2454.2606999999998
 21
674.18570999999974
 31
0.0
  0
LINE
  5
514
  8
DETAIL
  6
CONTINUOUS
 62
     5
 10
2429.2606999999998
 20
705.8857099999999
 30
0.0
 11
2420.2606999999998
 21
706.04280599999981
 31
0.0
  0
LINE
  5
515
  8
DETAIL
  6
CONTINUOUS
 62
     5
 10
2429.2606999999998
 20
673.48570999999981
 30
0.0
 11
2420.2606999999998
 21
673.32861400000002
 31
0.0
  0
ARC
  5
516
  8
DETAIL
  6
CONTINUOUS
 62
     5
 10
2453.7606999999998
 20
674.18570999999974
 30
0.0
 40
0.5
 50
270.0
 51
0.0
  0
ARC
  5
517
  8
DETAIL
  6
CONTINUOUS
 62
     5
 10
2453.7606999999998
 20
705.18570999999974
 30
0.0
 40
0.5
 50
0.0
 51
90.0
  0
LINE
  5
518
  8
DETAIL
  6
CONTINUOUS
 62
     5
 10
2429.2606999999998
 20
705.8857099999999
 30
0.0
 11
2429.2606999999998
 21
673.48570999999981
 31
0.0
  0
LINE
  5
519
  8
DETAIL
  6
CONTINUOUS
 62
     5
 10
2429.2606999999998
 20
673.68570999999986
 30
0.0
 11
2453.7606999999998
 21
673.68570999999986
 31
0.0
  0
LINE
  5
51A
  8
DETAIL
  6
CONTINUOUS
 62
     5
 10
2429.2606999999998
 20
705.68570999999997
 30
0.0
 11
2453.7606999999998
 21
705.68570999999997
 31
0.0
  0
LINE
  5
51B
  8
DETAIL
  6
CONTINUOUS
 62
     5
 10
2454.2606999999998
 20
705.18570999999974
 30
0.0
 11
2454.2606999999998
 21
674.18570999999974
 31
0.0
  0
LINE
  5
51C
  8
DETAIL
  6
CONTINUOUS
 62
     5
 10
2420.2606999999998
 20
797.68570999999974
 30
0.0
 11
2420.2606999999998
 21
768.3857099999999
 31
0.0
  0
POINT
  5
51D
  8
DEFPOINTS
  6
CONTINUOUS
 62
     7
 10
2436.2606999999998
 20
892.68570999999986
 30
0.0
  0
POINT
  5
51E
  8
DEFPOINTS
  6
CONTINUOUS
 62
     7
 10
2420.2606999999998
 20
965.93079499999965
 30
0.0
  0
LINE
  5
51F
  8
SIZE
  6
CONTINUOUS
 62
    30
 10
2415.2606999999998
 20
965.93079499999965
 30
0.0
 11
2410.2606999999998
 21
965.93079499999965
 31
0.0
  0
CIRCLE
  5
520
  8
SIZE
  6
CONTINUOUS
 62
    30
 10
2420.2606999999998
 20
965.93079499999965
 30
0.0
 40
5.0
  0
LINE
  5
521
  8
SIZE
  6
CONTINUOUS
 62
    30
 10
2461.2606999999998
 20
965.93079499999965
 30
0.0
 11
2466.2606999999998
 21
965.93079499999965
 31
0.0
  0
CIRCLE
  5
522
  8
SIZE
  6
CONTINUOUS
 62
    30
 10
2456.2606999999998
 20
965.93079499999965
 30
0.0
 40
5.0
  0
LINE
  5
523
  8
SIZE
  6
CONTINUOUS
 62
    30
 10
2456.2606999999998
 20
965.93079499999965
 30
0.0
 11
2420.2606999999998
 21
965.93079499999965
 31
0.0
  0
LINE
  5
524
  8
SIZE
  6
CONTINUOUS
 62
    30
 10
2466.2606999999998
 20
965.93079499999965
 30
0.0
 11
2476.2606999999998
 21
965.93079499999965
 31
0.0
  0
POINT
  5
525
  8
DEFPOINTS
  6
CONTINUOUS
 62
     7
 10
2420.2606999999998
 20
880.33053099999984
 30
0.0
  0
LINE
  5
526
  8
SIZE
  6
CONTINUOUS
 62
    30
 10
2415.2606999999998
 20
880.33053099999984
 30
0.0
 11
2410.2606999999998
 21
880.33053099999984
 31
0.0
  0
CIRCLE
  5
527
  8
SIZE
  6
CONTINUOUS
 62
    30
 10
2420.2606999999998
 20
880.33053099999984
 30
0.0
 40
5.0
  0
LINE
  5
528
  8
SIZE
  6
CONTINUOUS
 62
    30
 10
2459.2606999999998
 20
880.33053099999984
 30
0.0
 11
2464.2606999999998
 21
880.33053099999984
 31
0.0
  0
CIRCLE
  5
529
  8
SIZE
  6
CONTINUOUS
 62
    30
 10
2454.2606999999998
 20
880.33053099999984
 30
0.0
 40
5.0
  0
LINE
  5
52A
  8
SIZE
  6
CONTINUOUS
 62
    30
 10
2454.2606999999998
 20
880.33053099999984
 30
0.0
 11
2420.2606999999998
 21
880.33053099999984
 31
0.0
  0
LINE
  5
52B
  8
SIZE
  6
CONTINUOUS
 62
    30
 10
2464.2606999999998
 20
880.33053099999984
 30
0.0
 11
2474.2606999999998
 21
880.33053099999984
 31
0.0
  0
TEXT
  5
52C
  8
SIZE
  6
CONTINUOUS
 62
    30
 10
2625.3026300000001
 20
825.68570957142856
 30
0.0
 40
55.0
  1
108
 50
90.0
 41
0.9
 72
     1
 11
2625.3026300000001
 21
884.61428099999989
 31
0.0
  0
LINE
  5
52D
  8
SIZE
  6
CONTINUOUS
 62
    30
 10
2643.3026300000001
 20
797.68570999999974
 30
0.0
 11
2643.3026300000001
 21
961.54285300000004
 31
0.0
  0
POINT
  5
52E
  8
DEFPOINTS
  6
CONTINUOUS
 62
     7
 10
2643.3026300000001
 20
689.68570999999997
 30
0.0
  0
LINE
  5
52F
  8
SIZE
  6
CONTINUOUS
 62
    30
 10
2643.3026300000001
 20
792.68570999999974
 30
0.0
 11
2643.3026300000001
 21
787.68570999999974
 31
0.0
  0
CIRCLE
  5
530
  8
SIZE
  6
CONTINUOUS
 62
    30
 10
2643.3026300000001
 20
797.68570999999974
 30
0.0
 40
5.0
  0
LINE
  5
531
  8
SIZE
  6
CONTINUOUS
 62
    30
 10
2643.3026300000001
 20
694.68570999999986
 30
0.0
 11
2643.3026300000001
 21
699.68570999999974
 31
0.0
  0
CIRCLE
  5
532
  8
SIZE
  6
CONTINUOUS
 62
    30
 10
2643.3026300000001
 20
689.68570999999997
 30
0.0
 40
5.0
  0
LINE
  5
533
  8
SIZE
  6
CONTINUOUS
 62
    30
 10
2643.3026300000001
 20
699.68570999999974
 30
0.0
 11
2643.3026300000001
 21
787.68570999999974
 31
0.0
  0
LINE
  5
534
  8
SIZE
  6
CONTINUOUS
 62
    30
 10
2766.9807689999998
 20
792.68570999999974
 30
0.0
 11
2766.9807689999998
 21
787.68570999999974
 31
0.0
  0
CIRCLE
  5
535
  8
SIZE
  6
CONTINUOUS
 62
    30
 10
2766.9807689999998
 20
797.68570999999974
 30
0.0
 40
5.0
  0
TEXT
  5
536
  8
SIZE
  6
CONTINUOUS
 62
    30
 10
2976.819884
 20
596.95728985714265
 30
0.0
 40
55.0
  1
265
 50
90.0
 41
0.9
 72
     1
 11
2976.819884
 21
660.60014699999977
 31
0.0
  0
LINE
  5
537
  8
SIZE
  6
CONTINUOUS
 62
    30
 10
2994.819884
 20
787.68570999999974
 30
0.0
 11
2994.819884
 21
542.68570999999986
 31
0.0
  0
LINE
  5
538
  8
SIZE
  6
CONTINUOUS
 62
    30
 10
2869.1808590000001
 20
635.46517400000005
 30
0.0
 11
2869.1808590000001
 21
751.60803099999976
 31
0.0
  0
POINT
  5
539
  8
DEFPOINTS
  6
CONTINUOUS
 62
     7
 10
2994.819884
 20
532.68570999999986
 30
0.0
  0
LINE
  5
53A
  8
SIZE
  6
CONTINUOUS
 62
    30
 10
2994.819884
 20
537.68570999999986
 30
0.0
 11
2994.819884
 21
542.68570999999986
 31
0.0
  0
CIRCLE
  5
53B
  8
SIZE
  6
CONTINUOUS
 62
    30
 10
2994.819884
 20
532.68570999999986
 30
0.0
 40
5.0
  0
LINE
  5
53C
  8
SIZE
  6
CONTINUOUS
 62
    30
 10
2994.819884
 20
792.68570999999974
 30
0.0
 11
2994.819884
 21
787.68570999999974
 31
0.0
  0
CIRCLE
  5
53D
  8
SIZE
  6
CONTINUOUS
 62
    30
 10
2994.819884
 20
797.68570999999974
 30
0.0
 40
5.0
  0
LINE
  5
53E
  8
NOTE
  6
CONTINUOUS
 62
     4
 10
2564.2222929999998
 20
1022.955794
 30
0.0
 11
2911.0361539999999
 21
1022.955794
 31
0.0
  0
TEXT
  5
53F
  8
NOTE
  6
CONTINUOUS
 62
     4
 10
2584.160883
 20
1038.782338
 30
0.0
 40
60.0
  1
D1 VP-25
 50
359.99999700000001
 41
0.7
  7
STANDARD1
  0
CIRCLE
  5
540
  8
SIZE
  6
CONTINUOUS
 62
    30
 10
2413.2606999999998
 20
1281.8481320000001
 30
0.0
 40
5.0
  0
CIRCLE
  5
541
  8
SIZE
  6
CONTINUOUS
 62
    30
 10
2436.2606999999998
 20
1281.8481320000001
 30
0.0
 40
5.0
  0
CIRCLE
  5
542
  8
SIZE
  6
CONTINUOUS
 62
    30
 10
2413.2606999999998
 20
1281.8481320000001
 30
0.0
 40
5.0
  0
POINT
  5
543
  8
DEFPOINTS
  6
CONTINUOUS
 62
     7
 10
2459.2698489999998
 20
1067.0399420000001
 30
0.0
  0
LINE
  5
544
  8
SIZE
  6
CONTINUOUS
 62
    30
 10
2415.2606999999998
 20
1067.0399420000001
 30
0.0
 11
2410.2606999999998
 21
1067.0399420000001
 31
0.0
  0
CIRCLE
  5
545
  8
SIZE
  6
CONTINUOUS
 62
    30
 10
2420.2606999999998
 20
1067.0399420000001
 30
0.0
 40
5.0
  0
LINE
  5
546
  8
SIZE
  6
CONTINUOUS
 62
    30
 10
2464.2698489999998
 20
1067.0399420000001
 30
0.0
 11
2469.2698489999998
 21
1067.0399420000001
 31
0.0
  0
CIRCLE
  5
547
  8
SIZE
  6
CONTINUOUS
 62
    30
 10
2459.2698489999998
 20
1067.0399420000001
 30
0.0
 40
5.0
  0
LINE
  5
548
  8
SIZE
  6
CONTINUOUS
 62
    30
 10
2459.2698489999998
 20
1067.0399420000001
 30
0.0
 11
2420.2606999999998
 21
1067.0399420000001
 31
0.0
  0
LINE
  5
549
  8
SIZE
  6
CONTINUOUS
 62
    30
 10
2469.2698489999998
 20
1067.0399420000001
 30
0.0
 11
2479.2698489999998
 21
1067.0399420000001
 31
0.0
  0
TEXT
  5
54A
  8
SIZE
  6
CONTINUOUS
 62
    30
 10
2474.2606995714291
 20
1182.7889070000001
 30
0.0
 40
55.0
  1
16
 41
0.9
 72
     1
 11
2508.4392710000002
 21
1182.7889070000001
 31
0.0
  0
LINE
  5
54B
  8
SIZE
  6
CONTINUOUS
 62
    30
 10
2446.2606999999998
 20
1164.7889070000001
 30
0.0
 11
2560.617843
 21
1164.7889070000001
 31
0.0
  0
LINE
  5
54C
  8
SIZE
  6
CONTINUOUS
 62
    30
 10
2415.2606999999998
 20
1164.7889070000001
 30
0.0
 11
2410.2606999999998
 21
1164.7889070000001
 31
0.0
  0
CIRCLE
  5
54D
  8
SIZE
  6
CONTINUOUS
 62
    30
 10
2420.2606999999998
 20
1164.7889070000001
 30
0.0
 40
5.0
  0
POINT
  5
54E
  8
DEFPOINTS
  6
CONTINUOUS
 62
     7
 10
2420.2606999999998
 20
1164.7889070000001
 30
0.0
  0
LINE
  5
54F
  8
SIZE
  6
CONTINUOUS
 62
    30
 10
2441.2606999999998
 20
1164.7889070000001
 30
0.0
 11
2446.2606999999998
 21
1164.7889070000001
 31
0.0
  0
CIRCLE
  5
550
  8
SIZE
  6
CONTINUOUS
 62
    30
 10
2436.2606999999998
 20
1164.7889070000001
 30
0.0
 40
5.0
  0
LINE
  5
551
  8
SIZE
  6
CONTINUOUS
 62
    30
 10
2415.2606999999998
 20
1164.7889070000001
 30
0.0
 11
2410.2606999999998
 21
1164.7889070000001
 31
0.0
  0
CIRCLE
  5
552
  8
SIZE
  6
CONTINUOUS
 62
    30
 10
2420.2606999999998
 20
1164.7889070000001
 30
0.0
 40
5.0
  0
LINE
  5
553
  8
SIZE
  6
CONTINUOUS
 62
    30
 10
2420.2606999999998
 20
1164.7889070000001
 30
0.0
 11
2436.2606999999998
 21
1164.7889070000001
 31
0.0
  0
TEXT
  5
554
  8
SIZE
  6
CONTINUOUS
 62
    30
 10
2474.2607004285719
 20
1299.8481320000001
 30
0.0
 40
55.0
  1
23
 41
0.9
 72
     1
 11
2514.3321289999999
 21
1299.8481320000001
 31
0.0
  0
LINE
  5
555
  8
SIZE
  6
CONTINUOUS
 62
    30
 10
2446.2606999999998
 20
1281.8481320000001
 30
0.0
 11
2572.4035570000001
 21
1281.8481320000001
 31
0.0
  0
POINT
  5
556
  8
DEFPOINTS
  6
CONTINUOUS
 62
     7
 10
2413.2606999999998
 20
1281.8481320000001
 30
0.0
  0
LINE
  5
557
  8
SIZE
  6
CONTINUOUS
 62
    30
 10
2441.2606999999998
 20
1281.8481320000001
 30
0.0
 11
2446.2606999999998
 21
1281.8481320000001
 31
0.0
  0
LINE
  5
558
  8
SIZE
  6
CONTINUOUS
 62
    30
 10
2413.2606999999998
 20
1281.8481320000001
 30
0.0
 11
2436.2606999999998
 21
1281.8481320000001
 31
0.0
  0
LINE
  5
559
  8
SIZE
  6
CONTINUOUS
 62
    30
 10
2431.2606999999998
 20
1393.835484
 30
0.0
 11
2426.2606999999998
 21
1393.835484
 31
0.0
  0
CIRCLE
  5
55A
  8
SIZE
  6
CONTINUOUS
 62
    30
 10
2436.2606999999998
 20
1393.835484
 30
0.0
 40
5.0
  0
ENDBLK
  5
55C
  8
0
 62
     7
  0
ENDSEC
  0
SECTION
  2
ENTITIES
  0
LINE
  5
55F
  8
SIZE
  6
CONTINUOUS
 62
    30
 10
590.0
 20
-178.809889
 30
0.0
 11
-590.0
 21
-178.809889
 31
0.0
  0
TEXT
  5
560
  8
SIZE
  6
CONTINUOUS
 62
    30
 10
-347.20714285714268
 20
933.56718399999988
 30
0.0
 40
55.0
  1
1146(吊りボルトピッチ)
 41
0.9
 72
     1
 11
0.0
 21
933.56718399999988
 31
0.0
  0
LINE
  5
561
  8
SIZE
  6
CONTINUOUS
 62
    30
 10
563.0
 20
917.16242199999988
 30
0.0
 11
-563.0
 21
917.16242199999988
 31
0.0
  0
LINE
  5
562
  8
SIZE
  6
CONTINUOUS
 62
    30
 10
570.0
 20
800.10319699999968
 30
0.0
 11
-570.0
 21
800.10319699999968
 31
0.0
  0
LINE
  5
563
  8
OUTLINE
  6
CONTINUOUS
 62
     3
 10
-580.0
 20
47.0
 30
0.0
 11
580.0
 21
47.0
 31
0.0
  0
LINE
  5
564
  8
OUTLINE
  6
CONTINUOUS
 62
     3
 10
-566.52999999999997
 20
-8.0
 30
0.0
 11
566.52999999999997
 21
-8.0
 31
0.0
  0
LINE
  5
565
  8
SIZE
  6
CONTINUOUS
 62
    30
 10
610.0
 20
-325.06746199999998
 30
0.0
 11
-610.0
 21
-325.06746199999998
 31
0.0
  0
LINE
  5
566
  8
OUTLINE
  6
CONTINUOUS
 62
     3
 10
-580.0
 20
140.0
 30
0.0
 11
580.0
 21
140.0
 31
0.0
  0
LINE
  5
567
  8
OUTLINE
  6
CONTINUOUS
 62
     3
 10
580.0
 20
433.0
 30
0.0
 11
-580.0
 21
433.0
 31
0.0
  0
LINE
  5
569
  8
SIZE
  6
CONTINUOUS
 62
    30
 10
586.0
 20
1029.149774
 30
0.0
 11
-586.0
 21
1029.149774
 31
0.0
  0
LINE
  5
56A
  8
DETAIL
  6
CONTINUOUS
 62
     5
 10
591.70000000000005
 20
433.0
 30
0.0
 11
-591.70000000000005
 21
433.0
 31
0.0
  0
LINE
  5
56B
  8
DETAIL
  6
CONTINUOUS
 62
     5
 10
591.70000000000005
 20
433.0
 30
0.0
 11
-591.70000000000005
 21
433.0
 31
0.0
  0
LINE
  5
56C
  8
DETAIL
  6
CONTINUOUS
 62
     5
 10
562.0
 20
155.0
 30
0.0
 11
-562.0
 21
155.0
 31
0.0
  0
LINE
  5
56D
  8
DETAIL
  6
CONTINUOUS
 62
     5
 10
580.0
 20
140.0
 30
0.0
 11
-580.0
 21
140.0
 31
0.0
  0
LINE
  5
570
  8
DETAIL
  6
CONTINUOUS
 62
     5
 10
-580.0
 20
47.0
 30
0.0
 11
580.0
 21
47.0
 31
0.0
  0
LINE
  5
571
  8
DETAIL
  6
CONTINUOUS
 62
     5
 10
-566.52999999999997
 20
-8.0
 30
0.0
 11
566.52999999999997
 21
-8.0
 31
0.0
  0
CIRCLE
  5
573
  8
SIZE
  6
CONTINUOUS
 62
    30
 10
-1066.156178
 20
0.0
 30
0.0
 40
5.0
  0
LINE
  5
574
  8
SIZE
  6
CONTINUOUS
 62
    30
 10
-1066.156178
 20
0.0
 30
0.0
 11
-1066.156178
 21
-364.68571400000002
 31
0.0
  0
CIRCLE
  5
575
  8
SIZE
  6
CONTINUOUS
 62
    30
 10
-841.64437799999985
 20
0.0
 30
0.0
 40
5.0
  0
LINE
  5
576
  8
SIZE
  6
CONTINUOUS
 62
    30
 10
-841.64437799999985
 20
23.5
 30
0.0
 11
-942.66763999999989
 21
-17.519043
 31
0.0
  0
CIRCLE
  5
577
  8
SIZE
  6
CONTINUOUS
 62
    30
 10
-841.64437799999985
 20
0.0
 30
0.0
 40
5.0
  0
LINE
  5
578
  8
SIZE
  6
CONTINUOUS
 62
    30
 10
-841.64437799999985
 20
0.0
 30
0.0
 11
-841.64437799999985
 21
-8.0
 31
0.0
  0
TEXT
  5
579
  8
SIZE
  6
CONTINUOUS
 62
    30
 10
-1255.632816
 20
-318.56126399999999
 30
0.0
 40
55.0
  1
パネル直付時
 50
90.0
 41
0.9
 72
     1
 11
-1255.632816
 21
-146.961264
 31
0.0
  0
LINE
  5
57A
  8
OUTLINE
  6
CONTINUOUS
 62
     3
 10
-620.0
 20
-4.0065080000000002
 30
0.0
 11
-620.0
 21
0.0
 31
0.0
  0
LINE
  5
57B
  8
DETAIL
  6
CONTINUOUS
 62
     5
 10
-620.0
 20
-4.0065080000000002
 30
0.0
 11
-620.0
 21
0.0
 31
0.0
  0
POLYLINE
  5
57C
  8
SIZE
  6
CONTINUOUS
 62
    30
 66
     1
 10
0.0
 20
0.0
 30
0.0
  0
VERTEX
  5
9ED
  8
SIZE
  6
CONTINUOUS
 62
    30
 10
-1331.82528
 20
-311.99995799999999
 30
0.0
 42
0.186174
  0
VERTEX
  5
9EE
  8
SIZE
  6
CONTINUOUS
 62
    30
 10
-1322.975432
 20
-332.94944600000002
 30
0.0
 42
0.082105
  0
VERTEX
  5
9EF
  8
SIZE
  6
CONTINUOUS
 62
    30
 10
-1307.2729300000001
 20
-345.12400700000001
 30
0.0
 42
0.058826
  0
VERTEX
  5
9F0
  8
SIZE
  6
CONTINUOUS
 62
    30
 10
-1285.4868719999999
 20
-353.898934
 30
0.0
 42
0.067494
  0
VERTEX
  5
9F1
  8
SIZE
  6
CONTINUOUS
 62
    30
 10
-1247.9983119999999
 20
-358.84443800000008
 30
0.0
 42
0.067494
  0
VERTEX
  5
9F2
  8
SIZE
  6
CONTINUOUS
 62
    30
 10
-1210.5097519999999
 20
-353.898934
 30
0.0
 42
0.058826
  0
VERTEX
  5
9F3
  8
SIZE
  6
CONTINUOUS
 62
    30
 10
-1188.723694
 20
-345.12400700000001
 30
0.0
 42
0.082105
  0
VERTEX
  5
9F4
  8
SIZE
  6
CONTINUOUS
 62
    30
 10
-1173.0211919999999
 20
-332.94944600000002
 30
0.0
 42
0.186174
  0
VERTEX
  5
9F5
  8
SIZE
  6
CONTINUOUS
 62
    30
 10
-1164.1713440000001
 20
-311.99995799999999
 30
0.0
 42
0.186174
  0
VERTEX
  5
9F6
  8
SIZE
  6
CONTINUOUS
 62
    30
 10
-1164.1713440000001
 20
-311.99995799999999
 30
0.0
 42
0.186174
  0
SEQEND
  5
9F7
  8
SIZE
  6
CONTINUOUS
 62
    30
  0
TEXT
  5
588
  8
SIZE
  6
CONTINUOUS
 62
    30
 10
-1171.8830370000001
 20
-261.70261271428569
 30
0.0
 40
55.0
  1
50～60
 50
90.0
 41
0.9
 72
     1
 11
-1171.8830370000001
 21
-144.78832700000001
 31
0.0
  0
LINE
  5
589
  8
SIZE
  6
CONTINUOUS
 62
    30
 10
-586.52999999999975
 20
-8.0
 30
0.0
 11
-871.64437799999985
 21
-8.0
 31
0.0
  0
LINE
  5
58A
  8
SIZE
  6
CONTINUOUS
 62
    30
 10
-788.61538799999983
 20
-178.809889
 30
0.0
 11
-620.0
 21
-178.809889
 31
0.0
  0
TEXT
  5
58B
  8
SIZE
  6
CONTINUOUS
 62
    30
 10
-1084.156178
 20
-346.68571414285719
 30
0.0
 40
55.0
  1
140～300
 50
90.0
 41
0.9
 72
     1
 11
-1084.156178
 21
-187.34285700000001
 31
0.0
  0
TEXT
  5
58C
  8
SIZE
  6
CONTINUOUS
 62
    30
 10
-960.66763999999989
 20
-115.6619005714285
 30
0.0
 40
55.0
  1
47
 50
90.0
 41
0.9
 72
     1
 11
-960.66763999999989
 21
-75.590471999999977
 31
0.0
  0
TEXT
  5
58D
  8
SIZE
  6
CONTINUOUS
 62
    30
 10
-859.64437799999985
 20
-79.0
 30
0.0
 40
55.0
  1
8
 50
90.0
 41
0.9
 72
     1
 11
-859.64437799999985
 21
-62.5
 31
0.0
  0
LINE
  5
58E
  8
SIZE
  6
CONTINUOUS
 62
    30
 10
-942.66763999999989
 20
-17.519043
 30
0.0
 11
-942.66763999999989
 21
-133.6619
 31
0.0
  0
LINE
  5
58F
  8
SIZE
  6
CONTINUOUS
 62
    30
 10
-841.64437799999985
 20
-5.0
 30
0.0
 11
-841.64437799999985
 21
-10.0
 31
0.0
  0
LINE
  5
590
  8
SIZE
  6
CONTINUOUS
 62
    30
 10
-841.64437799999985
 20
-10.0
 30
0.0
 11
-841.64437799999985
 21
-20.0
 31
0.0
  0
LINE
  5
591
  8
SIZE
  6
CONTINUOUS
 62
    30
 10
-841.64437799999985
 20
-13.0
 30
0.0
 11
-841.64437799999985
 21
-18.0
 31
0.0
  0
CIRCLE
  5
592
  8
SIZE
  6
CONTINUOUS
 62
    30
 10
-841.64437799999985
 20
-8.0
 30
0.0
 40
5.0
  0
LINE
  5
593
  8
SIZE
  6
CONTINUOUS
 62
    30
 10
-841.64437799999985
 20
-18.0
 30
0.0
 11
-841.64437799999985
 21
-97.0
 31
0.0
  0
LINE
  5
594
  8
SIZE
  6
CONTINUOUS
 62
    30
 10
-620.0
 20
-24.006508
 30
0.0
 11
-620.0
 21
-355.06746200000009
 31
0.0
  0
POINT
  5
595
  8
DEFPOINTS
  6
CONTINUOUS
 62
     7
 10
-620.0
 20
-325.06746199999998
 30
0.0
  0
LINE
  5
596
  8
SIZE
  6
CONTINUOUS
 62
    30
 10
-615.0
 20
-325.06746199999998
 30
0.0
 11
-610.0
 21
-325.06746199999998
 31
0.0
  0
CIRCLE
  5
597
  8
SIZE
  6
CONTINUOUS
 62
    30
 10
-620.0
 20
-325.06746199999998
 30
0.0
 40
5.0
  0
TEXT
  5
598
  8
SIZE
  6
CONTINUOUS
 62
    30
 10
-770.61538857142841
 20
-160.809889
 30
0.0
 40
55.0
  1
20
 41
0.9
 72
     1
 11
-730.54395999999986
 21
-160.809889
 31
0.0
  0
LINE
  5
599
  8
SIZE
  6
CONTINUOUS
 62
    30
 10
-620.0
 20
-24.006508
 30
0.0
 11
-620.0
 21
-208.809889
 31
0.0
  0
LINE
  5
59A
  8
SIZE
  6
CONTINUOUS
 62
    30
 10
-600.0
 20
-19.0
 30
0.0
 11
-600.0
 21
-208.809889
 31
0.0
  0
LINE
  5
59B
  8
SIZE
  6
CONTINUOUS
 62
    30
 10
-600.0
 20
-19.0
 30
0.0
 11
-600.0
 21
-208.809889
 31
0.0
  0
POINT
  5
59C
  8
DEFPOINTS
  6
CONTINUOUS
 62
     7
 10
-620.0
 20
-178.809889
 30
0.0
  0
LINE
  5
59D
  8
SIZE
  6
CONTINUOUS
 62
    30
 10
-625.0
 20
-178.809889
 30
0.0
 11
-630.0
 21
-178.809889
 31
0.0
  0
CIRCLE
  5
59E
  8
SIZE
  6
CONTINUOUS
 62
    30
 10
-620.0
 20
-178.809889
 30
0.0
 40
5.0
  0
LINE
  5
59F
  8
SIZE
  6
CONTINUOUS
 62
    30
 10
-595.0
 20
-178.809889
 30
0.0
 11
-590.0
 21
-178.809889
 31
0.0
  0
CIRCLE
  5
5A0
  8
SIZE
  6
CONTINUOUS
 62
    30
 10
-600.0
 20
-178.809889
 30
0.0
 40
5.0
  0
LINE
  5
5A1
  8
SIZE
  6
CONTINUOUS
 62
    30
 10
-600.0
 20
-178.809889
 30
0.0
 11
-620.0
 21
-178.809889
 31
0.0
  0
LINE
  5
5A2
  8
SIZE
  6
CONTINUOUS
 62
    30
 10
-600.0
 20
-178.809889
 30
0.0
 11
-620.0
 21
-178.809889
 31
0.0
  0
LINE
  5
5A3
  8
SIZE
  6
CONTINUOUS
 62
    30
 10
-630.0
 20
-178.809889
 30
0.0
 11
-640.0
 21
-178.809889
 31
0.0
  0
LINE
  5
5A4
  8
SIZE
  6
CONTINUOUS
 62
    30
 10
-590.0
 20
-178.809889
 30
0.0
 11
-580.0
 21
-178.809889
 31
0.0
  0
POINT
  5
5A5
  8
DEFPOINTS
  6
CONTINUOUS
 62
     7
 10
-600.0
 20
-178.809889
 30
0.0
  0
LINE
  5
5A6
  8
SIZE
  6
CONTINUOUS
 62
    30
 10
-595.0
 20
-178.809889
 30
0.0
 11
-590.0
 21
-178.809889
 31
0.0
  0
CIRCLE
  5
5A7
  8
SIZE
  6
CONTINUOUS
 62
    30
 10
-600.0
 20
-178.809889
 30
0.0
 40
5.0
  0
POINT
  5
5A8
  8
DEFPOINTS
  6
CONTINUOUS
 62
     7
 10
-566.52999999999997
 20
-8.0
 30
0.0
  0
POINT
  5
5A9
  8
DEFPOINTS
  6
CONTINUOUS
 62
     7
 10
-620.0
 20
-4.0065080000000002
 30
0.0
  0
LINE
  5
5AA
  8
OUTLINE
  6
CONTINUOUS
 62
     3
 10
-566.52999999999997
 20
-8.0
 30
0.0
 11
-620.0
 21
-4.0065080000000002
 31
0.0
  0
POINT
  5
5AB
  8
DEFPOINTS
  6
CONTINUOUS
 62
     7
 10
-620.0
 20
-4.0065080000000002
 30
0.0
  0
LINE
  5
5AC
  8
DETAIL
  6
CONTINUOUS
 62
     5
 10
-566.52999999999997
 20
-8.0
 30
0.0
 11
-620.0
 21
-4.0065080000000002
 31
0.0
  0
POLYLINE
  5
5AD
  8
SIZE
  6
CONTINUOUS
 62
    30
 66
     1
 10
0.0
 20
0.0
 30
0.0
  0
VERTEX
  5
9F8
  8
SIZE
  6
CONTINUOUS
 62
    30
 10
-1164.1713440000001
 20
15.745668
 30
0.0
 42
0.186174
  0
VERTEX
  5
9F9
  8
SIZE
  6
CONTINUOUS
 62
    30
 10
-1173.0211919999999
 20
36.695155999999997
 30
0.0
 42
0.082105
  0
VERTEX
  5
9FA
  8
SIZE
  6
CONTINUOUS
 62
    30
 10
-1188.723694
 20
48.869717000000001
 30
0.0
 42
0.058826
  0
VERTEX
  5
9FB
  8
SIZE
  6
CONTINUOUS
 62
    30
 10
-1210.5097519999999
 20
57.644643999999992
 30
0.0
 42
0.067494
  0
VERTEX
  5
9FC
  8
SIZE
  6
CONTINUOUS
 62
    30
 10
-1247.9983119999999
 20
62.59014699999998
 30
0.0
 42
0.067494
  0
VERTEX
  5
9FD
  8
SIZE
  6
CONTINUOUS
 62
    30
 10
-1285.4868719999999
 20
57.644643999999992
 30
0.0
 42
0.058826
  0
VERTEX
  5
9FE
  8
SIZE
  6
CONTINUOUS
 62
    30
 10
-1307.2729300000001
 20
48.869717000000001
 30
0.0
 42
0.082105
  0
VERTEX
  5
9FF
  8
SIZE
  6
CONTINUOUS
 62
    30
 10
-1322.975432
 20
36.695155999999997
 30
0.0
 42
0.186174
  0
VERTEX
  5
A00
  8
SIZE
  6
CONTINUOUS
 62
    30
 10
-1331.82528
 20
15.745668
 30
0.0
 42
0.186174
  0
SEQEND
  5
A01
  8
SIZE
  6
CONTINUOUS
 62
    30
  0
TEXT
  5
5B8
  8
ETC
  6
CONTINUOUS
 62
    61
 10
413.3488240976256
 20
1134.608387737517
 30
0.0
 40
80.0
  1
PDZ-KP71_90FM_3
 50
359.99999700000001
 41
0.8
  0
LINE
  5
5B9
  8
NOTE
  6
CONTINUOUS
 62
     4
 10
-1396.918234
 20
622.67806900000005
 30
0.0
 11
-683.90362500000003
 21
622.67806900000005
 31
0.0
  0
TEXT
  5
5BA
  8
NOTE
  6
CONTINUOUS
 62
     4
 10
-1399.9788960000001
 20
638.50462999999979
 30
0.0
 40
60.0
  1
AH 4-14×30長穴(M10)
 50
359.99999700000001
 41
0.7
  7
STANDARD1
  0
LINE
  5
5BB
  8
SIZE
  6
CONTINUOUS
 62
    30
 10
-596.0
 20
447.10000000000002
 30
0.0
 11
-596.0
 21
947.16242199999999
 31
0.0
  0
LINE
  5
5BC
  8
SIZE
  6
CONTINUOUS
 62
    30
 10
-573.0
 20
467.99516599999993
 30
0.0
 11
-573.0
 21
947.16242199999999
 31
0.0
  0
LINE
  5
5BD
  8
SIZE
  6
CONTINUOUS
 62
    30
 10
-573.0
 20
467.99516599999993
 30
0.0
 11
-573.0
 21
947.16242199999999
 31
0.0
  0
LINE
  5
5BF
  8
SIZE
  6
CONTINUOUS
 62
    30
 10
-580.0
 20
453.0
 30
0.0
 11
-580.0
 21
830.10319700000002
 31
0.0
  0
LINE
  5
5C0
  8
SIZE
  6
CONTINUOUS
 62
    30
 10
-580.0
 20
453.0
 30
0.0
 11
-580.0
 21
830.10319700000002
 31
0.0
  0
LINE
  5
5C1
  8
NOTE
  6
CONTINUOUS
 62
     4
 10
-683.90362500000003
 20
622.67806900000005
 30
0.0
 11
-573.000046
 21
432.99997000000002
 31
0.0
  0
LINE
  5
5C2
  8
SIZE
  6
CONTINUOUS
 62
    30
 10
-596.0
 20
447.10000000000002
 30
0.0
 11
-596.0
 21
1059.149774
 31
0.0
  0
LINE
  5
5C3
  8
SIZE
  6
CONTINUOUS
 62
    30
 10
-639.75868600000001
 20
0.0
 30
0.0
 11
-1096.156178
 21
0.0
 31
0.0
  0
LINE
  5
5C4
  8
SIZE
  6
CONTINUOUS
 62
    30
 10
-599.75868600000001
 20
140.0
 30
0.0
 11
-1096.156178
 21
140.0
 31
0.0
  0
LINE
  5
5C5
  8
SIZE
  6
CONTINUOUS
 62
    30
 10
-600.0
 20
47.0
 30
0.0
 11
-871.64437799999985
 21
47.0
 31
0.0
  0
LINE
  5
5C6
  8
SIZE
  6
CONTINUOUS
 62
    30
 10
-640.0
 20
0.0
 30
0.0
 11
-871.64437799999985
 21
0.0
 31
0.0
  0
LINE
  5
5C7
  8
SIZE
  6
CONTINUOUS
 62
    30
 10
-640.0
 20
0.0
 30
0.0
 11
-871.64437799999985
 21
0.0
 31
0.0
  0
LINE
  5
5C8
  8
SIZE
  6
CONTINUOUS
 62
    30
 10
-611.70000000000005
 20
433.0
 30
0.0
 11
-1096.156178
 21
433.0
 31
0.0
  0
LINE
  5
5C9
  8
SIZE
  6
CONTINUOUS
 62
    30
 10
-600.0
 20
140.0
 30
0.0
 11
-1096.156178
 21
140.0
 31
0.0
  0
TEXT
  5
5CA
  8
SIZE
  6
CONTINUOUS
 62
    30
 10
-1084.156178
 20
222.85714285714289
 30
0.0
 40
55.0
  1
293
 50
90.0
 41
0.9
 72
     1
 11
-1084.156178
 21
286.5
 31
0.0
  0
LINE
  5
5CB
  8
SIZE
  6
CONTINUOUS
 62
    30
 10
-1066.156178
 20
150.0
 30
0.0
 11
-1066.156178
 21
423.0
 31
0.0
  0
POINT
  5
5CC
  8
DEFPOINTS
  6
CONTINUOUS
 62
     7
 10
-1066.156178
 20
0.0
 30
0.0
  0
LINE
  5
5CD
  8
SIZE
  6
CONTINUOUS
 62
    30
 10
-1066.156178
 20
5.0
 30
0.0
 11
-1066.156178
 21
10.0
 31
0.0
  0
LINE
  5
5CE
  8
SIZE
  6
CONTINUOUS
 62
    30
 10
-1066.156178
 20
135.0
 30
0.0
 11
-1066.156178
 21
130.0
 31
0.0
  0
CIRCLE
  5
5CF
  8
SIZE
  6
CONTINUOUS
 62
    30
 10
-1066.156178
 20
140.0
 30
0.0
 40
5.0
  0
LINE
  5
5D0
  8
SIZE
  6
CONTINUOUS
 62
    30
 10
-1066.156178
 20
130.0
 30
0.0
 11
-1066.156178
 21
10.0
 31
0.0
  0
LINE
  5
5D1
  8
SIZE
  6
CONTINUOUS
 62
    30
 10
-1066.156178
 20
145.0
 30
0.0
 11
-1066.156178
 21
150.0
 31
0.0
  0
CIRCLE
  5
5D2
  8
SIZE
  6
CONTINUOUS
 62
    30
 10
-1066.156178
 20
140.0
 30
0.0
 40
5.0
  0
POINT
  5
5D3
  8
DEFPOINTS
  6
CONTINUOUS
 62
     7
 10
-841.64437799999985
 20
47.0
 30
0.0
  0
LINE
  5
5D4
  8
SIZE
  6
CONTINUOUS
 62
    30
 10
-841.64437799999985
 20
52.0
 30
0.0
 11
-841.64437799999985
 21
57.0
 31
0.0
  0
CIRCLE
  5
5D5
  8
SIZE
  6
CONTINUOUS
 62
    30
 10
-841.64437799999985
 20
47.0
 30
0.0
 40
5.0
  0
LINE
  5
5D6
  8
SIZE
  6
CONTINUOUS
 62
    30
 10
-841.64437799999985
 20
0.0
 30
0.0
 11
-841.64437799999985
 21
47.0
 31
0.0
  0
LINE
  5
5D7
  8
SIZE
  6
CONTINUOUS
 62
    30
 10
-841.64437799999985
 20
0.0
 30
0.0
 11
-841.64437799999985
 21
47.0
 31
0.0
  0
LINE
  5
5D8
  8
SIZE
  6
CONTINUOUS
 62
    30
 10
-841.64437799999985
 20
57.0
 30
0.0
 11
-841.64437799999985
 21
67.0
 31
0.0
  0
POINT
  5
5D9
  8
DEFPOINTS
  6
CONTINUOUS
 62
     7
 10
-841.64437799999985
 20
0.0
 30
0.0
  0
LINE
  5
5DA
  8
SIZE
  6
CONTINUOUS
 62
    30
 10
-841.64437799999985
 20
5.0
 30
0.0
 11
-841.64437799999985
 21
10.0
 31
0.0
  0
LINE
  5
5DB
  8
SIZE
  6
CONTINUOUS
 62
    30
 10
-841.64437799999985
 20
10.0
 30
0.0
 11
-841.64437799999985
 21
20.0
 31
0.0
  0
POINT
  5
5DC
  8
DEFPOINTS
  6
CONTINUOUS
 62
     7
 10
-1066.156178
 20
433.0
 30
0.0
  0
LINE
  5
5DD
  8
SIZE
  6
CONTINUOUS
 62
    30
 10
-1066.156178
 20
428.0
 30
0.0
 11
-1066.156178
 21
423.0
 31
0.0
  0
CIRCLE
  5
5DE
  8
SIZE
  6
CONTINUOUS
 62
    30
 10
-1066.156178
 20
433.0
 30
0.0
 40
5.0
  0
LINE
  5
5DF
  8
SIZE
  6
CONTINUOUS
 62
    30
 10
-596.0
 20
407.26831523418502
 30
0.0
 11
-596.0
 21
28.769508999999999
 31
0.0
  0
LINE
  5
5E0
  8
OUTLINE
  6
CONTINUOUS
 62
     3
 10
-580.0
 20
433.0
 30
0.0
 11
-580.0
 21
140.0
 31
0.0
  0
TEXT
  5
5E2
  8
SIZE
  6
CONTINUOUS
 62
    30
 10
-558.00000042857141
 20
76.769508999999999
 30
0.0
 40
55.0
  1
4
 41
0.9
 72
     1
 11
-540.32142899999997
 21
76.769508999999999
 31
0.0
  0
LINE
  5
5E3
  8
SIZE
  6
CONTINUOUS
 62
    30
 10
-586.0
 20
58.769508999999999
 30
0.0
 11
-504.64285699999988
 21
58.769508999999999
 31
0.0
  0
LINE
  5
5E4
  8
DETAIL
  6
CONTINUOUS
 62
     5
 10
-580.0
 20
222.19999999999999
 30
0.0
 11
-580.0
 21
140.0
 31
0.0
  0
LINE
  5
5E5
  8
DETAIL
  6
CONTINUOUS
 62
     5
 10
-580.0
 20
433.0
 30
0.0
 11
-580.0
 21
140.80000000000001
 31
0.0
  0
LINE
  5
5E7
  8
DETAIL
  6
CONTINUOUS
 62
     5
 10
-565.0
 20
152.0
 30
0.0
 11
-565.0
 21
140.0
 31
0.0
  0
LINE
  5
5E9
  8
NOTE
  6
CONTINUOUS
 62
     4
 10
-651.04244000000006
 20
1.0
 30
0.0
 11
-671.04244000000006
 21
21.0
 31
0.0
  0
LINE
  5
5EA
  8
NOTE
  6
CONTINUOUS
 62
     4
 10
-656.04244000000017
 20
1.0
 30
0.0
 11
-676.04244000000006
 21
21.0
 31
0.0
  0
LINE
  5
5EB
  8
NOTE
  6
CONTINUOUS
 62
     4
 10
-661.04244000000017
 20
1.0
 30
0.0
 11
-681.04244000000017
 21
21.0
 31
0.0
  0
LINE
  5
5EC
  8
NOTE
  6
CONTINUOUS
 62
     4
 10
-600.0
 20
1.0
 30
0.0
 11
-701.30744900000002
 21
1.0
 31
0.0
  0
LINE
  5
5ED
  8
NOTE
  6
CONTINUOUS
 62
     4
 10
-600.0
 20
21.0
 30
0.0
 11
-701.30744900000002
 21
21.0
 31
0.0
  0
POINT
  5
5F0
  8
DEFPOINTS
  6
CONTINUOUS
 62
     7
 10
-580.0
 20
47.0
 30
0.0
  0
POINT
  5
5F3
  8
DEFPOINTS
  6
CONTINUOUS
 62
     7
 10
-596.0
 20
58.769508999999999
 30
0.0
  0
POINT
  5
5F4
  8
DEFPOINTS
  6
CONTINUOUS
 62
     7
 10
-600.0
 20
21.0
 30
0.0
  0
LINE
  5
5F5
  8
SIZE
  6
CONTINUOUS
 62
    30
 10
-591.0
 20
58.769508999999999
 30
0.0
 11
-586.0
 21
58.769508999999999
 31
0.0
  0
CIRCLE
  5
5F6
  8
SIZE
  6
CONTINUOUS
 62
    30
 10
-596.0
 20
58.769508999999999
 30
0.0
 40
5.0
  0
LINE
  5
5F7
  8
SIZE
  6
CONTINUOUS
 62
    30
 10
-605.0
 20
58.769508999999999
 30
0.0
 11
-610.0
 21
58.769508999999999
 31
0.0
  0
CIRCLE
  5
5F8
  8
SIZE
  6
CONTINUOUS
 62
    30
 10
-600.0
 20
58.769508999999999
 30
0.0
 40
5.0
  0
LINE
  5
5F9
  8
SIZE
  6
CONTINUOUS
 62
    30
 10
-600.0
 20
58.769508999999999
 30
0.0
 11
-596.0
 21
58.769508999999999
 31
0.0
  0
LINE
  5
5FA
  8
SIZE
  6
CONTINUOUS
 62
    30
 10
-610.0
 20
58.769508999999999
 30
0.0
 11
-620.0
 21
58.769508999999999
 31
0.0
  0
LINE
  5
5FB
  8
SIZE
  6
CONTINUOUS
 62
    30
 10
-600.0
 20
41.0
 30
0.0
 11
-600.0
 21
88.769508999999999
 31
0.0
  0
POINT
  5
5FC
  8
DEFPOINTS
  6
CONTINUOUS
 62
     7
 10
-600.0
 20
1.0
 30
0.0
  0
POINT
  5
5FD
  8
DEFPOINTS
  6
CONTINUOUS
 62
     7
 10
-600.0
 20
1.0
 30
0.0
  0
LINE
  5
600
  8
OUTLINE
  6
CONTINUOUS
 62
     3
 10
-580.0
 20
0.0
 30
0.0
 11
-580.0
 21
47.0
 31
0.0
  0
LINE
  5
602
  8
NOTE
  6
CONTINUOUS
 62
     4
 10
-611.04244000000017
 20
1.0
 30
0.0
 11
-631.04244000000017
 21
21.0
 31
0.0
  0
LINE
  5
603
  8
NOTE
  6
CONTINUOUS
 62
     4
 10
-616.04244000000006
 20
1.0
 30
0.0
 11
-636.04244000000017
 21
21.0
 31
0.0
  0
LINE
  5
604
  8
NOTE
  6
CONTINUOUS
 62
     4
 10
-621.04244000000006
 20
1.0
 30
0.0
 11
-641.04244000000006
 21
21.0
 31
0.0
  0
LINE
  5
605
  8
NOTE
  6
CONTINUOUS
 62
     4
 10
-600.0
 20
1.0
 30
0.0
 11
-600.0
 21
21.0
 31
0.0
  0
LINE
  5
608
  8
DETAIL
  6
CONTINUOUS
 62
     5
 10
-580.0
 20
0.0
 30
0.0
 11
-580.0
 21
47.0
 31
0.0
  0
LINE
  5
609
  8
DETAIL
  6
CONTINUOUS
 62
     5
 10
-565.0
 20
152.0
 30
0.0
 11
-562.0
 21
155.0
 31
0.0
  0
LINE
  5
60B
  8
NOTE
  6
CONTINUOUS
 62
     4
 10
-573.00036099999977
 20
433.0004689999999
 30
0.0
 11
-582.01126699999975
 21
466.18409800000001
 31
0.0
  0
LINE
  5
60C
  8
NOTE
  6
CONTINUOUS
 62
     4
 10
-573.00036099999977
 20
433.0004689999999
 30
0.0
 11
-597.39585
 21
457.23288200000002
 31
0.0
  0
POINT
  5
60D
  8
DEFPOINTS
  6
CONTINUOUS
 62
     7
 10
-596.0
 20
428.69999999999987
 30
0.0
  0
POINT
  5
60E
  8
DEFPOINTS
  6
CONTINUOUS
 62
     7
 10
-573.0
 20
447.99516599999998
 30
0.0
  0
POINT
  5
60F
  8
DEFPOINTS
  6
CONTINUOUS
 62
     7
 10
-573.0
 20
447.99516599999998
 30
0.0
  0
POINT
  5
610
  8
DEFPOINTS
  6
CONTINUOUS
 62
     7
 10
-596.0
 20
428.69999999999987
 30
0.0
  0
POINT
  5
611
  8
DEFPOINTS
  6
CONTINUOUS
 62
     7
 10
-580.0
 20
433.0
 30
0.0
  0
POINT
  5
612
  8
DEFPOINTS
  6
CONTINUOUS
 62
     7
 10
-580.0
 20
433.0
 30
0.0
  0
POINT
  5
613
  8
DEFPOINTS
  6
CONTINUOUS
 62
     7
 10
-591.70000000000005
 20
433.0
 30
0.0
  0
CIRCLE
  5
614
  8
FIX
  6
CONTINUOUS
 62
    11
 10
-573.0
 20
433.0
 30
0.0
 40
12.421498
  0
LINE
  5
615
  8
NOTE
  6
CONTINUOUS
 62
     4
 10
-573.0
 20
418.00483399999979
 30
0.0
 11
-573.0
 21
447.99516599999998
 31
0.0
  0
LINE
  5
616
  8
NOTE
  6
CONTINUOUS
 62
     4
 10
-587.99516600000004
 20
433.0
 30
0.0
 11
-558.00483399999985
 21
433.0
 31
0.0
  0
LINE
  5
618
  8
DETAIL
  6
CONTINUOUS
 62
     5
 10
-580.0
 20
430.69999999999999
 30
0.0
 11
-591.70000000000005
 21
430.69999999999999
 31
0.0
  0
LINE
  5
61A
  8
DETAIL
  6
CONTINUOUS
 62
     5
 10
-593.70000000000016
 20
421.0
 30
0.0
 11
-596.0
 21
421.0
 31
0.0
  0
LINE
  5
61B
  8
DETAIL
  6
CONTINUOUS
 62
     5
 10
-593.70000000000016
 20
428.69999999999987
 30
0.0
 11
-593.70000000000016
 21
421.0
 31
0.0
  0
ARC
  5
61C
  8
DETAIL
  6
CONTINUOUS
 62
     5
 10
-591.70000000000005
 20
428.69999999999987
 30
0.0
 40
2.0
 50
90.0
 51
180.0
  0
LINE
  5
61D
  8
DETAIL
  6
CONTINUOUS
 62
     5
 10
-596.0
 20
428.69999999999987
 30
0.0
 11
-596.0
 21
421.0
 31
0.0
  0
ARC
  5
61E
  8
DETAIL
  6
CONTINUOUS
 62
     5
 10
-591.70000000000005
 20
428.69999999999987
 30
0.0
 40
4.299999999999998
 50
90.0
 51
180.0
  0
POINT
  5
628
  8
DEFPOINTS
  6
CONTINUOUS
 62
     7
 10
-596.0
 20
528.0
 30
0.0
  0
CIRCLE
  5
629
  8
SIZE
  6
CONTINUOUS
 62
    30
 10
-596.0
 20
917.16242199999988
 30
0.0
 40
5.0
  0
CIRCLE
  5
62A
  8
SIZE
  6
CONTINUOUS
 62
    30
 10
-573.0
 20
917.16242199999988
 30
0.0
 40
5.0
  0
CIRCLE
  5
62B
  8
SIZE
  6
CONTINUOUS
 62
    30
 10
-573.0
 20
917.16242199999988
 30
0.0
 40
5.0
  0
TEXT
  5
62C
  8
SIZE
  6
CONTINUOUS
 62
    30
 10
-696.41503042857141
 20
813.82723699999985
 30
0.0
 40
55.0
  1
16
 41
0.9
 72
     1
 11
-662.23645899999997
 21
813.82723699999985
 31
0.0
  0
POINT
  5
62D
  8
DEFPOINTS
  6
CONTINUOUS
 62
     7
 10
-596.0
 20
800.10319699999968
 30
0.0
  0
LINE
  5
62E
  8
SIZE
  6
CONTINUOUS
 62
    30
 10
-601.0
 20
800.10319699999968
 30
0.0
 11
-606.0
 21
800.10319699999968
 31
0.0
  0
CIRCLE
  5
62F
  8
SIZE
  6
CONTINUOUS
 62
    30
 10
-596.0
 20
800.10319699999968
 30
0.0
 40
5.0
  0
LINE
  5
630
  8
SIZE
  6
CONTINUOUS
 62
    30
 10
-575.0
 20
800.10319699999968
 30
0.0
 11
-570.0
 21
800.10319699999968
 31
0.0
  0
CIRCLE
  5
631
  8
SIZE
  6
CONTINUOUS
 62
    30
 10
-580.0
 20
800.10319699999968
 30
0.0
 40
5.0
  0
LINE
  5
632
  8
SIZE
  6
CONTINUOUS
 62
    30
 10
-580.0
 20
800.10319699999968
 30
0.0
 11
-596.0
 21
800.10319699999968
 31
0.0
  0
LINE
  5
633
  8
SIZE
  6
CONTINUOUS
 62
    30
 10
-606.0
 20
800.10319699999968
 30
0.0
 11
-616.0
 21
800.10319699999968
 31
0.0
  0
LINE
  5
634
  8
SIZE
  6
CONTINUOUS
 62
    30
 10
-570.0
 20
800.10319699999968
 30
0.0
 11
-560.0
 21
800.10319699999968
 31
0.0
  0
POINT
  5
635
  8
DEFPOINTS
  6
CONTINUOUS
 62
     7
 10
-580.0
 20
800.10319699999968
 30
0.0
  0
LINE
  5
636
  8
SIZE
  6
CONTINUOUS
 62
    30
 10
-575.0
 20
800.10319699999968
 30
0.0
 11
-570.0
 21
800.10319699999968
 31
0.0
  0
CIRCLE
  5
637
  8
SIZE
  6
CONTINUOUS
 62
    30
 10
-580.0
 20
800.10319699999968
 30
0.0
 40
5.0
  0
TEXT
  5
638
  8
SIZE
  6
CONTINUOUS
 62
    30
 10
-718.65615857142859
 20
935.16242199999988
 30
0.0
 40
55.0
  1
23
 41
0.9
 72
     1
 11
-678.58473000000004
 21
935.16242199999988
 31
0.0
  0
LINE
  5
639
  8
SIZE
  6
CONTINUOUS
 62
    30
 10
-736.65615899999989
 20
917.16242199999988
 30
0.0
 11
-596.0
 21
917.16242199999988
 31
0.0
  0
POINT
  5
63A
  8
DEFPOINTS
  6
CONTINUOUS
 62
     7
 10
-596.0
 20
917.16242199999988
 30
0.0
  0
LINE
  5
63B
  8
SIZE
  6
CONTINUOUS
 62
    30
 10
-601.0
 20
917.16242199999988
 30
0.0
 11
-606.0
 21
917.16242199999988
 31
0.0
  0
LINE
  5
63C
  8
SIZE
  6
CONTINUOUS
 62
    30
 10
-568.0
 20
917.16242199999988
 30
0.0
 11
-563.0
 21
917.16242199999988
 31
0.0
  0
LINE
  5
63D
  8
SIZE
  6
CONTINUOUS
 62
    30
 10
-573.0
 20
917.16242199999988
 30
0.0
 11
-596.0
 21
917.16242199999988
 31
0.0
  0
LINE
  5
63E
  8
SIZE
  6
CONTINUOUS
 62
    30
 10
-573.0
 20
917.16242199999988
 30
0.0
 11
-596.0
 21
917.16242199999988
 31
0.0
  0
LINE
  5
63F
  8
SIZE
  6
CONTINUOUS
 62
    30
 10
-606.0
 20
917.16242199999988
 30
0.0
 11
-616.0
 21
917.16242199999988
 31
0.0
  0
LINE
  5
640
  8
SIZE
  6
CONTINUOUS
 62
    30
 10
-563.0
 20
917.16242199999988
 30
0.0
 11
-553.0
 21
917.16242199999988
 31
0.0
  0
POINT
  5
641
  8
DEFPOINTS
  6
CONTINUOUS
 62
     7
 10
-573.0
 20
917.16242199999988
 30
0.0
  0
LINE
  5
642
  8
SIZE
  6
CONTINUOUS
 62
    30
 10
-568.0
 20
917.16242199999988
 30
0.0
 11
-563.0
 21
917.16242199999988
 31
0.0
  0
POINT
  5
643
  8
DEFPOINTS
  6
CONTINUOUS
 62
     7
 10
-596.0
 20
1029.149774
 30
0.0
  0
LINE
  5
644
  8
SIZE
  6
CONTINUOUS
 62
    30
 10
-591.0
 20
1029.149774
 30
0.0
 11
-586.0
 21
1029.149774
 31
0.0
  0
CIRCLE
  5
645
  8
SIZE
  6
CONTINUOUS
 62
    30
 10
-596.0
 20
1029.149774
 30
0.0
 40
5.0
  0
LINE
  5
646
  8
BASIS
  6
DASHDOT
 62
     6
 10
0.0
 20
468.57171299999987
 30
0.0
 11
0.0
 21
-53.886170999999997
 31
0.0
  0
CIRCLE
  5
647
  8
ARRANGE
  6
CONTINUOUS
 62
     1
 10
0.0
 20
0.0
 30
0.0
 40
50.0
  0
LINE
  5
648
  8
OUTLINE
  6
CONTINUOUS
 62
     3
 10
620.0
 20
-4.0065080000000002
 30
0.0
 11
620.0
 21
0.0
 31
0.0
  0
LINE
  5
649
  8
ARRANGE
  6
CONTINUOUS
 62
     1
 10
-49.963763
 20
49.596595000000001
 30
0.0
 11
49.963763
 21
-49.596595000000001
 31
0.0
  0
LINE
  5
64A
  8
ARRANGE
  6
CONTINUOUS
 62
     1
 10
-50.037350000000004
 20
-49.522353000000003
 30
0.0
 11
50.037350000000004
 21
49.522353000000003
 31
0.0
  0
LINE
  5
64B
  8
NOTE
  6
CONTINUOUS
 62
     4
 10
764.79390199999989
 20
-138.18777399999999
 30
0.0
 11
580.0
 21
168.0
 31
0.0
  0
LINE
  5
64C
  8
DETAIL
  6
CONTINUOUS
 62
     5
 10
620.0
 20
-4.0065080000000002
 30
0.0
 11
620.0
 21
0.0
 31
0.0
  0
LINE
  5
64D
  8
OUTLINE
  6
CONTINUOUS
 62
     3
 10
620.0
 20
-4.0065080000000002
 30
0.0
 11
566.52999999999997
 21
-8.0
 31
0.0
  0
LINE
  5
64E
  8
DETAIL
  6
CONTINUOUS
 62
     5
 10
620.0
 20
-4.0065080000000002
 30
0.0
 11
566.52999999999997
 21
-8.0
 31
0.0
  0
TEXT
  5
64F
  8
SIZE
  6
CONTINUOUS
 62
    30
 10
-307.37142857142862
 20
-160.809889
 30
0.0
 40
55.0
  1
1200（天井開口寸法）
 41
0.9
 72
     1
 11
0.0
 21
-160.809889
 31
0.0
  0
TEXT
  5
650
  8
SIZE
  6
CONTINUOUS
 62
    30
 10
-77.930354000000023
 20
-307.06746200000009
 30
0.0
 40
55.0
  1
1240
 41
0.9
 72
     1
 11
4.5696459999999979
 21
-307.06746200000009
 31
0.0
  0
LINE
  5
651
  8
NOTE
  6
CONTINUOUS
 62
     4
 10
1194.1831790000001
 20
-138.18777399999999
 30
0.0
 11
764.79390199999989
 21
-138.18777399999999
 31
0.0
  0
TEXT
  5
652
  8
NOTE
  6
CONTINUOUS
 62
     4
 10
780.92765099999986
 20
-122.361243
 30
0.0
 40
60.0
  1
D2（自然排水口）
 50
0.000003
 41
0.7
  7
STANDARD1
  0
LINE
  5
653
  8
SIZE
  6
CONTINUOUS
 62
    30
 10
620.0
 20
-24.006508
 30
0.0
 11
620.0
 21
-355.06746200000009
 31
0.0
  0
LINE
  5
654
  8
SIZE
  6
CONTINUOUS
 62
    30
 10
615.0
 20
-325.06746199999998
 30
0.0
 11
610.0
 21
-325.06746199999998
 31
0.0
  0
CIRCLE
  5
655
  8
SIZE
  6
CONTINUOUS
 62
    30
 10
620.0
 20
-325.06746199999998
 30
0.0
 40
5.0
  0
LINE
  5
656
  8
SIZE
  6
CONTINUOUS
 62
    30
 10
600.0
 20
-19.0
 30
0.0
 11
600.0
 21
-208.809889
 31
0.0
  0
TEXT
  5
657
  8
SIZE
  6
CONTINUOUS
 62
    30
 10
658.0000004285713
 20
-160.809889
 30
0.0
 40
55.0
  1
20
 41
0.9
 72
     1
 11
698.07142899999985
 21
-160.809889
 31
0.0
  0
LINE
  5
658
  8
SIZE
  6
CONTINUOUS
 62
    30
 10
600.0
 20
-19.0
 30
0.0
 11
600.0
 21
-208.809889
 31
0.0
  0
LINE
  5
659
  8
SIZE
  6
CONTINUOUS
 62
    30
 10
620.0
 20
-24.006508
 30
0.0
 11
620.0
 21
-208.809889
 31
0.0
  0
LINE
  5
65A
  8
SIZE
  6
CONTINUOUS
 62
    30
 10
630.0
 20
-178.809889
 30
0.0
 11
756.14285700000005
 21
-178.809889
 31
0.0
  0
LINE
  5
65B
  8
SIZE
  6
CONTINUOUS
 62
    30
 10
595.0
 20
-178.809889
 30
0.0
 11
590.0
 21
-178.809889
 31
0.0
  0
CIRCLE
  5
65C
  8
SIZE
  6
CONTINUOUS
 62
    30
 10
600.0
 20
-178.809889
 30
0.0
 40
5.0
  0
POINT
  5
65D
  8
DEFPOINTS
  6
CONTINUOUS
 62
     7
 10
600.0
 20
-178.809889
 30
0.0
  0
LINE
  5
65E
  8
SIZE
  6
CONTINUOUS
 62
    30
 10
625.0
 20
-178.809889
 30
0.0
 11
630.0
 21
-178.809889
 31
0.0
  0
CIRCLE
  5
65F
  8
SIZE
  6
CONTINUOUS
 62
    30
 10
620.0
 20
-178.809889
 30
0.0
 40
5.0
  0
LINE
  5
660
  8
SIZE
  6
CONTINUOUS
 62
    30
 10
595.0
 20
-178.809889
 30
0.0
 11
590.0
 21
-178.809889
 31
0.0
  0
CIRCLE
  5
661
  8
SIZE
  6
CONTINUOUS
 62
    30
 10
600.0
 20
-178.809889
 30
0.0
 40
5.0
  0
LINE
  5
662
  8
SIZE
  6
CONTINUOUS
 62
    30
 10
600.0
 20
-178.809889
 30
0.0
 11
620.0
 21
-178.809889
 31
0.0
  0
LINE
  5
663
  8
SIZE
  6
CONTINUOUS
 62
    30
 10
590.0
 20
-178.809889
 30
0.0
 11
580.0
 21
-178.809889
 31
0.0
  0
POINT
  5
664
  8
DEFPOINTS
  6
CONTINUOUS
 62
     7
 10
620.0
 20
-4.0065080000000002
 30
0.0
  0
POINT
  5
665
  8
DEFPOINTS
  6
CONTINUOUS
 62
     7
 10
620.0
 20
-4.0065080000000002
 30
0.0
  0
LINE
  5
666
  8
SIZE
  6
CONTINUOUS
 62
    30
 10
586.0
 20
58.769508999999999
 30
0.0
 11
504.64285699999988
 21
58.769508999999999
 31
0.0
  0
LINE
  5
667
  8
SIZE
  6
CONTINUOUS
 62
    30
 10
570.0
 20
601.24508500000002
 30
0.0
 11
446.21428600000002
 21
601.24508500000002
 31
0.0
  0
LINE
  5
668
  8
SIZE
  6
CONTINUOUS
 62
    30
 10
568.0
 20
917.16242199999988
 30
0.0
 11
563.0
 21
917.16242199999988
 31
0.0
  0
LINE
  5
669
  8
SIZE
  6
CONTINUOUS
 62
    30
 10
568.0
 20
917.16242199999988
 30
0.0
 11
563.0
 21
917.16242199999988
 31
0.0
  0
LINE
  5
66A
  8
SIZE
  6
CONTINUOUS
 62
    30
 10
570.0
 20
800.10319699999968
 30
0.0
 11
560.0
 21
800.10319699999968
 31
0.0
  0
LINE
  5
66B
  8
SIZE
  6
CONTINUOUS
 62
    30
 10
570.0
 20
702.35423200000002
 30
0.0
 11
446.21428600000002
 21
702.35423200000002
 31
0.0
  0
LINE
  5
66C
  8
SIZE
  6
CONTINUOUS
 62
    30
 10
570.0
 20
515.64482099999987
 30
0.0
 11
441.5
 21
515.64482099999987
 31
0.0
  0
LINE
  5
66D
  8
NOTE
  6
CONTINUOUS
 62
     4
 10
932.20608437763428
 20
508.32731105219119
 30
0.0
 11
622.0
 21
261.0
 31
0.0
  0
CIRCLE
  5
66E
  8
FIX
  6
CONTINUOUS
 62
    11
 10
573.0
 20
433.0
 30
0.0
 40
12.421498
  0
TEXT
  5
670
  8
NOTE
  6
CONTINUOUS
 62
     4
 10
949.04439437763426
 20
524.15385505219115
 30
0.0
 40
60.0
  1
RL %%C9.52
 50
359.99999700000001
 41
0.7
  7
STANDARD1
  0
LINE
  5
671
  8
NOTE
  6
CONTINUOUS
 62
     4
 10
932.20608437763428
 20
508.32731105219119
 30
0.0
 11
1275.9196653776339
 21
508.32731105219119
 31
0.0
  0
LINE
  5
672
  8
DETAIL
  6
CONTINUOUS
 62
     5
 10
565.0
 20
152.0
 30
0.0
 11
565.0
 21
140.0
 31
0.0
  0
TEXT
  5
674
  8
SIZE
  6
CONTINUOUS
 62
    30
 10
522.64285757142852
 20
76.769508999999999
 30
0.0
 40
55.0
  1
4
 41
0.9
 72
     1
 11
540.32142899999997
 21
76.769508999999999
 31
0.0
  0
LINE
  5
675
  8
DETAIL
  6
CONTINUOUS
 62
     5
 10
562.0
 20
155.0
 30
0.0
 11
565.0
 21
152.0
 31
0.0
  0
TEXT
  5
677
  8
SIZE
  6
CONTINUOUS
 62
    30
 10
459.49999999999989
 20
533.64482099999987
 30
0.0
 40
55.0
  1
34
 41
0.9
 72
     1
 11
500.75
 21
533.64482099999987
 31
0.0
  0
TEXT
  5
678
  8
SIZE
  6
CONTINUOUS
 62
    30
 10
-77.785714285714292
 20
818.10319700000014
 30
0.0
 40
55.0
  1
1160
 41
0.9
 72
     1
 11
0.0
 21
818.10319700000014
 31
0.0
  0
TEXT
  5
679
  8
SIZE
  6
CONTINUOUS
 62
    30
 10
-75.635249285714281
 20
1047.149774
 30
0.0
 40
55.0
  1
1192
 41
0.9
 72
     1
 11
2.1504650000000001
 21
1047.149774
 31
0.0
  0
TEXT
  5
67A
  8
SIZE
  6
CONTINUOUS
 62
    30
 10
463.0357144285714
 20
720.35423200000002
 30
0.0
 40
55.0
  1
52
 41
0.9
 72
     1
 11
503.10714299999989
 21
720.35423200000002
 31
0.0
  0
TEXT
  5
67B
  8
SIZE
  6
CONTINUOUS
 62
    30
 10
463.0357144285714
 20
619.24508500000002
 30
0.0
 40
55.0
  1
42
 41
0.9
 72
     1
 11
503.10714299999989
 21
619.24508500000002
 31
0.0
  0
LINE
  5
67C
  8
SIZE
  6
CONTINUOUS
 62
    30
 10
563.0
 20
917.16242199999988
 30
0.0
 11
553.0
 21
917.16242199999988
 31
0.0
  0
LINE
  5
67D
  8
SIZE
  6
CONTINUOUS
 62
    30
 10
580.0
 20
453.0
 30
0.0
 11
580.0
 21
631.24508500000002
 31
0.0
  0
LINE
  5
67E
  8
SIZE
  6
CONTINUOUS
 62
    30
 10
622.0
 20
271.11457297454399
 30
0.0
 11
622.0
 21
631.24508500000002
 31
0.0
  0
LINE
  5
67F
  8
SIZE
  6
CONTINUOUS
 62
    30
 10
573.0
 20
467.99516599999993
 30
0.0
 11
573.0
 21
947.16242199999999
 31
0.0
  0
LINE
  5
680
  8
SIZE
  6
CONTINUOUS
 62
    30
 10
573.0
 20
467.99516599999993
 30
0.0
 11
573.0
 21
947.16242199999999
 31
0.0
  0
LINE
  5
681
  8
SIZE
  6
CONTINUOUS
 62
    30
 10
596.0
 20
447.10000000000002
 30
0.0
 11
596.0
 21
947.16242199999999
 31
0.0
  0
LINE
  5
682
  8
SIZE
  6
CONTINUOUS
 62
    30
 10
580.0
 20
453.0
 30
0.0
 11
580.0
 21
830.10319700000002
 31
0.0
  0
LINE
  5
683
  8
SIZE
  6
CONTINUOUS
 62
    30
 10
580.0
 20
453.0
 30
0.0
 11
580.0
 21
830.10319700000002
 31
0.0
  0
LINE
  5
684
  8
SIZE
  6
CONTINUOUS
 62
    30
 10
596.0
 20
447.10000000000002
 30
0.0
 11
596.0
 21
830.10319700000002
 31
0.0
  0
LINE
  5
685
  8
SIZE
  6
CONTINUOUS
 62
    30
 10
632.00914899999998
 20
248.82571642141551
 30
0.0
 11
632.00914899999998
 21
732.35423200000002
 31
0.0
  0
LINE
  5
686
  8
SIZE
  6
CONTINUOUS
 62
    30
 10
580.0
 20
453.0
 30
0.0
 11
580.0
 21
732.35423200000002
 31
0.0
  0
LINE
  5
687
  8
NOTE
  6
CONTINUOUS
 62
     4
 10
723.96159299999999
 20
658.270084
 30
0.0
 11
614.0
 21
325.0
 31
0.0
  0
LINE
  5
688
  8
SIZE
  6
CONTINUOUS
 62
    30
 10
596.0
 20
447.10000000000002
 30
0.0
 11
596.0
 21
1059.149774
 31
0.0
  0
LINE
  5
689
  8
NOTE
  6
CONTINUOUS
 62
     4
 10
794.78506800000002
 20
14.295113000000001
 30
0.0
 11
1166.3159479999999
 21
14.295113000000001
 31
0.0
  0
TEXT
  5
68A
  8
NOTE
  6
CONTINUOUS
 62
     4
 10
809.95870500000001
 20
30.121656999999999
 30
0.0
 40
60.0
  1
RG %%C15.88
 50
359.99999700000001
 41
0.7
  7
STANDARD1
  0
LINE
  5
68B
  8
SIZE
  6
CONTINUOUS
 62
    30
 10
605.49085100000002
 20
168.0
 30
0.0
 11
1184.559184
 21
168.0
 31
0.0
  0
LINE
  5
68C
  8
SIZE
  6
CONTINUOUS
 62
    30
 10
611.70000000000005
 20
433.0
 30
0.0
 11
1184.559184
 21
433.0
 31
0.0
  0
LINE
  5
68D
  8
SIZE
  6
CONTINUOUS
 62
    30
 10
926.72006899999985
 20
247.0
 30
0.0
 11
1028.920159
 21
270.77946400000002
 31
0.0
  0
LINE
  5
68E
  8
SIZE
  6
CONTINUOUS
 62
    30
 10
596.0
 20
416.39173329607348
 30
0.0
 11
596.0
 21
28.769508999999999
 31
0.0
  0
TEXT
  5
68F
  8
SIZE
  6
CONTINUOUS
 62
    30
 10
1010.920159
 20
288.77946342857149
 30
0.0
 40
55.0
  1
28
 50
90.0
 41
0.9
 72
     1
 11
1010.920159
 21
328.85089199999999
 31
0.0
  0
TEXT
  5
690
  8
SIZE
  6
CONTINUOUS
 62
    30
 10
908.72006899999985
 20
288.07142857142861
 30
0.0
 40
55.0
  1
172
 50
90.0
 41
0.9
 72
     1
 11
908.72006899999985
 21
347.0
 31
0.0
  0
LINE
  5
691
  8
SIZE
  6
CONTINUOUS
 62
    30
 10
926.72006899999985
 20
423.0
 30
0.0
 11
926.72006899999985
 21
271.0
 31
0.0
  0
LINE
  5
696
  8
SIZE
  6
CONTINUOUS
 62
    30
 10
647.25914899999998
 20
233.0
 30
0.0
 11
956.72006899999985
 21
233.0
 31
0.0
  0
LINE
  5
697
  8
SIZE
  6
CONTINUOUS
 62
    30
 10
644.5
 20
261.0
 30
0.0
 11
956.72006899999985
 21
261.0
 31
0.0
  0
LINE
  5
698
  8
SIZE
  6
CONTINUOUS
 62
    30
 10
644.5
 20
261.0
 30
0.0
 11
956.72006899999985
 21
261.0
 31
0.0
  0
LINE
  5
699
  8
NOTE
  6
CONTINUOUS
 62
     4
 10
580.0
 20
168.0
 30
0.0
 11
591.03413399999999
 21
135.43318300000001
 31
0.0
  0
LINE
  5
69A
  8
NOTE
  6
CONTINUOUS
 62
     4
 10
580.0
 20
168.0
 30
0.0
 11
605.839249
 21
145.31337600000001
 31
0.0
  0
LINE
  5
69B
  8
NOTE
  6
CONTINUOUS
 62
     4
 10
794.78506800000002
 20
14.295113000000001
 30
0.0
 11
632.0
 21
233.0
 31
0.0
  0
LINE
  5
69F
  8
NOTE
  6
CONTINUOUS
 62
     4
 10
600.0
 20
1.0
 30
0.0
 11
701.30744900000002
 21
1.0
 31
0.0
  0
LINE
  5
6A0
  8
NOTE
  6
CONTINUOUS
 62
     4
 10
600.0
 20
21.0
 30
0.0
 11
701.30744900000002
 21
21.0
 31
0.0
  0
LINE
  5
6A1
  8
NOTE
  6
CONTINUOUS
 62
     4
 10
690.26500799999985
 20
1.0
 30
0.0
 11
670.26500799999985
 21
21.0
 31
0.0
  0
LINE
  5
6A2
  8
NOTE
  6
CONTINUOUS
 62
     4
 10
685.26500799999997
 20
1.0
 30
0.0
 11
665.26500799999985
 21
21.0
 31
0.0
  0
LINE
  5
6A3
  8
NOTE
  6
CONTINUOUS
 62
     4
 10
680.26500799999985
 20
1.0
 30
0.0
 11
660.26500799999997
 21
21.0
 31
0.0
  0
POINT
  5
6A4
  8
DEFPOINTS
  6
CONTINUOUS
 62
     7
 10
596.0
 20
58.769508999999999
 30
0.0
  0
POINT
  5
6A5
  8
DEFPOINTS
  6
CONTINUOUS
 62
     7
 10
600.0
 20
21.0
 30
0.0
  0
LINE
  5
6A6
  8
SIZE
  6
CONTINUOUS
 62
    30
 10
591.0
 20
58.769508999999999
 30
0.0
 11
586.0
 21
58.769508999999999
 31
0.0
  0
CIRCLE
  5
6A7
  8
SIZE
  6
CONTINUOUS
 62
    30
 10
596.0
 20
58.769508999999999
 30
0.0
 40
5.0
  0
LINE
  5
6A8
  8
SIZE
  6
CONTINUOUS
 62
    30
 10
605.0
 20
58.769508999999999
 30
0.0
 11
610.0
 21
58.769508999999999
 31
0.0
  0
CIRCLE
  5
6A9
  8
SIZE
  6
CONTINUOUS
 62
    30
 10
600.0
 20
58.769508999999999
 30
0.0
 40
5.0
  0
LINE
  5
6AA
  8
SIZE
  6
CONTINUOUS
 62
    30
 10
600.0
 20
58.769508999999999
 30
0.0
 11
596.0
 21
58.769508999999999
 31
0.0
  0
LINE
  5
6AB
  8
SIZE
  6
CONTINUOUS
 62
    30
 10
610.0
 20
58.769508999999999
 30
0.0
 11
620.0
 21
58.769508999999999
 31
0.0
  0
LINE
  5
6AC
  8
SIZE
  6
CONTINUOUS
 62
    30
 10
600.0
 20
41.0
 30
0.0
 11
600.0
 21
88.769508999999999
 31
0.0
  0
POINT
  5
6AD
  8
DEFPOINTS
  6
CONTINUOUS
 62
     7
 10
600.0
 20
1.0
 30
0.0
  0
POINT
  5
6AE
  8
DEFPOINTS
  6
CONTINUOUS
 62
     7
 10
600.0
 20
1.0
 30
0.0
  0
LINE
  5
6AF
  8
OUTLINE
  6
CONTINUOUS
 62
     3
 10
580.0
 20
0.0
 30
0.0
 11
580.0
 21
47.0
 31
0.0
  0
LINE
  5
6B0
  8
OUTLINE
  6
CONTINUOUS
 62
     3
 10
-620.0
 20
0.0
 30
0.0
 11
620.0
 21
0.0
 31
0.0
  0
LINE
  5
6B1
  8
NOTE
  6
CONTINUOUS
 62
     4
 10
600.0
 20
1.0
 30
0.0
 11
600.0
 21
21.0
 31
0.0
  0
LINE
  5
6B2
  8
NOTE
  6
CONTINUOUS
 62
     4
 10
650.26500799999985
 20
1.0
 30
0.0
 11
630.26500799999985
 21
21.0
 31
0.0
  0
LINE
  5
6B3
  8
NOTE
  6
CONTINUOUS
 62
     4
 10
645.26500799999985
 20
1.0
 30
0.0
 11
625.26500799999985
 21
21.0
 31
0.0
  0
LINE
  5
6B4
  8
NOTE
  6
CONTINUOUS
 62
     4
 10
640.26500799999985
 20
1.0
 30
0.0
 11
620.26500799999985
 21
21.0
 31
0.0
  0
LINE
  5
6B5
  8
DETAIL
  6
CONTINUOUS
 62
     5
 10
580.0
 20
0.0
 30
0.0
 11
580.0
 21
47.0
 31
0.0
  0
LINE
  5
6B6
  8
DETAIL
  6
CONTINUOUS
 62
     5
 10
-620.0
 20
0.0
 30
0.0
 11
620.0
 21
0.0
 31
0.0
  0
POINT
  5
6B7
  8
DEFPOINTS
  6
CONTINUOUS
 62
     7
 10
632.0
 20
244.25
 30
0.0
  0
POINT
  5
6B8
  8
DEFPOINTS
  6
CONTINUOUS
 62
     7
 10
622.00914899999987
 20
261.0
 30
0.0
  0
LINE
  5
6B9
  8
NOTE
  6
CONTINUOUS
 62
     4
 10
616.5
 20
261.0
 30
0.0
 11
627.49999999999977
 21
261.0
 31
0.0
  0
LINE
  5
6BA
  8
NOTE
  6
CONTINUOUS
 62
     4
 10
622.00914899999987
 20
266.49999200000002
 30
0.0
 11
622.00914899999987
 21
255.50000800000001
 31
0.0
  0
LINE
  5
6BB
  8
NOTE
  6
CONTINUOUS
 62
     4
 10
622.00914899999987
 20
261.0
 30
0.0
 11
652.29282185577995
 21
277.28646265030341
 31
0.0
  0
LINE
  5
6BC
  8
NOTE
  6
CONTINUOUS
 62
     4
 10
622.00914899999987
 20
261.0
 30
0.0
 11
640.09234679533586
 21
290.24632659219952
 31
0.0
  0
LINE
  5
6C1
  8
DETAIL
  6
CONTINUOUS
 62
     5
 10
619.00914899999975
 20
250.5
 30
0.0
 11
606.00914899999975
 21
250.5
 31
0.0
  0
LINE
  5
6C2
  8
DETAIL
  6
CONTINUOUS
 62
     5
 10
618.00914899999987
 20
255.5
 30
0.0
 11
605.00914899999987
 21
255.5
 31
0.0
  0
LINE
  5
6C3
  8
DETAIL
  6
CONTINUOUS
 62
     5
 10
622.00914899999987
 20
255.5
 30
0.0
 11
622.00914899999987
 21
266.5
 31
0.0
  0
LINE
  5
6C4
  8
DETAIL
  6
CONTINUOUS
 62
     5
 10
622.00914899999987
 20
255.5
 30
0.0
 11
619.00914899999975
 21
250.5
 31
0.0
  0
LINE
  5
6C5
  8
DETAIL
  6
CONTINUOUS
 62
     5
 10
605.00914899999987
 20
251.5
 30
0.0
 11
606.00914899999975
 21
250.5
 31
0.0
  0
LINE
  5
6C6
  8
DETAIL
  6
CONTINUOUS
 62
     5
 10
603.00914899999975
 20
252.5
 30
0.0
 11
602.00914899999975
 21
251.5
 31
0.0
  0
LINE
  5
6C7
  8
DETAIL
  6
CONTINUOUS
 62
     5
 10
618.00914899999987
 20
255.5
 30
0.0
 11
619.00914899999975
 21
256.5
 31
0.0
  0
LINE
  5
6C8
  8
DETAIL
  6
CONTINUOUS
 62
     5
 10
618.00914899999987
 20
255.5
 30
0.0
 11
619.00914899999975
 21
254.5
 31
0.0
  0
LINE
  5
6C9
  8
DETAIL
  6
CONTINUOUS
 62
     5
 10
605.00914899999987
 20
256.25
 30
0.0
 11
603.00914899999975
 21
256.25
 31
0.0
  0
LINE
  5
6CA
  8
DETAIL
  6
CONTINUOUS
 62
     5
 10
603.00914899999975
 20
252.5
 30
0.0
 11
603.00914899999975
 21
269.5
 31
0.0
  0
LINE
  5
6CB
  8
DETAIL
  6
CONTINUOUS
 62
     5
 10
605.00914899999987
 20
251.5
 30
0.0
 11
605.00914899999987
 21
270.5
 31
0.0
  0
LINE
  5
6CC
  8
DETAIL
  6
CONTINUOUS
 62
     5
 10
619.00914899999975
 20
271.5
 30
0.0
 11
606.00914899999975
 21
271.5
 31
0.0
  0
LINE
  5
6CD
  8
DETAIL
  6
CONTINUOUS
 62
     5
 10
619.00914899999975
 20
250.5
 30
0.0
 11
619.00914899999975
 21
271.5
 31
0.0
  0
LINE
  5
6CE
  8
DETAIL
  6
CONTINUOUS
 62
     5
 10
618.00914899999987
 20
266.5
 30
0.0
 11
605.00914899999987
 21
266.5
 31
0.0
  0
LINE
  5
6CF
  8
DETAIL
  6
CONTINUOUS
 62
     5
 10
622.00914899999987
 20
266.5
 30
0.0
 11
619.00914899999975
 21
271.5
 31
0.0
  0
LINE
  5
6D0
  8
DETAIL
  6
CONTINUOUS
 62
     5
 10
606.00914899999975
 20
271.5
 30
0.0
 11
605.00914899999987
 21
270.5
 31
0.0
  0
LINE
  5
6D1
  8
DETAIL
  6
CONTINUOUS
 62
     5
 10
603.00914899999975
 20
269.5
 30
0.0
 11
602.00914899999975
 21
270.5
 31
0.0
  0
LINE
  5
6D2
  8
DETAIL
  6
CONTINUOUS
 62
     5
 10
618.00914899999987
 20
266.5
 30
0.0
 11
619.00914899999975
 21
267.5
 31
0.0
  0
LINE
  5
6D3
  8
DETAIL
  6
CONTINUOUS
 62
     5
 10
618.00914899999987
 20
266.5
 30
0.0
 11
619.00914899999975
 21
265.5
 31
0.0
  0
LINE
  5
6D4
  8
DETAIL
  6
CONTINUOUS
 62
     5
 10
605.00914899999987
 20
265.75
 30
0.0
 11
603.00914899999975
 21
265.75
 31
0.0
  0
LINE
  5
6D5
  8
DETAIL
  6
CONTINUOUS
 62
     5
 10
603.00914899999975
 20
266.5
 30
0.0
 11
580.0
 21
266.5
 31
0.0
  0
LINE
  5
6D6
  8
DETAIL
  6
CONTINUOUS
 62
     5
 10
602.00914899999975
 20
270.5
 30
0.0
 11
580.0
 21
270.5
 31
0.0
  0
LINE
  5
6D7
  8
DETAIL
  6
CONTINUOUS
 62
     5
 10
602.00914899999975
 20
251.5
 30
0.0
 11
580.0
 21
251.5
 31
0.0
  0
LINE
  5
6D9
  8
DETAIL
  6
CONTINUOUS
 62
     5
 10
603.00914899999975
 20
255.5
 30
0.0
 11
580.0
 21
255.5
 31
0.0
  0
POINT
  5
6ED
  8
DEFPOINTS
  6
CONTINUOUS
 62
     7
 10
585.49085100000002
 20
168.0
 30
0.0
  0
POINT
  5
6EE
  8
DEFPOINTS
  6
CONTINUOUS
 62
     7
 10
643.25914899999998
 20
233.0
 30
0.0
  0
POINT
  5
6EF
  8
DEFPOINTS
  6
CONTINUOUS
 62
     7
 10
627.49999999999977
 20
261.0
 30
0.0
  0
POINT
  5
6F0
  8
DEFPOINTS
  6
CONTINUOUS
 62
     7
 10
627.49999999999977
 20
261.0
 30
0.0
  0
LINE
  5
6F1
  8
NOTE
  6
CONTINUOUS
 62
     4
 10
574.49085100000002
 20
168.0
 30
0.0
 11
585.49085100000002
 21
168.0
 31
0.0
  0
LINE
  5
6F2
  8
NOTE
  6
CONTINUOUS
 62
     4
 10
580.0
 20
173.49999199999999
 30
0.0
 11
580.0
 21
162.50000800000001
 31
0.0
  0
LINE
  5
6F3
  8
NOTE
  6
CONTINUOUS
 62
     4
 10
620.75914899999975
 20
233.0
 30
0.0
 11
643.25914899999998
 21
233.0
 31
0.0
  0
LINE
  5
6F4
  8
NOTE
  6
CONTINUOUS
 62
     4
 10
632.0
 20
244.24999600000001
 30
0.0
 11
632.0
 21
221.75000399999999
 31
0.0
  0
LINE
  5
6F5
  8
NOTE
  6
CONTINUOUS
 62
     4
 10
632.0
 20
233.0
 30
0.0
 11
646.40562099999977
 21
201.77776800000001
 31
0.0
  0
LINE
  5
6F6
  8
NOTE
  6
CONTINUOUS
 62
     4
 10
632.0
 20
233.0
 30
0.0
 11
660.08675000000005
 21
213.16356500000001
 31
0.0
  0
LINE
  5
6F7
  8
DETAIL
  6
CONTINUOUS
 62
     5
 10
632.0
 20
244.25
 30
0.0
 11
632.0
 21
221.75
 31
0.0
  0
LINE
  5
6F8
  8
DETAIL
  6
CONTINUOUS
 62
     5
 10
580.0
 20
221.5
 30
0.0
 11
607.00914899999975
 21
221.5
 31
0.0
  0
LINE
  5
6F9
  8
DETAIL
  6
CONTINUOUS
 62
     5
 10
580.0
 20
244.5
 30
0.0
 11
607.00914899999975
 21
244.5
 31
0.0
  0
LINE
  5
6FA
  8
DETAIL
  6
CONTINUOUS
 62
     5
 10
627.00914899999975
 20
226.0
 30
0.0
 11
629.00914899999998
 21
224.0
 31
0.0
  0
LINE
  5
6FB
  8
DETAIL
  6
CONTINUOUS
 62
     5
 10
627.00914899999975
 20
226.0
 30
0.0
 11
629.00914899999998
 21
224.0
 31
0.0
  0
LINE
  5
6FC
  8
DETAIL
  6
CONTINUOUS
 62
     5
 10
627.00914899999975
 20
226.0
 30
0.0
 11
629.00914899999998
 21
228.0
 31
0.0
  0
LINE
  5
6FD
  8
DETAIL
  6
CONTINUOUS
 62
     5
 10
627.00914899999975
 20
226.0
 30
0.0
 11
629.00914899999998
 21
228.0
 31
0.0
  0
LINE
  5
6FE
  8
DETAIL
  6
CONTINUOUS
 62
     5
 10
627.00914899999975
 20
240.0
 30
0.0
 11
629.00914899999998
 21
238.0
 31
0.0
  0
LINE
  5
6FF
  8
DETAIL
  6
CONTINUOUS
 62
     5
 10
627.00914899999975
 20
240.0
 30
0.0
 11
629.00914899999998
 21
238.0
 31
0.0
  0
LINE
  5
700
  8
DETAIL
  6
CONTINUOUS
 62
     5
 10
627.00914899999975
 20
240.0
 30
0.0
 11
629.00914899999998
 21
242.0
 31
0.0
  0
LINE
  5
701
  8
DETAIL
  6
CONTINUOUS
 62
     5
 10
627.00914899999975
 20
240.0
 30
0.0
 11
629.00914899999998
 21
242.0
 31
0.0
  0
LINE
  5
702
  8
DETAIL
  6
CONTINUOUS
 62
     5
 10
615.00914899999975
 20
240.0
 30
0.0
 11
613.00914899999975
 21
242.0
 31
0.0
  0
LINE
  5
703
  8
DETAIL
  6
CONTINUOUS
 62
     5
 10
615.00914899999975
 20
240.0
 30
0.0
 11
613.00914899999975
 21
242.0
 31
0.0
  0
LINE
  5
704
  8
DETAIL
  6
CONTINUOUS
 62
     5
 10
615.00914899999975
 20
240.0
 30
0.0
 11
613.00914899999975
 21
238.0
 31
0.0
  0
LINE
  5
705
  8
DETAIL
  6
CONTINUOUS
 62
     5
 10
615.00914899999975
 20
240.0
 30
0.0
 11
613.00914899999975
 21
238.0
 31
0.0
  0
LINE
  5
706
  8
DETAIL
  6
CONTINUOUS
 62
     5
 10
615.00914899999975
 20
226.0
 30
0.0
 11
613.00914899999975
 21
228.0
 31
0.0
  0
LINE
  5
707
  8
DETAIL
  6
CONTINUOUS
 62
     5
 10
615.00914899999975
 20
226.0
 30
0.0
 11
613.00914899999975
 21
228.0
 31
0.0
  0
LINE
  5
708
  8
DETAIL
  6
CONTINUOUS
 62
     5
 10
615.00914899999975
 20
226.0
 30
0.0
 11
613.00914899999975
 21
224.0
 31
0.0
  0
LINE
  5
709
  8
DETAIL
  6
CONTINUOUS
 62
     5
 10
615.00914899999975
 20
226.0
 30
0.0
 11
613.00914899999975
 21
224.0
 31
0.0
  0
LINE
  5
70A
  8
DETAIL
  6
CONTINUOUS
 62
     5
 10
615.00914899999975
 20
226.0
 30
0.0
 11
627.00914899999975
 21
226.0
 31
0.0
  0
LINE
  5
70B
  8
DETAIL
  6
CONTINUOUS
 62
     5
 10
615.00914899999975
 20
226.0
 30
0.0
 11
627.00914899999975
 21
226.0
 31
0.0
  0
LINE
  5
70C
  8
DETAIL
  6
CONTINUOUS
 62
     5
 10
615.00914899999975
 20
240.0
 30
0.0
 11
627.00914899999975
 21
240.0
 31
0.0
  0
LINE
  5
70D
  8
DETAIL
  6
CONTINUOUS
 62
     5
 10
615.00914899999975
 20
240.0
 30
0.0
 11
627.00914899999975
 21
240.0
 31
0.0
  0
LINE
  5
70E
  8
DETAIL
  6
CONTINUOUS
 62
     5
 10
613.00914899999975
 20
222.0
 30
0.0
 11
615.00914899999975
 21
220.0
 31
0.0
  0
LINE
  5
70F
  8
DETAIL
  6
CONTINUOUS
 62
     5
 10
613.00914899999975
 20
222.0
 30
0.0
 11
615.00914899999975
 21
220.0
 31
0.0
  0
LINE
  5
710
  8
DETAIL
  6
CONTINUOUS
 62
     5
 10
613.00914899999975
 20
244.0
 30
0.0
 11
615.00914899999975
 21
246.0
 31
0.0
  0
LINE
  5
711
  8
DETAIL
  6
CONTINUOUS
 62
     5
 10
613.00914899999975
 20
244.0
 30
0.0
 11
615.00914899999975
 21
246.0
 31
0.0
  0
LINE
  5
712
  8
DETAIL
  6
CONTINUOUS
 62
     5
 10
632.0
 20
221.75
 30
0.0
 11
629.00914899999998
 21
220.0
 31
0.0
  0
LINE
  5
713
  8
DETAIL
  6
CONTINUOUS
 62
     5
 10
629.00914899999998
 20
246.0
 30
0.0
 11
632.0
 21
244.24999600000001
 31
0.0
  0
LINE
  5
714
  8
DETAIL
  6
CONTINUOUS
 62
     5
 10
629.00914899999998
 20
246.0
 30
0.0
 11
629.00914899999998
 21
220.0
 31
0.0
  0
LINE
  5
715
  8
DETAIL
  6
CONTINUOUS
 62
     5
 10
629.00914899999998
 20
246.0
 30
0.0
 11
629.00914899999998
 21
220.0
 31
0.0
  0
LINE
  5
716
  8
DETAIL
  6
CONTINUOUS
 62
     5
 10
613.00914899999975
 20
244.0
 30
0.0
 11
613.00914899999975
 21
222.0
 31
0.0
  0
LINE
  5
717
  8
DETAIL
  6
CONTINUOUS
 62
     5
 10
613.00914899999975
 20
244.0
 30
0.0
 11
613.00914899999975
 21
222.0
 31
0.0
  0
LINE
  5
718
  8
DETAIL
  6
CONTINUOUS
 62
     5
 10
615.00914899999975
 20
220.0
 30
0.0
 11
629.00914899999998
 21
220.0
 31
0.0
  0
LINE
  5
719
  8
DETAIL
  6
CONTINUOUS
 62
     5
 10
615.00914899999975
 20
220.0
 30
0.0
 11
629.00914899999998
 21
220.0
 31
0.0
  0
LINE
  5
71A
  8
DETAIL
  6
CONTINUOUS
 62
     5
 10
615.00914899999975
 20
246.0
 30
0.0
 11
629.00914899999998
 21
246.0
 31
0.0
  0
LINE
  5
71B
  8
DETAIL
  6
CONTINUOUS
 62
     5
 10
615.00914899999975
 20
246.0
 30
0.0
 11
629.00914899999998
 21
246.0
 31
0.0
  0
LINE
  5
71C
  8
DETAIL
  6
CONTINUOUS
 62
     5
 10
613.00914899999975
 20
241.0
 30
0.0
 11
613.00914899999975
 21
225.0
 31
0.0
  0
LINE
  5
71D
  8
DETAIL
  6
CONTINUOUS
 62
     5
 10
613.00914899999975
 20
225.0
 30
0.0
 11
609.00914899999975
 21
225.0
 31
0.0
  0
LINE
  5
71E
  8
DETAIL
  6
CONTINUOUS
 62
     5
 10
613.00914899999975
 20
241.0
 30
0.0
 11
609.00914899999975
 21
241.0
 31
0.0
  0
LINE
  5
71F
  8
DETAIL
  6
CONTINUOUS
 62
     5
 10
609.00914899999975
 20
242.5
 30
0.0
 11
607.00914899999975
 21
244.5
 31
0.0
  0
LINE
  5
720
  8
DETAIL
  6
CONTINUOUS
 62
     5
 10
609.00914899999975
 20
223.5
 30
0.0
 11
607.00914899999975
 21
221.5
 31
0.0
  0
LINE
  5
721
  8
DETAIL
  6
CONTINUOUS
 62
     5
 10
609.00914899999975
 20
242.5
 30
0.0
 11
609.00914899999975
 21
223.5
 31
0.0
  0
LINE
  5
722
  8
DETAIL
  6
CONTINUOUS
 62
     5
 10
627.00914899999975
 20
226.0
 30
0.0
 11
629.00914899999998
 21
224.0
 31
0.0
  0
LINE
  5
724
  8
DETAIL
  6
CONTINUOUS
 62
     5
 10
627.00914899999975
 20
226.0
 30
0.0
 11
629.00914899999998
 21
228.0
 31
0.0
  0
LINE
  5
726
  8
DETAIL
  6
CONTINUOUS
 62
     5
 10
627.00914899999975
 20
240.0
 30
0.0
 11
629.00914899999998
 21
238.0
 31
0.0
  0
LINE
  5
728
  8
DETAIL
  6
CONTINUOUS
 62
     5
 10
627.00914899999975
 20
240.0
 30
0.0
 11
629.00914899999998
 21
242.0
 31
0.0
  0
LINE
  5
72A
  8
DETAIL
  6
CONTINUOUS
 62
     5
 10
615.00914899999975
 20
240.0
 30
0.0
 11
613.00914899999975
 21
242.0
 31
0.0
  0
LINE
  5
72C
  8
DETAIL
  6
CONTINUOUS
 62
     5
 10
615.00914899999975
 20
240.0
 30
0.0
 11
613.00914899999975
 21
238.0
 31
0.0
  0
LINE
  5
72E
  8
DETAIL
  6
CONTINUOUS
 62
     5
 10
615.00914899999975
 20
226.0
 30
0.0
 11
613.00914899999975
 21
228.0
 31
0.0
  0
LINE
  5
730
  8
DETAIL
  6
CONTINUOUS
 62
     5
 10
615.00914899999975
 20
226.0
 30
0.0
 11
613.00914899999975
 21
224.0
 31
0.0
  0
LINE
  5
732
  8
DETAIL
  6
CONTINUOUS
 62
     5
 10
615.00914899999975
 20
226.0
 30
0.0
 11
627.00914899999975
 21
226.0
 31
0.0
  0
LINE
  5
734
  8
DETAIL
  6
CONTINUOUS
 62
     5
 10
615.00914899999975
 20
240.0
 30
0.0
 11
627.00914899999975
 21
240.0
 31
0.0
  0
LINE
  5
736
  8
DETAIL
  6
CONTINUOUS
 62
     5
 10
613.00914899999975
 20
222.0
 30
0.0
 11
615.00914899999975
 21
220.0
 31
0.0
  0
LINE
  5
738
  8
DETAIL
  6
CONTINUOUS
 62
     5
 10
613.00914899999975
 20
244.0
 30
0.0
 11
615.00914899999975
 21
246.0
 31
0.0
  0
LINE
  5
73A
  8
DETAIL
  6
CONTINUOUS
 62
     5
 10
629.00914899999998
 20
246.0
 30
0.0
 11
629.00914899999998
 21
220.0
 31
0.0
  0
LINE
  5
73C
  8
DETAIL
  6
CONTINUOUS
 62
     5
 10
613.00914899999975
 20
244.0
 30
0.0
 11
613.00914899999975
 21
222.0
 31
0.0
  0
LINE
  5
73E
  8
DETAIL
  6
CONTINUOUS
 62
     5
 10
615.00914899999975
 20
220.0
 30
0.0
 11
629.00914899999998
 21
220.0
 31
0.0
  0
LINE
  5
740
  8
DETAIL
  6
CONTINUOUS
 62
     5
 10
615.00914899999975
 20
246.0
 30
0.0
 11
629.00914899999998
 21
246.0
 31
0.0
  0
POINT
  5
74A
  8
DEFPOINTS
  6
CONTINUOUS
 62
     7
 10
926.72006899999985
 20
233.0
 30
0.0
  0
LINE
  5
74B
  8
SIZE
  6
CONTINUOUS
 62
    30
 10
926.72006899999985
 20
228.0
 30
0.0
 11
926.72006899999985
 21
223.0
 31
0.0
  0
CIRCLE
  5
74C
  8
SIZE
  6
CONTINUOUS
 62
    30
 10
926.72006899999985
 20
233.0
 30
0.0
 40
5.0
  0
LINE
  5
74D
  8
SIZE
  6
CONTINUOUS
 62
    30
 10
926.72006899999985
 20
266.0
 30
0.0
 11
926.72006899999985
 21
271.0
 31
0.0
  0
CIRCLE
  5
74E
  8
SIZE
  6
CONTINUOUS
 62
    30
 10
926.72006899999985
 20
261.0
 30
0.0
 40
5.0
  0
LINE
  5
74F
  8
SIZE
  6
CONTINUOUS
 62
    30
 10
926.72006899999985
 20
261.0
 30
0.0
 11
926.72006899999985
 21
233.0
 31
0.0
  0
LINE
  5
750
  8
SIZE
  6
CONTINUOUS
 62
    30
 10
926.72006899999985
 20
261.0
 30
0.0
 11
926.72006899999985
 21
233.0
 31
0.0
  0
LINE
  5
751
  8
SIZE
  6
CONTINUOUS
 62
    30
 10
926.72006899999985
 20
223.0
 30
0.0
 11
926.72006899999985
 21
213.0
 31
0.0
  0
LINE
  5
752
  8
SIZE
  6
CONTINUOUS
 62
    30
 10
926.72006899999985
 20
271.0
 30
0.0
 11
926.72006899999985
 21
281.0
 31
0.0
  0
POINT
  5
753
  8
DEFPOINTS
  6
CONTINUOUS
 62
     7
 10
926.72006899999985
 20
261.0
 30
0.0
  0
LINE
  5
754
  8
SIZE
  6
CONTINUOUS
 62
    30
 10
926.72006899999985
 20
266.0
 30
0.0
 11
926.72006899999985
 21
271.0
 31
0.0
  0
CIRCLE
  5
755
  8
SIZE
  6
CONTINUOUS
 62
    30
 10
926.72006899999985
 20
261.0
 30
0.0
 40
5.0
  0
LINE
  5
756
  8
SIZE
  6
CONTINUOUS
 62
    30
 10
611.70000000000005
 20
433.0
 30
0.0
 11
956.72006899999985
 21
433.0
 31
0.0
  0
LINE
  5
757
  8
SIZE
  6
CONTINUOUS
 62
    30
 10
650.71665199999995
 20
325.0
 30
0.0
 11
833.04192999999987
 21
325.0
 31
0.0
  0
LINE
  5
758
  8
SIZE
  6
CONTINUOUS
 62
    30
 10
611.70000000000005
 20
433.0
 30
0.0
 11
833.04192999999987
 21
433.0
 31
0.0
  0
LINE
  5
759
  8
SIZE
  6
CONTINUOUS
 62
    30
 10
580.0
 20
453.0
 30
0.0
 11
580.0
 21
545.64482099999987
 31
0.0
  0
LINE
  5
75A
  8
SIZE
  6
CONTINUOUS
 62
    30
 10
614.0
 20
361.71665200000001
 30
0.0
 11
614.0
 21
545.64482099999987
 31
0.0
  0
POINT
  5
75B
  8
DEFPOINTS
  6
CONTINUOUS
 62
     7
 10
580.0
 20
433.0
 30
0.0
  0
POINT
  5
75C
  8
DEFPOINTS
  6
CONTINUOUS
 62
     7
 10
573.0
 20
447.99516599999998
 30
0.0
  0
POINT
  5
75D
  8
DEFPOINTS
  6
CONTINUOUS
 62
     7
 10
573.0
 20
447.99516599999998
 30
0.0
  0
POINT
  5
75F
  8
DEFPOINTS
  6
CONTINUOUS
 62
     7
 10
580.0
 20
433.0
 30
0.0
  0
POINT
  5
760
  8
DEFPOINTS
  6
CONTINUOUS
 62
     7
 10
580.0
 20
433.0
 30
0.0
  0
POINT
  5
762
  8
DEFPOINTS
  6
CONTINUOUS
 62
     7
 10
580.0
 20
433.0
 30
0.0
  0
POINT
  5
763
  8
DEFPOINTS
  6
CONTINUOUS
 62
     7
 10
580.0
 20
433.0
 30
0.0
  0
POINT
  5
764
  8
DEFPOINTS
  6
CONTINUOUS
 62
     7
 10
614.0
 20
341.71665200000001
 30
0.0
  0
POINT
  5
765
  8
DEFPOINTS
  6
CONTINUOUS
 62
     7
 10
591.70000000000005
 20
433.0
 30
0.0
  0
POINT
  5
766
  8
DEFPOINTS
  6
CONTINUOUS
 62
     7
 10
591.70000000000005
 20
433.0
 30
0.0
  0
POINT
  5
767
  8
DEFPOINTS
  6
CONTINUOUS
 62
     7
 10
630.71665199999995
 20
325.0
 30
0.0
  0
POINT
  5
768
  8
DEFPOINTS
  6
CONTINUOUS
 62
     7
 10
591.70000000000005
 20
433.0
 30
0.0
  0
LINE
  5
769
  8
NOTE
  6
CONTINUOUS
 62
     4
 10
597.28334800000016
 20
325.0
 30
0.0
 11
630.71665199999995
 21
325.0
 31
0.0
  0
LINE
  5
76A
  8
NOTE
  6
CONTINUOUS
 62
     4
 10
614.0
 20
341.71665200000001
 30
0.0
 11
614.0
 21
308.28334799999999
 31
0.0
  0
LINE
  5
76B
  8
NOTE
  6
CONTINUOUS
 62
     4
 10
614.0
 20
325.0
 30
0.0
 11
632.96398099999976
 21
353.68304499999999
 31
0.0
  0
LINE
  5
76C
  8
NOTE
  6
CONTINUOUS
 62
     4
 10
614.0
 20
325.0
 30
0.0
 11
616.08176600000002
 21
359.32223699999997
 31
0.0
  0
LINE
  5
76D
  8
NOTE
  6
CONTINUOUS
 62
     4
 10
573.0
 20
418.00483399999979
 30
0.0
 11
573.0
 21
447.99516599999998
 31
0.0
  0
LINE
  5
770
  8
OUTLINE
  6
CONTINUOUS
 62
     3
 10
580.0
 20
140.0
 30
0.0
 11
580.0
 21
433.0
 31
0.0
  0
LINE
  5
771
  8
DETAIL
  6
CONTINUOUS
 62
     5
 10
580.0
 20
430.69999999999999
 30
0.0
 11
591.70000000000005
 21
430.69999999999999
 31
0.0
  0
LINE
  5
774
  8
DETAIL
  6
CONTINUOUS
 62
     5
 10
593.70000000000016
 20
421.0
 30
0.0
 11
596.0
 21
421.0
 31
0.0
  0
LINE
  5
775
  8
DETAIL
  6
CONTINUOUS
 62
     5
 10
593.70000000000016
 20
428.69999999999987
 30
0.0
 11
593.70000000000016
 21
421.0
 31
0.0
  0
ARC
  5
776
  8
DETAIL
  6
CONTINUOUS
 62
     5
 10
591.70000000000005
 20
428.69999999999987
 30
0.0
 40
2.0
 50
0.0
 51
90.0
  0
LINE
  5
777
  8
DETAIL
  6
CONTINUOUS
 62
     5
 10
596.0
 20
428.69999999999987
 30
0.0
 11
596.0
 21
421.0
 31
0.0
  0
ARC
  5
778
  8
DETAIL
  6
CONTINUOUS
 62
     5
 10
591.70000000000005
 20
428.69999999999987
 30
0.0
 40
4.299999999999998
 50
0.0
 51
90.0
  0
LINE
  5
782
  8
DETAIL
  6
CONTINUOUS
 62
     5
 10
589.0
 20
341.19999999999999
 30
0.0
 11
580.0
 21
341.35709600000001
 31
0.0
  0
ARC
  5
783
  8
DETAIL
  6
CONTINUOUS
 62
     5
 10
613.49999999999977
 20
340.5
 30
0.0
 40
0.5
 50
0.0
 51
90.0
  0
LINE
  5
784
  8
DETAIL
  6
CONTINUOUS
 62
     5
 10
589.0
 20
341.0
 30
0.0
 11
613.49999999999977
 21
341.0
 31
0.0
  0
LINE
  5
785
  8
DETAIL
  6
CONTINUOUS
 62
     5
 10
589.0
 20
308.80000000000001
 30
0.0
 11
580.0
 21
308.64290399999999
 31
0.0
  0
ARC
  5
786
  8
DETAIL
  6
CONTINUOUS
 62
     5
 10
613.49999999999977
 20
309.5
 30
0.0
 40
0.5
 50
270.0
 51
0.0
  0
LINE
  5
787
  8
DETAIL
  6
CONTINUOUS
 62
     5
 10
589.0
 20
309.0
 30
0.0
 11
613.49999999999977
 21
309.0
 31
0.0
  0
LINE
  5
788
  8
DETAIL
  6
CONTINUOUS
 62
     5
 10
589.0
 20
341.19999999999999
 30
0.0
 11
589.0
 21
308.80000000000001
 31
0.0
  0
LINE
  5
789
  8
DETAIL
  6
CONTINUOUS
 62
     5
 10
614.0
 20
340.5
 30
0.0
 11
614.0
 21
309.5
 31
0.0
  0
LINE
  5
792
  8
DETAIL
  6
CONTINUOUS
 62
     5
 10
580.0
 20
433.0
 30
0.0
 11
580.0
 21
140.0
 31
0.0
  0
POINT
  5
793
  8
DEFPOINTS
  6
CONTINUOUS
 62
     7
 10
596.0
 20
528.0
 30
0.0
  0
POINT
  5
794
  8
DEFPOINTS
  6
CONTINUOUS
 62
     7
 10
580.0
 20
601.24508500000002
 30
0.0
  0
LINE
  5
795
  8
SIZE
  6
CONTINUOUS
 62
    30
 10
575.0
 20
601.24508500000002
 30
0.0
 11
570.0
 21
601.24508500000002
 31
0.0
  0
CIRCLE
  5
796
  8
SIZE
  6
CONTINUOUS
 62
    30
 10
580.0
 20
601.24508500000002
 30
0.0
 40
5.0
  0
LINE
  5
797
  8
SIZE
  6
CONTINUOUS
 62
    30
 10
627.0
 20
601.24508500000002
 30
0.0
 11
632.0
 21
601.24508500000002
 31
0.0
  0
CIRCLE
  5
798
  8
SIZE
  6
CONTINUOUS
 62
    30
 10
622.0
 20
601.24508500000002
 30
0.0
 40
5.0
  0
LINE
  5
799
  8
SIZE
  6
CONTINUOUS
 62
    30
 10
622.0
 20
601.24508500000002
 30
0.0
 11
580.0
 21
601.24508500000002
 31
0.0
  0
LINE
  5
79A
  8
SIZE
  6
CONTINUOUS
 62
    30
 10
632.0
 20
601.24508500000002
 30
0.0
 11
642.0
 21
601.24508500000002
 31
0.0
  0
POINT
  5
79B
  8
DEFPOINTS
  6
CONTINUOUS
 62
     7
 10
580.0
 20
515.64482099999987
 30
0.0
  0
LINE
  5
79C
  8
SIZE
  6
CONTINUOUS
 62
    30
 10
575.0
 20
515.64482099999987
 30
0.0
 11
570.0
 21
515.64482099999987
 31
0.0
  0
CIRCLE
  5
79D
  8
SIZE
  6
CONTINUOUS
 62
    30
 10
580.0
 20
515.64482099999987
 30
0.0
 40
5.0
  0
LINE
  5
79E
  8
SIZE
  6
CONTINUOUS
 62
    30
 10
619.0
 20
515.64482099999987
 30
0.0
 11
624.0
 21
515.64482099999987
 31
0.0
  0
CIRCLE
  5
79F
  8
SIZE
  6
CONTINUOUS
 62
    30
 10
614.0
 20
515.64482099999987
 30
0.0
 40
5.0
  0
LINE
  5
7A0
  8
SIZE
  6
CONTINUOUS
 62
    30
 10
614.0
 20
515.64482099999987
 30
0.0
 11
580.0
 21
515.64482099999987
 31
0.0
  0
LINE
  5
7A1
  8
SIZE
  6
CONTINUOUS
 62
    30
 10
624.0
 20
515.64482099999987
 30
0.0
 11
634.0
 21
515.64482099999987
 31
0.0
  0
TEXT
  5
7A2
  8
SIZE
  6
CONTINUOUS
 62
    30
 10
785.04192999999975
 20
460.99999957142859
 30
0.0
 40
55.0
  1
108
 50
90.0
 41
0.9
 72
     1
 11
785.04192999999975
 21
519.92857100000003
 31
0.0
  0
LINE
  5
7A3
  8
SIZE
  6
CONTINUOUS
 62
    30
 10
803.04192999999998
 20
433.0
 30
0.0
 11
803.04192999999998
 21
596.85714299999995
 31
0.0
  0
POINT
  5
7A4
  8
DEFPOINTS
  6
CONTINUOUS
 62
     7
 10
803.04192999999998
 20
325.0
 30
0.0
  0
LINE
  5
7A5
  8
SIZE
  6
CONTINUOUS
 62
    30
 10
803.04192999999998
 20
428.0
 30
0.0
 11
803.04192999999998
 21
423.0
 31
0.0
  0
CIRCLE
  5
7A6
  8
SIZE
  6
CONTINUOUS
 62
    30
 10
803.04192999999998
 20
433.0
 30
0.0
 40
5.0
  0
LINE
  5
7A7
  8
SIZE
  6
CONTINUOUS
 62
    30
 10
803.04192999999998
 20
330.0
 30
0.0
 11
803.04192999999998
 21
335.0
 31
0.0
  0
CIRCLE
  5
7A8
  8
SIZE
  6
CONTINUOUS
 62
    30
 10
803.04192999999998
 20
325.0
 30
0.0
 40
5.0
  0
LINE
  5
7A9
  8
SIZE
  6
CONTINUOUS
 62
    30
 10
803.04192999999998
 20
335.0
 30
0.0
 11
803.04192999999998
 21
423.0
 31
0.0
  0
LINE
  5
7AA
  8
SIZE
  6
CONTINUOUS
 62
    30
 10
926.72006899999985
 20
428.0
 30
0.0
 11
926.72006899999985
 21
423.0
 31
0.0
  0
CIRCLE
  5
7AB
  8
SIZE
  6
CONTINUOUS
 62
    30
 10
926.72006899999985
 20
433.0
 30
0.0
 40
5.0
  0
TEXT
  5
7AC
  8
SIZE
  6
CONTINUOUS
 62
    30
 10
1136.559184
 20
232.27157985714291
 30
0.0
 40
55.0
  1
265
 50
90.0
 41
0.9
 72
     1
 11
1136.559184
 21
295.91443700000002
 31
0.0
  0
LINE
  5
7AD
  8
SIZE
  6
CONTINUOUS
 62
    30
 10
1154.559184
 20
423.0
 30
0.0
 11
1154.559184
 21
178.0
 31
0.0
  0
LINE
  5
7AE
  8
SIZE
  6
CONTINUOUS
 62
    30
 10
1028.920159
 20
270.77946400000002
 30
0.0
 11
1028.920159
 21
386.92232100000001
 31
0.0
  0
POINT
  5
7AF
  8
DEFPOINTS
  6
CONTINUOUS
 62
     7
 10
1154.559184
 20
168.0
 30
0.0
  0
LINE
  5
7B0
  8
SIZE
  6
CONTINUOUS
 62
    30
 10
1154.559184
 20
173.0
 30
0.0
 11
1154.559184
 21
178.0
 31
0.0
  0
CIRCLE
  5
7B1
  8
SIZE
  6
CONTINUOUS
 62
    30
 10
1154.559184
 20
168.0
 30
0.0
 40
5.0
  0
LINE
  5
7B2
  8
SIZE
  6
CONTINUOUS
 62
    30
 10
1154.559184
 20
428.0
 30
0.0
 11
1154.559184
 21
423.0
 31
0.0
  0
CIRCLE
  5
7B3
  8
SIZE
  6
CONTINUOUS
 62
    30
 10
1154.559184
 20
433.0
 30
0.0
 40
5.0
  0
LINE
  5
7B4
  8
NOTE
  6
CONTINUOUS
 62
     4
 10
723.96159299999999
 20
658.270084
 30
0.0
 11
1070.7754540000001
 21
658.270084
 31
0.0
  0
TEXT
  5
7B5
  8
NOTE
  6
CONTINUOUS
 62
     4
 10
743.90018299999986
 20
674.09662800000001
 30
0.0
 40
60.0
  1
D1 VP-25
 50
359.99999700000001
 41
0.7
  7
STANDARD1
  0
CIRCLE
  5
7B6
  8
SIZE
  6
CONTINUOUS
 62
    30
 10
573.0
 20
917.16242199999988
 30
0.0
 40
5.0
  0
CIRCLE
  5
7B7
  8
SIZE
  6
CONTINUOUS
 62
    30
 10
596.0
 20
917.16242199999988
 30
0.0
 40
5.0
  0
CIRCLE
  5
7B8
  8
SIZE
  6
CONTINUOUS
 62
    30
 10
573.0
 20
917.16242199999988
 30
0.0
 40
5.0
  0
POINT
  5
7B9
  8
DEFPOINTS
  6
CONTINUOUS
 62
     7
 10
632.00914899999998
 20
702.35423200000002
 30
0.0
  0
LINE
  5
7BA
  8
SIZE
  6
CONTINUOUS
 62
    30
 10
575.0
 20
702.35423200000002
 30
0.0
 11
570.0
 21
702.35423200000002
 31
0.0
  0
CIRCLE
  5
7BB
  8
SIZE
  6
CONTINUOUS
 62
    30
 10
580.0
 20
702.35423200000002
 30
0.0
 40
5.0
  0
LINE
  5
7BC
  8
SIZE
  6
CONTINUOUS
 62
    30
 10
637.00914899999998
 20
702.35423200000002
 30
0.0
 11
642.00914899999987
 21
702.35423200000002
 31
0.0
  0
CIRCLE
  5
7BD
  8
SIZE
  6
CONTINUOUS
 62
    30
 10
632.00914899999998
 20
702.35423200000002
 30
0.0
 40
5.0
  0
LINE
  5
7BE
  8
SIZE
  6
CONTINUOUS
 62
    30
 10
632.00914899999998
 20
702.35423200000002
 30
0.0
 11
580.0
 21
702.35423200000002
 31
0.0
  0
LINE
  5
7BF
  8
SIZE
  6
CONTINUOUS
 62
    30
 10
642.00914899999987
 20
702.35423200000002
 30
0.0
 11
652.00914899999975
 21
702.35423200000002
 31
0.0
  0
TEXT
  5
7C0
  8
SIZE
  6
CONTINUOUS
 62
    30
 10
633.99999957142848
 20
818.10319700000014
 30
0.0
 40
55.0
  1
16
 41
0.9
 72
     1
 11
668.17857100000003
 21
818.10319700000014
 31
0.0
  0
LINE
  5
7C1
  8
SIZE
  6
CONTINUOUS
 62
    30
 10
606.0
 20
800.10319699999968
 30
0.0
 11
720.35714299999995
 21
800.10319699999968
 31
0.0
  0
LINE
  5
7C2
  8
SIZE
  6
CONTINUOUS
 62
    30
 10
575.0
 20
800.10319699999968
 30
0.0
 11
570.0
 21
800.10319699999968
 31
0.0
  0
CIRCLE
  5
7C3
  8
SIZE
  6
CONTINUOUS
 62
    30
 10
580.0
 20
800.10319699999968
 30
0.0
 40
5.0
  0
POINT
  5
7C4
  8
DEFPOINTS
  6
CONTINUOUS
 62
     7
 10
580.0
 20
800.10319699999968
 30
0.0
  0
LINE
  5
7C5
  8
SIZE
  6
CONTINUOUS
 62
    30
 10
601.0
 20
800.10319699999968
 30
0.0
 11
606.0
 21
800.10319699999968
 31
0.0
  0
CIRCLE
  5
7C6
  8
SIZE
  6
CONTINUOUS
 62
    30
 10
596.0
 20
800.10319699999968
 30
0.0
 40
5.0
  0
LINE
  5
7C7
  8
SIZE
  6
CONTINUOUS
 62
    30
 10
575.0
 20
800.10319699999968
 30
0.0
 11
570.0
 21
800.10319699999968
 31
0.0
  0
CIRCLE
  5
7C8
  8
SIZE
  6
CONTINUOUS
 62
    30
 10
580.0
 20
800.10319699999968
 30
0.0
 40
5.0
  0
LINE
  5
7C9
  8
SIZE
  6
CONTINUOUS
 62
    30
 10
580.0
 20
800.10319699999968
 30
0.0
 11
596.0
 21
800.10319699999968
 31
0.0
  0
TEXT
  5
7CA
  8
SIZE
  6
CONTINUOUS
 62
    30
 10
634.00000042857118
 20
935.16242199999988
 30
0.0
 40
55.0
  1
23
 41
0.9
 72
     1
 11
674.07142899999985
 21
935.16242199999988
 31
0.0
  0
LINE
  5
7CB
  8
SIZE
  6
CONTINUOUS
 62
    30
 10
606.0
 20
917.16242199999988
 30
0.0
 11
732.14285700000005
 21
917.16242199999988
 31
0.0
  0
POINT
  5
7CC
  8
DEFPOINTS
  6
CONTINUOUS
 62
     7
 10
573.0
 20
917.16242199999988
 30
0.0
  0
LINE
  5
7CD
  8
SIZE
  6
CONTINUOUS
 62
    30
 10
601.0
 20
917.16242199999988
 30
0.0
 11
606.0
 21
917.16242199999988
 31
0.0
  0
LINE
  5
7CE
  8
SIZE
  6
CONTINUOUS
 62
    30
 10
573.0
 20
917.16242199999988
 30
0.0
 11
596.0
 21
917.16242199999988
 31
0.0
  0
LINE
  5
7CF
  8
SIZE
  6
CONTINUOUS
 62
    30
 10
591.0
 20
1029.149774
 30
0.0
 11
586.0
 21
1029.149774
 31
0.0
  0
CIRCLE
  5
7D0
  8
SIZE
  6
CONTINUOUS
 62
    30
 10
596.0
 20
1029.149774
 30
0.0
 40
5.0
  0
LINE
  5
872
  8
NOTE
  6
CONTINUOUS
 62
     4
 10
558.00483399999985
 20
433.0
 30
0.0
 11
587.99516600000004
 21
433.0
 31
0.0
  0
ENDSEC
  0
EOF
