  0
SECTION
  2
HEADER
  9
$ACADVER
  1
AC1009
  9
$INSBASE
 10
0.0
 20
0.0
 30
0.0
  9
$EXTMIN
 10
-1439.9101270000001
 20
-436.71809699999989
 30
0.0
  9
$EXTMAX
 10
1194.0727589999999
 20
1180.227191263464
 30
0.0
  9
$LIMMIN
 10
-4267.1522210000003
 20
-2696.0832100000011
  9
$LIMMAX
 10
7190.7174229999991
 20
5141.1553640000002
  9
$ORTHOMODE
 70
     1
  9
$REGENMODE
 70
     1
  9
$FILLMODE
 70
     1
  9
$QTEXTMODE
 70
     0
  9
$MIRRTEXT
 70
     0
  9
$DRAGMODE
 70
     2
  9
$LTSCALE
 40
20.0
  9
$OSMODE
 70
   959
  9
$ATTMODE
 70
     1
  9
$TEXTSIZE
 40
64.0
  9
$TRACEWID
 40
0.05
  9
$TEXTSTYLE
  7
STANDARD
  9
$CLAYER
  8
SYMBOLLINE
  9
$CELTYPE
  6
CONTINUOUS
  9
$CECOLOR
 62
     7
  9
$DIMSCALE
 40
1.0
  9
$DIMASZ
 40
10.0
  9
$DIMEXO
 40
20.0
  9
$DIMDLI
 40
200.0
  9
$DIMRND
 40
0.0
  9
$DIMDLE
 40
0.0
  9
$DIMEXE
 40
30.0
  9
$DIMTP
 40
0.0
  9
$DIMTM
 40
0.0
  9
$DIMTXT
 40
55.0
  9
$DIMCEN
 40
0.0
  9
$DIMTSZ
 40
0.0
  9
$DIMTOL
 70
     0
  9
$DIMLIM
 70
     0
  9
$DIMTIH
 70
     0
  9
$DIMTOH
 70
     0
  9
$DIMSE1
 70
     0
  9
$DIMSE2
 70
     0
  9
$DIMTAD
 70
     1
  9
$DIMZIN
 70
     8
  9
$DIMBLK
  1

  9
$DIMASO
 70
     1
  9
$DIMSHO
 70
     0
  9
$DIMPOST
  1

  9
$DIMAPOST
  1

  9
$DIMALT
 70
     0
  9
$DIMALTD
 70
     2
  9
$DIMALTF
 40
25.399999999999999
  9
$DIMLFAC
 40
1.0
  9
$DIMTOFL
 70
     1
  9
$DIMTVP
 40
0.0
  9
$DIMTIX
 70
     1
  9
$DIMSOXD
 70
     0
  9
$DIMSAH
 70
     1
  9
$DIMBLK1
  1
DOTBLANK
  9
$DIMBLK2
  1
DOTBLANK
  9
$DIMSTYLE
  2
STANDARD
  9
$DIMCLRD
 70
     0
  9
$DIMCLRE
 70
     0
  9
$DIMCLRT
 70
     0
  9
$DIMTFAC
 40
1.0
  9
$DIMGAP
 40
0.09
  9
$LUNITS
 70
     2
  9
$LUPREC
 70
     4
  9
$SKETCHINC
 40
0.1
  9
$FILLETRAD
 40
30.0
  9
$AUNITS
 70
     1
  9
$AUPREC
 70
     3
  9
$MENU
  1
ACAD
  9
$ELEVATION
 40
0.0
  9
$PELEVATION
 40
0.0
  9
$THICKNESS
 40
0.0
  9
$LIMCHECK
 70
     0
  9
$BLIPMODE
 70
     0
  9
$CHAMFERA
 40
0.0
  9
$CHAMFERB
 40
0.0
  9
$SKPOLY
 70
     0
  9
$TDCREATE
 40
2450330.4399309959
  9
$TDUPDATE
 40
2455497.6683423729
  9
$TDINDWG
 40
3.5424759491
  9
$TDUSRTIMER
 40
3.5424752199
  9
$USRTIMER
 70
     1
  9
$ANGBASE
 50
0.0
  9
$ANGDIR
 70
     0
  9
$PDMODE
 70
     3
  9
$PDSIZE
 40
-2.0
  9
$PLINEWID
 40
0.0
  9
$COORDS
 70
     0
  9
$SPLFRAME
 70
     0
  9
$SPLINETYPE
 70
     6
  9
$SPLINESEGS
 70
     8
  9
$ATTDIA
 70
     0
  9
$ATTREQ
 70
     1
  9
$HANDLING
 70
     1
  9
$HANDSEED
  5
938
  9
$SURFTAB1
 70
     6
  9
$SURFTAB2
 70
     6
  9
$SURFTYPE
 70
     6
  9
$SURFU
 70
     6
  9
$SURFV
 70
     6
  9
$UCSNAME
  2

  9
$UCSORG
 10
0.0
 20
0.0
 30
0.0
  9
$UCSXDIR
 10
1.0
 20
0.0
 30
0.0
  9
$UCSYDIR
 10
0.0
 20
1.0
 30
0.0
  9
$PUCSNAME
  2

  9
$PUCSORG
 10
0.0
 20
0.0
 30
0.0
  9
$PUCSXDIR
 10
1.0
 20
0.0
 30
0.0
  9
$PUCSYDIR
 10
0.0
 20
1.0
 30
0.0
  9
$USERI1
 70
     0
  9
$USERI2
 70
     0
  9
$USERI3
 70
     0
  9
$USERI4
 70
     0
  9
$USERI5
 70
     0
  9
$USERR1
 40
20.0
  9
$USERR2
 40
0.0
  9
$USERR3
 40
0.0
  9
$USERR4
 40
0.0
  9
$USERR5
 40
0.0
  9
$WORLDVIEW
 70
     1
  9
$SHADEDGE
 70
     3
  9
$SHADEDIF
 70
    70
  9
$TILEMODE
 70
     1
  9
$MAXACTVP
 70
    48
  9
$PLIMCHECK
 70
     0
  9
$PEXTMIN
 10
1.0000000000000000E+020
 20
1.0000000000000000E+020
 30
1.0000000000000000E+020
  9
$PEXTMAX
 10
-1.0000000000000000E+020
 20
-1.0000000000000000E+020
 30
-1.0000000000000000E+020
  9
$PLIMMIN
 10
0.0
 20
0.0
  9
$PLIMMAX
 10
12.0
 20
9.0
  9
$UNITMODE
 70
     0
  9
$VISRETAIN
 70
     1
  9
$PLINEGEN
 70
     0
  9
$PSLTSCALE
 70
     1
  0
ENDSEC
  0
SECTION
  2
TABLES
  0
TABLE
  2
VPORT
 70
     1
  0
VPORT
  2
*ACTIVE
 70
     0
 10
0.0
 20
0.0
 11
1.0
 21
1.0
 12
1461.7826010000001
 22
1222.536077
 13
0.0
 23
0.0
 14
50.0
 24
50.0
 15
100.0
 25
100.0
 16
0.0
 26
0.0
 36
1.0
 17
0.0
 27
0.0
 37
0.0
 40
7897.2940420000004
 41
1.5639386189258311
 42
50.0
 43
0.0
 44
0.0
 50
0.0
 51
0.0
 71
     0
 72
  1000
 73
     1
 74
     0
 75
     0
 76
     0
 77
     0
 78
     0
  0
ENDTAB
  0
TABLE
  2
LTYPE
 70
     3
  0
LTYPE
  2
CONTINUOUS
 70
     0
  3
実線
 72
    65
 73
     0
 40
0.0
  0
LTYPE
  2
DASHDOT
 70
     0
  3
____ _ ____ _ ____ _ ____ _ ____ _ ____ _ ____
 72
    65
 73
     4
 40
5.5
 49
4.0
 49
-0.6
 49
0.3
 49
-0.6
  0
ENDTAB
  0
TABLE
  2
LAYER
 70
    12
  0
LAYER
  2
0
 70
     0
 62
     7
  6
CONTINUOUS
  0
LAYER
  2
SIZE
 70
     0
 62
    30
  6
CONTINUOUS
  0
LAYER
  2
OUTLINE
 70
     0
 62
     3
  6
CONTINUOUS
  0
LAYER
  2
DETAIL
 70
     0
 62
     5
  6
CONTINUOUS
  0
LAYER
  2
BASIS
 70
     0
 62
     6
  6
DASHDOT
  0
LAYER
  2
NOTE
 70
     0
 62
     4
  6
CONTINUOUS
  0
LAYER
  2
ARRANGE
 70
     0
 62
     1
  6
CONTINUOUS
  0
LAYER
  2
FIX
 70
     0
 62
    11
  6
CONTINUOUS
  0
LAYER
  2
SERVICESPACE
 70
     0
 62
     2
  6
DASHDOT
  0
LAYER
  2
ETC
 70
     0
 62
    61
  6
CONTINUOUS
  0
LAYER
  2
SYMBOLLINE
 70
     0
 62
    15
  6
CONTINUOUS
  0
LAYER
  2
DEFPOINTS
 70
     0
 62
     7
  6
CONTINUOUS
  0
ENDTAB
  0
TABLE
  2
STYLE
 70
     3
  0
STYLE
  2
STANDARD
 70
     0
 40
0.0
 41
0.9
 50
0.0
 71
     0
 42
64.0
  3
SIMPLEX
  4
BIGFONT
  0
STYLE
  2
ANNOTATIVE
 70
     0
 40
0.0
 41
1.0
 50
0.0
 71
     0
 42
0.2
  3
txt
  4

  0
STYLE
  2
STANDARD1
 70
     0
 40
0.0
 41
1.0
 50
0.0
 71
     0
 42
64.0
  3
MONOTXT
  4
BIGFONT
  0
ENDTAB
  0
TABLE
  2
VIEW
 70
    12
  0
VIEW
  2
ALL
 70
     0
 40
9000.0
 10
241.50664699999999
 20
0.0
 41
12483.01
 11
0.0
 21
0.0
 31
1.0
 12
0.0
 22
0.0
 32
0.0
 42
50.0
 43
0.0
 44
0.0
 50
0.0
 71
     0
  0
ENDTAB
  0
TABLE
  2
UCS
 70
     0
  0
ENDTAB
  0
TABLE
  2
APPID
 70
     4
  0
APPID
  2
ACAD
 70
     0
  0
APPID
  2
ACADANNOTATIVE
 70
     0
  0
APPID
  2
ACAD_MLEADERVER
 70
     0
  0
APPID
  2
ACAD_EXEMPT_FROM_CAD_STANDARDS
 70
     0
  0
ENDTAB
  0
TABLE
  2
DIMSTYLE
 70
     3
  0
DIMSTYLE
  2
STANDARD
 70
     0
  3

  4

  5

  6

  7

 40
1.0
 41
0.18
 42
0.0625
 43
0.38
 44
0.18
 45
0.0
 46
0.0
 47
0.0
 48
0.0
140
0.18
141
0.09
142
0.0
143
25.399999999999999
144
1.0
145
0.0
146
1.0
147
0.09
 71
     0
 72
     0
 73
     1
 74
     1
 75
     0
 76
     0
 77
     0
 78
     0
170
     0
171
     2
172
     0
173
     0
174
     0
175
     0
176
     0
177
     0
178
     0
  0
DIMSTYLE
  2
ANNOTATIVE
 70
     0
  3

  4

  5

  6

  7

 40
1.0
 41
0.18
 42
0.0625
 43
0.38
 44
0.18
 45
0.0
 46
0.0
 47
0.0
 48
0.0
140
0.18
141
0.09
142
0.0
143
25.399999999999999
144
1.0
145
0.0
146
1.0
147
0.09
 71
     0
 72
     0
 73
     1
 74
     1
 75
     0
 76
     0
 77
     0
 78
     0
170
     0
171
     2
172
     0
173
     0
174
     0
175
     0
176
     0
177
     0
178
     0
  0
ENDTAB
  0
ENDSEC
  0
SECTION
  2
BLOCKS
  0
BLOCK
  8
0
  2
$MODEL_SPACE
 70
     0
 10
0.0
 20
0.0
 30
0.0
  3
$MODEL_SPACE
  1

  0
ENDBLK
  5
849
  8
0
  0
BLOCK
 67
     1
  8
0
  2
$PAPER_SPACE
 70
     0
 10
0.0
 20
0.0
 30
0.0
  3
$PAPER_SPACE
  1

  0
ENDBLK
  5
845
 67
     1
  8
0
  0
BLOCK
  8
0
  2
_DOTBLANK
 70
     0
 10
0.0
 20
0.0
 30
0.0
  3
_DOTBLANK
  1

  0
CIRCLE
  5
32
  8
0
  6
CONTINUOUS
 62
     7
 10
0.0
 20
0.0
 30
0.0
 40
0.5
  0
LINE
  5
33
  8
0
  6
CONTINUOUS
 62
     7
 10
-0.5
 20
0.0
 30
0.0
 11
-1.0
 21
0.0
 31
0.0
  0
ENDBLK
  5
34
  8
0
  0
BLOCK
  8
0
 62
     7
  2
A$C382354D5
 70
     0
 10
0.0
 20
0.0
 30
0.0
  3
A$C382354D5
  1

  0
LINE
  5
24B
  8
SIZE
  6
CONTINUOUS
 62
    30
 10
1513.452581
 20
436.71809000000002
 30
0.0
 11
493.70535000000001
 21
436.71809000000002
 31
0.0
  0
LINE
  5
24C
  8
SIZE
  6
CONTINUOUS
 62
    30
 10
1545.6939769999999
 20
483.7180899999999
 30
0.0
 11
800.07066399999997
 21
483.7180899999999
 31
0.0
  0
LINE
  5
24D
  8
SIZE
  6
CONTINUOUS
 62
    30
 10
1514.1639769999999
 20
436.71809000000002
 30
0.0
 11
800.07066399999997
 21
436.71809000000002
 31
0.0
  0
LINE
  5
24E
  8
SIZE
  6
CONTINUOUS
 62
    30
 10
1514.1639769999999
 20
436.71809000000002
 30
0.0
 11
800.07066399999997
 21
436.71809000000002
 31
0.0
  0
LINE
  5
24F
  8
SIZE
  6
CONTINUOUS
 62
    30
 10
1544.863977
 20
428.71809000000002
 30
0.0
 11
800.07066399999997
 21
428.71809000000002
 31
0.0
  0
LINE
  5
250
  8
SIZE
  6
CONTINUOUS
 62
    30
 10
1334.1639769999999
 20
29.999993
 30
0.0
 11
1541.1639769999999
 21
29.999993
 31
0.0
  0
LINE
  5
251
  8
SIZE
  6
CONTINUOUS
 62
    30
 10
1442.1639769999999
 20
1209.1657889999999
 30
0.0
 11
1334.1639769999999
 21
1209.1657889999999
 31
0.0
  0
LINE
  5
252
  8
SIZE
  6
CONTINUOUS
 62
    30
 10
1426.654828
 20
669.720731
 30
0.0
 11
784.11802899999986
 21
669.720731
 31
0.0
  0
LINE
  5
253
  8
SIZE
  6
CONTINUOUS
 62
    30
 10
1490.654828
 20
697.71808999999996
 30
0.0
 11
784.11802899999986
 21
697.71808999999996
 31
0.0
  0
LINE
  5
254
  8
SIZE
  6
CONTINUOUS
 62
    30
 10
1490.654828
 20
697.71808999999996
 30
0.0
 11
784.11802899999986
 21
697.71808999999996
 31
0.0
  0
LINE
  5
255
  8
NOTE
  6
CONTINUOUS
 62
     4
 10
1239.376538
 20
188.686894
 30
0.0
 11
1516.1639769999999
 21
697.71808999999996
 31
0.0
  0
LINE
  5
256
  8
SIZE
  6
CONTINUOUS
 62
    30
 10
2049.1639770000002
 20
1456.4745230000001
 30
0.0
 11
1334.1639769999999
 21
1456.4745230000001
 31
0.0
  0
CIRCLE
  5
257
  8
SIZE
  6
CONTINUOUS
 62
    30
 10
1358.1639769999999
 20
1330.706173
 30
0.0
 40
5.0
  0
LINE
  5
258
  8
OUTLINE
  6
CONTINUOUS
 62
     3
 10
1324.1639769999999
 20
576.71808999999996
 30
0.0
 11
2059.1639770000002
 21
576.71808999999996
 31
0.0
  0
LINE
  5
259
  8
OUTLINE
  6
CONTINUOUS
 62
     3
 10
2059.1639770000002
 20
869.71809000000007
 30
0.0
 11
1324.1639769999999
 21
869.71809000000007
 31
0.0
  0
LINE
  5
25A
  8
NOTE
  6
CONTINUOUS
 62
     4
 10
1196.0094810000001
 20
294.162285
 30
0.0
 11
1452.1639769999999
 21
669.720731
 31
0.0
  0
CIRCLE
  5
25B
  8
FIX
  6
CONTINUOUS
 62
    11
 10
1358.1639769999999
 20
869.71809000000007
 30
0.0
 40
12.421498
  0
LINE
  5
25C
  8
NOTE
  6
CONTINUOUS
 62
     4
 10
1373.1591430000001
 20
869.71809000000007
 30
0.0
 11
1343.168811
 21
869.71809000000007
 31
0.0
  0
LINE
  5
25D
  8
DETAIL
  6
CONTINUOUS
 62
     5
 10
2059.1639770000002
 20
869.71809000000007
 30
0.0
 11
1324.1639769999999
 21
869.71809000000007
 31
0.0
  0
LINE
  5
25E
  8
DETAIL
  6
CONTINUOUS
 62
     5
 10
1366.163724
 20
831.71808999999996
 30
0.0
 11
1327.163609
 21
831.71808999999996
 31
0.0
  0
LINE
  5
25F
  8
DETAIL
  6
CONTINUOUS
 62
     5
 10
1362.663724
 20
857.71808999999996
 30
0.0
 11
1380.663724
 21
857.71808999999996
 31
0.0
  0
LINE
  5
260
  8
DETAIL
  6
CONTINUOUS
 62
     5
 10
1681.7739759999999
 20
576.71808999999996
 30
0.0
 11
1344.7739759999999
 21
576.71808999999996
 31
0.0
  0
LINE
  5
261
  8
DETAIL
  6
CONTINUOUS
 62
     5
 10
1324.113689
 20
576.71808999999996
 30
0.0
 11
1698.0089929999999
 21
576.71808999999996
 31
0.0
  0
CIRCLE
  5
262
  8
SIZE
  6
CONTINUOUS
 62
    30
 10
523.70534999999995
 20
436.71809000000002
 30
0.0
 40
5.0
  0
LINE
  5
263
  8
SIZE
  6
CONTINUOUS
 62
    30
 10
523.70534999999995
 20
436.71809000000002
 30
0.0
 11
523.70534999999995
 21
72.032375999999999
 31
0.0
  0
CIRCLE
  5
264
  8
SIZE
  6
CONTINUOUS
 62
    30
 10
830.07066399999985
 20
436.71809000000002
 30
0.0
 40
5.0
  0
LINE
  5
265
  8
SIZE
  6
CONTINUOUS
 62
    30
 10
830.07066399999985
 20
460.21809000000002
 30
0.0
 11
703.59633799999995
 21
426.68311599999998
 31
0.0
  0
CIRCLE
  5
266
  8
SIZE
  6
CONTINUOUS
 62
    30
 10
830.07066399999985
 20
436.71809000000002
 30
0.0
 40
5.0
  0
LINE
  5
267
  8
SIZE
  6
CONTINUOUS
 62
    30
 10
830.07066399999985
 20
436.71809000000002
 30
0.0
 11
830.07066399999985
 21
428.71809000000002
 31
0.0
  0
LINE
  5
268
  8
SIZE
  6
CONTINUOUS
 62
    30
 10
1324.1639769999999
 20
643.71809000000007
 30
0.0
 11
1324.1639769999999
 21
-0.000007
 31
0.0
  0
TEXT
  5
269
  8
SIZE
  6
CONTINUOUS
 62
    30
 10
327.94631399999997
 20
118.1568259999999
 30
0.0
 40
55.0
  1
パネル直付時
 50
90.0
 41
0.9
 72
     1
 11
327.94631399999997
 21
289.75682599999999
 31
0.0
  0
TEXT
  5
26A
  8
SIZE
  6
CONTINUOUS
 62
    30
 10
505.70535000000001
 20
90.03237585714291
 30
0.0
 40
55.0
  1
140～300
 50
90.0
 41
0.9
 72
     1
 11
505.70535000000001
 21
249.37523300000001
 31
0.0
  0
POLYLINE
  5
26B
  8
SIZE
  6
CONTINUOUS
 62
    30
 66
     1
 10
0.0
 20
0.0
 30
0.0
  0
VERTEX
  5
8EA
  8
SIZE
  6
CONTINUOUS
 62
    30
 10
251.75385
 20
124.718132
 30
0.0
 42
0.186174
  0
VERTEX
  5
8EB
  8
SIZE
  6
CONTINUOUS
 62
    30
 10
260.60369800000001
 20
103.76864399999999
 30
0.0
 42
0.082105
  0
VERTEX
  5
8EC
  8
SIZE
  6
CONTINUOUS
 62
    30
 10
276.30619999999999
 20
91.594082999999998
 30
0.0
 42
0.058826
  0
VERTEX
  5
8ED
  8
SIZE
  6
CONTINUOUS
 62
    30
 10
298.09225800000002
 20
82.819156000000007
 30
0.0
 42
0.067494
  0
VERTEX
  5
8EE
  8
SIZE
  6
CONTINUOUS
 62
    30
 10
335.58081800000002
 20
77.873652000000007
 30
0.0
 42
0.067494
  0
VERTEX
  5
8EF
  8
SIZE
  6
CONTINUOUS
 62
    30
 10
373.06937799999997
 20
82.819156000000007
 30
0.0
 42
0.058826
  0
VERTEX
  5
8F0
  8
SIZE
  6
CONTINUOUS
 62
    30
 10
394.855436
 20
91.594082999999998
 30
0.0
 42
0.082105
  0
VERTEX
  5
8F1
  8
SIZE
  6
CONTINUOUS
 62
    30
 10
410.55793799999998
 20
103.76864399999999
 30
0.0
 42
0.186174
  0
VERTEX
  5
8F2
  8
SIZE
  6
CONTINUOUS
 62
    30
 10
419.40778599999999
 20
124.718132
 30
0.0
 42
0.186174
  0
VERTEX
  5
8F3
  8
SIZE
  6
CONTINUOUS
 62
    30
 10
419.40778599999999
 20
124.718132
 30
0.0
 42
0.186174
  0
SEQEND
  5
8F4
  8
SIZE
  6
CONTINUOUS
 62
    30
  0
TEXT
  5
277
  8
SIZE
  6
CONTINUOUS
 62
    30
 10
411.69609300000002
 20
175.0154772857143
 30
0.0
 40
55.0
  1
50～60
 50
90.0
 41
0.9
 72
     1
 11
411.69609300000002
 21
291.92976299999998
 31
0.0
  0
LINE
  5
278
  8
NOTE
  6
CONTINUOUS
 62
     4
 10
901.77197299999989
 20
188.686894
 30
0.0
 11
1239.376538
 21
188.686894
 31
0.0
  0
LINE
  5
279
  8
NOTE
  6
CONTINUOUS
 62
     4
 10
840.23793599999988
 20
294.162285
 30
0.0
 11
1196.0094810000001
 21
294.162285
 31
0.0
  0
TEXT
  5
27A
  8
NOTE
  6
CONTINUOUS
 62
     4
 10
841.91806300000007
 20
304.93132100000003
 30
0.0
 40
60.0
  1
RG %%C15.88
 50
359.99999700000001
 41
0.7
  7
STANDARD1
  0
TEXT
  5
27B
  8
SIZE
  6
CONTINUOUS
 62
    30
 10
685.59633799999995
 20
328.54025942857152
 30
0.0
 40
55.0
  1
47
 50
90.0
 41
0.9
 72
     1
 11
685.59633799999995
 21
368.61168800000002
 31
0.0
  0
TEXT
  5
27C
  8
SIZE
  6
CONTINUOUS
 62
    30
 10
812.07066399999985
 20
357.71809000000002
 30
0.0
 40
55.0
  1
8
 50
90.0
 41
0.9
 72
     1
 11
812.07066399999985
 21
374.21809000000002
 31
0.0
  0
LINE
  5
27D
  8
SIZE
  6
CONTINUOUS
 62
    30
 10
703.59633799999995
 20
426.68311599999998
 30
0.0
 11
703.59633799999995
 21
310.54025899999999
 31
0.0
  0
LINE
  5
27E
  8
SIZE
  6
CONTINUOUS
 62
    30
 10
830.07066399999985
 20
431.71809000000002
 30
0.0
 11
830.07066399999985
 21
426.71809000000002
 31
0.0
  0
LINE
  5
27F
  8
SIZE
  6
CONTINUOUS
 62
    30
 10
830.07066399999985
 20
426.71809000000002
 30
0.0
 11
830.07066399999985
 21
416.7180899999999
 31
0.0
  0
LINE
  5
280
  8
SIZE
  6
CONTINUOUS
 62
    30
 10
830.07066399999985
 20
423.71809000000002
 30
0.0
 11
830.07066399999985
 21
418.71809000000002
 31
0.0
  0
CIRCLE
  5
281
  8
SIZE
  6
CONTINUOUS
 62
    30
 10
830.07066399999985
 20
428.71809000000002
 30
0.0
 40
5.0
  0
LINE
  5
282
  8
SIZE
  6
CONTINUOUS
 62
    30
 10
830.07066399999985
 20
418.71809000000002
 30
0.0
 11
830.07066399999985
 21
339.71809000000002
 31
0.0
  0
LINE
  5
283
  8
SIZE
  6
CONTINUOUS
 62
    30
 10
1329.1639769999999
 20
29.999993
 30
0.0
 11
1334.1639769999999
 21
29.999993
 31
0.0
  0
CIRCLE
  5
284
  8
SIZE
  6
CONTINUOUS
 62
    30
 10
1324.1639769999999
 20
29.999993
 30
0.0
 40
5.0
  0
TEXT
  5
285
  8
NOTE
  6
CONTINUOUS
 62
     4
 10
916.56356799999992
 20
201.56741600000001
 30
0.0
 40
60.0
  1
RL %%C9.52
 50
359.99999700000001
 41
0.7
  7
STANDARD1
  0
TEXT
  5
286
  8
ETC
  6
CONTINUOUS
 62
    61
 10
-0.000014
 20
1371.404
 30
0.0
 40
80.0
  1
MPD-RP71_80FA3_4
 50
359.99999700000001
 41
0.8
  0
TEXT
  5
287
  8
NOTE
  6
CONTINUOUS
 62
     4
 10
463.17571099999998
 20
1096.4879800000001
 30
0.0
 40
60.0
  1
%%C200 吹出円形フランジ
 50
359.99999700000001
 41
0.7
  7
STANDARD1
  0
TEXT
  5
288
  8
SIZE
  6
CONTINUOUS
 62
    30
 10
505.70535000000001
 20
659.57523285714285
 30
0.0
 40
55.0
  1
293
 50
90.0
 41
0.9
 72
     1
 11
505.70535000000001
 21
723.21809000000007
 31
0.0
  0
POLYLINE
  5
289
  8
SIZE
  6
CONTINUOUS
 62
    30
 66
     1
 10
0.0
 20
0.0
 30
0.0
  0
VERTEX
  5
8F5
  8
SIZE
  6
CONTINUOUS
 62
    30
 10
419.40778599999999
 20
452.46375799999998
 30
0.0
 42
0.186174
  0
VERTEX
  5
8F6
  8
SIZE
  6
CONTINUOUS
 62
    30
 10
410.55793799999998
 20
473.41324600000002
 30
0.0
 42
0.082105
  0
VERTEX
  5
8F7
  8
SIZE
  6
CONTINUOUS
 62
    30
 10
394.855436
 20
485.58780700000011
 30
0.0
 42
0.058826
  0
VERTEX
  5
8F8
  8
SIZE
  6
CONTINUOUS
 62
    30
 10
373.06937799999997
 20
494.36273399999988
 30
0.0
 42
0.067494
  0
VERTEX
  5
8F9
  8
SIZE
  6
CONTINUOUS
 62
    30
 10
335.58081800000002
 20
499.30823700000002
 30
0.0
 42
0.067494
  0
VERTEX
  5
8FA
  8
SIZE
  6
CONTINUOUS
 62
    30
 10
298.09225800000002
 20
494.36273399999988
 30
0.0
 42
0.058826
  0
VERTEX
  5
8FB
  8
SIZE
  6
CONTINUOUS
 62
    30
 10
276.30619999999999
 20
485.58780700000011
 30
0.0
 42
0.082105
  0
VERTEX
  5
8FC
  8
SIZE
  6
CONTINUOUS
 62
    30
 10
260.60369800000001
 20
473.41324600000002
 30
0.0
 42
0.186174
  0
VERTEX
  5
8FD
  8
SIZE
  6
CONTINUOUS
 62
    30
 10
251.75385
 20
452.46375799999998
 30
0.0
 42
0.186174
  0
SEQEND
  5
8FE
  8
SIZE
  6
CONTINUOUS
 62
    30
  0
LINE
  5
294
  8
SIZE
  6
CONTINUOUS
 62
    30
 10
1324.1639769999999
 20
889.71808999999996
 30
0.0
 11
1324.1639769999999
 21
1239.1657889999999
 31
0.0
  0
LINE
  5
295
  8
SIZE
  6
CONTINUOUS
 62
    30
 10
1254.1639769999999
 20
851.21808999999996
 30
0.0
 11
1254.1639769999999
 21
1486.4745230000001
 31
0.0
  0
LINE
  5
296
  8
SIZE
  6
CONTINUOUS
 62
    30
 10
1324.1639769999999
 20
889.71808999999996
 30
0.0
 11
1324.1639769999999
 21
1486.4745230000001
 31
0.0
  0
LINE
  5
297
  8
SIZE
  6
CONTINUOUS
 62
    30
 10
1324.1639769999999
 20
889.71808999999996
 30
0.0
 11
1324.1639769999999
 21
1486.4745230000001
 31
0.0
  0
LINE
  5
298
  8
SIZE
  6
CONTINUOUS
 62
    30
 10
1358.1639769999999
 20
904.71325599999989
 30
0.0
 11
1358.1639769999999
 21
1360.706173
 31
0.0
  0
LINE
  5
299
  8
SIZE
  6
CONTINUOUS
 62
    30
 10
1294.1639769999999
 20
853.71808999999996
 30
0.0
 11
1294.1639769999999
 21
1062.788632
 31
0.0
  0
LINE
  5
29A
  8
SIZE
  6
CONTINUOUS
 62
    30
 10
1254.1639769999999
 20
851.21808999999996
 30
0.0
 11
1254.1639769999999
 21
1062.788632
 31
0.0
  0
LINE
  5
29B
  8
NOTE
  6
CONTINUOUS
 62
     4
 10
1053.4095380000001
 20
1081.692288
 30
0.0
 11
1254.1639769999999
 21
733.71808999999996
 31
0.0
  0
LINE
  5
29C
  8
SIZE
  6
CONTINUOUS
 62
    30
 10
1303.452581
 20
576.71808999999996
 30
0.0
 11
493.70535000000001
 21
576.71808999999996
 31
0.0
  0
LINE
  5
29D
  8
SIZE
  6
CONTINUOUS
 62
    30
 10
1304.1639769999999
 20
869.71809000000007
 30
0.0
 11
784.11802899999986
 21
869.71809000000007
 31
0.0
  0
TEXT
  5
29E
  8
SIZE
  6
CONTINUOUS
 62
    30
 10
923.1253099999999
 20
897.71808999999996
 30
0.0
 40
55.0
  1
136
 50
90.0
 41
0.9
 72
     1
 11
923.1253099999999
 21
955.46809000000007
 31
0.0
  0
LINE
  5
29F
  8
SIZE
  6
CONTINUOUS
 62
    30
 10
1162.219462
 20
733.71808999999996
 30
0.0
 11
911.12531000000001
 21
733.71808999999996
 31
0.0
  0
LINE
  5
2A0
  8
SIZE
  6
CONTINUOUS
 62
    30
 10
1304.1639769999999
 20
869.71809000000007
 30
0.0
 11
911.12531000000001
 21
869.71809000000007
 31
0.0
  0
LINE
  5
2A1
  8
SIZE
  6
CONTINUOUS
 62
    30
 10
1304.113689
 20
576.71808999999996
 30
0.0
 11
493.70535000000001
 21
576.71808999999996
 31
0.0
  0
LINE
  5
2A2
  8
SIZE
  6
CONTINUOUS
 62
    30
 10
1304.1639769999999
 20
869.71809000000007
 30
0.0
 11
493.70535000000001
 21
869.71809000000007
 31
0.0
  0
TEXT
  5
2A3
  8
SIZE
  6
CONTINUOUS
 62
    30
 10
665.400665
 20
712.51983242857136
 30
0.0
 40
55.0
  1
28
 50
90.0
 41
0.9
 72
     1
 11
665.400665
 21
752.59126100000003
 31
0.0
  0
LINE
  5
2A4
  8
SIZE
  6
CONTINUOUS
 62
    30
 10
683.400665
 20
694.51983200000006
 30
0.0
 11
683.400665
 21
810.66268899999989
 31
0.0
  0
TEXT
  5
2A5
  8
SIZE
  6
CONTINUOUS
 62
    30
 10
796.11802899999986
 20
724.78951857142863
 30
0.0
 40
55.0
  1
172
 50
90.0
 41
0.9
 72
     1
 11
796.11802899999986
 21
783.71808999999996
 31
0.0
  0
LINE
  5
2A6
  8
SIZE
  6
CONTINUOUS
 62
    30
 10
814.11802899999986
 20
859.71809000000007
 30
0.0
 11
814.11802899999986
 21
707.71808999999996
 31
0.0
  0
LINE
  5
2A7
  8
SIZE
  6
CONTINUOUS
 62
    30
 10
523.70534999999995
 20
859.71809000000007
 30
0.0
 11
523.70534999999995
 21
586.71809000000007
 31
0.0
  0
LINE
  5
2A8
  8
SIZE
  6
CONTINUOUS
 62
    30
 10
814.11802899999986
 20
683.71941100000004
 30
0.0
 11
683.400665
 21
694.51983200000006
 31
0.0
  0
POINT
  5
2A9
  8
DEFPOINTS
  6
CONTINUOUS
 62
     7
 10
523.70534999999995
 20
436.71809000000002
 30
0.0
  0
LINE
  5
2AA
  8
SIZE
  6
CONTINUOUS
 62
    30
 10
523.70534999999995
 20
441.7180899999999
 30
0.0
 11
523.70534999999995
 21
446.71809000000002
 31
0.0
  0
LINE
  5
2AB
  8
SIZE
  6
CONTINUOUS
 62
    30
 10
523.70534999999995
 20
571.71808999999996
 30
0.0
 11
523.70534999999995
 21
566.71808999999996
 31
0.0
  0
CIRCLE
  5
2AC
  8
SIZE
  6
CONTINUOUS
 62
    30
 10
523.70534999999995
 20
576.71808999999996
 30
0.0
 40
5.0
  0
LINE
  5
2AD
  8
SIZE
  6
CONTINUOUS
 62
    30
 10
523.70534999999995
 20
566.71808999999996
 30
0.0
 11
523.70534999999995
 21
446.71809000000002
 31
0.0
  0
POINT
  5
2AE
  8
DEFPOINTS
  6
CONTINUOUS
 62
     7
 10
523.70534999999995
 20
576.71808999999996
 30
0.0
  0
LINE
  5
2AF
  8
SIZE
  6
CONTINUOUS
 62
    30
 10
523.70534999999995
 20
581.71809000000007
 30
0.0
 11
523.70534999999995
 21
586.71809000000007
 31
0.0
  0
CIRCLE
  5
2B0
  8
SIZE
  6
CONTINUOUS
 62
    30
 10
523.70534999999995
 20
576.71808999999996
 30
0.0
 40
5.0
  0
POINT
  5
2B1
  8
DEFPOINTS
  6
CONTINUOUS
 62
     7
 10
830.07066399999985
 20
483.7180899999999
 30
0.0
  0
LINE
  5
2B2
  8
SIZE
  6
CONTINUOUS
 62
    30
 10
830.07066399999985
 20
488.71809000000002
 30
0.0
 11
830.07066399999985
 21
493.71809000000002
 31
0.0
  0
CIRCLE
  5
2B3
  8
SIZE
  6
CONTINUOUS
 62
    30
 10
830.07066399999985
 20
483.7180899999999
 30
0.0
 40
5.0
  0
LINE
  5
2B4
  8
SIZE
  6
CONTINUOUS
 62
    30
 10
830.07066399999985
 20
436.71809000000002
 30
0.0
 11
830.07066399999985
 21
483.7180899999999
 31
0.0
  0
LINE
  5
2B5
  8
SIZE
  6
CONTINUOUS
 62
    30
 10
830.07066399999985
 20
436.71809000000002
 30
0.0
 11
830.07066399999985
 21
483.7180899999999
 31
0.0
  0
LINE
  5
2B6
  8
SIZE
  6
CONTINUOUS
 62
    30
 10
830.07066399999985
 20
493.71809000000002
 30
0.0
 11
830.07066399999985
 21
503.71809000000002
 31
0.0
  0
POINT
  5
2B7
  8
DEFPOINTS
  6
CONTINUOUS
 62
     7
 10
830.07066399999985
 20
436.71809000000002
 30
0.0
  0
LINE
  5
2B8
  8
SIZE
  6
CONTINUOUS
 62
    30
 10
830.07066399999985
 20
441.7180899999999
 30
0.0
 11
830.07066399999985
 21
446.71809000000002
 31
0.0
  0
LINE
  5
2B9
  8
SIZE
  6
CONTINUOUS
 62
    30
 10
830.07066399999985
 20
446.71809000000002
 30
0.0
 11
830.07066399999985
 21
456.71809000000002
 31
0.0
  0
POINT
  5
2BA
  8
DEFPOINTS
  6
CONTINUOUS
 62
     7
 10
814.11802899999986
 20
669.720731
 30
0.0
  0
LINE
  5
2BB
  8
SIZE
  6
CONTINUOUS
 62
    30
 10
814.11802899999986
 20
664.72073099999989
 30
0.0
 11
814.11802899999986
 21
659.72073099999989
 31
0.0
  0
CIRCLE
  5
2BC
  8
SIZE
  6
CONTINUOUS
 62
    30
 10
814.11802899999986
 20
669.720731
 30
0.0
 40
5.0
  0
LINE
  5
2BD
  8
SIZE
  6
CONTINUOUS
 62
    30
 10
814.11802899999986
 20
702.71809000000007
 30
0.0
 11
814.11802899999986
 21
707.71808999999996
 31
0.0
  0
CIRCLE
  5
2BE
  8
SIZE
  6
CONTINUOUS
 62
    30
 10
814.11802899999986
 20
697.71808999999996
 30
0.0
 40
5.0
  0
LINE
  5
2BF
  8
SIZE
  6
CONTINUOUS
 62
    30
 10
814.11802899999986
 20
697.71808999999996
 30
0.0
 11
814.11802899999986
 21
669.720731
 31
0.0
  0
LINE
  5
2C0
  8
SIZE
  6
CONTINUOUS
 62
    30
 10
814.11802899999986
 20
697.71808999999996
 30
0.0
 11
814.11802899999986
 21
669.720731
 31
0.0
  0
LINE
  5
2C1
  8
SIZE
  6
CONTINUOUS
 62
    30
 10
814.11802899999986
 20
659.72073099999989
 30
0.0
 11
814.11802899999986
 21
649.720731
 31
0.0
  0
LINE
  5
2C2
  8
SIZE
  6
CONTINUOUS
 62
    30
 10
814.11802899999986
 20
707.71808999999996
 30
0.0
 11
814.11802899999986
 21
717.71808999999996
 31
0.0
  0
POINT
  5
2C3
  8
DEFPOINTS
  6
CONTINUOUS
 62
     7
 10
814.11802899999986
 20
697.71808999999996
 30
0.0
  0
LINE
  5
2C4
  8
SIZE
  6
CONTINUOUS
 62
    30
 10
814.11802899999986
 20
702.71809000000007
 30
0.0
 11
814.11802899999986
 21
707.71808999999996
 31
0.0
  0
CIRCLE
  5
2C5
  8
SIZE
  6
CONTINUOUS
 62
    30
 10
814.11802899999986
 20
697.71808999999996
 30
0.0
 40
5.0
  0
LINE
  5
2C6
  8
SIZE
  6
CONTINUOUS
 62
    30
 10
523.70534999999995
 20
864.71808999999996
 30
0.0
 11
523.70534999999995
 21
859.71809000000007
 31
0.0
  0
CIRCLE
  5
2C7
  8
SIZE
  6
CONTINUOUS
 62
    30
 10
523.70534999999995
 20
869.71809000000007
 30
0.0
 40
5.0
  0
LINE
  5
2C8
  8
SIZE
  6
CONTINUOUS
 62
    30
 10
814.11802899999986
 20
864.71808999999996
 30
0.0
 11
814.11802899999986
 21
859.71809000000007
 31
0.0
  0
CIRCLE
  5
2C9
  8
SIZE
  6
CONTINUOUS
 62
    30
 10
814.11802899999986
 20
869.71809000000007
 30
0.0
 40
5.0
  0
LINE
  5
2CA
  8
SIZE
  6
CONTINUOUS
 62
    30
 10
941.1253099999999
 20
738.71808999999996
 30
0.0
 11
941.1253099999999
 21
743.71809000000007
 31
0.0
  0
LINE
  5
2CB
  8
OUTLINE
  6
CONTINUOUS
 62
     3
 10
1324.1639769999999
 20
869.71809000000007
 30
0.0
 11
1324.1639769999999
 21
576.71808999999996
 31
0.0
  0
LINE
  5
2CC
  8
NOTE
  6
CONTINUOUS
 62
     4
 10
1254.1639769999999
 20
733.71808999999996
 30
0.0
 11
1243.7746059999999
 21
766.49629400000003
 31
0.0
  0
LINE
  5
2CD
  8
NOTE
  6
CONTINUOUS
 62
     4
 10
1254.1639769999999
 20
733.71808999999996
 30
0.0
 11
1228.7774159999999
 21
756.91016100000002
 31
0.0
  0
LINE
  5
2CE
  8
NOTE
  6
CONTINUOUS
 62
     4
 10
1254.1639769999999
 20
805.66260499999999
 30
0.0
 11
1254.1639769999999
 21
661.77357500000005
 31
0.0
  0
LINE
  5
2CF
  8
DETAIL
  6
CONTINUOUS
 62
     5
 10
1294.1639769999999
 20
833.71809000000007
 30
0.0
 11
1294.1639769999999
 21
633.71808999999996
 31
0.0
  0
LINE
  5
2D0
  8
DETAIL
  6
CONTINUOUS
 62
     5
 10
1254.1639769999999
 20
831.21809000000007
 30
0.0
 11
1254.1639769999999
 21
636.21809000000007
 31
0.0
  0
LINE
  5
2D1
  8
DETAIL
  6
CONTINUOUS
 62
     5
 10
1324.1639769999999
 20
869.71809000000007
 30
0.0
 11
1324.1639769999999
 21
576.71808999999996
 31
0.0
  0
LINE
  5
2D2
  8
DETAIL
  6
CONTINUOUS
 62
     5
 10
1309.1639769999999
 20
837.71808999999996
 30
0.0
 11
1309.1639769999999
 21
629.71808999999996
 31
0.0
  0
POINT
  5
2D3
  8
DEFPOINTS
  6
CONTINUOUS
 62
     7
 10
941.1253099999999
 20
733.71808999999996
 30
0.0
  0
CIRCLE
  5
2D4
  8
SIZE
  6
CONTINUOUS
 62
    30
 10
941.1253099999999
 20
733.71808999999996
 30
0.0
 40
5.0
  0
POINT
  5
2D5
  8
DEFPOINTS
  6
CONTINUOUS
 62
     7
 10
1323.452581
 20
576.71808999999996
 30
0.0
  0
POINT
  5
2D6
  8
DEFPOINTS
  6
CONTINUOUS
 62
     7
 10
1324.113689
 20
576.71808999999996
 30
0.0
  0
LINE
  5
2D7
  8
NOTE
  6
CONTINUOUS
 62
     4
 10
1326.1084920000001
 20
733.71808999999996
 30
0.0
 11
1182.219462
 21
733.71808999999996
 31
0.0
  0
POINT
  5
2D8
  8
DEFPOINTS
  6
CONTINUOUS
 62
     7
 10
1182.219462
 20
733.71808999999996
 30
0.0
  0
POINT
  5
2D9
  8
DEFPOINTS
  6
CONTINUOUS
 62
     7
 10
1324.1639769999999
 20
663.71808999999996
 30
0.0
  0
ARC
  5
2DA
  8
DETAIL
  6
CONTINUOUS
 62
     5
 10
1307.1639769999999
 20
631.71809000000007
 30
0.0
 40
2.0
 50
0.0
 51
90.0
  0
LINE
  5
2DB
  8
DETAIL
  6
CONTINUOUS
 62
     5
 10
1289.1639769999999
 20
633.71808999999996
 30
0.0
 11
1254.1639769999999
 21
636.21809000000007
 31
0.0
  0
LINE
  5
2DC
  8
DETAIL
  6
CONTINUOUS
 62
     5
 10
1289.1639769999999
 20
633.71808999999996
 30
0.0
 11
1307.1639769999999
 21
633.71808999999996
 31
0.0
  0
LINE
  5
2DD
  8
DETAIL
  6
CONTINUOUS
 62
     5
 10
1313.1639769999999
 20
625.71808999999996
 30
0.0
 11
1324.1639769999999
 21
625.71808999999996
 31
0.0
  0
ARC
  5
2DE
  8
DETAIL
  6
CONTINUOUS
 62
     5
 10
1313.1639769999999
 20
629.71808999999996
 30
0.0
 40
4.0
 50
180.0
 51
270.0
  0
LINE
  5
2DF
  8
SIZE
  6
CONTINUOUS
 62
    30
 10
1244.1639769999999
 20
1032.788632
 30
0.0
 11
1118.0211200000001
 21
1032.788632
 31
0.0
  0
LINE
  5
2E0
  8
SIZE
  6
CONTINUOUS
 62
    30
 10
941.1253099999999
 20
869.71809000000007
 30
0.0
 11
941.1253099999999
 21
1031.2180900000001
 31
0.0
  0
LINE
  5
2E1
  8
SIZE
  6
CONTINUOUS
 62
    30
 10
941.1253099999999
 20
864.71808999999996
 30
0.0
 11
941.1253099999999
 21
859.71809000000007
 31
0.0
  0
CIRCLE
  5
2E2
  8
SIZE
  6
CONTINUOUS
 62
    30
 10
941.1253099999999
 20
869.71809000000007
 30
0.0
 40
5.0
  0
LINE
  5
2E3
  8
SIZE
  6
CONTINUOUS
 62
    30
 10
941.1253099999999
 20
743.71809000000007
 30
0.0
 11
941.1253099999999
 21
859.71809000000007
 31
0.0
  0
POINT
  5
2E4
  8
DEFPOINTS
  6
CONTINUOUS
 62
     7
 10
1324.1639769999999
 20
869.71809000000007
 30
0.0
  0
POINT
  5
2E5
  8
DEFPOINTS
  6
CONTINUOUS
 62
     7
 10
1324.1639769999999
 20
869.71809000000007
 30
0.0
  0
POINT
  5
2E6
  8
DEFPOINTS
  6
CONTINUOUS
 62
     7
 10
1324.1639769999999
 20
869.71809000000007
 30
0.0
  0
POINT
  5
2E7
  8
DEFPOINTS
  6
CONTINUOUS
 62
     7
 10
1324.1639769999999
 20
869.71809000000007
 30
0.0
  0
POINT
  5
2E8
  8
DEFPOINTS
  6
CONTINUOUS
 62
     7
 10
1254.1639769999999
 20
831.21809000000007
 30
0.0
  0
POINT
  5
2E9
  8
DEFPOINTS
  6
CONTINUOUS
 62
     7
 10
1324.1639769999999
 20
869.71809000000007
 30
0.0
  0
POINT
  5
2EA
  8
DEFPOINTS
  6
CONTINUOUS
 62
     7
 10
1324.1639769999999
 20
869.71809000000007
 30
0.0
  0
POINT
  5
2EB
  8
DEFPOINTS
  6
CONTINUOUS
 62
     7
 10
1358.1639769999999
 20
884.713256
 30
0.0
  0
POINT
  5
2EC
  8
DEFPOINTS
  6
CONTINUOUS
 62
     7
 10
1294.1639769999999
 20
833.71809000000007
 30
0.0
  0
POINT
  5
2ED
  8
DEFPOINTS
  6
CONTINUOUS
 62
     7
 10
1254.1639769999999
 20
831.21809000000007
 30
0.0
  0
LINE
  5
2EE
  8
NOTE
  6
CONTINUOUS
 62
     4
 10
1358.1639769999999
 20
884.713256
 30
0.0
 11
1358.1639769999999
 21
854.72292400000003
 31
0.0
  0
LINE
  5
2EF
  8
DETAIL
  6
CONTINUOUS
 62
     5
 10
1324.163609
 20
834.71812199999988
 30
0.0
 11
1324.1639769999999
 21
869.71809000000007
 31
0.0
  0
ARC
  5
2F0
  8
DETAIL
  6
CONTINUOUS
 62
     5
 10
1327.163609
 20
834.71809000000007
 30
0.0
 40
3.0
 50
179.99939800000001
 51
270.0
  0
LINE
  5
2F1
  8
DETAIL
  6
CONTINUOUS
 62
     5
 10
1344.663724
 20
857.71808999999996
 30
0.0
 11
1326.663724
 21
857.71808999999996
 31
0.0
  0
LINE
  5
2F2
  8
DETAIL
  6
CONTINUOUS
 62
     5
 10
1347.663724
 20
869.71809000000007
 30
0.0
 11
1347.663724
 21
860.71809000000007
 31
0.0
  0
ARC
  5
2F3
  8
DETAIL
  6
CONTINUOUS
 62
     5
 10
1327.163724
 20
860.71809000000007
 30
0.0
 40
3.0
 50
180.0
 51
270.0
  0
ARC
  5
2F4
  8
DETAIL
  6
CONTINUOUS
 62
     5
 10
1344.663724
 20
860.71809000000007
 30
0.0
 40
3.0
 50
270.0
 51
0.0
  0
ARC
  5
2F5
  8
DETAIL
  6
CONTINUOUS
 62
     5
 10
1362.663724
 20
860.71809000000007
 30
0.0
 40
3.0
 50
180.0
 51
270.0
  0
LINE
  5
2F6
  8
DETAIL
  6
CONTINUOUS
 62
     5
 10
1359.663724
 20
869.71809000000007
 30
0.0
 11
1359.663724
 21
860.71809000000007
 31
0.0
  0
ARC
  5
2F7
  8
DETAIL
  6
CONTINUOUS
 62
     5
 10
1307.1639769999999
 20
835.71809000000007
 30
0.0
 40
2.0
 50
270.0
 51
0.0
  0
LINE
  5
2F8
  8
DETAIL
  6
CONTINUOUS
 62
     5
 10
1289.1639769999999
 20
833.71809000000007
 30
0.0
 11
1307.1639769999999
 21
833.71809000000007
 31
0.0
  0
LINE
  5
2F9
  8
DETAIL
  6
CONTINUOUS
 62
     5
 10
1289.1639769999999
 20
833.71809000000007
 30
0.0
 11
1254.1639769999999
 21
831.21809000000007
 31
0.0
  0
LINE
  5
2FA
  8
DETAIL
  6
CONTINUOUS
 62
     5
 10
1313.1639769999999
 20
841.71809000000007
 30
0.0
 11
1324.1639769999999
 21
841.71809000000007
 31
0.0
  0
ARC
  5
2FB
  8
DETAIL
  6
CONTINUOUS
 62
     5
 10
1313.1639769999999
 20
837.71808999999996
 30
0.0
 40
4.0
 50
90.0
 51
180.0
  0
CIRCLE
  5
2FC
  8
SIZE
  6
CONTINUOUS
 62
    30
 10
1254.1639769999999
 20
1032.788632
 30
0.0
 40
5.0
  0
LINE
  5
2FD
  8
SIZE
  6
CONTINUOUS
 62
    30
 10
1249.1639769999999
 20
1032.788632
 30
0.0
 11
1244.1639769999999
 21
1032.788632
 31
0.0
  0
POINT
  5
2FE
  8
DEFPOINTS
  6
CONTINUOUS
 62
     7
 10
1294.1639769999999
 20
1032.788632
 30
0.0
  0
LINE
  5
2FF
  8
SIZE
  6
CONTINUOUS
 62
    30
 10
1299.1639769999999
 20
1032.788632
 30
0.0
 11
1304.1639769999999
 21
1032.788632
 31
0.0
  0
CIRCLE
  5
300
  8
SIZE
  6
CONTINUOUS
 62
    30
 10
1294.1639769999999
 20
1032.788632
 30
0.0
 40
5.0
  0
LINE
  5
301
  8
SIZE
  6
CONTINUOUS
 62
    30
 10
1294.1639769999999
 20
1032.788632
 30
0.0
 11
1254.1639769999999
 21
1032.788632
 31
0.0
  0
LINE
  5
302
  8
SIZE
  6
CONTINUOUS
 62
    30
 10
1304.1639769999999
 20
1032.788632
 30
0.0
 11
1314.1639769999999
 21
1032.788632
 31
0.0
  0
LINE
  5
303
  8
NOTE
  6
CONTINUOUS
 62
     4
 10
470.43202000000002
 20
1081.692288
 30
0.0
 11
1053.4095380000001
 21
1081.692288
 31
0.0
  0
TEXT
  5
304
  8
SIZE
  6
CONTINUOUS
 62
    30
 10
1115.820629571429
 20
1227.1657889999999
 30
0.0
 40
55.0
  1
128
 41
0.9
 72
     1
 11
1174.7492010000001
 21
1227.1657889999999
 31
0.0
  0
LINE
  5
305
  8
SIZE
  6
CONTINUOUS
 62
    30
 10
1324.1639769999999
 20
1209.1657889999999
 30
0.0
 11
1097.8206290000001
 21
1209.1657889999999
 31
0.0
  0
TEXT
  5
306
  8
SIZE
  6
CONTINUOUS
 62
    30
 10
1136.021119428571
 20
1050.788632
 30
0.0
 40
55.0
  1
40
 41
0.9
 72
     1
 11
1176.0925480000001
 21
1050.788632
 31
0.0
  0
LINE
  5
307
  8
SIZE
  6
CONTINUOUS
 62
    30
 10
1329.1639769999999
 20
1209.1657889999999
 30
0.0
 11
1334.1639769999999
 21
1209.1657889999999
 31
0.0
  0
CIRCLE
  5
308
  8
SIZE
  6
CONTINUOUS
 62
    30
 10
1324.1639769999999
 20
1209.1657889999999
 30
0.0
 40
5.0
  0
POINT
  5
309
  8
DEFPOINTS
  6
CONTINUOUS
 62
     7
 10
1358.1639769999999
 20
1330.706173
 30
0.0
  0
TEXT
  5
30A
  8
SIZE
  6
CONTINUOUS
 62
    30
 10
1249.092548428571
 20
1474.4745230000001
 30
0.0
 40
55.0
  1
70
 41
0.9
 72
     1
 11
1289.1639769999999
 21
1474.4745230000001
 31
0.0
  0
CIRCLE
  5
30B
  8
SIZE
  6
CONTINUOUS
 62
    30
 10
1254.1639769999999
 20
1456.4745230000001
 30
0.0
 40
5.0
  0
LINE
  5
30C
  8
SIZE
  6
CONTINUOUS
 62
    30
 10
1249.1639769999999
 20
1456.4745230000001
 30
0.0
 11
1244.1639769999999
 21
1456.4745230000001
 31
0.0
  0
LINE
  5
30D
  8
SIZE
  6
CONTINUOUS
 62
    30
 10
1244.1639769999999
 20
1456.4745230000001
 30
0.0
 11
1234.1639769999999
 21
1456.4745230000001
 31
0.0
  0
POINT
  5
30E
  8
DEFPOINTS
  6
CONTINUOUS
 62
     7
 10
1254.1639769999999
 20
1456.4745230000001
 30
0.0
  0
LINE
  5
30F
  8
SIZE
  6
CONTINUOUS
 62
    30
 10
1329.1639769999999
 20
1456.4745230000001
 30
0.0
 11
1334.1639769999999
 21
1456.4745230000001
 31
0.0
  0
CIRCLE
  5
310
  8
SIZE
  6
CONTINUOUS
 62
    30
 10
1324.1639769999999
 20
1456.4745230000001
 30
0.0
 40
5.0
  0
LINE
  5
311
  8
SIZE
  6
CONTINUOUS
 62
    30
 10
1324.1639769999999
 20
1456.4745230000001
 30
0.0
 11
1254.1639769999999
 21
1456.4745230000001
 31
0.0
  0
LINE
  5
312
  8
SIZE
  6
CONTINUOUS
 62
    30
 10
1334.1639769999999
 20
1456.4745230000001
 30
0.0
 11
1344.1639769999999
 21
1456.4745230000001
 31
0.0
  0
POINT
  5
313
  8
DEFPOINTS
  6
CONTINUOUS
 62
     7
 10
1324.1639769999999
 20
1456.4745230000001
 30
0.0
  0
LINE
  5
314
  8
SIZE
  6
CONTINUOUS
 62
    30
 10
1329.1639769999999
 20
1456.4745230000001
 30
0.0
 11
1334.1639769999999
 21
1456.4745230000001
 31
0.0
  0
CIRCLE
  5
315
  8
SIZE
  6
CONTINUOUS
 62
    30
 10
1324.1639769999999
 20
1456.4745230000001
 30
0.0
 40
5.0
  0
LINE
  5
316
  8
BASIS
  6
DASHDOT
 62
     6
 10
1691.6639769999999
 20
905.28980299999989
 30
0.0
 11
1691.6639769999999
 21
382.83191900000003
 31
0.0
  0
CIRCLE
  5
317
  8
ARRANGE
  6
CONTINUOUS
 62
     1
 10
1691.6639769999999
 20
436.71809000000002
 30
0.0
 40
50.0
  0
LINE
  5
318
  8
OUTLINE
  6
CONTINUOUS
 62
     3
 10
1534.1639769999999
 20
436.71809000000002
 30
0.0
 11
1534.1639769999999
 21
432.71158200000002
 31
0.0
  0
LINE
  5
319
  8
OUTLINE
  6
CONTINUOUS
 62
     3
 10
2134.1639770000002
 20
436.71809000000002
 30
0.0
 11
2134.1639770000002
 21
432.71158200000002
 31
0.0
  0
LINE
  5
31A
  8
DETAIL
  6
CONTINUOUS
 62
     5
 10
2134.1639770000002
 20
432.71158200000002
 30
0.0
 11
2134.1639770000002
 21
436.71809000000002
 31
0.0
  0
LINE
  5
31B
  8
DETAIL
  6
CONTINUOUS
 62
     5
 10
1534.1639769999999
 20
432.71158200000002
 30
0.0
 11
1534.1639769999999
 21
436.71809000000002
 31
0.0
  0
LINE
  5
31C
  8
ARRANGE
  6
CONTINUOUS
 62
     1
 10
1641.700214
 20
486.31468499999988
 30
0.0
 11
1741.6277399999999
 21
387.12149499999998
 31
0.0
  0
LINE
  5
31D
  8
ARRANGE
  6
CONTINUOUS
 62
     1
 10
1641.6266270000001
 20
387.19573700000001
 30
0.0
 11
1741.701327
 21
486.24044299999991
 31
0.0
  0
TEXT
  5
31E
  8
SIZE
  6
CONTINUOUS
 62
    30
 10
1558.8816702857141
 20
46.404754999999987
 30
0.0
 40
55.0
  1
566(天井開口寸法)
 41
0.9
 72
     1
 11
1832.5459559999999
 21
46.404754999999987
 31
0.0
  0
LINE
  5
31F
  8
SIZE
  6
CONTINUOUS
 62
    30
 10
2107.1639770000002
 20
29.999993
 30
0.0
 11
1561.1639769999999
 21
29.999993
 31
0.0
  0
TEXT
  5
320
  8
SIZE
  6
CONTINUOUS
 62
    30
 10
1778.1989758571431
 20
204.09143399999999
 30
0.0
 40
55.0
  1
600
 41
0.9
 72
     1
 11
1841.841833
 21
204.09143399999999
 31
0.0
  0
LINE
  5
321
  8
SIZE
  6
CONTINUOUS
 62
    30
 10
2124.1639770000002
 20
186.09143399999999
 30
0.0
 11
1544.1639769999999
 21
186.09143399999999
 31
0.0
  0
LINE
  5
322
  8
OUTLINE
  6
CONTINUOUS
 62
     3
 10
1564.863977
 20
428.71809000000002
 30
0.0
 11
2103.4639769999999
 21
428.71809000000002
 31
0.0
  0
LINE
  5
323
  8
DETAIL
  6
CONTINUOUS
 62
     5
 10
1564.863977
 20
428.71809000000002
 30
0.0
 11
2103.4639769999999
 21
428.71809000000002
 31
0.0
  0
LINE
  5
324
  8
SIZE
  6
CONTINUOUS
 62
    30
 10
1551.1639769999999
 20
417.71809000000002
 30
0.0
 11
1551.1639769999999
 21
-0.000007
 31
0.0
  0
LINE
  5
325
  8
SIZE
  6
CONTINUOUS
 62
    30
 10
1551.1639769999999
 20
417.71809000000002
 30
0.0
 11
1551.1639769999999
 21
-0.000007
 31
0.0
  0
TEXT
  5
326
  8
SIZE
  6
CONTINUOUS
 62
    30
 10
1374.021119857143
 20
47.999992999999989
 30
0.0
 40
55.0
  1
227
 41
0.9
 72
     1
 11
1437.6639769999999
 21
47.999992999999989
 31
0.0
  0
POINT
  5
327
  8
DEFPOINTS
  6
CONTINUOUS
 62
     7
 10
1551.1639769999999
 20
29.999993
 30
0.0
  0
LINE
  5
328
  8
SIZE
  6
CONTINUOUS
 62
    30
 10
1546.1639769999999
 20
29.999993
 30
0.0
 11
1541.1639769999999
 21
29.999993
 31
0.0
  0
CIRCLE
  5
329
  8
SIZE
  6
CONTINUOUS
 62
    30
 10
1551.1639769999999
 20
29.999993
 30
0.0
 40
5.0
  0
POINT
  5
32A
  8
DEFPOINTS
  6
CONTINUOUS
 62
     7
 10
1551.1639769999999
 20
29.999993
 30
0.0
  0
LINE
  5
32B
  8
SIZE
  6
CONTINUOUS
 62
    30
 10
1556.1639769999999
 20
29.999993
 30
0.0
 11
1561.1639769999999
 21
29.999993
 31
0.0
  0
CIRCLE
  5
32C
  8
SIZE
  6
CONTINUOUS
 62
    30
 10
1551.1639769999999
 20
29.999993
 30
0.0
 40
5.0
  0
LINE
  5
32D
  8
SIZE
  6
CONTINUOUS
 62
    30
 10
1561.1639769999999
 20
287.40156200000001
 30
0.0
 11
1677.8782630000001
 21
287.40156200000001
 31
0.0
  0
LINE
  5
32E
  8
SIZE
  6
CONTINUOUS
 62
    30
 10
1551.1639769999999
 20
417.71809000000002
 30
0.0
 11
1551.1639769999999
 21
257.40156200000001
 31
0.0
  0
LINE
  5
32F
  8
SIZE
  6
CONTINUOUS
 62
    30
 10
1534.1639769999999
 20
412.71158199999991
 30
0.0
 11
1534.1639769999999
 21
257.40156200000001
 31
0.0
  0
LINE
  5
330
  8
SIZE
  6
CONTINUOUS
 62
    30
 10
1534.1639769999999
 20
412.71158199999991
 30
0.0
 11
1534.1639769999999
 21
156.09143399999999
 31
0.0
  0
POINT
  5
331
  8
DEFPOINTS
  6
CONTINUOUS
 62
     7
 10
1534.1639769999999
 20
186.09143399999999
 30
0.0
  0
LINE
  5
332
  8
SIZE
  6
CONTINUOUS
 62
    30
 10
1539.1639769999999
 20
186.09143399999999
 30
0.0
 11
1544.1639769999999
 21
186.09143399999999
 31
0.0
  0
CIRCLE
  5
333
  8
SIZE
  6
CONTINUOUS
 62
    30
 10
1534.1639769999999
 20
186.09143399999999
 30
0.0
 40
5.0
  0
POINT
  5
334
  8
DEFPOINTS
  6
CONTINUOUS
 62
     7
 10
1564.863977
 20
428.71809000000002
 30
0.0
  0
POINT
  5
335
  8
DEFPOINTS
  6
CONTINUOUS
 62
     7
 10
1551.1639769999999
 20
287.40156200000001
 30
0.0
  0
POINT
  5
336
  8
DEFPOINTS
  6
CONTINUOUS
 62
     7
 10
1534.1639769999999
 20
432.71158200000002
 30
0.0
  0
LINE
  5
337
  8
SIZE
  6
CONTINUOUS
 62
    30
 10
1556.1639769999999
 20
287.40156200000001
 30
0.0
 11
1561.1639769999999
 21
287.40156200000001
 31
0.0
  0
CIRCLE
  5
338
  8
SIZE
  6
CONTINUOUS
 62
    30
 10
1551.1639769999999
 20
287.40156200000001
 30
0.0
 40
5.0
  0
LINE
  5
339
  8
SIZE
  6
CONTINUOUS
 62
    30
 10
1529.1639769999999
 20
287.40156200000001
 30
0.0
 11
1524.1639769999999
 21
287.40156200000001
 31
0.0
  0
CIRCLE
  5
33A
  8
SIZE
  6
CONTINUOUS
 62
    30
 10
1534.1639769999999
 20
287.40156200000001
 30
0.0
 40
5.0
  0
LINE
  5
33B
  8
SIZE
  6
CONTINUOUS
 62
    30
 10
1534.1639769999999
 20
287.40156200000001
 30
0.0
 11
1551.1639769999999
 21
287.40156200000001
 31
0.0
  0
LINE
  5
33C
  8
SIZE
  6
CONTINUOUS
 62
    30
 10
1524.1639769999999
 20
287.40156200000001
 30
0.0
 11
1514.1639769999999
 21
287.40156200000001
 31
0.0
  0
POINT
  5
33D
  8
DEFPOINTS
  6
CONTINUOUS
 62
     7
 10
1534.1639769999999
 20
432.71158200000002
 30
0.0
  0
ARC
  5
33E
  8
OUTLINE
  6
CONTINUOUS
 62
     3
 10
1564.863977
 20
548.71809000000007
 30
0.0
 40
120.0
 50
255.17703
 51
270.0
  0
ARC
  5
33F
  8
DETAIL
  6
CONTINUOUS
 62
     5
 10
1564.863977
 20
548.71809000000007
 30
0.0
 40
120.0
 50
255.17703
 51
270.0
  0
TEXT
  5
340
  8
SIZE
  6
CONTINUOUS
 62
    30
 10
1589.163977142857
 20
305.40156200000001
 30
0.0
 40
55.0
  1
17
 41
0.9
 72
     1
 11
1624.5211200000001
 21
305.40156200000001
 31
0.0
  0
LINE
  5
341
  8
SIZE
  6
CONTINUOUS
 62
    30
 10
2117.1639770000002
 20
417.71809000000002
 30
0.0
 11
2117.1639770000002
 21
-0.000007
 31
0.0
  0
LINE
  5
342
  8
SIZE
  6
CONTINUOUS
 62
    30
 10
2112.1639770000002
 20
29.999993
 30
0.0
 11
2107.1639770000002
 21
29.999993
 31
0.0
  0
CIRCLE
  5
343
  8
SIZE
  6
CONTINUOUS
 62
    30
 10
2117.1639770000002
 20
29.999993
 30
0.0
 40
5.0
  0
TEXT
  5
344
  8
SIZE
  6
CONTINUOUS
 62
    30
 10
2008.4496911428571
 20
305.40156200000001
 30
0.0
 40
55.0
  1
17
 41
0.9
 72
     1
 11
2043.806834
 21
305.40156200000001
 31
0.0
  0
LINE
  5
345
  8
SIZE
  6
CONTINUOUS
 62
    30
 10
2107.1639770000002
 20
287.40156200000001
 30
0.0
 11
1990.449691
 21
287.40156200000001
 31
0.0
  0
LINE
  5
346
  8
SIZE
  6
CONTINUOUS
 62
    30
 10
2117.1639770000002
 20
417.71809000000002
 30
0.0
 11
2117.1639770000002
 21
257.40156200000001
 31
0.0
  0
LINE
  5
347
  8
SIZE
  6
CONTINUOUS
 62
    30
 10
2134.1639770000002
 20
412.71158199999991
 30
0.0
 11
2134.1639770000002
 21
257.40156200000001
 31
0.0
  0
LINE
  5
348
  8
SIZE
  6
CONTINUOUS
 62
    30
 10
2134.1639770000002
 20
412.71158199999991
 30
0.0
 11
2134.1639770000002
 21
156.09143399999999
 31
0.0
  0
LINE
  5
349
  8
SIZE
  6
CONTINUOUS
 62
    30
 10
2129.1639770000011
 20
186.09143399999999
 30
0.0
 11
2124.1639770000002
 21
186.09143399999999
 31
0.0
  0
CIRCLE
  5
34A
  8
SIZE
  6
CONTINUOUS
 62
    30
 10
2134.1639770000002
 20
186.09143399999999
 30
0.0
 40
5.0
  0
LINE
  5
34B
  8
SIZE
  6
CONTINUOUS
 62
    30
 10
2144.1639770000002
 20
287.40156200000001
 30
0.0
 11
2154.1639770000002
 21
287.40156200000001
 31
0.0
  0
POINT
  5
34C
  8
DEFPOINTS
  6
CONTINUOUS
 62
     7
 10
2117.1639770000002
 20
287.40156200000001
 30
0.0
  0
POINT
  5
34D
  8
DEFPOINTS
  6
CONTINUOUS
 62
     7
 10
2134.1639770000002
 20
432.71158200000002
 30
0.0
  0
LINE
  5
34E
  8
SIZE
  6
CONTINUOUS
 62
    30
 10
2112.1639770000002
 20
287.40156200000001
 30
0.0
 11
2107.1639770000002
 21
287.40156200000001
 31
0.0
  0
CIRCLE
  5
34F
  8
SIZE
  6
CONTINUOUS
 62
    30
 10
2117.1639770000002
 20
287.40156200000001
 30
0.0
 40
5.0
  0
LINE
  5
350
  8
SIZE
  6
CONTINUOUS
 62
    30
 10
2139.1639770000002
 20
287.40156200000001
 30
0.0
 11
2144.1639770000002
 21
287.40156200000001
 31
0.0
  0
CIRCLE
  5
351
  8
SIZE
  6
CONTINUOUS
 62
    30
 10
2134.1639770000002
 20
287.40156200000001
 30
0.0
 40
5.0
  0
LINE
  5
352
  8
SIZE
  6
CONTINUOUS
 62
    30
 10
2134.1639770000002
 20
287.40156200000001
 30
0.0
 11
2117.1639770000002
 21
287.40156200000001
 31
0.0
  0
POINT
  5
353
  8
DEFPOINTS
  6
CONTINUOUS
 62
     7
 10
2134.1639770000002
 20
432.71158200000002
 30
0.0
  0
ARC
  5
354
  8
OUTLINE
  6
CONTINUOUS
 62
     3
 10
2103.4639769999999
 20
548.71809000000007
 30
0.0
 40
120.0
 50
270.0
 51
284.82297
  0
ARC
  5
355
  8
DETAIL
  6
CONTINUOUS
 62
     5
 10
2103.4639769999999
 20
548.71809000000007
 30
0.0
 40
120.0
 50
270.0
 51
284.82297
  0
LINE
  5
356
  8
NOTE
  6
CONTINUOUS
 62
     4
 10
2189.5147229999998
 20
649.59587199999987
 30
0.0
 11
2591.7839530000001
 21
649.59587199999987
 31
0.0
  0
TEXT
  5
357
  8
NOTE
  6
CONTINUOUS
 62
     4
 10
2187.7051080000001
 20
665.42243299999996
 30
0.0
 40
60.0
  1
4-%%C2.9取付穴
 50
359.99999700000001
 41
0.7
  7
STANDARD1
  0
LINE
  5
358
  8
SIZE
  6
CONTINUOUS
 62
    30
 10
2015.1084920000001
 20
749.71808999999996
 30
0.0
 11
2298.5362100000002
 21
749.71808999999996
 31
0.0
  0
LINE
  5
359
  8
SIZE
  6
CONTINUOUS
 62
    30
 10
2079.1639770000002
 20
869.71809000000007
 30
0.0
 11
2298.5362100000002
 21
869.71809000000007
 31
0.0
  0
LINE
  5
35A
  8
NOTE
  6
CONTINUOUS
 62
     4
 10
2156.6361080000001
 20
1095.6851869999989
 30
0.0
 11
2885.7367359999998
 21
1095.6851869999989
 31
0.0
  0
TEXT
  5
35B
  8
NOTE
  6
CONTINUOUS
 62
     4
 10
2169.6614639999998
 20
1111.5117479999999
 30
0.0
 40
60.0
  1
AH 4-14×30長穴(M10)
 50
359.99999700000001
 41
0.7
  7
STANDARD1
  0
LINE
  5
35C
  8
SIZE
  6
CONTINUOUS
 62
    30
 10
1933.1639769999999
 20
860.81198699999993
 30
0.0
 11
1933.1639769999999
 21
1230.687846
 31
0.0
  0
LINE
  5
35D
  8
SIZE
  6
CONTINUOUS
 62
    30
 10
2059.1639770000002
 20
889.71808999999996
 30
0.0
 11
2059.1639770000002
 21
1230.687846
 31
0.0
  0
TEXT
  5
35E
  8
NOTE
  6
CONTINUOUS
 62
     4
 10
1591.7469920000001
 20
1013.489609
 30
0.0
 40
60.0
  1
%%C150
 50
359.99999700000001
 41
0.7
  7
STANDARD1
  0
LINE
  5
35F
  8
SIZE
  6
CONTINUOUS
 62
    30
 10
1516.1639769999999
 20
723.21808199999987
 30
0.0
 11
1516.1639769999999
 21
1239.1657889999999
 31
0.0
  0
LINE
  5
360
  8
SIZE
  6
CONTINUOUS
 62
    30
 10
1452.1639769999999
 20
695.2207239999999
 30
0.0
 11
1452.1639769999999
 21
1239.1657889999999
 31
0.0
  0
LINE
  5
361
  8
SIZE
  6
CONTINUOUS
 62
    30
 10
1452.1639769999999
 20
695.2207239999999
 30
0.0
 11
1452.1639769999999
 21
1239.1657889999999
 31
0.0
  0
LINE
  5
362
  8
NOTE
  6
CONTINUOUS
 62
     4
 10
2156.6361080000001
 20
1095.6851869999989
 30
0.0
 11
2028.1639769999999
 21
869.71809000000007
 31
0.0
  0
LINE
  5
363
  8
SIZE
  6
CONTINUOUS
 62
    30
 10
2059.1639770000002
 20
889.71808999999996
 30
0.0
 11
2059.1639770000002
 21
1486.4745230000001
 31
0.0
  0
LINE
  5
364
  8
SIZE
  6
CONTINUOUS
 62
    30
 10
2028.1639769999999
 20
904.71325599999989
 30
0.0
 11
2028.1639769999999
 21
1360.706173
 31
0.0
  0
LINE
  5
365
  8
SIZE
  6
CONTINUOUS
 62
    30
 10
2028.1639769999999
 20
904.71325599999989
 30
0.0
 11
2028.1639769999999
 21
1360.706173
 31
0.0
  0
LINE
  5
366
  8
SIZE
  6
CONTINUOUS
 62
    30
 10
2059.1639770000002
 20
889.71808999999996
 30
0.0
 11
2059.1639770000002
 21
1360.706173
 31
0.0
  0
LINE
  5
367
  8
OUTLINE
  6
CONTINUOUS
 62
     3
 10
1534.1639769999999
 20
436.71809000000002
 30
0.0
 11
2134.1639770000002
 21
436.71809000000002
 31
0.0
  0
TEXT
  5
368
  8
SIZE
  6
CONTINUOUS
 62
    30
 10
1796.9725769440729
 20
496.85443061303488
 30
0.0
 40
55.0
  1
%%c172
 50
65.286486999999994
 41
0.9
 72
     1
 11
1830.971548
 21
570.72759699999995
 31
0.0
  0
LINE
  5
369
  8
SIZE
  6
CONTINUOUS
 62
    30
 10
1805.7984859999999
 20
472.97759400000001
 30
0.0
 11
1893.0281689999999
 21
662.51076799999998
 31
0.0
  0
LINE
  5
36A
  8
NOTE
  6
CONTINUOUS
 62
     4
 10
1567.8146260000001
 20
995.85018800000012
 30
0.0
 11
1842.4767509999999
 21
995.85018800000012
 31
0.0
  0
LINE
  5
36B
  8
OUTLINE
  6
CONTINUOUS
 62
     3
 10
2102.633977
 20
483.7180899999999
 30
0.0
 11
1565.6939769999999
 21
483.7180899999999
 31
0.0
  0
LINE
  5
36C
  8
DETAIL
  6
CONTINUOUS
 62
     5
 10
1534.7739759999999
 20
576.71808999999996
 30
0.0
 11
2059.1639770000002
 21
576.71808999999996
 31
0.0
  0
LINE
  5
36D
  8
DETAIL
  6
CONTINUOUS
 62
     5
 10
1565.6939769999999
 20
483.7180899999999
 30
0.0
 11
2102.633977
 21
483.7180899999999
 31
0.0
  0
LINE
  5
36E
  8
DETAIL
  6
CONTINUOUS
 62
     5
 10
2102.633977
 20
436.71809000000002
 30
0.0
 11
1560.6939769999999
 21
436.71809000000002
 31
0.0
  0
LINE
  5
36F
  8
NOTE
  6
CONTINUOUS
 62
     4
 10
1451.1639769999999
 20
437.7180899999999
 30
0.0
 11
1551.1639769999999
 21
437.7180899999999
 31
0.0
  0
LINE
  5
370
  8
NOTE
  6
CONTINUOUS
 62
     4
 10
1451.1639769999999
 20
457.71809000000002
 30
0.0
 11
1551.1639769999999
 21
457.71809000000002
 31
0.0
  0
LINE
  5
371
  8
NOTE
  6
CONTINUOUS
 62
     4
 10
1492.8256309999999
 20
437.7180899999999
 30
0.0
 11
1472.8256309999999
 21
457.71809000000002
 31
0.0
  0
LINE
  5
372
  8
NOTE
  6
CONTINUOUS
 62
     4
 10
1487.8256309999999
 20
437.7180899999999
 30
0.0
 11
1467.8256309999999
 21
457.71809000000002
 31
0.0
  0
LINE
  5
373
  8
NOTE
  6
CONTINUOUS
 62
     4
 10
1482.8256309999999
 20
437.7180899999999
 30
0.0
 11
1462.8256309999999
 21
457.71809000000002
 31
0.0
  0
POINT
  5
374
  8
DEFPOINTS
  6
CONTINUOUS
 62
     7
 10
1533.452581
 20
436.71809000000002
 30
0.0
  0
POINT
  5
375
  8
DEFPOINTS
  6
CONTINUOUS
 62
     7
 10
1565.6939769999999
 20
483.7180899999999
 30
0.0
  0
POINT
  5
376
  8
DEFPOINTS
  6
CONTINUOUS
 62
     7
 10
1534.1639769999999
 20
436.71809000000002
 30
0.0
  0
POINT
  5
377
  8
DEFPOINTS
  6
CONTINUOUS
 62
     7
 10
1534.1639769999999
 20
436.71809000000002
 30
0.0
  0
POINT
  5
378
  8
DEFPOINTS
  6
CONTINUOUS
 62
     7
 10
1551.1639769999999
 20
437.7180899999999
 30
0.0
  0
POINT
  5
379
  8
DEFPOINTS
  6
CONTINUOUS
 62
     7
 10
1551.1639769999999
 20
437.7180899999999
 30
0.0
  0
POINT
  5
37A
  8
DEFPOINTS
  6
CONTINUOUS
 62
     7
 10
1551.1639769999999
 20
437.7180899999999
 30
0.0
  0
LINE
  5
37B
  8
OUTLINE
  6
CONTINUOUS
 62
     3
 10
1565.6939769999999
 20
483.7180899999999
 30
0.0
 11
1565.6939769999999
 21
436.71809000000002
 31
0.0
  0
LINE
  5
37C
  8
NOTE
  6
CONTINUOUS
 62
     4
 10
1551.1639769999999
 20
437.7180899999999
 30
0.0
 11
1551.1639769999999
 21
457.71809000000002
 31
0.0
  0
LINE
  5
37D
  8
NOTE
  6
CONTINUOUS
 62
     4
 10
1532.8256309999999
 20
437.7180899999999
 30
0.0
 11
1512.8256309999999
 21
457.71809000000002
 31
0.0
  0
LINE
  5
37E
  8
NOTE
  6
CONTINUOUS
 62
     4
 10
1527.8256309999999
 20
437.7180899999999
 30
0.0
 11
1507.8256309999999
 21
457.71809000000002
 31
0.0
  0
LINE
  5
37F
  8
NOTE
  6
CONTINUOUS
 62
     4
 10
1522.8256309999999
 20
437.7180899999999
 30
0.0
 11
1502.8256309999999
 21
457.71809000000002
 31
0.0
  0
LINE
  5
380
  8
DETAIL
  6
CONTINUOUS
 62
     5
 10
1565.6939769999999
 20
436.71809000000002
 30
0.0
 11
1534.1639769999999
 21
436.71809000000002
 31
0.0
  0
LINE
  5
381
  8
DETAIL
  6
CONTINUOUS
 62
     5
 10
1565.6939769999999
 20
436.71809000000002
 30
0.0
 11
1565.6939769999999
 21
483.7180899999999
 31
0.0
  0
POINT
  5
382
  8
DEFPOINTS
  6
CONTINUOUS
 62
     7
 10
1452.1639769999999
 20
675.22072400000002
 30
0.0
  0
POINT
  5
383
  8
DEFPOINTS
  6
CONTINUOUS
 62
     7
 10
1452.1639769999999
 20
675.22072400000002
 30
0.0
  0
POINT
  5
384
  8
DEFPOINTS
  6
CONTINUOUS
 62
     7
 10
1446.654828
 20
669.720731
 30
0.0
  0
LINE
  5
385
  8
NOTE
  6
CONTINUOUS
 62
     4
 10
1446.654828
 20
669.720731
 30
0.0
 11
1457.654828
 21
669.720731
 31
0.0
  0
LINE
  5
386
  8
NOTE
  6
CONTINUOUS
 62
     4
 10
1452.1639769999999
 20
675.22072400000002
 30
0.0
 11
1452.1639769999999
 21
664.22073899999998
 31
0.0
  0
LINE
  5
387
  8
NOTE
  6
CONTINUOUS
 62
     4
 10
1452.1639769999999
 20
669.720731
 30
0.0
 11
1427.1427490000001
 21
646.13497599999994
 31
0.0
  0
LINE
  5
388
  8
NOTE
  6
CONTINUOUS
 62
     4
 10
1452.1639769999999
 20
669.720731
 30
0.0
 11
1439.236645
 21
637.85799799999995
 31
0.0
  0
LINE
  5
389
  8
NOTE
  6
CONTINUOUS
 62
     4
 10
1446.654828
 20
669.720731
 30
0.0
 11
1457.654828
 21
669.720731
 31
0.0
  0
LINE
  5
38A
  8
NOTE
  6
CONTINUOUS
 62
     4
 10
1452.1639769999999
 20
675.22072400000002
 30
0.0
 11
1452.1639769999999
 21
664.22073899999998
 31
0.0
  0
POINT
  5
38B
  8
DEFPOINTS
  6
CONTINUOUS
 62
     7
 10
1516.1639769999999
 20
703.21808199999987
 30
0.0
  0
POINT
  5
38C
  8
DEFPOINTS
  6
CONTINUOUS
 62
     7
 10
1510.654828
 20
697.71808999999996
 30
0.0
  0
POINT
  5
38D
  8
DEFPOINTS
  6
CONTINUOUS
 62
     7
 10
1510.654828
 20
697.71808999999996
 30
0.0
  0
LINE
  5
38E
  8
NOTE
  6
CONTINUOUS
 62
     4
 10
1516.1639769999999
 20
697.71808999999996
 30
0.0
 11
1493.6367150000001
 21
671.73978899999986
 31
0.0
  0
LINE
  5
38F
  8
NOTE
  6
CONTINUOUS
 62
     4
 10
1516.1639769999999
 20
697.71808999999996
 30
0.0
 11
1506.5003819999999
 21
664.71862599999986
 31
0.0
  0
LINE
  5
390
  8
NOTE
  6
CONTINUOUS
 62
     4
 10
1510.654828
 20
697.71808999999996
 30
0.0
 11
1521.654828
 21
697.71808999999996
 31
0.0
  0
LINE
  5
391
  8
NOTE
  6
CONTINUOUS
 62
     4
 10
1516.1639769999999
 20
703.21808199999987
 30
0.0
 11
1516.1639769999999
 21
692.21809800000005
 31
0.0
  0
LINE
  5
392
  8
NOTE
  6
CONTINUOUS
 62
     4
 10
1510.654828
 20
697.71808999999996
 30
0.0
 11
1521.654828
 21
697.71808999999996
 31
0.0
  0
LINE
  5
393
  8
NOTE
  6
CONTINUOUS
 62
     4
 10
1516.1639769999999
 20
703.21808199999987
 30
0.0
 11
1516.1639769999999
 21
692.21809800000005
 31
0.0
  0
ARC
  5
394
  8
DETAIL
  6
CONTINUOUS
 62
     5
 10
1380.163724
 20
857.71808999999996
 30
0.0
 40
3.0
 50
270.0
 51
0.0
  0
ARC
  5
395
  8
DETAIL
  6
CONTINUOUS
 62
     5
 10
1366.163724
 20
834.71809000000007
 30
0.0
 40
3.0
 50
270.0
 51
0.0
  0
LINE
  5
396
  8
DETAIL
  6
CONTINUOUS
 62
     5
 10
1383.163724
 20
869.71809000000007
 30
0.0
 11
1383.163724
 21
857.71808999999996
 31
0.0
  0
ARC
  5
397
  8
DETAIL
  6
CONTINUOUS
 62
     5
 10
1380.163724
 20
860.71809000000007
 30
0.0
 40
3.0
 50
270.0
 51
0.0
  0
LINE
  5
398
  8
DETAIL
  6
CONTINUOUS
 62
     5
 10
1380.163724
 20
854.71808999999996
 30
0.0
 11
1369.163724
 21
854.71808999999996
 31
0.0
  0
LINE
  5
399
  8
DETAIL
  6
CONTINUOUS
 62
     5
 10
1369.163724
 20
854.71808999999996
 30
0.0
 11
1369.163724
 21
834.71809000000007
 31
0.0
  0
LINE
  5
39A
  8
NOTE
  6
CONTINUOUS
 62
     4
 10
2189.5147229999998
 20
649.59587199999987
 30
0.0
 11
2019.1639769999999
 21
749.71808999999996
 31
0.0
  0
LINE
  5
39B
  8
NOTE
  6
CONTINUOUS
 62
     4
 10
2019.1639769999999
 20
749.71808999999996
 30
0.0
 11
2052.234328
 21
740.29994099999988
 31
0.0
  0
LINE
  5
39C
  8
NOTE
  6
CONTINUOUS
 62
     4
 10
2019.1639769999999
 20
749.71808999999996
 30
0.0
 11
2043.0946670000001
 21
725.02655800000002
 31
0.0
  0
LINE
  5
39D
  8
SIZE
  6
CONTINUOUS
 62
    30
 10
1969.1189710000001
 20
827.84131599999989
 30
0.0
 11
1897.208983
 21
671.59486399999992
 31
0.0
  0
CIRCLE
  5
39E
  8
NOTE
  6
CONTINUOUS
 62
     4
 10
1933.1639769999999
 20
749.71808999999996
 30
0.0
 40
86.0
  0
LINE
  5
39F
  8
NOTE
  6
CONTINUOUS
 62
     4
 10
1933.1639769999999
 20
811.66260499999999
 30
0.0
 11
1933.1639769999999
 21
687.77357500000005
 31
0.0
  0
CIRCLE
  5
3A0
  8
DETAIL
  6
CONTINUOUS
 62
     5
 10
1933.1639769999999
 20
749.71808999999996
 30
0.0
 40
75.0
  0
LINE
  5
3A1
  8
OUTLINE
  6
CONTINUOUS
 62
     3
 10
2059.1639770000002
 20
576.71808999999996
 30
0.0
 11
2059.1639770000002
 21
869.71809000000007
 31
0.0
  0
LINE
  5
3A2
  8
DETAIL
  6
CONTINUOUS
 62
     5
 10
2059.1639770000002
 20
869.71809000000007
 30
0.0
 11
2059.1639770000002
 21
576.71808999999996
 31
0.0
  0
POINT
  5
3A3
  8
DEFPOINTS
  6
CONTINUOUS
 62
     7
 10
1897.208983
 20
671.59486399999992
 30
0.0
  0
LINE
  5
3A4
  8
SIZE
  6
CONTINUOUS
 62
    30
 10
1895.1185760000001
 20
667.05281599999989
 30
0.0
 11
1893.0281689999999
 21
662.51076799999998
 31
0.0
  0
CIRCLE
  5
3A5
  8
SIZE
  6
CONTINUOUS
 62
    30
 10
1897.208983
 20
671.59486399999992
 30
0.0
 40
5.0
  0
LINE
  5
3A6
  8
NOTE
  6
CONTINUOUS
 62
     4
 10
1933.1639769999999
 20
658.62419299999988
 30
0.0
 11
1933.1639769999999
 21
668.81198700000004
 31
0.0
  0
LINE
  5
3A7
  8
NOTE
  6
CONTINUOUS
 62
     4
 10
1928.07008
 20
663.71808999999996
 30
0.0
 11
1938.2578739999999
 21
663.71808999999996
 31
0.0
  0
CIRCLE
  5
3A8
  8
DETAIL
  6
CONTINUOUS
 62
     5
 10
1933.1639769999999
 20
663.71808999999996
 30
0.0
 40
1.45
  0
TEXT
  5
3A9
  8
SIZE
  6
CONTINUOUS
 62
    30
 10
2145.1639774285718
 20
535.97541999999999
 30
0.0
 40
55.0
  1
58
 41
0.9
 72
     1
 11
2185.2354059999998
 21
535.97541999999999
 31
0.0
  0
LINE
  5
3AA
  8
SIZE
  6
CONTINUOUS
 62
    30
 10
2117.1639770000002
 20
517.97541999999987
 30
0.0
 11
2243.306834
 21
517.97541999999987
 31
0.0
  0
LINE
  5
3AB
  8
NOTE
  6
CONTINUOUS
 62
     4
 10
2158.8256310000002
 20
437.7180899999999
 30
0.0
 11
2138.8256310000002
 21
457.71809000000002
 31
0.0
  0
LINE
  5
3AC
  8
NOTE
  6
CONTINUOUS
 62
     4
 10
2153.8256310000002
 20
437.7180899999999
 30
0.0
 11
2133.8256310000002
 21
457.71809000000002
 31
0.0
  0
LINE
  5
3AD
  8
NOTE
  6
CONTINUOUS
 62
     4
 10
2148.8256310000002
 20
437.7180899999999
 30
0.0
 11
2128.8256310000002
 21
457.71809000000002
 31
0.0
  0
LINE
  5
3AE
  8
NOTE
  6
CONTINUOUS
 62
     4
 10
2117.1639770000002
 20
457.71809000000002
 30
0.0
 11
2209.8680709999999
 21
457.71809000000002
 31
0.0
  0
LINE
  5
3AF
  8
NOTE
  6
CONTINUOUS
 62
     4
 10
2117.1639770000002
 20
437.7180899999999
 30
0.0
 11
2209.8680709999999
 21
437.7180899999999
 31
0.0
  0
POINT
  5
3B0
  8
DEFPOINTS
  6
CONTINUOUS
 62
     7
 10
2117.1639770000002
 20
517.97541999999987
 30
0.0
  0
POINT
  5
3B1
  8
DEFPOINTS
  6
CONTINUOUS
 62
     7
 10
2117.1639770000002
 20
457.71809000000002
 30
0.0
  0
POINT
  5
3B2
  8
DEFPOINTS
  6
CONTINUOUS
 62
     7
 10
2059.1639770000002
 20
576.71808999999996
 30
0.0
  0
LINE
  5
3B3
  8
SIZE
  6
CONTINUOUS
 62
    30
 10
2112.1639770000002
 20
517.97541999999987
 30
0.0
 11
2107.1639770000002
 21
517.97541999999987
 31
0.0
  0
CIRCLE
  5
3B4
  8
SIZE
  6
CONTINUOUS
 62
    30
 10
2117.1639770000002
 20
517.97541999999987
 30
0.0
 40
5.0
  0
LINE
  5
3B5
  8
SIZE
  6
CONTINUOUS
 62
    30
 10
2064.1639770000002
 20
517.97541999999987
 30
0.0
 11
2069.1639770000002
 21
517.97541999999987
 31
0.0
  0
CIRCLE
  5
3B6
  8
SIZE
  6
CONTINUOUS
 62
    30
 10
2059.1639770000002
 20
517.97541999999987
 30
0.0
 40
5.0
  0
LINE
  5
3B7
  8
SIZE
  6
CONTINUOUS
 62
    30
 10
2069.1639770000002
 20
517.97541999999987
 30
0.0
 11
2107.1639770000002
 21
517.97541999999987
 31
0.0
  0
LINE
  5
3B8
  8
SIZE
  6
CONTINUOUS
 62
    30
 10
2117.1639770000002
 20
477.71809000000002
 30
0.0
 11
2117.1639770000002
 21
547.97541999999999
 31
0.0
  0
LINE
  5
3B9
  8
SIZE
  6
CONTINUOUS
 62
    30
 10
2059.1639770000002
 20
556.71809000000007
 30
0.0
 11
2059.1639770000002
 21
487.97541999999999
 31
0.0
  0
POINT
  5
3BA
  8
DEFPOINTS
  6
CONTINUOUS
 62
     7
 10
2117.1639770000002
 20
437.7180899999999
 30
0.0
  0
POINT
  5
3BB
  8
DEFPOINTS
  6
CONTINUOUS
 62
     7
 10
2117.1639770000002
 20
437.7180899999999
 30
0.0
  0
LINE
  5
3BC
  8
OUTLINE
  6
CONTINUOUS
 62
     3
 10
2102.633977
 20
436.71809000000002
 30
0.0
 11
2102.633977
 21
483.7180899999999
 31
0.0
  0
LINE
  5
3BD
  8
NOTE
  6
CONTINUOUS
 62
     4
 10
2117.1639770000002
 20
437.7180899999999
 30
0.0
 11
2117.1639770000002
 21
457.71809000000002
 31
0.0
  0
LINE
  5
3BE
  8
DETAIL
  6
CONTINUOUS
 62
     5
 10
2102.633977
 20
436.71809000000002
 30
0.0
 11
2102.633977
 21
483.7180899999999
 31
0.0
  0
LINE
  5
3BF
  8
DETAIL
  6
CONTINUOUS
 62
     5
 10
2102.633977
 20
436.71809000000002
 30
0.0
 11
2107.633977
 21
436.71809000000002
 31
0.0
  0
LINE
  5
3C0
  8
DETAIL
  6
CONTINUOUS
 62
     5
 10
2102.633977
 20
436.71809000000002
 30
0.0
 11
2134.1639770000002
 21
436.71809000000002
 31
0.0
  0
LINE
  5
3C1
  8
NOTE
  6
CONTINUOUS
 62
     4
 10
2188.8256310000002
 20
437.7180899999999
 30
0.0
 11
2168.8256310000002
 21
457.71809000000002
 31
0.0
  0
LINE
  5
3C2
  8
NOTE
  6
CONTINUOUS
 62
     4
 10
2193.8256310000002
 20
437.7180899999999
 30
0.0
 11
2173.8256310000002
 21
457.71809000000002
 31
0.0
  0
LINE
  5
3C3
  8
NOTE
  6
CONTINUOUS
 62
     4
 10
2198.8256310000002
 20
437.7180899999999
 30
0.0
 11
2178.8256310000002
 21
457.71809000000002
 31
0.0
  0
LINE
  5
3C4
  8
NOTE
  6
CONTINUOUS
 62
     4
 10
2028.1639769999999
 20
869.71809000000007
 30
0.0
 11
2051.1790409999999
 21
895.26523299999985
 31
0.0
  0
LINE
  5
3C5
  8
NOTE
  6
CONTINUOUS
 62
     4
 10
2028.1639769999999
 20
869.71809000000007
 30
0.0
 11
2035.3220349999999
 21
903.35009700000023
 31
0.0
  0
CIRCLE
  5
3C6
  8
FIX
  6
CONTINUOUS
 62
    11
 10
2028.1639769999999
 20
869.71809000000007
 30
0.0
 40
12.421498
  0
LINE
  5
3C7
  8
NOTE
  6
CONTINUOUS
 62
     4
 10
2043.1591430000001
 20
869.71809000000007
 30
0.0
 11
2013.168811
 21
869.71809000000007
 31
0.0
  0
LINE
  5
3C8
  8
DETAIL
  6
CONTINUOUS
 62
     5
 10
2017.1639769999999
 20
831.71808999999996
 30
0.0
 11
2056.1639770000002
 21
831.71808999999996
 31
0.0
  0
LINE
  5
3C9
  8
NOTE
  6
CONTINUOUS
 62
     4
 10
1842.4767509999999
 20
995.85018800000012
 30
0.0
 11
1933.1639769999999
 21
749.71808999999996
 31
0.0
  0
LINE
  5
3CA
  8
NOTE
  6
CONTINUOUS
 62
     4
 10
1995.1084920000001
 20
749.71808999999996
 30
0.0
 11
1871.219462
 21
749.71808999999996
 31
0.0
  0
LINE
  5
3CB
  8
NOTE
  6
CONTINUOUS
 62
     4
 10
1933.1639769999999
 20
749.71808999999996
 30
0.0
 11
1912.074204
 21
776.876351
 31
0.0
  0
LINE
  5
3CC
  8
NOTE
  6
CONTINUOUS
 62
     4
 10
1847.1639769999999
 20
744.62419299999999
 30
0.0
 11
1847.1639769999999
 21
754.81198700000004
 31
0.0
  0
LINE
  5
3CD
  8
NOTE
  6
CONTINUOUS
 62
     4
 10
1842.07008
 20
749.71808999999996
 30
0.0
 11
1852.2578739999999
 21
749.71808999999996
 31
0.0
  0
CIRCLE
  5
3CE
  8
DETAIL
  6
CONTINUOUS
 62
     5
 10
1847.1639769999999
 20
749.71808999999996
 30
0.0
 40
1.45
  0
POINT
  5
3CF
  8
DEFPOINTS
  6
CONTINUOUS
 62
     7
 10
1969.1189710000001
 20
827.84131599999989
 30
0.0
  0
LINE
  5
3D0
  8
SIZE
  6
CONTINUOUS
 62
    30
 10
1971.209378
 20
832.38336400000003
 30
0.0
 11
1973.2997849999999
 21
836.92541200000005
 31
0.0
  0
CIRCLE
  5
3D1
  8
SIZE
  6
CONTINUOUS
 62
    30
 10
1969.1189710000001
 20
827.84131599999989
 30
0.0
 40
5.0
  0
LINE
  5
3D2
  8
SIZE
  6
CONTINUOUS
 62
    30
 10
1973.2997849999999
 20
836.92541200000005
 30
0.0
 11
1977.4805980000001
 21
846.00950799999998
 31
0.0
  0
POINT
  5
3D3
  8
DEFPOINTS
  6
CONTINUOUS
 62
     7
 10
1995.1084920000001
 20
749.71808999999996
 30
0.0
  0
POINT
  5
3D4
  8
DEFPOINTS
  6
CONTINUOUS
 62
     7
 10
1933.1639769999999
 20
840.81198700000004
 30
0.0
  0
LINE
  5
3D5
  8
NOTE
  6
CONTINUOUS
 62
     4
 10
1933.1639769999999
 20
830.62419299999999
 30
0.0
 11
1933.1639769999999
 21
840.81198700000004
 31
0.0
  0
LINE
  5
3D6
  8
NOTE
  6
CONTINUOUS
 62
     4
 10
1928.07008
 20
835.71809000000007
 30
0.0
 11
1938.2578739999999
 21
835.71809000000007
 31
0.0
  0
LINE
  5
3D7
  8
NOTE
  6
CONTINUOUS
 62
     4
 10
2019.1639769999999
 20
744.62419299999999
 30
0.0
 11
2019.1639769999999
 21
754.81198700000004
 31
0.0
  0
LINE
  5
3D8
  8
NOTE
  6
CONTINUOUS
 62
     4
 10
2014.07008
 20
749.71808999999996
 30
0.0
 11
2024.2578739999999
 21
749.71808999999996
 31
0.0
  0
CIRCLE
  5
3D9
  8
DETAIL
  6
CONTINUOUS
 62
     5
 10
1933.1639769999999
 20
835.71809000000007
 30
0.0
 40
1.45
  0
CIRCLE
  5
3DA
  8
DETAIL
  6
CONTINUOUS
 62
     5
 10
2019.1639769999999
 20
749.71808999999996
 30
0.0
 40
1.45
  0
LINE
  5
3DB
  8
NOTE
  6
CONTINUOUS
 62
     4
 10
1933.1639769999999
 20
749.71808999999996
 30
0.0
 11
1928.4788289999999
 21
783.78272100000004
 31
0.0
  0
POINT
  5
3DC
  8
DEFPOINTS
  6
CONTINUOUS
 62
     7
 10
2028.1639769999999
 20
884.713256
 30
0.0
  0
POINT
  5
3DD
  8
DEFPOINTS
  6
CONTINUOUS
 62
     7
 10
2028.1639769999999
 20
884.713256
 30
0.0
  0
LINE
  5
3DE
  8
NOTE
  6
CONTINUOUS
 62
     4
 10
2028.1639769999999
 20
884.713256
 30
0.0
 11
2028.1639769999999
 21
854.72292400000003
 31
0.0
  0
ARC
  5
3DF
  8
DETAIL
  6
CONTINUOUS
 62
     5
 10
2003.1639769999999
 20
857.71808999999996
 30
0.0
 40
3.0
 50
180.0
 51
270.0
  0
ARC
  5
3E0
  8
DETAIL
  6
CONTINUOUS
 62
     5
 10
2017.1639769999999
 20
834.71809000000007
 30
0.0
 40
3.0
 50
180.0
 51
270.0
  0
LINE
  5
3E1
  8
DETAIL
  6
CONTINUOUS
 62
     5
 10
2000.1639769999999
 20
869.71809000000007
 30
0.0
 11
2000.1639769999999
 21
857.71808999999996
 31
0.0
  0
ARC
  5
3E2
  8
DETAIL
  6
CONTINUOUS
 62
     5
 10
2020.6639769999999
 20
860.71809000000007
 30
0.0
 40
3.0
 50
270.0
 51
0.0
  0
LINE
  5
3E3
  8
DETAIL
  6
CONTINUOUS
 62
     5
 10
2023.6639769999999
 20
869.71809000000007
 30
0.0
 11
2023.6639769999999
 21
860.71809000000007
 31
0.0
  0
LINE
  5
3E4
  8
DETAIL
  6
CONTINUOUS
 62
     5
 10
2020.6639769999999
 20
857.71808999999996
 30
0.0
 11
2002.6639769999999
 21
857.71808999999996
 31
0.0
  0
ARC
  5
3E5
  8
DETAIL
  6
CONTINUOUS
 62
     5
 10
2003.1639769999999
 20
860.71809000000007
 30
0.0
 40
3.0
 50
180.0
 51
270.0
  0
LINE
  5
3E6
  8
DETAIL
  6
CONTINUOUS
 62
     5
 10
2003.1639769999999
 20
854.71808999999996
 30
0.0
 11
2014.1639769999999
 21
854.71808999999996
 31
0.0
  0
LINE
  5
3E7
  8
DETAIL
  6
CONTINUOUS
 62
     5
 10
2014.1639769999999
 20
854.71808999999996
 30
0.0
 11
2014.1639769999999
 21
834.71809000000007
 31
0.0
  0
POINT
  5
3E8
  8
DEFPOINTS
  6
CONTINUOUS
 62
     7
 10
2059.1639770000002
 20
869.71809000000007
 30
0.0
  0
POINT
  5
3E9
  8
DEFPOINTS
  6
CONTINUOUS
 62
     7
 10
2059.1639770000002
 20
869.71809000000007
 30
0.0
  0
POINT
  5
3EA
  8
DEFPOINTS
  6
CONTINUOUS
 62
     7
 10
2059.1639770000002
 20
869.71809000000007
 30
0.0
  0
POINT
  5
3EB
  8
DEFPOINTS
  6
CONTINUOUS
 62
     7
 10
2059.1639770000002
 20
869.71809000000007
 30
0.0
  0
LINE
  5
3EC
  8
DETAIL
  6
CONTINUOUS
 62
     5
 10
2059.1639770000002
 20
869.71809000000007
 30
0.0
 11
2059.1639770000002
 21
834.71809000000007
 31
0.0
  0
ARC
  5
3ED
  8
DETAIL
  6
CONTINUOUS
 62
     5
 10
2056.1639770000002
 20
834.71809000000007
 30
0.0
 40
3.0
 50
270.0
 51
0.0
  0
LINE
  5
3EE
  8
DETAIL
  6
CONTINUOUS
 62
     5
 10
2038.6639769999999
 20
857.71808999999996
 30
0.0
 11
2056.6639770000002
 21
857.71808999999996
 31
0.0
  0
LINE
  5
3EF
  8
DETAIL
  6
CONTINUOUS
 62
     5
 10
2035.6639769999999
 20
869.71809000000007
 30
0.0
 11
2035.6639769999999
 21
860.71809000000007
 31
0.0
  0
ARC
  5
3F0
  8
DETAIL
  6
CONTINUOUS
 62
     5
 10
2056.1639770000002
 20
860.71809000000007
 30
0.0
 40
3.0
 50
270.0
 51
0.0
  0
ARC
  5
3F1
  8
DETAIL
  6
CONTINUOUS
 62
     5
 10
2038.6639769999999
 20
860.71809000000007
 30
0.0
 40
3.0
 50
180.0
 51
270.0
  0
TEXT
  5
3F2
  8
SIZE
  6
CONTINUOUS
 62
    30
 10
2250.5362100000002
 20
897.71808957142855
 30
0.0
 40
55.0
  1
120
 50
90.0
 41
0.9
 72
     1
 11
2250.5362100000002
 21
956.64666099999999
 31
0.0
  0
TEXT
  5
3F3
  8
NOTE
  6
CONTINUOUS
 62
     4
 10
1583.4182060000001
 20
1084.17002
 30
0.0
 40
60.0
  1
外気取入口
 50
359.99999700000001
 41
0.7
  7
STANDARD1
  0
TEXT
  5
3F4
  8
SIZE
  6
CONTINUOUS
 62
    30
 10
1530.4799869999999
 20
1346.7443800000001
 30
0.0
 40
60.0
  1
(吊りボルトピッチ)
 50
359.99999700000001
 41
0.75
  7
STANDARD1
  0
LINE
  5
3F5
  8
SIZE
  6
CONTINUOUS
 62
    30
 10
2018.1639769999999
 20
1330.706173
 30
0.0
 11
1368.1639769999999
 21
1330.706173
 31
0.0
  0
TEXT
  5
3F6
  8
SIZE
  6
CONTINUOUS
 62
    30
 10
1392.6006878571429
 20
1349.758951
 30
0.0
 40
55.0
  1
670
 41
0.9
 72
     1
 11
1456.243545
 21
1349.758951
 31
0.0
  0
TEXT
  5
3F7
  8
SIZE
  6
CONTINUOUS
 62
    30
 10
1442.9139769999999
 20
1227.1657889999999
 30
0.0
 40
55.0
  1
64
 41
0.9
 72
     1
 11
1484.1639769999999
 21
1227.1657889999999
 31
0.0
  0
LINE
  5
3F8
  8
SIZE
  6
CONTINUOUS
 62
    30
 10
1452.1639769999999
 20
1209.1657889999999
 30
0.0
 11
1516.1639769999999
 21
1209.1657889999999
 31
0.0
  0
LINE
  5
3F9
  8
SIZE
  6
CONTINUOUS
 62
    30
 10
1447.1639769999999
 20
1209.1657889999999
 30
0.0
 11
1442.1639769999999
 21
1209.1657889999999
 31
0.0
  0
CIRCLE
  5
3FA
  8
SIZE
  6
CONTINUOUS
 62
    30
 10
1452.1639769999999
 20
1209.1657889999999
 30
0.0
 40
5.0
  0
LINE
  5
3FB
  8
SIZE
  6
CONTINUOUS
 62
    30
 10
1442.1639769999999
 20
1209.1657889999999
 30
0.0
 11
1432.1639769999999
 21
1209.1657889999999
 31
0.0
  0
POINT
  5
3FC
  8
DEFPOINTS
  6
CONTINUOUS
 62
     7
 10
1452.1639769999999
 20
1209.1657889999999
 30
0.0
  0
LINE
  5
3FD
  8
SIZE
  6
CONTINUOUS
 62
    30
 10
1447.1639769999999
 20
1209.1657889999999
 30
0.0
 11
1442.1639769999999
 21
1209.1657889999999
 31
0.0
  0
CIRCLE
  5
3FE
  8
SIZE
  6
CONTINUOUS
 62
    30
 10
1452.1639769999999
 20
1209.1657889999999
 30
0.0
 40
5.0
  0
LINE
  5
3FF
  8
SIZE
  6
CONTINUOUS
 62
    30
 10
1363.1639769999999
 20
1330.706173
 30
0.0
 11
1368.1639769999999
 21
1330.706173
 31
0.0
  0
POINT
  5
400
  8
DEFPOINTS
  6
CONTINUOUS
 62
     7
 10
1516.1639769999999
 20
1209.1657889999999
 30
0.0
  0
LINE
  5
401
  8
SIZE
  6
CONTINUOUS
 62
    30
 10
1521.1639769999999
 20
1209.1657889999999
 30
0.0
 11
1526.1639769999999
 21
1209.1657889999999
 31
0.0
  0
CIRCLE
  5
402
  8
SIZE
  6
CONTINUOUS
 62
    30
 10
1516.1639769999999
 20
1209.1657889999999
 30
0.0
 40
5.0
  0
LINE
  5
403
  8
SIZE
  6
CONTINUOUS
 62
    30
 10
1526.1639769999999
 20
1209.1657889999999
 30
0.0
 11
1536.1639769999999
 21
1209.1657889999999
 31
0.0
  0
TEXT
  5
404
  8
SIZE
  6
CONTINUOUS
 62
    30
 10
1628.021119857143
 20
1474.4745230000001
 30
0.0
 40
55.0
  1
735
 41
0.9
 72
     1
 11
1691.6639769999999
 21
1474.4745230000001
 31
0.0
  0
TEXT
  5
405
  8
SIZE
  6
CONTINUOUS
 62
    30
 10
2097.1639772857138
 20
1348.706173
 30
0.0
 40
55.0
  1
31
 41
0.9
 72
     1
 11
2126.6282630000001
 21
1348.706173
 31
0.0
  0
LINE
  5
406
  8
SIZE
  6
CONTINUOUS
 62
    30
 10
1943.1639769999999
 20
1200.687846
 30
0.0
 11
2049.1639770000002
 21
1200.687846
 31
0.0
  0
LINE
  5
407
  8
SIZE
  6
CONTINUOUS
 62
    30
 10
2028.1639769999999
 20
1330.706173
 30
0.0
 11
2059.1639770000002
 21
1330.706173
 31
0.0
  0
CIRCLE
  5
408
  8
SIZE
  6
CONTINUOUS
 62
    30
 10
1933.1639769999999
 20
1200.687846
 30
0.0
 40
5.0
  0
POINT
  5
409
  8
DEFPOINTS
  6
CONTINUOUS
 62
     7
 10
1933.1639769999999
 20
1200.687846
 30
0.0
  0
LINE
  5
40A
  8
SIZE
  6
CONTINUOUS
 62
    30
 10
1938.1639769999999
 20
1200.687846
 30
0.0
 11
1943.1639769999999
 21
1200.687846
 31
0.0
  0
LINE
  5
40B
  8
SIZE
  6
CONTINUOUS
 62
    30
 10
2023.1639769999999
 20
1330.706173
 30
0.0
 11
2018.1639769999999
 21
1330.706173
 31
0.0
  0
CIRCLE
  5
40C
  8
SIZE
  6
CONTINUOUS
 62
    30
 10
2028.1639769999999
 20
1330.706173
 30
0.0
 40
5.0
  0
POINT
  5
40D
  8
DEFPOINTS
  6
CONTINUOUS
 62
     7
 10
2028.1639769999999
 20
1330.706173
 30
0.0
  0
LINE
  5
40E
  8
SIZE
  6
CONTINUOUS
 62
    30
 10
2023.1639769999999
 20
1330.706173
 30
0.0
 11
2018.1639769999999
 21
1330.706173
 31
0.0
  0
CIRCLE
  5
40F
  8
SIZE
  6
CONTINUOUS
 62
    30
 10
2028.1639769999999
 20
1330.706173
 30
0.0
 40
5.0
  0
LINE
  5
410
  8
SIZE
  6
CONTINUOUS
 62
    30
 10
2018.1639769999999
 20
1330.706173
 30
0.0
 11
2008.1639769999999
 21
1330.706173
 31
0.0
  0
CIRCLE
  5
411
  8
SIZE
  6
CONTINUOUS
 62
    30
 10
2059.1639770000002
 20
1200.687846
 30
0.0
 40
5.0
  0
TEXT
  5
412
  8
SIZE
  6
CONTINUOUS
 62
    30
 10
2087.1639770000002
 20
1218.687846
 30
0.0
 40
55.0
  1
126
 41
0.9
 72
     1
 11
2144.9139770000002
 21
1218.687846
 31
0.0
  0
LINE
  5
413
  8
SIZE
  6
CONTINUOUS
 62
    30
 10
2059.1639770000002
 20
1200.687846
 30
0.0
 11
2220.6639770000002
 21
1200.687846
 31
0.0
  0
LINE
  5
414
  8
SIZE
  6
CONTINUOUS
 62
    30
 10
2069.1639770000002
 20
1330.706173
 30
0.0
 11
2174.0925480000001
 21
1330.706173
 31
0.0
  0
LINE
  5
415
  8
SIZE
  6
CONTINUOUS
 62
    30
 10
2054.1639770000002
 20
1200.687846
 30
0.0
 11
2049.1639770000002
 21
1200.687846
 31
0.0
  0
LINE
  5
416
  8
SIZE
  6
CONTINUOUS
 62
    30
 10
2064.1639770000002
 20
1330.706173
 30
0.0
 11
2069.1639770000002
 21
1330.706173
 31
0.0
  0
CIRCLE
  5
417
  8
SIZE
  6
CONTINUOUS
 62
    30
 10
2059.1639770000002
 20
1330.706173
 30
0.0
 40
5.0
  0
LINE
  5
418
  8
SIZE
  6
CONTINUOUS
 62
    30
 10
2054.1639770000002
 20
1456.4745230000001
 30
0.0
 11
2049.1639770000002
 21
1456.4745230000001
 31
0.0
  0
CIRCLE
  5
419
  8
SIZE
  6
CONTINUOUS
 62
    30
 10
2059.1639770000002
 20
1456.4745230000001
 30
0.0
 40
5.0
  0
LINE
  5
41A
  8
SIZE
  6
CONTINUOUS
 62
    30
 10
2268.5362100000002
 20
869.71809000000007
 30
0.0
 11
2268.5362100000002
 21
1033.575233
 31
0.0
  0
POINT
  5
41B
  8
DEFPOINTS
  6
CONTINUOUS
 62
     7
 10
2268.5362100000002
 20
749.71808999999996
 30
0.0
  0
LINE
  5
41C
  8
SIZE
  6
CONTINUOUS
 62
    30
 10
2268.5362100000002
 20
864.71808999999996
 30
0.0
 11
2268.5362100000002
 21
859.71809000000007
 31
0.0
  0
CIRCLE
  5
41D
  8
SIZE
  6
CONTINUOUS
 62
    30
 10
2268.5362100000002
 20
869.71809000000007
 30
0.0
 40
5.0
  0
LINE
  5
41E
  8
SIZE
  6
CONTINUOUS
 62
    30
 10
2268.5362100000002
 20
754.71808999999996
 30
0.0
 11
2268.5362100000002
 21
759.71808999999996
 31
0.0
  0
CIRCLE
  5
41F
  8
SIZE
  6
CONTINUOUS
 62
    30
 10
2268.5362100000002
 20
749.71808999999996
 30
0.0
 40
5.0
  0
LINE
  5
420
  8
SIZE
  6
CONTINUOUS
 62
    30
 10
2268.5362100000002
 20
759.71808999999996
 30
0.0
 11
2268.5362100000002
 21
859.71809000000007
 31
0.0
  0
ENDBLK
  5
422
  8
0
 62
     7
  0
BLOCK
  8
0
 62
     7
  2
A$C3A8039A9
 70
     0
 10
0.0
 20
0.0
 30
0.0
  3
A$C3A8039A9
  1

  0
TEXT
  5
5FC
  8
ETC
  6
CONTINUOUS
 62
    61
 10
-0.000014
 20
1371.404
 30
0.0
 40
80.0
  1
MPD-RP71_80FA3_4
 50
359.99999700000001
 41
0.8
  0
LINE
  5
5FD
  8
SIZE
  6
CONTINUOUS
 62
    30
 10
2018.1639769999999
 20
1330.706173
 30
0.0
 11
1368.1639769999999
 21
1330.706173
 31
0.0
  0
TEXT
  5
5FE
  8
SIZE
  6
CONTINUOUS
 62
    30
 10
1530.4799869999999
 20
1346.7443800000001
 30
0.0
 40
60.0
  1
(吊りボルトピッチ)
 50
359.99999700000001
 41
0.75
  7
STANDARD1
  0
TEXT
  5
5FF
  8
NOTE
  6
CONTINUOUS
 62
     4
 10
1583.4182060000001
 20
1084.17002
 30
0.0
 40
60.0
  1
外気取入口
 50
359.99999700000001
 41
0.7
  7
STANDARD1
  0
LINE
  5
600
  8
DETAIL
  6
CONTINUOUS
 62
     5
 10
2102.633977
 20
436.71809000000002
 30
0.0
 11
1560.6939769999999
 21
436.71809000000002
 31
0.0
  0
LINE
  5
601
  8
DETAIL
  6
CONTINUOUS
 62
     5
 10
1565.6939769999999
 20
483.7180899999999
 30
0.0
 11
2102.633977
 21
483.7180899999999
 31
0.0
  0
LINE
  5
602
  8
DETAIL
  6
CONTINUOUS
 62
     5
 10
1534.7739759999999
 20
576.71808999999996
 30
0.0
 11
2059.1639770000002
 21
576.71808999999996
 31
0.0
  0
LINE
  5
603
  8
OUTLINE
  6
CONTINUOUS
 62
     3
 10
2102.633977
 20
483.7180899999999
 30
0.0
 11
1565.6939769999999
 21
483.7180899999999
 31
0.0
  0
LINE
  5
604
  8
NOTE
  6
CONTINUOUS
 62
     4
 10
1567.8146260000001
 20
995.85018800000012
 30
0.0
 11
1842.4767509999999
 21
995.85018800000012
 31
0.0
  0
LINE
  5
605
  8
SIZE
  6
CONTINUOUS
 62
    30
 10
1805.7984859999999
 20
472.97759400000001
 30
0.0
 11
1893.0281689999999
 21
662.51076799999998
 31
0.0
  0
TEXT
  5
606
  8
SIZE
  6
CONTINUOUS
 62
    30
 10
1796.9725769440729
 20
496.85443061303488
 30
0.0
 40
55.0
  1
%%c172
 50
65.286486999999994
 41
0.9
 72
     1
 11
1830.971548
 21
570.72759699999995
 31
0.0
  0
LINE
  5
607
  8
OUTLINE
  6
CONTINUOUS
 62
     3
 10
1534.1639769999999
 20
436.71809000000002
 30
0.0
 11
2134.1639770000002
 21
436.71809000000002
 31
0.0
  0
LINE
  5
608
  8
DETAIL
  6
CONTINUOUS
 62
     5
 10
1564.863977
 20
428.71809000000002
 30
0.0
 11
2103.4639769999999
 21
428.71809000000002
 31
0.0
  0
LINE
  5
609
  8
OUTLINE
  6
CONTINUOUS
 62
     3
 10
1564.863977
 20
428.71809000000002
 30
0.0
 11
2103.4639769999999
 21
428.71809000000002
 31
0.0
  0
LINE
  5
60A
  8
SIZE
  6
CONTINUOUS
 62
    30
 10
2124.1639770000002
 20
186.09143399999999
 30
0.0
 11
1544.1639769999999
 21
186.09143399999999
 31
0.0
  0
TEXT
  5
60B
  8
SIZE
  6
CONTINUOUS
 62
    30
 10
1778.1989758571431
 20
204.09143399999999
 30
0.0
 40
55.0
  1
600
 41
0.9
 72
     1
 11
1841.841833
 21
204.09143399999999
 31
0.0
  0
LINE
  5
60C
  8
SIZE
  6
CONTINUOUS
 62
    30
 10
2107.1639770000002
 20
29.999993
 30
0.0
 11
1561.1639769999999
 21
29.999993
 31
0.0
  0
TEXT
  5
60D
  8
SIZE
  6
CONTINUOUS
 62
    30
 10
1558.8816702857141
 20
46.404754999999987
 30
0.0
 40
55.0
  1
566(天井開口寸法)
 41
0.9
 72
     1
 11
1832.5459559999999
 21
46.404754999999987
 31
0.0
  0
LINE
  5
60E
  8
DETAIL
  6
CONTINUOUS
 62
     5
 10
2059.1639770000002
 20
869.71809000000007
 30
0.0
 11
1324.1639769999999
 21
869.71809000000007
 31
0.0
  0
LINE
  5
60F
  8
OUTLINE
  6
CONTINUOUS
 62
     3
 10
2059.1639770000002
 20
869.71809000000007
 30
0.0
 11
1324.1639769999999
 21
869.71809000000007
 31
0.0
  0
LINE
  5
610
  8
OUTLINE
  6
CONTINUOUS
 62
     3
 10
1324.1639769999999
 20
576.71808999999996
 30
0.0
 11
2059.1639770000002
 21
576.71808999999996
 31
0.0
  0
LINE
  5
611
  8
SIZE
  6
CONTINUOUS
 62
    30
 10
2049.1639770000002
 20
1456.4745230000001
 30
0.0
 11
1334.1639769999999
 21
1456.4745230000001
 31
0.0
  0
LINE
  5
612
  8
SIZE
  6
CONTINUOUS
 62
    30
 10
1452.1639769999999
 20
695.2207239999999
 30
0.0
 11
1452.1639769999999
 21
1239.1657889999999
 31
0.0
  0
LINE
  5
613
  8
SIZE
  6
CONTINUOUS
 62
    30
 10
1452.1639769999999
 20
695.2207239999999
 30
0.0
 11
1452.1639769999999
 21
1239.1657889999999
 31
0.0
  0
LINE
  5
614
  8
SIZE
  6
CONTINUOUS
 62
    30
 10
1516.1639769999999
 20
723.21808199999987
 30
0.0
 11
1516.1639769999999
 21
1239.1657889999999
 31
0.0
  0
LINE
  5
615
  8
SIZE
  6
CONTINUOUS
 62
    30
 10
941.1253099999999
 20
869.71809000000007
 30
0.0
 11
941.1253099999999
 21
1031.2180900000001
 31
0.0
  0
TEXT
  5
616
  8
SIZE
  6
CONTINUOUS
 62
    30
 10
923.1253099999999
 20
897.71808999999996
 30
0.0
 40
55.0
  1
136
 50
90.0
 41
0.9
 72
     1
 11
923.1253099999999
 21
955.46809000000007
 31
0.0
  0
LINE
  5
617
  8
NOTE
  6
CONTINUOUS
 62
     4
 10
1053.4095380000001
 20
1081.692288
 30
0.0
 11
1254.1639769999999
 21
733.71808999999996
 31
0.0
  0
LINE
  5
618
  8
SIZE
  6
CONTINUOUS
 62
    30
 10
1254.1639769999999
 20
851.21808999999996
 30
0.0
 11
1254.1639769999999
 21
1062.788632
 31
0.0
  0
LINE
  5
619
  8
SIZE
  6
CONTINUOUS
 62
    30
 10
1294.1639769999999
 20
853.71808999999996
 30
0.0
 11
1294.1639769999999
 21
1062.788632
 31
0.0
  0
LINE
  5
61A
  8
SIZE
  6
CONTINUOUS
 62
    30
 10
1358.1639769999999
 20
904.71325599999989
 30
0.0
 11
1358.1639769999999
 21
1360.706173
 31
0.0
  0
LINE
  5
61B
  8
SIZE
  6
CONTINUOUS
 62
    30
 10
1324.1639769999999
 20
889.71808999999996
 30
0.0
 11
1324.1639769999999
 21
1486.4745230000001
 31
0.0
  0
LINE
  5
61C
  8
SIZE
  6
CONTINUOUS
 62
    30
 10
1324.1639769999999
 20
889.71808999999996
 30
0.0
 11
1324.1639769999999
 21
1486.4745230000001
 31
0.0
  0
LINE
  5
61D
  8
SIZE
  6
CONTINUOUS
 62
    30
 10
1254.1639769999999
 20
851.21808999999996
 30
0.0
 11
1254.1639769999999
 21
1486.4745230000001
 31
0.0
  0
LINE
  5
61E
  8
SIZE
  6
CONTINUOUS
 62
    30
 10
1324.1639769999999
 20
889.71808999999996
 30
0.0
 11
1324.1639769999999
 21
1239.1657889999999
 31
0.0
  0
LINE
  5
61F
  8
SIZE
  6
CONTINUOUS
 62
    30
 10
1304.1639769999999
 20
869.71809000000007
 30
0.0
 11
493.70535000000001
 21
869.71809000000007
 31
0.0
  0
LINE
  5
620
  8
SIZE
  6
CONTINUOUS
 62
    30
 10
1304.113689
 20
576.71808999999996
 30
0.0
 11
493.70535000000001
 21
576.71808999999996
 31
0.0
  0
LINE
  5
621
  8
SIZE
  6
CONTINUOUS
 62
    30
 10
1304.1639769999999
 20
869.71809000000007
 30
0.0
 11
911.12531000000001
 21
869.71809000000007
 31
0.0
  0
LINE
  5
622
  8
SIZE
  6
CONTINUOUS
 62
    30
 10
1162.219462
 20
733.71808999999996
 30
0.0
 11
911.12531000000001
 21
733.71808999999996
 31
0.0
  0
LINE
  5
623
  8
SIZE
  6
CONTINUOUS
 62
    30
 10
1304.1639769999999
 20
869.71809000000007
 30
0.0
 11
784.11802899999986
 21
869.71809000000007
 31
0.0
  0
LINE
  5
624
  8
SIZE
  6
CONTINUOUS
 62
    30
 10
1303.452581
 20
576.71808999999996
 30
0.0
 11
493.70535000000001
 21
576.71808999999996
 31
0.0
  0
TEXT
  5
625
  8
NOTE
  6
CONTINUOUS
 62
     4
 10
841.91806300000007
 20
304.93132100000003
 30
0.0
 40
60.0
  1
RG %%C15.88
 50
359.99999700000001
 41
0.7
  7
STANDARD1
  0
LINE
  5
626
  8
NOTE
  6
CONTINUOUS
 62
     4
 10
840.23793599999988
 20
294.162285
 30
0.0
 11
1196.0094810000001
 21
294.162285
 31
0.0
  0
LINE
  5
627
  8
NOTE
  6
CONTINUOUS
 62
     4
 10
901.77197299999989
 20
188.686894
 30
0.0
 11
1239.376538
 21
188.686894
 31
0.0
  0
LINE
  5
628
  8
SIZE
  6
CONTINUOUS
 62
    30
 10
1490.654828
 20
697.71808999999996
 30
0.0
 11
784.11802899999986
 21
697.71808999999996
 31
0.0
  0
LINE
  5
629
  8
SIZE
  6
CONTINUOUS
 62
    30
 10
1490.654828
 20
697.71808999999996
 30
0.0
 11
784.11802899999986
 21
697.71808999999996
 31
0.0
  0
LINE
  5
62A
  8
SIZE
  6
CONTINUOUS
 62
    30
 10
1426.654828
 20
669.720731
 30
0.0
 11
784.11802899999986
 21
669.720731
 31
0.0
  0
LINE
  5
62B
  8
SIZE
  6
CONTINUOUS
 62
    30
 10
1544.863977
 20
428.71809000000002
 30
0.0
 11
800.07066399999997
 21
428.71809000000002
 31
0.0
  0
LINE
  5
62C
  8
SIZE
  6
CONTINUOUS
 62
    30
 10
1514.1639769999999
 20
436.71809000000002
 30
0.0
 11
800.07066399999997
 21
436.71809000000002
 31
0.0
  0
LINE
  5
62D
  8
SIZE
  6
CONTINUOUS
 62
    30
 10
1514.1639769999999
 20
436.71809000000002
 30
0.0
 11
800.07066399999997
 21
436.71809000000002
 31
0.0
  0
LINE
  5
62E
  8
SIZE
  6
CONTINUOUS
 62
    30
 10
1545.6939769999999
 20
483.7180899999999
 30
0.0
 11
800.07066399999997
 21
483.7180899999999
 31
0.0
  0
LINE
  5
62F
  8
SIZE
  6
CONTINUOUS
 62
    30
 10
1513.452581
 20
436.71809000000002
 30
0.0
 11
493.70535000000001
 21
436.71809000000002
 31
0.0
  0
LINE
  5
630
  8
SIZE
  6
CONTINUOUS
 62
    30
 10
703.59633799999995
 20
426.68311599999998
 30
0.0
 11
703.59633799999995
 21
310.54025899999999
 31
0.0
  0
TEXT
  5
631
  8
SIZE
  6
CONTINUOUS
 62
    30
 10
685.59633799999995
 20
328.54025942857152
 30
0.0
 40
55.0
  1
47
 50
90.0
 41
0.9
 72
     1
 11
685.59633799999995
 21
368.61168800000002
 31
0.0
  0
TEXT
  5
632
  8
SIZE
  6
CONTINUOUS
 62
    30
 10
411.69609300000002
 20
175.0154772857143
 30
0.0
 40
55.0
  1
50～60
 50
90.0
 41
0.9
 72
     1
 11
411.69609300000002
 21
291.92976299999998
 31
0.0
  0
TEXT
  5
633
  8
SIZE
  6
CONTINUOUS
 62
    30
 10
505.70535000000001
 20
90.03237585714291
 30
0.0
 40
55.0
  1
140～300
 50
90.0
 41
0.9
 72
     1
 11
505.70535000000001
 21
249.37523300000001
 31
0.0
  0
TEXT
  5
634
  8
SIZE
  6
CONTINUOUS
 62
    30
 10
327.94631399999997
 20
118.1568259999999
 30
0.0
 40
55.0
  1
パネル直付時
 50
90.0
 41
0.9
 72
     1
 11
327.94631399999997
 21
289.75682599999999
 31
0.0
  0
LINE
  5
635
  8
SIZE
  6
CONTINUOUS
 62
    30
 10
523.70534999999995
 20
436.71809000000002
 30
0.0
 11
523.70534999999995
 21
72.032375999999999
 31
0.0
  0
POLYLINE
  5
636
  8
SIZE
  6
CONTINUOUS
 62
    30
 66
     1
 10
0.0
 20
0.0
 30
0.0
  0
VERTEX
  5
914
  8
SIZE
  6
CONTINUOUS
 62
    30
 10
251.75385
 20
124.718132
 30
0.0
 42
0.186174
  0
VERTEX
  5
915
  8
SIZE
  6
CONTINUOUS
 62
    30
 10
260.60369800000001
 20
103.76864399999999
 30
0.0
 42
0.082105
  0
VERTEX
  5
916
  8
SIZE
  6
CONTINUOUS
 62
    30
 10
276.30619999999999
 20
91.594082999999998
 30
0.0
 42
0.058826
  0
VERTEX
  5
917
  8
SIZE
  6
CONTINUOUS
 62
    30
 10
298.09225800000002
 20
82.819156000000007
 30
0.0
 42
0.067494
  0
VERTEX
  5
918
  8
SIZE
  6
CONTINUOUS
 62
    30
 10
335.58081800000002
 20
77.873652000000007
 30
0.0
 42
0.067494
  0
VERTEX
  5
919
  8
SIZE
  6
CONTINUOUS
 62
    30
 10
373.06937799999997
 20
82.819156000000007
 30
0.0
 42
0.058826
  0
VERTEX
  5
91A
  8
SIZE
  6
CONTINUOUS
 62
    30
 10
394.855436
 20
91.594082999999998
 30
0.0
 42
0.082105
  0
VERTEX
  5
91B
  8
SIZE
  6
CONTINUOUS
 62
    30
 10
410.55793799999998
 20
103.76864399999999
 30
0.0
 42
0.186174
  0
VERTEX
  5
91C
  8
SIZE
  6
CONTINUOUS
 62
    30
 10
419.40778599999999
 20
124.718132
 30
0.0
 42
0.186174
  0
VERTEX
  5
91D
  8
SIZE
  6
CONTINUOUS
 62
    30
 10
419.40778599999999
 20
124.718132
 30
0.0
 42
0.186174
  0
SEQEND
  5
91E
  8
SIZE
  6
CONTINUOUS
 62
    30
  0
TEXT
  5
642
  8
SIZE
  6
CONTINUOUS
 62
    30
 10
505.70535000000001
 20
659.57523285714285
 30
0.0
 40
55.0
  1
293
 50
90.0
 41
0.9
 72
     1
 11
505.70535000000001
 21
723.21809000000007
 31
0.0
  0
POLYLINE
  5
643
  8
SIZE
  6
CONTINUOUS
 62
    30
 66
     1
 10
0.0
 20
0.0
 30
0.0
  0
VERTEX
  5
91F
  8
SIZE
  6
CONTINUOUS
 62
    30
 10
419.40778599999999
 20
452.46375799999998
 30
0.0
 42
0.186174
  0
VERTEX
  5
920
  8
SIZE
  6
CONTINUOUS
 62
    30
 10
410.55793799999998
 20
473.41324600000002
 30
0.0
 42
0.082105
  0
VERTEX
  5
921
  8
SIZE
  6
CONTINUOUS
 62
    30
 10
394.855436
 20
485.58780700000011
 30
0.0
 42
0.058826
  0
VERTEX
  5
922
  8
SIZE
  6
CONTINUOUS
 62
    30
 10
373.06937799999997
 20
494.36273399999988
 30
0.0
 42
0.067494
  0
VERTEX
  5
923
  8
SIZE
  6
CONTINUOUS
 62
    30
 10
335.58081800000002
 20
499.30823700000002
 30
0.0
 42
0.067494
  0
VERTEX
  5
924
  8
SIZE
  6
CONTINUOUS
 62
    30
 10
298.09225800000002
 20
494.36273399999988
 30
0.0
 42
0.058826
  0
VERTEX
  5
925
  8
SIZE
  6
CONTINUOUS
 62
    30
 10
276.30619999999999
 20
485.58780700000011
 30
0.0
 42
0.082105
  0
VERTEX
  5
926
  8
SIZE
  6
CONTINUOUS
 62
    30
 10
260.60369800000001
 20
473.41324600000002
 30
0.0
 42
0.186174
  0
VERTEX
  5
927
  8
SIZE
  6
CONTINUOUS
 62
    30
 10
251.75385
 20
452.46375799999998
 30
0.0
 42
0.186174
  0
SEQEND
  5
928
  8
SIZE
  6
CONTINUOUS
 62
    30
  0
LINE
  5
64E
  8
SIZE
  6
CONTINUOUS
 62
    30
 10
523.70534999999995
 20
859.71809000000007
 30
0.0
 11
523.70534999999995
 21
586.71809000000007
 31
0.0
  0
LINE
  5
64F
  8
SIZE
  6
CONTINUOUS
 62
    30
 10
523.70534999999995
 20
566.71808999999996
 30
0.0
 11
523.70534999999995
 21
446.71809000000002
 31
0.0
  0
LINE
  5
650
  8
SIZE
  6
CONTINUOUS
 62
    30
 10
523.70534999999995
 20
441.7180899999999
 30
0.0
 11
523.70534999999995
 21
446.71809000000002
 31
0.0
  0
POINT
  5
651
  8
DEFPOINTS
  6
CONTINUOUS
 62
     7
 10
523.70534999999995
 20
436.71809000000002
 30
0.0
  0
CIRCLE
  5
652
  8
SIZE
  6
CONTINUOUS
 62
    30
 10
523.70534999999995
 20
436.71809000000002
 30
0.0
 40
5.0
  0
CIRCLE
  5
653
  8
SIZE
  6
CONTINUOUS
 62
    30
 10
523.70534999999995
 20
576.71808999999996
 30
0.0
 40
5.0
  0
LINE
  5
654
  8
SIZE
  6
CONTINUOUS
 62
    30
 10
523.70534999999995
 20
581.71809000000007
 30
0.0
 11
523.70534999999995
 21
586.71809000000007
 31
0.0
  0
POINT
  5
655
  8
DEFPOINTS
  6
CONTINUOUS
 62
     7
 10
523.70534999999995
 20
576.71808999999996
 30
0.0
  0
CIRCLE
  5
656
  8
SIZE
  6
CONTINUOUS
 62
    30
 10
523.70534999999995
 20
576.71808999999996
 30
0.0
 40
5.0
  0
LINE
  5
657
  8
SIZE
  6
CONTINUOUS
 62
    30
 10
523.70534999999995
 20
571.71808999999996
 30
0.0
 11
523.70534999999995
 21
566.71808999999996
 31
0.0
  0
CIRCLE
  5
658
  8
SIZE
  6
CONTINUOUS
 62
    30
 10
830.07066399999985
 20
483.7180899999999
 30
0.0
 40
5.0
  0
TEXT
  5
659
  8
SIZE
  6
CONTINUOUS
 62
    30
 10
812.07066399999985
 20
357.71809000000002
 30
0.0
 40
55.0
  1
8
 50
90.0
 41
0.9
 72
     1
 11
812.07066399999985
 21
374.21809000000002
 31
0.0
  0
LINE
  5
65A
  8
SIZE
  6
CONTINUOUS
 62
    30
 10
830.07066399999985
 20
460.21809000000002
 30
0.0
 11
703.59633799999995
 21
426.68311599999998
 31
0.0
  0
LINE
  5
65B
  8
SIZE
  6
CONTINUOUS
 62
    30
 10
830.07066399999985
 20
446.71809000000002
 30
0.0
 11
830.07066399999985
 21
456.71809000000002
 31
0.0
  0
LINE
  5
65C
  8
SIZE
  6
CONTINUOUS
 62
    30
 10
830.07066399999985
 20
441.7180899999999
 30
0.0
 11
830.07066399999985
 21
446.71809000000002
 31
0.0
  0
POINT
  5
65D
  8
DEFPOINTS
  6
CONTINUOUS
 62
     7
 10
830.07066399999985
 20
436.71809000000002
 30
0.0
  0
LINE
  5
65E
  8
SIZE
  6
CONTINUOUS
 62
    30
 10
830.07066399999985
 20
436.71809000000002
 30
0.0
 11
830.07066399999985
 21
483.7180899999999
 31
0.0
  0
LINE
  5
65F
  8
SIZE
  6
CONTINUOUS
 62
    30
 10
830.07066399999985
 20
436.71809000000002
 30
0.0
 11
830.07066399999985
 21
483.7180899999999
 31
0.0
  0
POINT
  5
660
  8
DEFPOINTS
  6
CONTINUOUS
 62
     7
 10
830.07066399999985
 20
483.7180899999999
 30
0.0
  0
LINE
  5
661
  8
SIZE
  6
CONTINUOUS
 62
    30
 10
830.07066399999985
 20
418.71809000000002
 30
0.0
 11
830.07066399999985
 21
339.71809000000002
 31
0.0
  0
CIRCLE
  5
662
  8
SIZE
  6
CONTINUOUS
 62
    30
 10
830.07066399999985
 20
428.71809000000002
 30
0.0
 40
5.0
  0
LINE
  5
663
  8
SIZE
  6
CONTINUOUS
 62
    30
 10
830.07066399999985
 20
423.71809000000002
 30
0.0
 11
830.07066399999985
 21
418.71809000000002
 31
0.0
  0
LINE
  5
664
  8
SIZE
  6
CONTINUOUS
 62
    30
 10
830.07066399999985
 20
426.71809000000002
 30
0.0
 11
830.07066399999985
 21
416.7180899999999
 31
0.0
  0
LINE
  5
665
  8
SIZE
  6
CONTINUOUS
 62
    30
 10
830.07066399999985
 20
431.71809000000002
 30
0.0
 11
830.07066399999985
 21
426.71809000000002
 31
0.0
  0
LINE
  5
666
  8
SIZE
  6
CONTINUOUS
 62
    30
 10
830.07066399999985
 20
436.71809000000002
 30
0.0
 11
830.07066399999985
 21
428.71809000000002
 31
0.0
  0
CIRCLE
  5
667
  8
SIZE
  6
CONTINUOUS
 62
    30
 10
830.07066399999985
 20
436.71809000000002
 30
0.0
 40
5.0
  0
CIRCLE
  5
668
  8
SIZE
  6
CONTINUOUS
 62
    30
 10
830.07066399999985
 20
436.71809000000002
 30
0.0
 40
5.0
  0
LINE
  5
669
  8
SIZE
  6
CONTINUOUS
 62
    30
 10
830.07066399999985
 20
493.71809000000002
 30
0.0
 11
830.07066399999985
 21
503.71809000000002
 31
0.0
  0
LINE
  5
66A
  8
SIZE
  6
CONTINUOUS
 62
    30
 10
830.07066399999985
 20
488.71809000000002
 30
0.0
 11
830.07066399999985
 21
493.71809000000002
 31
0.0
  0
LINE
  5
66B
  8
SIZE
  6
CONTINUOUS
 62
    30
 10
814.11802899999986
 20
683.71941100000004
 30
0.0
 11
683.400665
 21
694.51983200000006
 31
0.0
  0
LINE
  5
66C
  8
SIZE
  6
CONTINUOUS
 62
    30
 10
683.400665
 20
694.51983200000006
 30
0.0
 11
683.400665
 21
810.66268899999989
 31
0.0
  0
TEXT
  5
66D
  8
SIZE
  6
CONTINUOUS
 62
    30
 10
665.400665
 20
712.51983242857136
 30
0.0
 40
55.0
  1
28
 50
90.0
 41
0.9
 72
     1
 11
665.400665
 21
752.59126100000003
 31
0.0
  0
CIRCLE
  5
66E
  8
SIZE
  6
CONTINUOUS
 62
    30
 10
523.70534999999995
 20
869.71809000000007
 30
0.0
 40
5.0
  0
LINE
  5
66F
  8
SIZE
  6
CONTINUOUS
 62
    30
 10
523.70534999999995
 20
864.71808999999996
 30
0.0
 11
523.70534999999995
 21
859.71809000000007
 31
0.0
  0
LINE
  5
670
  8
SIZE
  6
CONTINUOUS
 62
    30
 10
814.11802899999986
 20
859.71809000000007
 30
0.0
 11
814.11802899999986
 21
707.71808999999996
 31
0.0
  0
TEXT
  5
671
  8
SIZE
  6
CONTINUOUS
 62
    30
 10
796.11802899999986
 20
724.78951857142863
 30
0.0
 40
55.0
  1
172
 50
90.0
 41
0.9
 72
     1
 11
796.11802899999986
 21
783.71808999999996
 31
0.0
  0
CIRCLE
  5
672
  8
SIZE
  6
CONTINUOUS
 62
    30
 10
814.11802899999986
 20
697.71808999999996
 30
0.0
 40
5.0
  0
LINE
  5
673
  8
SIZE
  6
CONTINUOUS
 62
    30
 10
814.11802899999986
 20
702.71809000000007
 30
0.0
 11
814.11802899999986
 21
707.71808999999996
 31
0.0
  0
POINT
  5
674
  8
DEFPOINTS
  6
CONTINUOUS
 62
     7
 10
814.11802899999986
 20
697.71808999999996
 30
0.0
  0
LINE
  5
675
  8
SIZE
  6
CONTINUOUS
 62
    30
 10
814.11802899999986
 20
707.71808999999996
 30
0.0
 11
814.11802899999986
 21
717.71808999999996
 31
0.0
  0
LINE
  5
676
  8
SIZE
  6
CONTINUOUS
 62
    30
 10
814.11802899999986
 20
659.72073099999989
 30
0.0
 11
814.11802899999986
 21
649.720731
 31
0.0
  0
LINE
  5
677
  8
SIZE
  6
CONTINUOUS
 62
    30
 10
814.11802899999986
 20
697.71808999999996
 30
0.0
 11
814.11802899999986
 21
669.720731
 31
0.0
  0
LINE
  5
678
  8
SIZE
  6
CONTINUOUS
 62
    30
 10
814.11802899999986
 20
697.71808999999996
 30
0.0
 11
814.11802899999986
 21
669.720731
 31
0.0
  0
CIRCLE
  5
679
  8
SIZE
  6
CONTINUOUS
 62
    30
 10
814.11802899999986
 20
697.71808999999996
 30
0.0
 40
5.0
  0
LINE
  5
67A
  8
SIZE
  6
CONTINUOUS
 62
    30
 10
814.11802899999986
 20
702.71809000000007
 30
0.0
 11
814.11802899999986
 21
707.71808999999996
 31
0.0
  0
CIRCLE
  5
67B
  8
SIZE
  6
CONTINUOUS
 62
    30
 10
814.11802899999986
 20
669.720731
 30
0.0
 40
5.0
  0
LINE
  5
67C
  8
SIZE
  6
CONTINUOUS
 62
    30
 10
814.11802899999986
 20
664.72073099999989
 30
0.0
 11
814.11802899999986
 21
659.72073099999989
 31
0.0
  0
POINT
  5
67D
  8
DEFPOINTS
  6
CONTINUOUS
 62
     7
 10
814.11802899999986
 20
669.720731
 30
0.0
  0
CIRCLE
  5
67E
  8
SIZE
  6
CONTINUOUS
 62
    30
 10
814.11802899999986
 20
869.71809000000007
 30
0.0
 40
5.0
  0
LINE
  5
67F
  8
SIZE
  6
CONTINUOUS
 62
    30
 10
814.11802899999986
 20
864.71808999999996
 30
0.0
 11
814.11802899999986
 21
859.71809000000007
 31
0.0
  0
TEXT
  5
680
  8
SIZE
  6
CONTINUOUS
 62
    30
 10
1589.163977142857
 20
305.40156200000001
 30
0.0
 40
55.0
  1
17
 41
0.9
 72
     1
 11
1624.5211200000001
 21
305.40156200000001
 31
0.0
  0
LINE
  5
681
  8
SIZE
  6
CONTINUOUS
 62
    30
 10
1534.1639769999999
 20
412.71158199999991
 30
0.0
 11
1534.1639769999999
 21
156.09143399999999
 31
0.0
  0
LINE
  5
682
  8
SIZE
  6
CONTINUOUS
 62
    30
 10
1534.1639769999999
 20
412.71158199999991
 30
0.0
 11
1534.1639769999999
 21
257.40156200000001
 31
0.0
  0
LINE
  5
683
  8
SIZE
  6
CONTINUOUS
 62
    30
 10
1551.1639769999999
 20
417.71809000000002
 30
0.0
 11
1551.1639769999999
 21
257.40156200000001
 31
0.0
  0
LINE
  5
684
  8
SIZE
  6
CONTINUOUS
 62
    30
 10
1551.1639769999999
 20
417.71809000000002
 30
0.0
 11
1551.1639769999999
 21
-0.000007
 31
0.0
  0
LINE
  5
685
  8
SIZE
  6
CONTINUOUS
 62
    30
 10
1551.1639769999999
 20
417.71809000000002
 30
0.0
 11
1551.1639769999999
 21
-0.000007
 31
0.0
  0
LINE
  5
686
  8
SIZE
  6
CONTINUOUS
 62
    30
 10
1324.1639769999999
 20
643.71809000000007
 30
0.0
 11
1324.1639769999999
 21
-0.000007
 31
0.0
  0
LINE
  5
687
  8
NOTE
  6
CONTINUOUS
 62
     4
 10
1196.0094810000001
 20
294.162285
 30
0.0
 11
1452.1639769999999
 21
669.720731
 31
0.0
  0
LINE
  5
688
  8
NOTE
  6
CONTINUOUS
 62
     4
 10
1239.376538
 20
188.686894
 30
0.0
 11
1516.1639769999999
 21
697.71808999999996
 31
0.0
  0
LINE
  5
689
  8
SIZE
  6
CONTINUOUS
 62
    30
 10
1334.1639769999999
 20
29.999993
 30
0.0
 11
1541.1639769999999
 21
29.999993
 31
0.0
  0
CIRCLE
  5
68A
  8
SIZE
  6
CONTINUOUS
 62
    30
 10
1324.1639769999999
 20
29.999993
 30
0.0
 40
5.0
  0
TEXT
  5
68B
  8
NOTE
  6
CONTINUOUS
 62
     4
 10
916.56356799999992
 20
201.56741600000001
 30
0.0
 40
60.0
  1
RL %%C9.52
 50
359.99999700000001
 41
0.7
  7
STANDARD1
  0
LINE
  5
68C
  8
SIZE
  6
CONTINUOUS
 62
    30
 10
1329.1639769999999
 20
29.999993
 30
0.0
 11
1334.1639769999999
 21
29.999993
 31
0.0
  0
CIRCLE
  5
68D
  8
SIZE
  6
CONTINUOUS
 62
    30
 10
1551.1639769999999
 20
29.999993
 30
0.0
 40
5.0
  0
CIRCLE
  5
68E
  8
SIZE
  6
CONTINUOUS
 62
    30
 10
1551.1639769999999
 20
29.999993
 30
0.0
 40
5.0
  0
LINE
  5
68F
  8
SIZE
  6
CONTINUOUS
 62
    30
 10
1561.1639769999999
 20
287.40156200000001
 30
0.0
 11
1677.8782630000001
 21
287.40156200000001
 31
0.0
  0
TEXT
  5
690
  8
SIZE
  6
CONTINUOUS
 62
    30
 10
1374.021119857143
 20
47.999992999999989
 30
0.0
 40
55.0
  1
227
 41
0.9
 72
     1
 11
1437.6639769999999
 21
47.999992999999989
 31
0.0
  0
LINE
  5
691
  8
SIZE
  6
CONTINUOUS
 62
    30
 10
1556.1639769999999
 20
29.999993
 30
0.0
 11
1561.1639769999999
 21
29.999993
 31
0.0
  0
POINT
  5
692
  8
DEFPOINTS
  6
CONTINUOUS
 62
     7
 10
1551.1639769999999
 20
29.999993
 30
0.0
  0
LINE
  5
693
  8
SIZE
  6
CONTINUOUS
 62
    30
 10
1546.1639769999999
 20
29.999993
 30
0.0
 11
1541.1639769999999
 21
29.999993
 31
0.0
  0
POINT
  5
694
  8
DEFPOINTS
  6
CONTINUOUS
 62
     7
 10
1551.1639769999999
 20
29.999993
 30
0.0
  0
LINE
  5
695
  8
SIZE
  6
CONTINUOUS
 62
    30
 10
1524.1639769999999
 20
287.40156200000001
 30
0.0
 11
1514.1639769999999
 21
287.40156200000001
 31
0.0
  0
LINE
  5
696
  8
SIZE
  6
CONTINUOUS
 62
    30
 10
1534.1639769999999
 20
287.40156200000001
 30
0.0
 11
1551.1639769999999
 21
287.40156200000001
 31
0.0
  0
CIRCLE
  5
697
  8
SIZE
  6
CONTINUOUS
 62
    30
 10
1534.1639769999999
 20
287.40156200000001
 30
0.0
 40
5.0
  0
LINE
  5
698
  8
SIZE
  6
CONTINUOUS
 62
    30
 10
1529.1639769999999
 20
287.40156200000001
 30
0.0
 11
1524.1639769999999
 21
287.40156200000001
 31
0.0
  0
CIRCLE
  5
699
  8
SIZE
  6
CONTINUOUS
 62
    30
 10
1551.1639769999999
 20
287.40156200000001
 30
0.0
 40
5.0
  0
LINE
  5
69A
  8
SIZE
  6
CONTINUOUS
 62
    30
 10
1556.1639769999999
 20
287.40156200000001
 30
0.0
 11
1561.1639769999999
 21
287.40156200000001
 31
0.0
  0
POINT
  5
69B
  8
DEFPOINTS
  6
CONTINUOUS
 62
     7
 10
1551.1639769999999
 20
287.40156200000001
 30
0.0
  0
CIRCLE
  5
69C
  8
SIZE
  6
CONTINUOUS
 62
    30
 10
1534.1639769999999
 20
186.09143399999999
 30
0.0
 40
5.0
  0
LINE
  5
69D
  8
SIZE
  6
CONTINUOUS
 62
    30
 10
1539.1639769999999
 20
186.09143399999999
 30
0.0
 11
1544.1639769999999
 21
186.09143399999999
 31
0.0
  0
POINT
  5
69E
  8
DEFPOINTS
  6
CONTINUOUS
 62
     7
 10
1534.1639769999999
 20
186.09143399999999
 30
0.0
  0
LINE
  5
69F
  8
DETAIL
  6
CONTINUOUS
 62
     5
 10
1324.113689
 20
576.71808999999996
 30
0.0
 11
1698.0089929999999
 21
576.71808999999996
 31
0.0
  0
LINE
  5
6A0
  8
DETAIL
  6
CONTINUOUS
 62
     5
 10
1681.7739759999999
 20
576.71808999999996
 30
0.0
 11
1344.7739759999999
 21
576.71808999999996
 31
0.0
  0
LINE
  5
6A1
  8
DETAIL
  6
CONTINUOUS
 62
     5
 10
1366.163724
 20
831.71808999999996
 30
0.0
 11
1327.163609
 21
831.71808999999996
 31
0.0
  0
LINE
  5
6A2
  8
NOTE
  6
CONTINUOUS
 62
     4
 10
1373.1591430000001
 20
869.71809000000007
 30
0.0
 11
1343.168811
 21
869.71809000000007
 31
0.0
  0
CIRCLE
  5
6A3
  8
FIX
  6
CONTINUOUS
 62
    11
 10
1358.1639769999999
 20
869.71809000000007
 30
0.0
 40
12.421498
  0
LINE
  5
6A4
  8
DETAIL
  6
CONTINUOUS
 62
     5
 10
1309.1639769999999
 20
837.71808999999996
 30
0.0
 11
1309.1639769999999
 21
629.71808999999996
 31
0.0
  0
LINE
  5
6A5
  8
DETAIL
  6
CONTINUOUS
 62
     5
 10
1324.1639769999999
 20
869.71809000000007
 30
0.0
 11
1324.1639769999999
 21
576.71808999999996
 31
0.0
  0
LINE
  5
6A6
  8
DETAIL
  6
CONTINUOUS
 62
     5
 10
1254.1639769999999
 20
831.21809000000007
 30
0.0
 11
1254.1639769999999
 21
636.21809000000007
 31
0.0
  0
LINE
  5
6A7
  8
DETAIL
  6
CONTINUOUS
 62
     5
 10
1294.1639769999999
 20
833.71809000000007
 30
0.0
 11
1294.1639769999999
 21
633.71808999999996
 31
0.0
  0
LINE
  5
6A8
  8
OUTLINE
  6
CONTINUOUS
 62
     3
 10
1324.1639769999999
 20
869.71809000000007
 30
0.0
 11
1324.1639769999999
 21
576.71808999999996
 31
0.0
  0
ARC
  5
6A9
  8
DETAIL
  6
CONTINUOUS
 62
     5
 10
1313.1639769999999
 20
629.71808999999996
 30
0.0
 40
4.0
 50
180.0
 51
270.0
  0
LINE
  5
6AA
  8
DETAIL
  6
CONTINUOUS
 62
     5
 10
1313.1639769999999
 20
625.71808999999996
 30
0.0
 11
1324.1639769999999
 21
625.71808999999996
 31
0.0
  0
LINE
  5
6AB
  8
DETAIL
  6
CONTINUOUS
 62
     5
 10
1289.1639769999999
 20
633.71808999999996
 30
0.0
 11
1307.1639769999999
 21
633.71808999999996
 31
0.0
  0
LINE
  5
6AC
  8
DETAIL
  6
CONTINUOUS
 62
     5
 10
1289.1639769999999
 20
633.71808999999996
 30
0.0
 11
1254.1639769999999
 21
636.21809000000007
 31
0.0
  0
ARC
  5
6AD
  8
DETAIL
  6
CONTINUOUS
 62
     5
 10
1307.1639769999999
 20
631.71809000000007
 30
0.0
 40
2.0
 50
0.0
 51
90.0
  0
POINT
  5
6AE
  8
DEFPOINTS
  6
CONTINUOUS
 62
     7
 10
1324.113689
 20
576.71808999999996
 30
0.0
  0
POINT
  5
6AF
  8
DEFPOINTS
  6
CONTINUOUS
 62
     7
 10
1323.452581
 20
576.71808999999996
 30
0.0
  0
LINE
  5
6B0
  8
SIZE
  6
CONTINUOUS
 62
    30
 10
941.1253099999999
 20
743.71809000000007
 30
0.0
 11
941.1253099999999
 21
859.71809000000007
 31
0.0
  0
CIRCLE
  5
6B1
  8
SIZE
  6
CONTINUOUS
 62
    30
 10
941.1253099999999
 20
733.71808999999996
 30
0.0
 40
5.0
  0
POINT
  5
6B2
  8
DEFPOINTS
  6
CONTINUOUS
 62
     7
 10
941.1253099999999
 20
733.71808999999996
 30
0.0
  0
LINE
  5
6B3
  8
SIZE
  6
CONTINUOUS
 62
    30
 10
941.1253099999999
 20
738.71808999999996
 30
0.0
 11
941.1253099999999
 21
743.71809000000007
 31
0.0
  0
CIRCLE
  5
6B4
  8
SIZE
  6
CONTINUOUS
 62
    30
 10
941.1253099999999
 20
869.71809000000007
 30
0.0
 40
5.0
  0
LINE
  5
6B5
  8
SIZE
  6
CONTINUOUS
 62
    30
 10
941.1253099999999
 20
864.71808999999996
 30
0.0
 11
941.1253099999999
 21
859.71809000000007
 31
0.0
  0
LINE
  5
6B6
  8
NOTE
  6
CONTINUOUS
 62
     4
 10
1254.1639769999999
 20
805.66260499999999
 30
0.0
 11
1254.1639769999999
 21
661.77357500000005
 31
0.0
  0
LINE
  5
6B7
  8
NOTE
  6
CONTINUOUS
 62
     4
 10
1326.1084920000001
 20
733.71808999999996
 30
0.0
 11
1182.219462
 21
733.71808999999996
 31
0.0
  0
LINE
  5
6B8
  8
NOTE
  6
CONTINUOUS
 62
     4
 10
1254.1639769999999
 20
733.71808999999996
 30
0.0
 11
1228.7774159999999
 21
756.91016100000002
 31
0.0
  0
LINE
  5
6B9
  8
NOTE
  6
CONTINUOUS
 62
     4
 10
1254.1639769999999
 20
733.71808999999996
 30
0.0
 11
1243.7746059999999
 21
766.49629400000003
 31
0.0
  0
POINT
  5
6BA
  8
DEFPOINTS
  6
CONTINUOUS
 62
     7
 10
1182.219462
 20
733.71808999999996
 30
0.0
  0
POINT
  5
6BB
  8
DEFPOINTS
  6
CONTINUOUS
 62
     7
 10
1324.1639769999999
 20
663.71808999999996
 30
0.0
  0
ARC
  5
6BC
  8
DETAIL
  6
CONTINUOUS
 62
     5
 10
1313.1639769999999
 20
837.71808999999996
 30
0.0
 40
4.0
 50
90.0
 51
180.0
  0
LINE
  5
6BD
  8
DETAIL
  6
CONTINUOUS
 62
     5
 10
1313.1639769999999
 20
841.71809000000007
 30
0.0
 11
1324.1639769999999
 21
841.71809000000007
 31
0.0
  0
LINE
  5
6BE
  8
DETAIL
  6
CONTINUOUS
 62
     5
 10
1289.1639769999999
 20
833.71809000000007
 30
0.0
 11
1254.1639769999999
 21
831.21809000000007
 31
0.0
  0
LINE
  5
6BF
  8
DETAIL
  6
CONTINUOUS
 62
     5
 10
1289.1639769999999
 20
833.71809000000007
 30
0.0
 11
1307.1639769999999
 21
833.71809000000007
 31
0.0
  0
ARC
  5
6C0
  8
DETAIL
  6
CONTINUOUS
 62
     5
 10
1307.1639769999999
 20
835.71809000000007
 30
0.0
 40
2.0
 50
270.0
 51
0.0
  0
ARC
  5
6C1
  8
DETAIL
  6
CONTINUOUS
 62
     5
 10
1344.663724
 20
860.71809000000007
 30
0.0
 40
3.0
 50
270.0
 51
0.0
  0
ARC
  5
6C2
  8
DETAIL
  6
CONTINUOUS
 62
     5
 10
1327.163724
 20
860.71809000000007
 30
0.0
 40
3.0
 50
180.0
 51
270.0
  0
LINE
  5
6C3
  8
DETAIL
  6
CONTINUOUS
 62
     5
 10
1347.663724
 20
869.71809000000007
 30
0.0
 11
1347.663724
 21
860.71809000000007
 31
0.0
  0
LINE
  5
6C4
  8
DETAIL
  6
CONTINUOUS
 62
     5
 10
1344.663724
 20
857.71808999999996
 30
0.0
 11
1326.663724
 21
857.71808999999996
 31
0.0
  0
ARC
  5
6C5
  8
DETAIL
  6
CONTINUOUS
 62
     5
 10
1327.163609
 20
834.71809000000007
 30
0.0
 40
3.0
 50
179.99939800000001
 51
270.0
  0
LINE
  5
6C6
  8
DETAIL
  6
CONTINUOUS
 62
     5
 10
1324.163609
 20
834.71812199999988
 30
0.0
 11
1324.1639769999999
 21
869.71809000000007
 31
0.0
  0
LINE
  5
6C7
  8
NOTE
  6
CONTINUOUS
 62
     4
 10
1358.1639769999999
 20
884.713256
 30
0.0
 11
1358.1639769999999
 21
854.72292400000003
 31
0.0
  0
POINT
  5
6C8
  8
DEFPOINTS
  6
CONTINUOUS
 62
     7
 10
1254.1639769999999
 20
831.21809000000007
 30
0.0
  0
POINT
  5
6C9
  8
DEFPOINTS
  6
CONTINUOUS
 62
     7
 10
1294.1639769999999
 20
833.71809000000007
 30
0.0
  0
POINT
  5
6CA
  8
DEFPOINTS
  6
CONTINUOUS
 62
     7
 10
1358.1639769999999
 20
884.713256
 30
0.0
  0
POINT
  5
6CB
  8
DEFPOINTS
  6
CONTINUOUS
 62
     7
 10
1324.1639769999999
 20
869.71809000000007
 30
0.0
  0
POINT
  5
6CC
  8
DEFPOINTS
  6
CONTINUOUS
 62
     7
 10
1324.1639769999999
 20
869.71809000000007
 30
0.0
  0
POINT
  5
6CD
  8
DEFPOINTS
  6
CONTINUOUS
 62
     7
 10
1254.1639769999999
 20
831.21809000000007
 30
0.0
  0
POINT
  5
6CE
  8
DEFPOINTS
  6
CONTINUOUS
 62
     7
 10
1324.1639769999999
 20
869.71809000000007
 30
0.0
  0
POINT
  5
6CF
  8
DEFPOINTS
  6
CONTINUOUS
 62
     7
 10
1324.1639769999999
 20
869.71809000000007
 30
0.0
  0
POINT
  5
6D0
  8
DEFPOINTS
  6
CONTINUOUS
 62
     7
 10
1324.1639769999999
 20
869.71809000000007
 30
0.0
  0
POINT
  5
6D1
  8
DEFPOINTS
  6
CONTINUOUS
 62
     7
 10
1324.1639769999999
 20
869.71809000000007
 30
0.0
  0
LINE
  5
6D2
  8
NOTE
  6
CONTINUOUS
 62
     4
 10
1452.1639769999999
 20
669.720731
 30
0.0
 11
1439.236645
 21
637.85799799999995
 31
0.0
  0
LINE
  5
6D3
  8
BASIS
  6
DASHDOT
 62
     6
 10
1691.6639769999999
 20
905.28980299999989
 30
0.0
 11
1691.6639769999999
 21
382.83191900000003
 31
0.0
  0
LINE
  5
6D4
  8
NOTE
  6
CONTINUOUS
 62
     4
 10
1482.8256309999999
 20
437.7180899999999
 30
0.0
 11
1462.8256309999999
 21
457.71809000000002
 31
0.0
  0
LINE
  5
6D5
  8
NOTE
  6
CONTINUOUS
 62
     4
 10
1487.8256309999999
 20
437.7180899999999
 30
0.0
 11
1467.8256309999999
 21
457.71809000000002
 31
0.0
  0
LINE
  5
6D6
  8
NOTE
  6
CONTINUOUS
 62
     4
 10
1451.1639769999999
 20
457.71809000000002
 30
0.0
 11
1551.1639769999999
 21
457.71809000000002
 31
0.0
  0
LINE
  5
6D7
  8
NOTE
  6
CONTINUOUS
 62
     4
 10
1451.1639769999999
 20
437.7180899999999
 30
0.0
 11
1551.1639769999999
 21
437.7180899999999
 31
0.0
  0
LINE
  5
6D8
  8
DETAIL
  6
CONTINUOUS
 62
     5
 10
1565.6939769999999
 20
436.71809000000002
 30
0.0
 11
1565.6939769999999
 21
483.7180899999999
 31
0.0
  0
LINE
  5
6D9
  8
DETAIL
  6
CONTINUOUS
 62
     5
 10
1565.6939769999999
 20
436.71809000000002
 30
0.0
 11
1534.1639769999999
 21
436.71809000000002
 31
0.0
  0
LINE
  5
6DA
  8
NOTE
  6
CONTINUOUS
 62
     4
 10
1522.8256309999999
 20
437.7180899999999
 30
0.0
 11
1502.8256309999999
 21
457.71809000000002
 31
0.0
  0
LINE
  5
6DB
  8
NOTE
  6
CONTINUOUS
 62
     4
 10
1527.8256309999999
 20
437.7180899999999
 30
0.0
 11
1507.8256309999999
 21
457.71809000000002
 31
0.0
  0
LINE
  5
6DC
  8
NOTE
  6
CONTINUOUS
 62
     4
 10
1532.8256309999999
 20
437.7180899999999
 30
0.0
 11
1512.8256309999999
 21
457.71809000000002
 31
0.0
  0
LINE
  5
6DD
  8
NOTE
  6
CONTINUOUS
 62
     4
 10
1551.1639769999999
 20
437.7180899999999
 30
0.0
 11
1551.1639769999999
 21
457.71809000000002
 31
0.0
  0
LINE
  5
6DE
  8
OUTLINE
  6
CONTINUOUS
 62
     3
 10
1565.6939769999999
 20
483.7180899999999
 30
0.0
 11
1565.6939769999999
 21
436.71809000000002
 31
0.0
  0
POINT
  5
6DF
  8
DEFPOINTS
  6
CONTINUOUS
 62
     7
 10
1551.1639769999999
 20
437.7180899999999
 30
0.0
  0
POINT
  5
6E0
  8
DEFPOINTS
  6
CONTINUOUS
 62
     7
 10
1551.1639769999999
 20
437.7180899999999
 30
0.0
  0
POINT
  5
6E1
  8
DEFPOINTS
  6
CONTINUOUS
 62
     7
 10
1551.1639769999999
 20
437.7180899999999
 30
0.0
  0
POINT
  5
6E2
  8
DEFPOINTS
  6
CONTINUOUS
 62
     7
 10
1534.1639769999999
 20
436.71809000000002
 30
0.0
  0
POINT
  5
6E3
  8
DEFPOINTS
  6
CONTINUOUS
 62
     7
 10
1534.1639769999999
 20
436.71809000000002
 30
0.0
  0
POINT
  5
6E4
  8
DEFPOINTS
  6
CONTINUOUS
 62
     7
 10
1565.6939769999999
 20
483.7180899999999
 30
0.0
  0
POINT
  5
6E5
  8
DEFPOINTS
  6
CONTINUOUS
 62
     7
 10
1533.452581
 20
436.71809000000002
 30
0.0
  0
LINE
  5
6E6
  8
NOTE
  6
CONTINUOUS
 62
     4
 10
1492.8256309999999
 20
437.7180899999999
 30
0.0
 11
1472.8256309999999
 21
457.71809000000002
 31
0.0
  0
ARC
  5
6E7
  8
DETAIL
  6
CONTINUOUS
 62
     5
 10
1564.863977
 20
548.71809000000007
 30
0.0
 40
120.0
 50
255.17703
 51
270.0
  0
ARC
  5
6E8
  8
OUTLINE
  6
CONTINUOUS
 62
     3
 10
1564.863977
 20
548.71809000000007
 30
0.0
 40
120.0
 50
255.17703
 51
270.0
  0
POINT
  5
6E9
  8
DEFPOINTS
  6
CONTINUOUS
 62
     7
 10
1534.1639769999999
 20
432.71158200000002
 30
0.0
  0
POINT
  5
6EA
  8
DEFPOINTS
  6
CONTINUOUS
 62
     7
 10
1534.1639769999999
 20
432.71158200000002
 30
0.0
  0
POINT
  5
6EB
  8
DEFPOINTS
  6
CONTINUOUS
 62
     7
 10
1564.863977
 20
428.71809000000002
 30
0.0
  0
LINE
  5
6EC
  8
DETAIL
  6
CONTINUOUS
 62
     5
 10
1534.1639769999999
 20
432.71158200000002
 30
0.0
 11
1534.1639769999999
 21
436.71809000000002
 31
0.0
  0
LINE
  5
6ED
  8
OUTLINE
  6
CONTINUOUS
 62
     3
 10
1534.1639769999999
 20
436.71809000000002
 30
0.0
 11
1534.1639769999999
 21
432.71158200000002
 31
0.0
  0
LINE
  5
6EE
  8
ARRANGE
  6
CONTINUOUS
 62
     1
 10
1641.6266270000001
 20
387.19573700000001
 30
0.0
 11
1741.701327
 21
486.24044299999991
 31
0.0
  0
LINE
  5
6EF
  8
ARRANGE
  6
CONTINUOUS
 62
     1
 10
1641.700214
 20
486.31468499999988
 30
0.0
 11
1741.6277399999999
 21
387.12149499999998
 31
0.0
  0
LINE
  5
6F0
  8
NOTE
  6
CONTINUOUS
 62
     4
 10
1452.1639769999999
 20
675.22072400000002
 30
0.0
 11
1452.1639769999999
 21
664.22073899999998
 31
0.0
  0
LINE
  5
6F1
  8
NOTE
  6
CONTINUOUS
 62
     4
 10
1446.654828
 20
669.720731
 30
0.0
 11
1457.654828
 21
669.720731
 31
0.0
  0
LINE
  5
6F2
  8
NOTE
  6
CONTINUOUS
 62
     4
 10
1452.1639769999999
 20
669.720731
 30
0.0
 11
1427.1427490000001
 21
646.13497599999994
 31
0.0
  0
LINE
  5
6F3
  8
NOTE
  6
CONTINUOUS
 62
     4
 10
1452.1639769999999
 20
675.22072400000002
 30
0.0
 11
1452.1639769999999
 21
664.22073899999998
 31
0.0
  0
LINE
  5
6F4
  8
NOTE
  6
CONTINUOUS
 62
     4
 10
1446.654828
 20
669.720731
 30
0.0
 11
1457.654828
 21
669.720731
 31
0.0
  0
POINT
  5
6F5
  8
DEFPOINTS
  6
CONTINUOUS
 62
     7
 10
1446.654828
 20
669.720731
 30
0.0
  0
POINT
  5
6F6
  8
DEFPOINTS
  6
CONTINUOUS
 62
     7
 10
1452.1639769999999
 20
675.22072400000002
 30
0.0
  0
POINT
  5
6F7
  8
DEFPOINTS
  6
CONTINUOUS
 62
     7
 10
1452.1639769999999
 20
675.22072400000002
 30
0.0
  0
LINE
  5
6F8
  8
NOTE
  6
CONTINUOUS
 62
     4
 10
1516.1639769999999
 20
703.21808199999987
 30
0.0
 11
1516.1639769999999
 21
692.21809800000005
 31
0.0
  0
LINE
  5
6F9
  8
NOTE
  6
CONTINUOUS
 62
     4
 10
1510.654828
 20
697.71808999999996
 30
0.0
 11
1521.654828
 21
697.71808999999996
 31
0.0
  0
LINE
  5
6FA
  8
NOTE
  6
CONTINUOUS
 62
     4
 10
1516.1639769999999
 20
703.21808199999987
 30
0.0
 11
1516.1639769999999
 21
692.21809800000005
 31
0.0
  0
LINE
  5
6FB
  8
NOTE
  6
CONTINUOUS
 62
     4
 10
1510.654828
 20
697.71808999999996
 30
0.0
 11
1521.654828
 21
697.71808999999996
 31
0.0
  0
LINE
  5
6FC
  8
NOTE
  6
CONTINUOUS
 62
     4
 10
1516.1639769999999
 20
697.71808999999996
 30
0.0
 11
1506.5003819999999
 21
664.71862599999986
 31
0.0
  0
LINE
  5
6FD
  8
NOTE
  6
CONTINUOUS
 62
     4
 10
1516.1639769999999
 20
697.71808999999996
 30
0.0
 11
1493.6367150000001
 21
671.73978899999986
 31
0.0
  0
POINT
  5
6FE
  8
DEFPOINTS
  6
CONTINUOUS
 62
     7
 10
1510.654828
 20
697.71808999999996
 30
0.0
  0
POINT
  5
6FF
  8
DEFPOINTS
  6
CONTINUOUS
 62
     7
 10
1510.654828
 20
697.71808999999996
 30
0.0
  0
POINT
  5
700
  8
DEFPOINTS
  6
CONTINUOUS
 62
     7
 10
1516.1639769999999
 20
703.21808199999987
 30
0.0
  0
LINE
  5
701
  8
DETAIL
  6
CONTINUOUS
 62
     5
 10
1369.163724
 20
854.71808999999996
 30
0.0
 11
1369.163724
 21
834.71809000000007
 31
0.0
  0
LINE
  5
702
  8
DETAIL
  6
CONTINUOUS
 62
     5
 10
1380.163724
 20
854.71808999999996
 30
0.0
 11
1369.163724
 21
854.71808999999996
 31
0.0
  0
ARC
  5
703
  8
DETAIL
  6
CONTINUOUS
 62
     5
 10
1380.163724
 20
860.71809000000007
 30
0.0
 40
3.0
 50
270.0
 51
0.0
  0
LINE
  5
704
  8
DETAIL
  6
CONTINUOUS
 62
     5
 10
1383.163724
 20
869.71809000000007
 30
0.0
 11
1383.163724
 21
857.71808999999996
 31
0.0
  0
ARC
  5
705
  8
DETAIL
  6
CONTINUOUS
 62
     5
 10
1366.163724
 20
834.71809000000007
 30
0.0
 40
3.0
 50
270.0
 51
0.0
  0
ARC
  5
706
  8
DETAIL
  6
CONTINUOUS
 62
     5
 10
1380.163724
 20
857.71808999999996
 30
0.0
 40
3.0
 50
270.0
 51
0.0
  0
LINE
  5
707
  8
DETAIL
  6
CONTINUOUS
 62
     5
 10
1359.663724
 20
869.71809000000007
 30
0.0
 11
1359.663724
 21
860.71809000000007
 31
0.0
  0
ARC
  5
708
  8
DETAIL
  6
CONTINUOUS
 62
     5
 10
1362.663724
 20
860.71809000000007
 30
0.0
 40
3.0
 50
180.0
 51
270.0
  0
LINE
  5
709
  8
DETAIL
  6
CONTINUOUS
 62
     5
 10
1362.663724
 20
857.71808999999996
 30
0.0
 11
1380.663724
 21
857.71808999999996
 31
0.0
  0
LINE
  5
70A
  8
NOTE
  6
CONTINUOUS
 62
     4
 10
470.43202000000002
 20
1081.692288
 30
0.0
 11
1053.4095380000001
 21
1081.692288
 31
0.0
  0
TEXT
  5
70B
  8
NOTE
  6
CONTINUOUS
 62
     4
 10
463.17571099999998
 20
1096.4879800000001
 30
0.0
 40
60.0
  1
%%C200 吹出円形フランジ
 50
359.99999700000001
 41
0.7
  7
STANDARD1
  0
CIRCLE
  5
70C
  8
SIZE
  6
CONTINUOUS
 62
    30
 10
1358.1639769999999
 20
1330.706173
 30
0.0
 40
5.0
  0
LINE
  5
70D
  8
SIZE
  6
CONTINUOUS
 62
    30
 10
1442.1639769999999
 20
1209.1657889999999
 30
0.0
 11
1334.1639769999999
 21
1209.1657889999999
 31
0.0
  0
TEXT
  5
70E
  8
SIZE
  6
CONTINUOUS
 62
    30
 10
1115.820629571429
 20
1227.1657889999999
 30
0.0
 40
55.0
  1
128
 41
0.9
 72
     1
 11
1174.7492010000001
 21
1227.1657889999999
 31
0.0
  0
LINE
  5
70F
  8
SIZE
  6
CONTINUOUS
 62
    30
 10
1324.1639769999999
 20
1209.1657889999999
 30
0.0
 11
1097.8206290000001
 21
1209.1657889999999
 31
0.0
  0
LINE
  5
710
  8
SIZE
  6
CONTINUOUS
 62
    30
 10
1244.1639769999999
 20
1032.788632
 30
0.0
 11
1118.0211200000001
 21
1032.788632
 31
0.0
  0
TEXT
  5
711
  8
SIZE
  6
CONTINUOUS
 62
    30
 10
1136.021119428571
 20
1050.788632
 30
0.0
 40
55.0
  1
40
 41
0.9
 72
     1
 11
1176.0925480000001
 21
1050.788632
 31
0.0
  0
LINE
  5
712
  8
SIZE
  6
CONTINUOUS
 62
    30
 10
1249.1639769999999
 20
1032.788632
 30
0.0
 11
1244.1639769999999
 21
1032.788632
 31
0.0
  0
LINE
  5
713
  8
SIZE
  6
CONTINUOUS
 62
    30
 10
1304.1639769999999
 20
1032.788632
 30
0.0
 11
1314.1639769999999
 21
1032.788632
 31
0.0
  0
LINE
  5
714
  8
SIZE
  6
CONTINUOUS
 62
    30
 10
1294.1639769999999
 20
1032.788632
 30
0.0
 11
1254.1639769999999
 21
1032.788632
 31
0.0
  0
CIRCLE
  5
715
  8
SIZE
  6
CONTINUOUS
 62
    30
 10
1294.1639769999999
 20
1032.788632
 30
0.0
 40
5.0
  0
LINE
  5
716
  8
SIZE
  6
CONTINUOUS
 62
    30
 10
1299.1639769999999
 20
1032.788632
 30
0.0
 11
1304.1639769999999
 21
1032.788632
 31
0.0
  0
POINT
  5
717
  8
DEFPOINTS
  6
CONTINUOUS
 62
     7
 10
1294.1639769999999
 20
1032.788632
 30
0.0
  0
CIRCLE
  5
718
  8
SIZE
  6
CONTINUOUS
 62
    30
 10
1254.1639769999999
 20
1032.788632
 30
0.0
 40
5.0
  0
CIRCLE
  5
719
  8
SIZE
  6
CONTINUOUS
 62
    30
 10
1324.1639769999999
 20
1209.1657889999999
 30
0.0
 40
5.0
  0
LINE
  5
71A
  8
SIZE
  6
CONTINUOUS
 62
    30
 10
1329.1639769999999
 20
1209.1657889999999
 30
0.0
 11
1334.1639769999999
 21
1209.1657889999999
 31
0.0
  0
POINT
  5
71B
  8
DEFPOINTS
  6
CONTINUOUS
 62
     7
 10
1358.1639769999999
 20
1330.706173
 30
0.0
  0
LINE
  5
71C
  8
SIZE
  6
CONTINUOUS
 62
    30
 10
1249.1639769999999
 20
1456.4745230000001
 30
0.0
 11
1244.1639769999999
 21
1456.4745230000001
 31
0.0
  0
LINE
  5
71D
  8
SIZE
  6
CONTINUOUS
 62
    30
 10
1244.1639769999999
 20
1456.4745230000001
 30
0.0
 11
1234.1639769999999
 21
1456.4745230000001
 31
0.0
  0
CIRCLE
  5
71E
  8
SIZE
  6
CONTINUOUS
 62
    30
 10
1324.1639769999999
 20
1456.4745230000001
 30
0.0
 40
5.0
  0
LINE
  5
71F
  8
SIZE
  6
CONTINUOUS
 62
    30
 10
1329.1639769999999
 20
1456.4745230000001
 30
0.0
 11
1334.1639769999999
 21
1456.4745230000001
 31
0.0
  0
POINT
  5
720
  8
DEFPOINTS
  6
CONTINUOUS
 62
     7
 10
1324.1639769999999
 20
1456.4745230000001
 30
0.0
  0
LINE
  5
721
  8
SIZE
  6
CONTINUOUS
 62
    30
 10
1334.1639769999999
 20
1456.4745230000001
 30
0.0
 11
1344.1639769999999
 21
1456.4745230000001
 31
0.0
  0
LINE
  5
722
  8
SIZE
  6
CONTINUOUS
 62
    30
 10
1324.1639769999999
 20
1456.4745230000001
 30
0.0
 11
1254.1639769999999
 21
1456.4745230000001
 31
0.0
  0
CIRCLE
  5
723
  8
SIZE
  6
CONTINUOUS
 62
    30
 10
1324.1639769999999
 20
1456.4745230000001
 30
0.0
 40
5.0
  0
LINE
  5
724
  8
SIZE
  6
CONTINUOUS
 62
    30
 10
1329.1639769999999
 20
1456.4745230000001
 30
0.0
 11
1334.1639769999999
 21
1456.4745230000001
 31
0.0
  0
POINT
  5
725
  8
DEFPOINTS
  6
CONTINUOUS
 62
     7
 10
1254.1639769999999
 20
1456.4745230000001
 30
0.0
  0
CIRCLE
  5
726
  8
SIZE
  6
CONTINUOUS
 62
    30
 10
1254.1639769999999
 20
1456.4745230000001
 30
0.0
 40
5.0
  0
TEXT
  5
727
  8
SIZE
  6
CONTINUOUS
 62
    30
 10
1249.092548428571
 20
1474.4745230000001
 30
0.0
 40
55.0
  1
70
 41
0.9
 72
     1
 11
1289.1639769999999
 21
1474.4745230000001
 31
0.0
  0
TEXT
  5
728
  8
SIZE
  6
CONTINUOUS
 62
    30
 10
1442.9139769999999
 20
1227.1657889999999
 30
0.0
 40
55.0
  1
64
 41
0.9
 72
     1
 11
1484.1639769999999
 21
1227.1657889999999
 31
0.0
  0
LINE
  5
729
  8
SIZE
  6
CONTINUOUS
 62
    30
 10
1452.1639769999999
 20
1209.1657889999999
 30
0.0
 11
1516.1639769999999
 21
1209.1657889999999
 31
0.0
  0
CIRCLE
  5
72A
  8
SIZE
  6
CONTINUOUS
 62
    30
 10
1452.1639769999999
 20
1209.1657889999999
 30
0.0
 40
5.0
  0
LINE
  5
72B
  8
SIZE
  6
CONTINUOUS
 62
    30
 10
1447.1639769999999
 20
1209.1657889999999
 30
0.0
 11
1442.1639769999999
 21
1209.1657889999999
 31
0.0
  0
POINT
  5
72C
  8
DEFPOINTS
  6
CONTINUOUS
 62
     7
 10
1452.1639769999999
 20
1209.1657889999999
 30
0.0
  0
LINE
  5
72D
  8
SIZE
  6
CONTINUOUS
 62
    30
 10
1442.1639769999999
 20
1209.1657889999999
 30
0.0
 11
1432.1639769999999
 21
1209.1657889999999
 31
0.0
  0
CIRCLE
  5
72E
  8
SIZE
  6
CONTINUOUS
 62
    30
 10
1452.1639769999999
 20
1209.1657889999999
 30
0.0
 40
5.0
  0
LINE
  5
72F
  8
SIZE
  6
CONTINUOUS
 62
    30
 10
1447.1639769999999
 20
1209.1657889999999
 30
0.0
 11
1442.1639769999999
 21
1209.1657889999999
 31
0.0
  0
LINE
  5
730
  8
SIZE
  6
CONTINUOUS
 62
    30
 10
1526.1639769999999
 20
1209.1657889999999
 30
0.0
 11
1536.1639769999999
 21
1209.1657889999999
 31
0.0
  0
CIRCLE
  5
731
  8
SIZE
  6
CONTINUOUS
 62
    30
 10
1516.1639769999999
 20
1209.1657889999999
 30
0.0
 40
5.0
  0
LINE
  5
732
  8
SIZE
  6
CONTINUOUS
 62
    30
 10
1521.1639769999999
 20
1209.1657889999999
 30
0.0
 11
1526.1639769999999
 21
1209.1657889999999
 31
0.0
  0
POINT
  5
733
  8
DEFPOINTS
  6
CONTINUOUS
 62
     7
 10
1516.1639769999999
 20
1209.1657889999999
 30
0.0
  0
TEXT
  5
734
  8
NOTE
  6
CONTINUOUS
 62
     4
 10
1591.7469920000001
 20
1013.489609
 30
0.0
 40
60.0
  1
%%C150
 50
359.99999700000001
 41
0.7
  7
STANDARD1
  0
TEXT
  5
735
  8
SIZE
  6
CONTINUOUS
 62
    30
 10
1392.6006878571429
 20
1349.758951
 30
0.0
 40
55.0
  1
670
 41
0.9
 72
     1
 11
1456.243545
 21
1349.758951
 31
0.0
  0
LINE
  5
736
  8
SIZE
  6
CONTINUOUS
 62
    30
 10
1363.1639769999999
 20
1330.706173
 30
0.0
 11
1368.1639769999999
 21
1330.706173
 31
0.0
  0
TEXT
  5
737
  8
SIZE
  6
CONTINUOUS
 62
    30
 10
1628.021119857143
 20
1474.4745230000001
 30
0.0
 40
55.0
  1
735
 41
0.9
 72
     1
 11
1691.6639769999999
 21
1474.4745230000001
 31
0.0
  0
LINE
  5
738
  8
SIZE
  6
CONTINUOUS
 62
    30
 10
2268.5362100000002
 20
869.71809000000007
 30
0.0
 11
2268.5362100000002
 21
1033.575233
 31
0.0
  0
TEXT
  5
739
  8
SIZE
  6
CONTINUOUS
 62
    30
 10
2250.5362100000002
 20
897.71808957142855
 30
0.0
 40
55.0
  1
120
 50
90.0
 41
0.9
 72
     1
 11
2250.5362100000002
 21
956.64666099999999
 31
0.0
  0
LINE
  5
73A
  8
NOTE
  6
CONTINUOUS
 62
     4
 10
1842.4767509999999
 20
995.85018800000012
 30
0.0
 11
1933.1639769999999
 21
749.71808999999996
 31
0.0
  0
LINE
  5
73B
  8
SIZE
  6
CONTINUOUS
 62
    30
 10
2059.1639770000002
 20
889.71808999999996
 30
0.0
 11
2059.1639770000002
 21
1360.706173
 31
0.0
  0
LINE
  5
73C
  8
SIZE
  6
CONTINUOUS
 62
    30
 10
2028.1639769999999
 20
904.71325599999989
 30
0.0
 11
2028.1639769999999
 21
1360.706173
 31
0.0
  0
LINE
  5
73D
  8
SIZE
  6
CONTINUOUS
 62
    30
 10
2028.1639769999999
 20
904.71325599999989
 30
0.0
 11
2028.1639769999999
 21
1360.706173
 31
0.0
  0
LINE
  5
73E
  8
SIZE
  6
CONTINUOUS
 62
    30
 10
2059.1639770000002
 20
889.71808999999996
 30
0.0
 11
2059.1639770000002
 21
1486.4745230000001
 31
0.0
  0
LINE
  5
73F
  8
NOTE
  6
CONTINUOUS
 62
     4
 10
2156.6361080000001
 20
1095.6851869999989
 30
0.0
 11
2028.1639769999999
 21
869.71809000000007
 31
0.0
  0
LINE
  5
740
  8
SIZE
  6
CONTINUOUS
 62
    30
 10
2059.1639770000002
 20
889.71808999999996
 30
0.0
 11
2059.1639770000002
 21
1230.687846
 31
0.0
  0
LINE
  5
741
  8
SIZE
  6
CONTINUOUS
 62
    30
 10
1933.1639769999999
 20
860.81198699999993
 30
0.0
 11
1933.1639769999999
 21
1230.687846
 31
0.0
  0
LINE
  5
742
  8
SIZE
  6
CONTINUOUS
 62
    30
 10
2134.1639770000002
 20
412.71158199999991
 30
0.0
 11
2134.1639770000002
 21
156.09143399999999
 31
0.0
  0
LINE
  5
743
  8
SIZE
  6
CONTINUOUS
 62
    30
 10
2134.1639770000002
 20
412.71158199999991
 30
0.0
 11
2134.1639770000002
 21
257.40156200000001
 31
0.0
  0
LINE
  5
744
  8
SIZE
  6
CONTINUOUS
 62
    30
 10
2117.1639770000002
 20
417.71809000000002
 30
0.0
 11
2117.1639770000002
 21
257.40156200000001
 31
0.0
  0
TEXT
  5
745
  8
SIZE
  6
CONTINUOUS
 62
    30
 10
2008.4496911428571
 20
305.40156200000001
 30
0.0
 40
55.0
  1
17
 41
0.9
 72
     1
 11
2043.806834
 21
305.40156200000001
 31
0.0
  0
LINE
  5
746
  8
SIZE
  6
CONTINUOUS
 62
    30
 10
2117.1639770000002
 20
417.71809000000002
 30
0.0
 11
2117.1639770000002
 21
-0.000007
 31
0.0
  0
CIRCLE
  5
747
  8
SIZE
  6
CONTINUOUS
 62
    30
 10
2117.1639770000002
 20
29.999993
 30
0.0
 40
5.0
  0
LINE
  5
748
  8
SIZE
  6
CONTINUOUS
 62
    30
 10
2107.1639770000002
 20
287.40156200000001
 30
0.0
 11
1990.449691
 21
287.40156200000001
 31
0.0
  0
LINE
  5
749
  8
SIZE
  6
CONTINUOUS
 62
    30
 10
2112.1639770000002
 20
29.999993
 30
0.0
 11
2107.1639770000002
 21
29.999993
 31
0.0
  0
LINE
  5
74A
  8
SIZE
  6
CONTINUOUS
 62
    30
 10
2139.1639770000002
 20
287.40156200000001
 30
0.0
 11
2144.1639770000002
 21
287.40156200000001
 31
0.0
  0
LINE
  5
74B
  8
SIZE
  6
CONTINUOUS
 62
    30
 10
2134.1639770000002
 20
287.40156200000001
 30
0.0
 11
2117.1639770000002
 21
287.40156200000001
 31
0.0
  0
CIRCLE
  5
74C
  8
SIZE
  6
CONTINUOUS
 62
    30
 10
2134.1639770000002
 20
287.40156200000001
 30
0.0
 40
5.0
  0
CIRCLE
  5
74D
  8
SIZE
  6
CONTINUOUS
 62
    30
 10
2117.1639770000002
 20
287.40156200000001
 30
0.0
 40
5.0
  0
LINE
  5
74E
  8
SIZE
  6
CONTINUOUS
 62
    30
 10
2112.1639770000002
 20
287.40156200000001
 30
0.0
 11
2107.1639770000002
 21
287.40156200000001
 31
0.0
  0
POINT
  5
74F
  8
DEFPOINTS
  6
CONTINUOUS
 62
     7
 10
2117.1639770000002
 20
287.40156200000001
 30
0.0
  0
CIRCLE
  5
750
  8
SIZE
  6
CONTINUOUS
 62
    30
 10
2134.1639770000002
 20
186.09143399999999
 30
0.0
 40
5.0
  0
LINE
  5
751
  8
SIZE
  6
CONTINUOUS
 62
    30
 10
2129.1639770000011
 20
186.09143399999999
 30
0.0
 11
2124.1639770000002
 21
186.09143399999999
 31
0.0
  0
LINE
  5
752
  8
SIZE
  6
CONTINUOUS
 62
    30
 10
2144.1639770000002
 20
287.40156200000001
 30
0.0
 11
2154.1639770000002
 21
287.40156200000001
 31
0.0
  0
LINE
  5
753
  8
SIZE
  6
CONTINUOUS
 62
    30
 10
2079.1639770000002
 20
869.71809000000007
 30
0.0
 11
2298.5362100000002
 21
869.71809000000007
 31
0.0
  0
LINE
  5
754
  8
SIZE
  6
CONTINUOUS
 62
    30
 10
2015.1084920000001
 20
749.71808999999996
 30
0.0
 11
2298.5362100000002
 21
749.71808999999996
 31
0.0
  0
TEXT
  5
755
  8
NOTE
  6
CONTINUOUS
 62
     4
 10
2187.7051080000001
 20
665.42243299999996
 30
0.0
 40
60.0
  1
4-%%C2.9取付穴
 50
359.99999700000001
 41
0.7
  7
STANDARD1
  0
LINE
  5
756
  8
NOTE
  6
CONTINUOUS
 62
     4
 10
2189.5147229999998
 20
649.59587199999987
 30
0.0
 11
2591.7839530000001
 21
649.59587199999987
 31
0.0
  0
LINE
  5
757
  8
DETAIL
  6
CONTINUOUS
 62
     5
 10
2059.1639770000002
 20
869.71809000000007
 30
0.0
 11
2059.1639770000002
 21
576.71808999999996
 31
0.0
  0
LINE
  5
758
  8
OUTLINE
  6
CONTINUOUS
 62
     3
 10
2059.1639770000002
 20
576.71808999999996
 30
0.0
 11
2059.1639770000002
 21
869.71809000000007
 31
0.0
  0
LINE
  5
759
  8
SIZE
  6
CONTINUOUS
 62
    30
 10
2117.1639770000002
 20
477.71809000000002
 30
0.0
 11
2117.1639770000002
 21
547.97541999999999
 31
0.0
  0
LINE
  5
75A
  8
NOTE
  6
CONTINUOUS
 62
     4
 10
2117.1639770000002
 20
437.7180899999999
 30
0.0
 11
2209.8680709999999
 21
437.7180899999999
 31
0.0
  0
LINE
  5
75B
  8
NOTE
  6
CONTINUOUS
 62
     4
 10
2117.1639770000002
 20
457.71809000000002
 30
0.0
 11
2209.8680709999999
 21
457.71809000000002
 31
0.0
  0
LINE
  5
75C
  8
NOTE
  6
CONTINUOUS
 62
     4
 10
2148.8256310000002
 20
437.7180899999999
 30
0.0
 11
2128.8256310000002
 21
457.71809000000002
 31
0.0
  0
LINE
  5
75D
  8
NOTE
  6
CONTINUOUS
 62
     4
 10
2153.8256310000002
 20
437.7180899999999
 30
0.0
 11
2133.8256310000002
 21
457.71809000000002
 31
0.0
  0
LINE
  5
75E
  8
NOTE
  6
CONTINUOUS
 62
     4
 10
2158.8256310000002
 20
437.7180899999999
 30
0.0
 11
2138.8256310000002
 21
457.71809000000002
 31
0.0
  0
LINE
  5
75F
  8
DETAIL
  6
CONTINUOUS
 62
     5
 10
2102.633977
 20
436.71809000000002
 30
0.0
 11
2134.1639770000002
 21
436.71809000000002
 31
0.0
  0
LINE
  5
760
  8
DETAIL
  6
CONTINUOUS
 62
     5
 10
2102.633977
 20
436.71809000000002
 30
0.0
 11
2107.633977
 21
436.71809000000002
 31
0.0
  0
LINE
  5
761
  8
DETAIL
  6
CONTINUOUS
 62
     5
 10
2102.633977
 20
436.71809000000002
 30
0.0
 11
2102.633977
 21
483.7180899999999
 31
0.0
  0
LINE
  5
762
  8
NOTE
  6
CONTINUOUS
 62
     4
 10
2117.1639770000002
 20
437.7180899999999
 30
0.0
 11
2117.1639770000002
 21
457.71809000000002
 31
0.0
  0
LINE
  5
763
  8
OUTLINE
  6
CONTINUOUS
 62
     3
 10
2102.633977
 20
436.71809000000002
 30
0.0
 11
2102.633977
 21
483.7180899999999
 31
0.0
  0
POINT
  5
764
  8
DEFPOINTS
  6
CONTINUOUS
 62
     7
 10
2117.1639770000002
 20
437.7180899999999
 30
0.0
  0
POINT
  5
765
  8
DEFPOINTS
  6
CONTINUOUS
 62
     7
 10
2117.1639770000002
 20
437.7180899999999
 30
0.0
  0
POINT
  5
766
  8
DEFPOINTS
  6
CONTINUOUS
 62
     7
 10
2117.1639770000002
 20
457.71809000000002
 30
0.0
  0
ARC
  5
767
  8
DETAIL
  6
CONTINUOUS
 62
     5
 10
2103.4639769999999
 20
548.71809000000007
 30
0.0
 40
120.0
 50
270.0
 51
284.82297
  0
ARC
  5
768
  8
OUTLINE
  6
CONTINUOUS
 62
     3
 10
2103.4639769999999
 20
548.71809000000007
 30
0.0
 40
120.0
 50
270.0
 51
284.82297
  0
POINT
  5
769
  8
DEFPOINTS
  6
CONTINUOUS
 62
     7
 10
2134.1639770000002
 20
432.71158200000002
 30
0.0
  0
POINT
  5
76A
  8
DEFPOINTS
  6
CONTINUOUS
 62
     7
 10
2134.1639770000002
 20
432.71158200000002
 30
0.0
  0
LINE
  5
76B
  8
DETAIL
  6
CONTINUOUS
 62
     5
 10
2134.1639770000002
 20
432.71158200000002
 30
0.0
 11
2134.1639770000002
 21
436.71809000000002
 31
0.0
  0
LINE
  5
76C
  8
OUTLINE
  6
CONTINUOUS
 62
     3
 10
2134.1639770000002
 20
436.71809000000002
 30
0.0
 11
2134.1639770000002
 21
432.71158200000002
 31
0.0
  0
LINE
  5
76D
  8
NOTE
  6
CONTINUOUS
 62
     4
 10
2198.8256310000002
 20
437.7180899999999
 30
0.0
 11
2178.8256310000002
 21
457.71809000000002
 31
0.0
  0
LINE
  5
76E
  8
NOTE
  6
CONTINUOUS
 62
     4
 10
2193.8256310000002
 20
437.7180899999999
 30
0.0
 11
2173.8256310000002
 21
457.71809000000002
 31
0.0
  0
LINE
  5
76F
  8
NOTE
  6
CONTINUOUS
 62
     4
 10
2188.8256310000002
 20
437.7180899999999
 30
0.0
 11
2168.8256310000002
 21
457.71809000000002
 31
0.0
  0
LINE
  5
770
  8
SIZE
  6
CONTINUOUS
 62
    30
 10
2117.1639770000002
 20
517.97541999999987
 30
0.0
 11
2243.306834
 21
517.97541999999987
 31
0.0
  0
LINE
  5
771
  8
SIZE
  6
CONTINUOUS
 62
    30
 10
2059.1639770000002
 20
556.71809000000007
 30
0.0
 11
2059.1639770000002
 21
487.97541999999999
 31
0.0
  0
LINE
  5
772
  8
SIZE
  6
CONTINUOUS
 62
    30
 10
2069.1639770000002
 20
517.97541999999987
 30
0.0
 11
2107.1639770000002
 21
517.97541999999987
 31
0.0
  0
CIRCLE
  5
773
  8
SIZE
  6
CONTINUOUS
 62
    30
 10
2059.1639770000002
 20
517.97541999999987
 30
0.0
 40
5.0
  0
LINE
  5
774
  8
SIZE
  6
CONTINUOUS
 62
    30
 10
2064.1639770000002
 20
517.97541999999987
 30
0.0
 11
2069.1639770000002
 21
517.97541999999987
 31
0.0
  0
CIRCLE
  5
775
  8
SIZE
  6
CONTINUOUS
 62
    30
 10
2117.1639770000002
 20
517.97541999999987
 30
0.0
 40
5.0
  0
LINE
  5
776
  8
SIZE
  6
CONTINUOUS
 62
    30
 10
2112.1639770000002
 20
517.97541999999987
 30
0.0
 11
2107.1639770000002
 21
517.97541999999987
 31
0.0
  0
POINT
  5
777
  8
DEFPOINTS
  6
CONTINUOUS
 62
     7
 10
2059.1639770000002
 20
576.71808999999996
 30
0.0
  0
POINT
  5
778
  8
DEFPOINTS
  6
CONTINUOUS
 62
     7
 10
2117.1639770000002
 20
517.97541999999987
 30
0.0
  0
TEXT
  5
779
  8
SIZE
  6
CONTINUOUS
 62
    30
 10
2145.1639774285718
 20
535.97541999999999
 30
0.0
 40
55.0
  1
58
 41
0.9
 72
     1
 11
2185.2354059999998
 21
535.97541999999999
 31
0.0
  0
LINE
  5
77A
  8
DETAIL
  6
CONTINUOUS
 62
     5
 10
2017.1639769999999
 20
831.71808999999996
 30
0.0
 11
2056.1639770000002
 21
831.71808999999996
 31
0.0
  0
LINE
  5
77B
  8
NOTE
  6
CONTINUOUS
 62
     4
 10
2043.1591430000001
 20
869.71809000000007
 30
0.0
 11
2013.168811
 21
869.71809000000007
 31
0.0
  0
CIRCLE
  5
77C
  8
FIX
  6
CONTINUOUS
 62
    11
 10
2028.1639769999999
 20
869.71809000000007
 30
0.0
 40
12.421498
  0
LINE
  5
77D
  8
NOTE
  6
CONTINUOUS
 62
     4
 10
2028.1639769999999
 20
869.71809000000007
 30
0.0
 11
2035.3220349999999
 21
903.35009700000023
 31
0.0
  0
LINE
  5
77E
  8
NOTE
  6
CONTINUOUS
 62
     4
 10
2028.1639769999999
 20
869.71809000000007
 30
0.0
 11
2051.1790409999999
 21
895.26523299999985
 31
0.0
  0
LINE
  5
77F
  8
NOTE
  6
CONTINUOUS
 62
     4
 10
2019.1639769999999
 20
749.71808999999996
 30
0.0
 11
2043.0946670000001
 21
725.02655800000002
 31
0.0
  0
LINE
  5
780
  8
NOTE
  6
CONTINUOUS
 62
     4
 10
2019.1639769999999
 20
749.71808999999996
 30
0.0
 11
2052.234328
 21
740.29994099999988
 31
0.0
  0
LINE
  5
781
  8
NOTE
  6
CONTINUOUS
 62
     4
 10
2189.5147229999998
 20
649.59587199999987
 30
0.0
 11
2019.1639769999999
 21
749.71808999999996
 31
0.0
  0
CIRCLE
  5
782
  8
DETAIL
  6
CONTINUOUS
 62
     5
 10
1933.1639769999999
 20
749.71808999999996
 30
0.0
 40
75.0
  0
LINE
  5
783
  8
NOTE
  6
CONTINUOUS
 62
     4
 10
1933.1639769999999
 20
811.66260499999999
 30
0.0
 11
1933.1639769999999
 21
687.77357500000005
 31
0.0
  0
CIRCLE
  5
784
  8
NOTE
  6
CONTINUOUS
 62
     4
 10
1933.1639769999999
 20
749.71808999999996
 30
0.0
 40
86.0
  0
LINE
  5
785
  8
SIZE
  6
CONTINUOUS
 62
    30
 10
1969.1189710000001
 20
827.84131599999989
 30
0.0
 11
1897.208983
 21
671.59486399999992
 31
0.0
  0
LINE
  5
786
  8
NOTE
  6
CONTINUOUS
 62
     4
 10
1933.1639769999999
 20
749.71808999999996
 30
0.0
 11
1912.074204
 21
776.876351
 31
0.0
  0
LINE
  5
787
  8
NOTE
  6
CONTINUOUS
 62
     4
 10
1995.1084920000001
 20
749.71808999999996
 30
0.0
 11
1871.219462
 21
749.71808999999996
 31
0.0
  0
CIRCLE
  5
788
  8
DETAIL
  6
CONTINUOUS
 62
     5
 10
1847.1639769999999
 20
749.71808999999996
 30
0.0
 40
1.45
  0
LINE
  5
789
  8
NOTE
  6
CONTINUOUS
 62
     4
 10
1842.07008
 20
749.71808999999996
 30
0.0
 11
1852.2578739999999
 21
749.71808999999996
 31
0.0
  0
LINE
  5
78A
  8
NOTE
  6
CONTINUOUS
 62
     4
 10
1847.1639769999999
 20
744.62419299999999
 30
0.0
 11
1847.1639769999999
 21
754.81198700000004
 31
0.0
  0
CIRCLE
  5
78B
  8
SIZE
  6
CONTINUOUS
 62
    30
 10
1897.208983
 20
671.59486399999992
 30
0.0
 40
5.0
  0
LINE
  5
78C
  8
SIZE
  6
CONTINUOUS
 62
    30
 10
1895.1185760000001
 20
667.05281599999989
 30
0.0
 11
1893.0281689999999
 21
662.51076799999998
 31
0.0
  0
POINT
  5
78D
  8
DEFPOINTS
  6
CONTINUOUS
 62
     7
 10
1897.208983
 20
671.59486399999992
 30
0.0
  0
LINE
  5
78E
  8
NOTE
  6
CONTINUOUS
 62
     4
 10
1933.1639769999999
 20
749.71808999999996
 30
0.0
 11
1928.4788289999999
 21
783.78272100000004
 31
0.0
  0
CIRCLE
  5
78F
  8
DETAIL
  6
CONTINUOUS
 62
     5
 10
2019.1639769999999
 20
749.71808999999996
 30
0.0
 40
1.45
  0
LINE
  5
790
  8
NOTE
  6
CONTINUOUS
 62
     4
 10
2014.07008
 20
749.71808999999996
 30
0.0
 11
2024.2578739999999
 21
749.71808999999996
 31
0.0
  0
LINE
  5
791
  8
NOTE
  6
CONTINUOUS
 62
     4
 10
2019.1639769999999
 20
744.62419299999999
 30
0.0
 11
2019.1639769999999
 21
754.81198700000004
 31
0.0
  0
POINT
  5
792
  8
DEFPOINTS
  6
CONTINUOUS
 62
     7
 10
1995.1084920000001
 20
749.71808999999996
 30
0.0
  0
CIRCLE
  5
793
  8
DETAIL
  6
CONTINUOUS
 62
     5
 10
1933.1639769999999
 20
663.71808999999996
 30
0.0
 40
1.45
  0
LINE
  5
794
  8
NOTE
  6
CONTINUOUS
 62
     4
 10
1928.07008
 20
663.71808999999996
 30
0.0
 11
1938.2578739999999
 21
663.71808999999996
 31
0.0
  0
LINE
  5
795
  8
NOTE
  6
CONTINUOUS
 62
     4
 10
1933.1639769999999
 20
658.62419299999988
 30
0.0
 11
1933.1639769999999
 21
668.81198700000004
 31
0.0
  0
LINE
  5
796
  8
DETAIL
  6
CONTINUOUS
 62
     5
 10
2014.1639769999999
 20
854.71808999999996
 30
0.0
 11
2014.1639769999999
 21
834.71809000000007
 31
0.0
  0
LINE
  5
797
  8
DETAIL
  6
CONTINUOUS
 62
     5
 10
2003.1639769999999
 20
854.71808999999996
 30
0.0
 11
2014.1639769999999
 21
854.71808999999996
 31
0.0
  0
ARC
  5
798
  8
DETAIL
  6
CONTINUOUS
 62
     5
 10
2003.1639769999999
 20
860.71809000000007
 30
0.0
 40
3.0
 50
180.0
 51
270.0
  0
LINE
  5
799
  8
DETAIL
  6
CONTINUOUS
 62
     5
 10
2020.6639769999999
 20
857.71808999999996
 30
0.0
 11
2002.6639769999999
 21
857.71808999999996
 31
0.0
  0
LINE
  5
79A
  8
DETAIL
  6
CONTINUOUS
 62
     5
 10
2023.6639769999999
 20
869.71809000000007
 30
0.0
 11
2023.6639769999999
 21
860.71809000000007
 31
0.0
  0
ARC
  5
79B
  8
DETAIL
  6
CONTINUOUS
 62
     5
 10
2020.6639769999999
 20
860.71809000000007
 30
0.0
 40
3.0
 50
270.0
 51
0.0
  0
LINE
  5
79C
  8
DETAIL
  6
CONTINUOUS
 62
     5
 10
2000.1639769999999
 20
869.71809000000007
 30
0.0
 11
2000.1639769999999
 21
857.71808999999996
 31
0.0
  0
ARC
  5
79D
  8
DETAIL
  6
CONTINUOUS
 62
     5
 10
2017.1639769999999
 20
834.71809000000007
 30
0.0
 40
3.0
 50
180.0
 51
270.0
  0
ARC
  5
79E
  8
DETAIL
  6
CONTINUOUS
 62
     5
 10
2003.1639769999999
 20
857.71808999999996
 30
0.0
 40
3.0
 50
180.0
 51
270.0
  0
LINE
  5
79F
  8
NOTE
  6
CONTINUOUS
 62
     4
 10
2028.1639769999999
 20
884.713256
 30
0.0
 11
2028.1639769999999
 21
854.72292400000003
 31
0.0
  0
POINT
  5
7A0
  8
DEFPOINTS
  6
CONTINUOUS
 62
     7
 10
2028.1639769999999
 20
884.713256
 30
0.0
  0
POINT
  5
7A1
  8
DEFPOINTS
  6
CONTINUOUS
 62
     7
 10
2028.1639769999999
 20
884.713256
 30
0.0
  0
CIRCLE
  5
7A2
  8
DETAIL
  6
CONTINUOUS
 62
     5
 10
1933.1639769999999
 20
835.71809000000007
 30
0.0
 40
1.45
  0
LINE
  5
7A3
  8
NOTE
  6
CONTINUOUS
 62
     4
 10
1928.07008
 20
835.71809000000007
 30
0.0
 11
1938.2578739999999
 21
835.71809000000007
 31
0.0
  0
LINE
  5
7A4
  8
NOTE
  6
CONTINUOUS
 62
     4
 10
1933.1639769999999
 20
830.62419299999999
 30
0.0
 11
1933.1639769999999
 21
840.81198700000004
 31
0.0
  0
POINT
  5
7A5
  8
DEFPOINTS
  6
CONTINUOUS
 62
     7
 10
1933.1639769999999
 20
840.81198700000004
 30
0.0
  0
LINE
  5
7A6
  8
SIZE
  6
CONTINUOUS
 62
    30
 10
1973.2997849999999
 20
836.92541200000005
 30
0.0
 11
1977.4805980000001
 21
846.00950799999998
 31
0.0
  0
CIRCLE
  5
7A7
  8
SIZE
  6
CONTINUOUS
 62
    30
 10
1969.1189710000001
 20
827.84131599999989
 30
0.0
 40
5.0
  0
LINE
  5
7A8
  8
SIZE
  6
CONTINUOUS
 62
    30
 10
1971.209378
 20
832.38336400000003
 30
0.0
 11
1973.2997849999999
 21
836.92541200000005
 31
0.0
  0
POINT
  5
7A9
  8
DEFPOINTS
  6
CONTINUOUS
 62
     7
 10
1969.1189710000001
 20
827.84131599999989
 30
0.0
  0
ARC
  5
7AA
  8
DETAIL
  6
CONTINUOUS
 62
     5
 10
2038.6639769999999
 20
860.71809000000007
 30
0.0
 40
3.0
 50
180.0
 51
270.0
  0
ARC
  5
7AB
  8
DETAIL
  6
CONTINUOUS
 62
     5
 10
2056.1639770000002
 20
860.71809000000007
 30
0.0
 40
3.0
 50
270.0
 51
0.0
  0
LINE
  5
7AC
  8
DETAIL
  6
CONTINUOUS
 62
     5
 10
2035.6639769999999
 20
869.71809000000007
 30
0.0
 11
2035.6639769999999
 21
860.71809000000007
 31
0.0
  0
LINE
  5
7AD
  8
DETAIL
  6
CONTINUOUS
 62
     5
 10
2038.6639769999999
 20
857.71808999999996
 30
0.0
 11
2056.6639770000002
 21
857.71808999999996
 31
0.0
  0
ARC
  5
7AE
  8
DETAIL
  6
CONTINUOUS
 62
     5
 10
2056.1639770000002
 20
834.71809000000007
 30
0.0
 40
3.0
 50
270.0
 51
0.0
  0
LINE
  5
7AF
  8
DETAIL
  6
CONTINUOUS
 62
     5
 10
2059.1639770000002
 20
869.71809000000007
 30
0.0
 11
2059.1639770000002
 21
834.71809000000007
 31
0.0
  0
POINT
  5
7B0
  8
DEFPOINTS
  6
CONTINUOUS
 62
     7
 10
2059.1639770000002
 20
869.71809000000007
 30
0.0
  0
POINT
  5
7B1
  8
DEFPOINTS
  6
CONTINUOUS
 62
     7
 10
2059.1639770000002
 20
869.71809000000007
 30
0.0
  0
POINT
  5
7B2
  8
DEFPOINTS
  6
CONTINUOUS
 62
     7
 10
2059.1639770000002
 20
869.71809000000007
 30
0.0
  0
POINT
  5
7B3
  8
DEFPOINTS
  6
CONTINUOUS
 62
     7
 10
2059.1639770000002
 20
869.71809000000007
 30
0.0
  0
LINE
  5
7B4
  8
SIZE
  6
CONTINUOUS
 62
    30
 10
2268.5362100000002
 20
759.71808999999996
 30
0.0
 11
2268.5362100000002
 21
859.71809000000007
 31
0.0
  0
CIRCLE
  5
7B5
  8
SIZE
  6
CONTINUOUS
 62
    30
 10
2268.5362100000002
 20
749.71808999999996
 30
0.0
 40
5.0
  0
LINE
  5
7B6
  8
SIZE
  6
CONTINUOUS
 62
    30
 10
2268.5362100000002
 20
754.71808999999996
 30
0.0
 11
2268.5362100000002
 21
759.71808999999996
 31
0.0
  0
POINT
  5
7B7
  8
DEFPOINTS
  6
CONTINUOUS
 62
     7
 10
2268.5362100000002
 20
749.71808999999996
 30
0.0
  0
CIRCLE
  5
7B8
  8
SIZE
  6
CONTINUOUS
 62
    30
 10
2268.5362100000002
 20
869.71809000000007
 30
0.0
 40
5.0
  0
LINE
  5
7B9
  8
SIZE
  6
CONTINUOUS
 62
    30
 10
2268.5362100000002
 20
864.71808999999996
 30
0.0
 11
2268.5362100000002
 21
859.71809000000007
 31
0.0
  0
TEXT
  5
7BA
  8
NOTE
  6
CONTINUOUS
 62
     4
 10
2169.6614639999998
 20
1111.5117479999999
 30
0.0
 40
60.0
  1
AH 4-14×30長穴(M10)
 50
359.99999700000001
 41
0.7
  7
STANDARD1
  0
LINE
  5
7BB
  8
NOTE
  6
CONTINUOUS
 62
     4
 10
2156.6361080000001
 20
1095.6851869999989
 30
0.0
 11
2885.7367359999998
 21
1095.6851869999989
 31
0.0
  0
TEXT
  5
7BC
  8
SIZE
  6
CONTINUOUS
 62
    30
 10
2087.1639770000002
 20
1218.687846
 30
0.0
 40
55.0
  1
126
 41
0.9
 72
     1
 11
2144.9139770000002
 21
1218.687846
 31
0.0
  0
LINE
  5
7BD
  8
SIZE
  6
CONTINUOUS
 62
    30
 10
1943.1639769999999
 20
1200.687846
 30
0.0
 11
2049.1639770000002
 21
1200.687846
 31
0.0
  0
LINE
  5
7BE
  8
SIZE
  6
CONTINUOUS
 62
    30
 10
1938.1639769999999
 20
1200.687846
 30
0.0
 11
1943.1639769999999
 21
1200.687846
 31
0.0
  0
POINT
  5
7BF
  8
DEFPOINTS
  6
CONTINUOUS
 62
     7
 10
1933.1639769999999
 20
1200.687846
 30
0.0
  0
CIRCLE
  5
7C0
  8
SIZE
  6
CONTINUOUS
 62
    30
 10
1933.1639769999999
 20
1200.687846
 30
0.0
 40
5.0
  0
LINE
  5
7C1
  8
SIZE
  6
CONTINUOUS
 62
    30
 10
2059.1639770000002
 20
1200.687846
 30
0.0
 11
2220.6639770000002
 21
1200.687846
 31
0.0
  0
LINE
  5
7C2
  8
SIZE
  6
CONTINUOUS
 62
    30
 10
2054.1639770000002
 20
1200.687846
 30
0.0
 11
2049.1639770000002
 21
1200.687846
 31
0.0
  0
CIRCLE
  5
7C3
  8
SIZE
  6
CONTINUOUS
 62
    30
 10
2059.1639770000002
 20
1200.687846
 30
0.0
 40
5.0
  0
CIRCLE
  5
7C4
  8
SIZE
  6
CONTINUOUS
 62
    30
 10
2028.1639769999999
 20
1330.706173
 30
0.0
 40
5.0
  0
CIRCLE
  5
7C5
  8
SIZE
  6
CONTINUOUS
 62
    30
 10
2028.1639769999999
 20
1330.706173
 30
0.0
 40
5.0
  0
LINE
  5
7C6
  8
SIZE
  6
CONTINUOUS
 62
    30
 10
2028.1639769999999
 20
1330.706173
 30
0.0
 11
2059.1639770000002
 21
1330.706173
 31
0.0
  0
LINE
  5
7C7
  8
SIZE
  6
CONTINUOUS
 62
    30
 10
2018.1639769999999
 20
1330.706173
 30
0.0
 11
2008.1639769999999
 21
1330.706173
 31
0.0
  0
LINE
  5
7C8
  8
SIZE
  6
CONTINUOUS
 62
    30
 10
2023.1639769999999
 20
1330.706173
 30
0.0
 11
2018.1639769999999
 21
1330.706173
 31
0.0
  0
POINT
  5
7C9
  8
DEFPOINTS
  6
CONTINUOUS
 62
     7
 10
2028.1639769999999
 20
1330.706173
 30
0.0
  0
LINE
  5
7CA
  8
SIZE
  6
CONTINUOUS
 62
    30
 10
2023.1639769999999
 20
1330.706173
 30
0.0
 11
2018.1639769999999
 21
1330.706173
 31
0.0
  0
LINE
  5
7CB
  8
SIZE
  6
CONTINUOUS
 62
    30
 10
2069.1639770000002
 20
1330.706173
 30
0.0
 11
2174.0925480000001
 21
1330.706173
 31
0.0
  0
TEXT
  5
7CC
  8
SIZE
  6
CONTINUOUS
 62
    30
 10
2097.1639772857138
 20
1348.706173
 30
0.0
 40
55.0
  1
31
 41
0.9
 72
     1
 11
2126.6282630000001
 21
1348.706173
 31
0.0
  0
CIRCLE
  5
7CD
  8
SIZE
  6
CONTINUOUS
 62
    30
 10
2059.1639770000002
 20
1330.706173
 30
0.0
 40
5.0
  0
LINE
  5
7CE
  8
SIZE
  6
CONTINUOUS
 62
    30
 10
2064.1639770000002
 20
1330.706173
 30
0.0
 11
2069.1639770000002
 21
1330.706173
 31
0.0
  0
CIRCLE
  5
7CF
  8
SIZE
  6
CONTINUOUS
 62
    30
 10
2059.1639770000002
 20
1456.4745230000001
 30
0.0
 40
5.0
  0
LINE
  5
7D0
  8
SIZE
  6
CONTINUOUS
 62
    30
 10
2054.1639770000002
 20
1456.4745230000001
 30
0.0
 11
2049.1639770000002
 21
1456.4745230000001
 31
0.0
  0
ENDBLK
  5
7D2
  8
0
 62
     7
  0
ENDSEC
  0
SECTION
  2
ENTITIES
  0
LINE
  5
424
  8
SIZE
  6
CONTINUOUS
 62
    30
 10
-178.21139600000001
 20
0.0
 30
0.0
 11
-1197.958627
 21
0.0
 31
0.0
  0
LINE
  5
425
  8
SIZE
  6
CONTINUOUS
 62
    30
 10
-145.97
 20
47.0
 30
0.0
 11
-891.59331299999997
 21
47.0
 31
0.0
  0
LINE
  5
426
  8
SIZE
  6
CONTINUOUS
 62
    30
 10
-177.5
 20
0.0
 30
0.0
 11
-891.59331299999997
 21
0.0
 31
0.0
  0
LINE
  5
427
  8
SIZE
  6
CONTINUOUS
 62
    30
 10
-177.5
 20
0.0
 30
0.0
 11
-891.59331299999997
 21
0.0
 31
0.0
  0
LINE
  5
428
  8
SIZE
  6
CONTINUOUS
 62
    30
 10
-146.80000000000001
 20
-8.0
 30
0.0
 11
-891.59331299999997
 21
-8.0
 31
0.0
  0
LINE
  5
429
  8
SIZE
  6
CONTINUOUS
 62
    30
 10
-357.5
 20
-406.71809699999989
 30
0.0
 11
-150.5
 21
-406.71809699999989
 31
0.0
  0
LINE
  5
42A
  8
SIZE
  6
CONTINUOUS
 62
    30
 10
-249.5
 20
772.44769899999994
 30
0.0
 11
-357.5
 21
772.44769899999994
 31
0.0
  0
LINE
  5
42B
  8
SIZE
  6
CONTINUOUS
 62
    30
 10
-265.00914899999998
 20
233.00264100000001
 30
0.0
 11
-907.54594800000007
 21
233.00264100000001
 31
0.0
  0
LINE
  5
42C
  8
SIZE
  6
CONTINUOUS
 62
    30
 10
-201.00914900000001
 20
261.0
 30
0.0
 11
-907.54594800000007
 21
261.0
 31
0.0
  0
LINE
  5
42D
  8
SIZE
  6
CONTINUOUS
 62
    30
 10
-201.00914900000001
 20
261.0
 30
0.0
 11
-907.54594800000007
 21
261.0
 31
0.0
  0
LINE
  5
42E
  8
NOTE
  6
CONTINUOUS
 62
     4
 10
-452.28743899999989
 20
-248.03119599999999
 30
0.0
 11
-175.5
 21
261.0
 31
0.0
  0
LINE
  5
42F
  8
SIZE
  6
CONTINUOUS
 62
    30
 10
357.5
 20
1019.756433
 30
0.0
 11
-357.5
 21
1019.756433
 31
0.0
  0
CIRCLE
  5
430
  8
SIZE
  6
CONTINUOUS
 62
    30
 10
-333.5
 20
893.98808299999985
 30
0.0
 40
5.0
  0
LINE
  5
431
  8
OUTLINE
  6
CONTINUOUS
 62
     3
 10
-367.5
 20
140.0
 30
0.0
 11
367.5
 21
140.0
 31
0.0
  0
LINE
  5
432
  8
OUTLINE
  6
CONTINUOUS
 62
     3
 10
367.5
 20
433.0
 30
0.0
 11
-367.5
 21
433.0
 31
0.0
  0
LINE
  5
433
  8
NOTE
  6
CONTINUOUS
 62
     4
 10
-495.65449599999999
 20
-142.55580499999999
 30
0.0
 11
-239.5
 21
233.0
 31
0.0
  0
CIRCLE
  5
434
  8
FIX
  6
CONTINUOUS
 62
    11
 10
-333.5
 20
433.0
 30
0.0
 40
12.421498
  0
LINE
  5
435
  8
NOTE
  6
CONTINUOUS
 62
     4
 10
-318.50483400000002
 20
433.0
 30
0.0
 11
-348.4951660000001
 21
433.0
 31
0.0
  0
LINE
  5
436
  8
DETAIL
  6
CONTINUOUS
 62
     5
 10
367.5
 20
433.0
 30
0.0
 11
-367.5
 21
433.0
 31
0.0
  0
LINE
  5
437
  8
DETAIL
  6
CONTINUOUS
 62
     5
 10
-325.50025299999999
 20
395.0
 30
0.0
 11
-364.50036799999998
 21
395.0
 31
0.0
  0
LINE
  5
438
  8
DETAIL
  6
CONTINUOUS
 62
     5
 10
-329.00025299999999
 20
421.0
 30
0.0
 11
-311.50025299999999
 21
421.0
 31
0.0
  0
CIRCLE
  5
43B
  8
SIZE
  6
CONTINUOUS
 62
    30
 10
-1167.958627
 20
0.0
 30
0.0
 40
5.0
  0
LINE
  5
43C
  8
SIZE
  6
CONTINUOUS
 62
    30
 10
-1167.958627
 20
0.0
 30
0.0
 11
-1167.958627
 21
-364.68571400000002
 31
0.0
  0
CIRCLE
  5
43D
  8
SIZE
  6
CONTINUOUS
 62
    30
 10
-861.59331299999997
 20
0.0
 30
0.0
 40
5.0
  0
LINE
  5
43E
  8
SIZE
  6
CONTINUOUS
 62
    30
 10
-861.59331299999997
 20
23.5
 30
0.0
 11
-988.0676390000001
 21
-10.034974
 31
0.0
  0
CIRCLE
  5
43F
  8
SIZE
  6
CONTINUOUS
 62
    30
 10
-861.59331299999997
 20
0.0
 30
0.0
 40
5.0
  0
LINE
  5
440
  8
SIZE
  6
CONTINUOUS
 62
    30
 10
-861.59331299999997
 20
0.0
 30
0.0
 11
-861.59331299999997
 21
-8.0
 31
0.0
  0
LINE
  5
441
  8
SIZE
  6
CONTINUOUS
 62
    30
 10
-367.5
 20
127.27620923121501
 30
0.0
 11
-367.5
 21
-436.71809699999989
 31
0.0
  0
TEXT
  5
442
  8
SIZE
  6
CONTINUOUS
 62
    30
 10
-1363.7176629999999
 20
-318.56126399999999
 30
0.0
 40
55.0
  1
パネル直付時
 50
90.0
 41
0.9
 72
     1
 11
-1363.7176629999999
 21
-146.961264
 31
0.0
  0
TEXT
  5
443
  8
SIZE
  6
CONTINUOUS
 62
    30
 10
-1185.958627
 20
-346.68571414285719
 30
0.0
 40
55.0
  1
140～300
 50
90.0
 41
0.9
 72
     1
 11
-1185.958627
 21
-187.34285700000001
 31
0.0
  0
POLYLINE
  5
444
  8
SIZE
  6
CONTINUOUS
 62
    30
 66
     1
 10
0.0
 20
0.0
 30
0.0
  0
VERTEX
  5
8FF
  8
SIZE
  6
CONTINUOUS
 62
    30
 10
-1439.9101270000001
 20
-311.99995799999999
 30
0.0
 42
0.186174
  0
VERTEX
  5
900
  8
SIZE
  6
CONTINUOUS
 62
    30
 10
-1431.060279
 20
-332.94944600000002
 30
0.0
 42
0.082105
  0
VERTEX
  5
901
  8
SIZE
  6
CONTINUOUS
 62
    30
 10
-1415.3577769999999
 20
-345.12400700000001
 30
0.0
 42
0.058826
  0
VERTEX
  5
902
  8
SIZE
  6
CONTINUOUS
 62
    30
 10
-1393.571719
 20
-353.898934
 30
0.0
 42
0.067494
  0
VERTEX
  5
903
  8
SIZE
  6
CONTINUOUS
 62
    30
 10
-1356.083159
 20
-358.84443800000003
 30
0.0
 42
0.067494
  0
VERTEX
  5
904
  8
SIZE
  6
CONTINUOUS
 62
    30
 10
-1318.594599
 20
-353.898934
 30
0.0
 42
0.058826
  0
VERTEX
  5
905
  8
SIZE
  6
CONTINUOUS
 62
    30
 10
-1296.8085410000001
 20
-345.12400700000001
 30
0.0
 42
0.082105
  0
VERTEX
  5
906
  8
SIZE
  6
CONTINUOUS
 62
    30
 10
-1281.106039
 20
-332.94944600000002
 30
0.0
 42
0.186174
  0
VERTEX
  5
907
  8
SIZE
  6
CONTINUOUS
 62
    30
 10
-1272.2561909999999
 20
-311.99995799999999
 30
0.0
 42
0.186174
  0
VERTEX
  5
908
  8
SIZE
  6
CONTINUOUS
 62
    30
 10
-1272.2561909999999
 20
-311.99995799999999
 30
0.0
 42
0.186174
  0
SEQEND
  5
909
  8
SIZE
  6
CONTINUOUS
 62
    30
  0
TEXT
  5
450
  8
SIZE
  6
CONTINUOUS
 62
    30
 10
-1279.9678839999999
 20
-261.70261271428569
 30
0.0
 40
55.0
  1
50～60
 50
90.0
 41
0.9
 72
     1
 11
-1279.9678839999999
 21
-144.78832700000001
 31
0.0
  0
LINE
  5
451
  8
NOTE
  6
CONTINUOUS
 62
     4
 10
-789.89200400000016
 20
-248.03119599999999
 30
0.0
 11
-452.28743899999989
 21
-248.03119599999999
 31
0.0
  0
LINE
  5
452
  8
NOTE
  6
CONTINUOUS
 62
     4
 10
-851.42604100000005
 20
-142.55580499999999
 30
0.0
 11
-495.65449599999999
 21
-142.55580499999999
 31
0.0
  0
TEXT
  5
453
  8
NOTE
  6
CONTINUOUS
 62
     4
 10
-849.74591399999997
 20
-131.78676899999999
 30
0.0
 40
60.0
  1
RG %%C15.88
 50
359.99999700000001
 41
0.7
  7
STANDARD1
  0
TEXT
  5
454
  8
SIZE
  6
CONTINUOUS
 62
    30
 10
-1006.067639
 20
-108.1778305714286
 30
0.0
 40
55.0
  1
47
 50
90.0
 41
0.9
 72
     1
 11
-1006.067639
 21
-68.106402000000003
 31
0.0
  0
TEXT
  5
455
  8
SIZE
  6
CONTINUOUS
 62
    30
 10
-879.59331300000008
 20
-79.0
 30
0.0
 40
55.0
  1
8
 50
90.0
 41
0.9
 72
     1
 11
-879.59331300000008
 21
-62.5
 31
0.0
  0
LINE
  5
456
  8
SIZE
  6
CONTINUOUS
 62
    30
 10
-988.0676390000001
 20
-10.034974
 30
0.0
 11
-988.0676390000001
 21
-126.177831
 31
0.0
  0
LINE
  5
457
  8
SIZE
  6
CONTINUOUS
 62
    30
 10
-861.59331299999997
 20
-5.0
 30
0.0
 11
-861.59331299999997
 21
-10.0
 31
0.0
  0
LINE
  5
458
  8
SIZE
  6
CONTINUOUS
 62
    30
 10
-861.59331299999997
 20
-10.0
 30
0.0
 11
-861.59331299999997
 21
-20.0
 31
0.0
  0
LINE
  5
459
  8
SIZE
  6
CONTINUOUS
 62
    30
 10
-861.59331299999997
 20
-13.0
 30
0.0
 11
-861.59331299999997
 21
-18.0
 31
0.0
  0
CIRCLE
  5
45A
  8
SIZE
  6
CONTINUOUS
 62
    30
 10
-861.59331299999997
 20
-8.0
 30
0.0
 40
5.0
  0
LINE
  5
45B
  8
SIZE
  6
CONTINUOUS
 62
    30
 10
-861.59331299999997
 20
-18.0
 30
0.0
 11
-861.59331299999997
 21
-97.0
 31
0.0
  0
LINE
  5
45C
  8
SIZE
  6
CONTINUOUS
 62
    30
 10
-362.5
 20
-406.71809699999989
 30
0.0
 11
-357.5
 21
-406.71809699999989
 31
0.0
  0
CIRCLE
  5
45D
  8
SIZE
  6
CONTINUOUS
 62
    30
 10
-367.5
 20
-406.71809699999989
 30
0.0
 40
5.0
  0
TEXT
  5
45E
  8
NOTE
  6
CONTINUOUS
 62
     4
 10
-775.10040900000001
 20
-235.15067400000001
 30
0.0
 40
60.0
  1
RL %%C9.52
 50
359.99999700000001
 41
0.7
  7
STANDARD1
  0
TEXT
  5
45F
  8
ETC
  6
CONTINUOUS
 62
    61
 10
166.94012822301011
 20
1100.227191263464
 30
0.0
 40
80.0
  1
PDZ-KP71_90FM_4
 50
359.99999700000001
 41
0.8
  0
TEXT
  5
460
  8
NOTE
  6
CONTINUOUS
 62
     4
 10
-1228.4882660000001
 20
659.76989000000003
 30
0.0
 40
60.0
  1
%%C200 吹出円形フランジ
 50
359.99999700000001
 41
0.7
  7
STANDARD1
  0
TEXT
  5
461
  8
SIZE
  6
CONTINUOUS
 62
    30
 10
-1185.958627
 20
222.85714285714289
 30
0.0
 40
55.0
  1
293
 50
90.0
 41
0.9
 72
     1
 11
-1185.958627
 21
286.5
 31
0.0
  0
POLYLINE
  5
462
  8
SIZE
  6
CONTINUOUS
 62
    30
 66
     1
 10
0.0
 20
0.0
 30
0.0
  0
VERTEX
  5
90A
  8
SIZE
  6
CONTINUOUS
 62
    30
 10
-1272.2561909999999
 20
15.745668
 30
0.0
 42
0.186174
  0
VERTEX
  5
90B
  8
SIZE
  6
CONTINUOUS
 62
    30
 10
-1281.106039
 20
36.695155999999997
 30
0.0
 42
0.082105
  0
VERTEX
  5
90C
  8
SIZE
  6
CONTINUOUS
 62
    30
 10
-1296.8085410000001
 20
48.869717000000001
 30
0.0
 42
0.058826
  0
VERTEX
  5
90D
  8
SIZE
  6
CONTINUOUS
 62
    30
 10
-1318.594599
 20
57.644643999999992
 30
0.0
 42
0.067494
  0
VERTEX
  5
90E
  8
SIZE
  6
CONTINUOUS
 62
    30
 10
-1356.083159
 20
62.590146999999988
 30
0.0
 42
0.067494
  0
VERTEX
  5
90F
  8
SIZE
  6
CONTINUOUS
 62
    30
 10
-1393.571719
 20
57.644643999999992
 30
0.0
 42
0.058826
  0
VERTEX
  5
910
  8
SIZE
  6
CONTINUOUS
 62
    30
 10
-1415.3577769999999
 20
48.869717000000001
 30
0.0
 42
0.082105
  0
VERTEX
  5
911
  8
SIZE
  6
CONTINUOUS
 62
    30
 10
-1431.060279
 20
36.695155999999997
 30
0.0
 42
0.186174
  0
VERTEX
  5
912
  8
SIZE
  6
CONTINUOUS
 62
    30
 10
-1439.9101270000001
 20
15.745668
 30
0.0
 42
0.186174
  0
SEQEND
  5
913
  8
SIZE
  6
CONTINUOUS
 62
    30
  0
LINE
  5
46D
  8
SIZE
  6
CONTINUOUS
 62
    30
 10
-367.5
 20
453.0
 30
0.0
 11
-367.5
 21
802.44769899999994
 31
0.0
  0
LINE
  5
46E
  8
SIZE
  6
CONTINUOUS
 62
    30
 10
-437.5
 20
414.5
 30
0.0
 11
-437.5
 21
1049.756433
 31
0.0
  0
LINE
  5
46F
  8
SIZE
  6
CONTINUOUS
 62
    30
 10
-367.5
 20
453.0
 30
0.0
 11
-367.5
 21
1049.756433
 31
0.0
  0
LINE
  5
470
  8
SIZE
  6
CONTINUOUS
 62
    30
 10
-367.5
 20
453.0
 30
0.0
 11
-367.5
 21
1049.756433
 31
0.0
  0
LINE
  5
471
  8
SIZE
  6
CONTINUOUS
 62
    30
 10
-333.5
 20
467.99516599999998
 30
0.0
 11
-333.5
 21
923.98808299999996
 31
0.0
  0
LINE
  5
472
  8
SIZE
  6
CONTINUOUS
 62
    30
 10
-397.5
 20
417.0
 30
0.0
 11
-397.5
 21
626.07054200000005
 31
0.0
  0
LINE
  5
473
  8
SIZE
  6
CONTINUOUS
 62
    30
 10
-437.5
 20
414.5
 30
0.0
 11
-437.5
 21
626.07054200000005
 31
0.0
  0
LINE
  5
474
  8
NOTE
  6
CONTINUOUS
 62
     4
 10
-638.25443899999993
 20
644.97419799999989
 30
0.0
 11
-437.5
 21
297.0
 31
0.0
  0
LINE
  5
475
  8
SIZE
  6
CONTINUOUS
 62
    30
 10
-388.21139599999998
 20
140.0
 30
0.0
 11
-1197.958627
 21
140.0
 31
0.0
  0
LINE
  5
476
  8
SIZE
  6
CONTINUOUS
 62
    30
 10
-387.5
 20
433.0
 30
0.0
 11
-907.54594800000007
 21
433.0
 31
0.0
  0
TEXT
  5
477
  8
SIZE
  6
CONTINUOUS
 62
    30
 10
-768.53866700000003
 20
461.0
 30
0.0
 40
55.0
  1
136
 50
90.0
 41
0.9
 72
     1
 11
-768.53866700000003
 21
518.75
 31
0.0
  0
LINE
  5
478
  8
SIZE
  6
CONTINUOUS
 62
    30
 10
-529.44451500000002
 20
297.0
 30
0.0
 11
-780.53866700000003
 21
297.0
 31
0.0
  0
LINE
  5
479
  8
SIZE
  6
CONTINUOUS
 62
    30
 10
-387.5
 20
433.0
 30
0.0
 11
-780.53866700000003
 21
433.0
 31
0.0
  0
LINE
  5
47A
  8
SIZE
  6
CONTINUOUS
 62
    30
 10
-387.55028799999991
 20
140.0
 30
0.0
 11
-1197.958627
 21
140.0
 31
0.0
  0
LINE
  5
47B
  8
SIZE
  6
CONTINUOUS
 62
    30
 10
-387.5
 20
433.0
 30
0.0
 11
-1197.958627
 21
433.0
 31
0.0
  0
TEXT
  5
47C
  8
SIZE
  6
CONTINUOUS
 62
    30
 10
-1026.263312
 20
275.80174242857152
 30
0.0
 40
55.0
  1
28
 50
90.0
 41
0.9
 72
     1
 11
-1026.263312
 21
315.87317100000001
 31
0.0
  0
LINE
  5
47D
  8
SIZE
  6
CONTINUOUS
 62
    30
 10
-1008.263312
 20
257.80174199999999
 30
0.0
 11
-1008.263312
 21
373.94459899999998
 31
0.0
  0
TEXT
  5
47E
  8
SIZE
  6
CONTINUOUS
 62
    30
 10
-895.54594799999995
 20
288.07142857142861
 30
0.0
 40
55.0
  1
172
 50
90.0
 41
0.9
 72
     1
 11
-895.54594799999995
 21
347.0
 31
0.0
  0
LINE
  5
47F
  8
SIZE
  6
CONTINUOUS
 62
    30
 10
-877.54594799999995
 20
423.0
 30
0.0
 11
-877.54594799999995
 21
271.0
 31
0.0
  0
LINE
  5
480
  8
SIZE
  6
CONTINUOUS
 62
    30
 10
-1167.958627
 20
423.0
 30
0.0
 11
-1167.958627
 21
150.0
 31
0.0
  0
LINE
  5
481
  8
SIZE
  6
CONTINUOUS
 62
    30
 10
-877.54594799999995
 20
247.00132099999999
 30
0.0
 11
-1008.263312
 21
257.80174199999999
 31
0.0
  0
POINT
  5
482
  8
DEFPOINTS
  6
CONTINUOUS
 62
     7
 10
-1167.958627
 20
0.0
 30
0.0
  0
LINE
  5
483
  8
SIZE
  6
CONTINUOUS
 62
    30
 10
-1167.958627
 20
5.0
 30
0.0
 11
-1167.958627
 21
10.0
 31
0.0
  0
LINE
  5
484
  8
SIZE
  6
CONTINUOUS
 62
    30
 10
-1167.958627
 20
135.0
 30
0.0
 11
-1167.958627
 21
130.0
 31
0.0
  0
CIRCLE
  5
485
  8
SIZE
  6
CONTINUOUS
 62
    30
 10
-1167.958627
 20
140.0
 30
0.0
 40
5.0
  0
LINE
  5
486
  8
SIZE
  6
CONTINUOUS
 62
    30
 10
-1167.958627
 20
130.0
 30
0.0
 11
-1167.958627
 21
10.0
 31
0.0
  0
POINT
  5
487
  8
DEFPOINTS
  6
CONTINUOUS
 62
     7
 10
-1167.958627
 20
140.0
 30
0.0
  0
LINE
  5
488
  8
SIZE
  6
CONTINUOUS
 62
    30
 10
-1167.958627
 20
145.0
 30
0.0
 11
-1167.958627
 21
150.0
 31
0.0
  0
CIRCLE
  5
489
  8
SIZE
  6
CONTINUOUS
 62
    30
 10
-1167.958627
 20
140.0
 30
0.0
 40
5.0
  0
POINT
  5
48A
  8
DEFPOINTS
  6
CONTINUOUS
 62
     7
 10
-861.59331299999997
 20
47.0
 30
0.0
  0
LINE
  5
48B
  8
SIZE
  6
CONTINUOUS
 62
    30
 10
-861.59331299999997
 20
52.0
 30
0.0
 11
-861.59331299999997
 21
57.0
 31
0.0
  0
CIRCLE
  5
48C
  8
SIZE
  6
CONTINUOUS
 62
    30
 10
-861.59331299999997
 20
47.0
 30
0.0
 40
5.0
  0
LINE
  5
48D
  8
SIZE
  6
CONTINUOUS
 62
    30
 10
-861.59331299999997
 20
0.0
 30
0.0
 11
-861.59331299999997
 21
47.0
 31
0.0
  0
LINE
  5
48E
  8
SIZE
  6
CONTINUOUS
 62
    30
 10
-861.59331299999997
 20
0.0
 30
0.0
 11
-861.59331299999997
 21
47.0
 31
0.0
  0
LINE
  5
48F
  8
SIZE
  6
CONTINUOUS
 62
    30
 10
-861.59331299999997
 20
57.0
 30
0.0
 11
-861.59331299999997
 21
67.0
 31
0.0
  0
POINT
  5
490
  8
DEFPOINTS
  6
CONTINUOUS
 62
     7
 10
-861.59331299999997
 20
0.0
 30
0.0
  0
LINE
  5
491
  8
SIZE
  6
CONTINUOUS
 62
    30
 10
-861.59331299999997
 20
5.0
 30
0.0
 11
-861.59331299999997
 21
10.0
 31
0.0
  0
LINE
  5
492
  8
SIZE
  6
CONTINUOUS
 62
    30
 10
-861.59331299999997
 20
10.0
 30
0.0
 11
-861.59331299999997
 21
20.0
 31
0.0
  0
POINT
  5
493
  8
DEFPOINTS
  6
CONTINUOUS
 62
     7
 10
-877.54594799999995
 20
233.00264100000001
 30
0.0
  0
LINE
  5
494
  8
SIZE
  6
CONTINUOUS
 62
    30
 10
-877.54594799999995
 20
228.00264100000001
 30
0.0
 11
-877.54594799999995
 21
223.00264100000001
 31
0.0
  0
CIRCLE
  5
495
  8
SIZE
  6
CONTINUOUS
 62
    30
 10
-877.54594799999995
 20
233.00264100000001
 30
0.0
 40
5.0
  0
LINE
  5
496
  8
SIZE
  6
CONTINUOUS
 62
    30
 10
-877.54594799999995
 20
266.0
 30
0.0
 11
-877.54594799999995
 21
271.0
 31
0.0
  0
CIRCLE
  5
497
  8
SIZE
  6
CONTINUOUS
 62
    30
 10
-877.54594799999995
 20
261.0
 30
0.0
 40
5.0
  0
LINE
  5
498
  8
SIZE
  6
CONTINUOUS
 62
    30
 10
-877.54594799999995
 20
261.0
 30
0.0
 11
-877.54594799999995
 21
233.00264100000001
 31
0.0
  0
LINE
  5
499
  8
SIZE
  6
CONTINUOUS
 62
    30
 10
-877.54594799999995
 20
261.0
 30
0.0
 11
-877.54594799999995
 21
233.00264100000001
 31
0.0
  0
LINE
  5
49A
  8
SIZE
  6
CONTINUOUS
 62
    30
 10
-877.54594799999995
 20
223.00264100000001
 30
0.0
 11
-877.54594799999995
 21
213.00264100000001
 31
0.0
  0
LINE
  5
49B
  8
SIZE
  6
CONTINUOUS
 62
    30
 10
-877.54594799999995
 20
271.0
 30
0.0
 11
-877.54594799999995
 21
281.0
 31
0.0
  0
POINT
  5
49C
  8
DEFPOINTS
  6
CONTINUOUS
 62
     7
 10
-877.54594799999995
 20
261.0
 30
0.0
  0
LINE
  5
49D
  8
SIZE
  6
CONTINUOUS
 62
    30
 10
-877.54594799999995
 20
266.0
 30
0.0
 11
-877.54594799999995
 21
271.0
 31
0.0
  0
CIRCLE
  5
49E
  8
SIZE
  6
CONTINUOUS
 62
    30
 10
-877.54594799999995
 20
261.0
 30
0.0
 40
5.0
  0
LINE
  5
49F
  8
SIZE
  6
CONTINUOUS
 62
    30
 10
-1167.958627
 20
428.0
 30
0.0
 11
-1167.958627
 21
423.0
 31
0.0
  0
CIRCLE
  5
4A0
  8
SIZE
  6
CONTINUOUS
 62
    30
 10
-1167.958627
 20
433.0
 30
0.0
 40
5.0
  0
LINE
  5
4A1
  8
SIZE
  6
CONTINUOUS
 62
    30
 10
-877.54594799999995
 20
428.0
 30
0.0
 11
-877.54594799999995
 21
423.0
 31
0.0
  0
CIRCLE
  5
4A2
  8
SIZE
  6
CONTINUOUS
 62
    30
 10
-877.54594799999995
 20
433.0
 30
0.0
 40
5.0
  0
LINE
  5
4A3
  8
SIZE
  6
CONTINUOUS
 62
    30
 10
-750.53866700000003
 20
302.0
 30
0.0
 11
-750.53866700000003
 21
307.0
 31
0.0
  0
LINE
  5
4A4
  8
OUTLINE
  6
CONTINUOUS
 62
     3
 10
-367.5
 20
433.0
 30
0.0
 11
-367.5
 21
140.0
 31
0.0
  0
LINE
  5
4A5
  8
NOTE
  6
CONTINUOUS
 62
     4
 10
-437.5
 20
297.0
 30
0.0
 11
-447.88937099999998
 21
329.77820400000002
 31
0.0
  0
LINE
  5
4A6
  8
NOTE
  6
CONTINUOUS
 62
     4
 10
-437.5
 20
297.0
 30
0.0
 11
-462.88656099999997
 21
320.192071
 31
0.0
  0
LINE
  5
4A7
  8
NOTE
  6
CONTINUOUS
 62
     4
 10
-437.5
 20
368.94451500000002
 30
0.0
 11
-437.5
 21
225.055485
 31
0.0
  0
LINE
  5
4A8
  8
DETAIL
  6
CONTINUOUS
 62
     5
 10
-397.5
 20
397.0
 30
0.0
 11
-397.5
 21
197.0
 31
0.0
  0
LINE
  5
4A9
  8
DETAIL
  6
CONTINUOUS
 62
     5
 10
-437.5
 20
394.5
 30
0.0
 11
-437.5
 21
199.5
 31
0.0
  0
LINE
  5
4AA
  8
DETAIL
  6
CONTINUOUS
 62
     5
 10
-367.5
 20
433.0
 30
0.0
 11
-367.5
 21
140.0
 31
0.0
  0
LINE
  5
4AB
  8
DETAIL
  6
CONTINUOUS
 62
     5
 10
-382.5
 20
401.0
 30
0.0
 11
-382.5
 21
193.0
 31
0.0
  0
POINT
  5
4AC
  8
DEFPOINTS
  6
CONTINUOUS
 62
     7
 10
-750.53866700000003
 20
297.0
 30
0.0
  0
CIRCLE
  5
4AD
  8
SIZE
  6
CONTINUOUS
 62
    30
 10
-750.53866700000003
 20
297.0
 30
0.0
 40
5.0
  0
LINE
  5
4B0
  8
NOTE
  6
CONTINUOUS
 62
     4
 10
-365.55548500000009
 20
297.0
 30
0.0
 11
-509.44451500000002
 21
297.0
 31
0.0
  0
POINT
  5
4B1
  8
DEFPOINTS
  6
CONTINUOUS
 62
     7
 10
-509.44451500000002
 20
297.0
 30
0.0
  0
POINT
  5
4B2
  8
DEFPOINTS
  6
CONTINUOUS
 62
     7
 10
-367.5
 20
227.0
 30
0.0
  0
ARC
  5
4B3
  8
DETAIL
  6
CONTINUOUS
 62
     5
 10
-384.5
 20
195.0
 30
0.0
 40
2.0
 50
0.0
 51
90.0
  0
LINE
  5
4B4
  8
DETAIL
  6
CONTINUOUS
 62
     5
 10
-402.5
 20
197.0
 30
0.0
 11
-437.5
 21
199.5
 31
0.0
  0
LINE
  5
4B5
  8
DETAIL
  6
CONTINUOUS
 62
     5
 10
-402.5
 20
197.0
 30
0.0
 11
-384.5
 21
197.0
 31
0.0
  0
LINE
  5
4B6
  8
DETAIL
  6
CONTINUOUS
 62
     5
 10
-378.5
 20
189.0
 30
0.0
 11
-367.54187806143341
 21
189.0
 31
0.0
  0
ARC
  5
4B7
  8
DETAIL
  6
CONTINUOUS
 62
     5
 10
-378.5
 20
193.0
 30
0.0
 40
4.0
 50
180.0
 51
270.0
  0
LINE
  5
4B8
  8
SIZE
  6
CONTINUOUS
 62
    30
 10
-447.5
 20
596.07054200000005
 30
0.0
 11
-573.64285700000005
 21
596.07054200000005
 31
0.0
  0
LINE
  5
4B9
  8
SIZE
  6
CONTINUOUS
 62
    30
 10
-750.53866700000003
 20
433.0
 30
0.0
 11
-750.53866700000003
 21
594.5
 31
0.0
  0
LINE
  5
4BA
  8
SIZE
  6
CONTINUOUS
 62
    30
 10
-750.53866700000003
 20
428.0
 30
0.0
 11
-750.53866700000003
 21
423.0
 31
0.0
  0
CIRCLE
  5
4BB
  8
SIZE
  6
CONTINUOUS
 62
    30
 10
-750.53866700000003
 20
433.0
 30
0.0
 40
5.0
  0
LINE
  5
4BC
  8
SIZE
  6
CONTINUOUS
 62
    30
 10
-750.53866700000003
 20
307.0
 30
0.0
 11
-750.53866700000003
 21
423.0
 31
0.0
  0
POINT
  5
4BD
  8
DEFPOINTS
  6
CONTINUOUS
 62
     7
 10
-367.5
 20
433.0
 30
0.0
  0
POINT
  5
4BE
  8
DEFPOINTS
  6
CONTINUOUS
 62
     7
 10
-367.5
 20
433.0
 30
0.0
  0
POINT
  5
4BF
  8
DEFPOINTS
  6
CONTINUOUS
 62
     7
 10
-367.5
 20
433.0
 30
0.0
  0
POINT
  5
4C0
  8
DEFPOINTS
  6
CONTINUOUS
 62
     7
 10
-367.5
 20
433.0
 30
0.0
  0
POINT
  5
4C1
  8
DEFPOINTS
  6
CONTINUOUS
 62
     7
 10
-437.5
 20
394.5
 30
0.0
  0
POINT
  5
4C2
  8
DEFPOINTS
  6
CONTINUOUS
 62
     7
 10
-367.5
 20
433.0
 30
0.0
  0
POINT
  5
4C3
  8
DEFPOINTS
  6
CONTINUOUS
 62
     7
 10
-367.5
 20
433.0
 30
0.0
  0
POINT
  5
4C4
  8
DEFPOINTS
  6
CONTINUOUS
 62
     7
 10
-333.5
 20
447.99516599999998
 30
0.0
  0
POINT
  5
4C5
  8
DEFPOINTS
  6
CONTINUOUS
 62
     7
 10
-397.5
 20
397.0
 30
0.0
  0
POINT
  5
4C6
  8
DEFPOINTS
  6
CONTINUOUS
 62
     7
 10
-437.5
 20
394.5
 30
0.0
  0
LINE
  5
4C7
  8
NOTE
  6
CONTINUOUS
 62
     4
 10
-333.5
 20
447.99516599999998
 30
0.0
 11
-333.5
 21
418.0048339999999
 31
0.0
  0
ARC
  5
4C9
  8
DETAIL
  6
CONTINUOUS
 62
     5
 10
-364.50036799999998
 20
398.0
 30
0.0
 40
3.0
 50
179.99939800000001
 51
270.0
  0
LINE
  5
4CA
  8
DETAIL
  6
CONTINUOUS
 62
     5
 10
-347.00025299999999
 20
421.0
 30
0.0
 11
-364.50025299999999
 21
421.0
 31
0.0
  0
LINE
  5
4CB
  8
DETAIL
  6
CONTINUOUS
 62
     5
 10
-344.00025299999999
 20
433.0
 30
0.0
 11
-344.00025299999999
 21
424.0
 31
0.0
  0
ARC
  5
4CC
  8
DETAIL
  6
CONTINUOUS
 62
     5
 10
-364.50025299999999
 20
424.0
 30
0.0
 40
3.0
 50
180.0
 51
270.0
  0
ARC
  5
4CD
  8
DETAIL
  6
CONTINUOUS
 62
     5
 10
-347.00025299999999
 20
424.0
 30
0.0
 40
3.0
 50
270.0
 51
0.0
  0
ARC
  5
4CE
  8
DETAIL
  6
CONTINUOUS
 62
     5
 10
-329.00025299999999
 20
424.0
 30
0.0
 40
3.0
 50
180.0
 51
270.0
  0
LINE
  5
4CF
  8
DETAIL
  6
CONTINUOUS
 62
     5
 10
-332.00025299999999
 20
433.0
 30
0.0
 11
-332.00025299999999
 21
424.0
 31
0.0
  0
ARC
  5
4D0
  8
DETAIL
  6
CONTINUOUS
 62
     5
 10
-384.5
 20
399.0
 30
0.0
 40
2.0
 50
270.0
 51
0.0
  0
LINE
  5
4D1
  8
DETAIL
  6
CONTINUOUS
 62
     5
 10
-402.5
 20
397.0
 30
0.0
 11
-384.5
 21
397.0
 31
0.0
  0
LINE
  5
4D2
  8
DETAIL
  6
CONTINUOUS
 62
     5
 10
-402.5
 20
397.0
 30
0.0
 11
-437.5
 21
394.5
 31
0.0
  0
LINE
  5
4D3
  8
DETAIL
  6
CONTINUOUS
 62
     5
 10
-378.5
 20
405.0
 30
0.0
 11
-367.5
 21
405.0
 31
0.0
  0
ARC
  5
4D4
  8
DETAIL
  6
CONTINUOUS
 62
     5
 10
-378.5
 20
401.0
 30
0.0
 40
4.0
 50
90.0
 51
180.0
  0
CIRCLE
  5
4D5
  8
SIZE
  6
CONTINUOUS
 62
    30
 10
-437.5
 20
596.07054200000005
 30
0.0
 40
5.0
  0
LINE
  5
4D6
  8
SIZE
  6
CONTINUOUS
 62
    30
 10
-442.49999999999989
 20
596.07054200000005
 30
0.0
 11
-447.5
 21
596.07054200000005
 31
0.0
  0
POINT
  5
4D7
  8
DEFPOINTS
  6
CONTINUOUS
 62
     7
 10
-397.5
 20
596.07054200000005
 30
0.0
  0
LINE
  5
4D8
  8
SIZE
  6
CONTINUOUS
 62
    30
 10
-392.5
 20
596.07054200000005
 30
0.0
 11
-387.5
 21
596.07054200000005
 31
0.0
  0
CIRCLE
  5
4D9
  8
SIZE
  6
CONTINUOUS
 62
    30
 10
-397.5
 20
596.07054200000005
 30
0.0
 40
5.0
  0
LINE
  5
4DA
  8
SIZE
  6
CONTINUOUS
 62
    30
 10
-397.5
 20
596.07054200000005
 30
0.0
 11
-437.5
 21
596.07054200000005
 31
0.0
  0
LINE
  5
4DB
  8
SIZE
  6
CONTINUOUS
 62
    30
 10
-387.5
 20
596.07054200000005
 30
0.0
 11
-377.5
 21
596.07054200000005
 31
0.0
  0
LINE
  5
4DC
  8
NOTE
  6
CONTINUOUS
 62
     4
 10
-1221.231957
 20
644.97419799999989
 30
0.0
 11
-638.25443899999993
 21
644.97419799999989
 31
0.0
  0
TEXT
  5
4DD
  8
SIZE
  6
CONTINUOUS
 62
    30
 10
-575.84334742857129
 20
790.44769899999994
 30
0.0
 40
55.0
  1
128
 41
0.9
 72
     1
 11
-516.91477599999985
 21
790.44769899999994
 31
0.0
  0
LINE
  5
4DE
  8
SIZE
  6
CONTINUOUS
 62
    30
 10
-367.5
 20
772.44769899999994
 30
0.0
 11
-593.84334799999988
 21
772.44769899999994
 31
0.0
  0
TEXT
  5
4DF
  8
SIZE
  6
CONTINUOUS
 62
    30
 10
-555.64285757142852
 20
614.07054200000005
 30
0.0
 40
55.0
  1
40
 41
0.9
 72
     1
 11
-515.57142899999985
 21
614.07054200000005
 31
0.0
  0
LINE
  5
4E0
  8
SIZE
  6
CONTINUOUS
 62
    30
 10
-362.5
 20
772.44769899999994
 30
0.0
 11
-357.5
 21
772.44769899999994
 31
0.0
  0
CIRCLE
  5
4E1
  8
SIZE
  6
CONTINUOUS
 62
    30
 10
-367.5
 20
772.44769899999994
 30
0.0
 40
5.0
  0
POINT
  5
4E2
  8
DEFPOINTS
  6
CONTINUOUS
 62
     7
 10
-333.5
 20
893.98808299999985
 30
0.0
  0
TEXT
  5
4E3
  8
SIZE
  6
CONTINUOUS
 62
    30
 10
-442.5714285714285
 20
1037.756433
 30
0.0
 40
55.0
  1
70
 41
0.9
 72
     1
 11
-402.5
 21
1037.756433
 31
0.0
  0
CIRCLE
  5
4E4
  8
SIZE
  6
CONTINUOUS
 62
    30
 10
-437.5
 20
1019.756433
 30
0.0
 40
5.0
  0
LINE
  5
4E5
  8
SIZE
  6
CONTINUOUS
 62
    30
 10
-442.49999999999989
 20
1019.756433
 30
0.0
 11
-447.5
 21
1019.756433
 31
0.0
  0
LINE
  5
4E6
  8
SIZE
  6
CONTINUOUS
 62
    30
 10
-447.5
 20
1019.756433
 30
0.0
 11
-457.5
 21
1019.756433
 31
0.0
  0
POINT
  5
4E7
  8
DEFPOINTS
  6
CONTINUOUS
 62
     7
 10
-437.5
 20
1019.756433
 30
0.0
  0
LINE
  5
4E8
  8
SIZE
  6
CONTINUOUS
 62
    30
 10
-362.5
 20
1019.756433
 30
0.0
 11
-357.5
 21
1019.756433
 31
0.0
  0
CIRCLE
  5
4E9
  8
SIZE
  6
CONTINUOUS
 62
    30
 10
-367.5
 20
1019.756433
 30
0.0
 40
5.0
  0
LINE
  5
4EA
  8
SIZE
  6
CONTINUOUS
 62
    30
 10
-367.5
 20
1019.756433
 30
0.0
 11
-437.5
 21
1019.756433
 31
0.0
  0
LINE
  5
4EB
  8
SIZE
  6
CONTINUOUS
 62
    30
 10
-357.5
 20
1019.756433
 30
0.0
 11
-347.5
 21
1019.756433
 31
0.0
  0
POINT
  5
4EC
  8
DEFPOINTS
  6
CONTINUOUS
 62
     7
 10
-367.5
 20
1019.756433
 30
0.0
  0
LINE
  5
4ED
  8
SIZE
  6
CONTINUOUS
 62
    30
 10
-362.5
 20
1019.756433
 30
0.0
 11
-357.5
 21
1019.756433
 31
0.0
  0
CIRCLE
  5
4EE
  8
SIZE
  6
CONTINUOUS
 62
    30
 10
-367.5
 20
1019.756433
 30
0.0
 40
5.0
  0
LINE
  5
4EF
  8
BASIS
  6
DASHDOT
 62
     6
 10
0.0
 20
468.57171299999987
 30
0.0
 11
0.0
 21
-53.886170999999997
 31
0.0
  0
CIRCLE
  5
4F0
  8
ARRANGE
  6
CONTINUOUS
 62
     1
 10
0.0
 20
0.0
 30
0.0
 40
50.0
  0
LINE
  5
4F1
  8
OUTLINE
  6
CONTINUOUS
 62
     3
 10
-157.5
 20
0.0
 30
0.0
 11
-157.5
 21
-4.0065080000000002
 31
0.0
  0
LINE
  5
4F2
  8
OUTLINE
  6
CONTINUOUS
 62
     3
 10
442.49999999999989
 20
0.0
 30
0.0
 11
442.49999999999989
 21
-4.0065080000000002
 31
0.0
  0
LINE
  5
4F3
  8
DETAIL
  6
CONTINUOUS
 62
     5
 10
442.49999999999989
 20
-4.0065080000000002
 30
0.0
 11
442.49999999999989
 21
0.0
 31
0.0
  0
LINE
  5
4F4
  8
DETAIL
  6
CONTINUOUS
 62
     5
 10
-157.5
 20
-4.0065080000000002
 30
0.0
 11
-157.5
 21
0.0
 31
0.0
  0
LINE
  5
4F5
  8
ARRANGE
  6
CONTINUOUS
 62
     1
 10
-49.963763
 20
49.596595000000001
 30
0.0
 11
49.963763
 21
-49.596595000000001
 31
0.0
  0
LINE
  5
4F6
  8
ARRANGE
  6
CONTINUOUS
 62
     1
 10
-50.037350000000004
 20
-49.522353000000003
 30
0.0
 11
50.037350000000004
 21
49.522353000000003
 31
0.0
  0
TEXT
  5
4F7
  8
SIZE
  6
CONTINUOUS
 62
    30
 10
-132.7823067142856
 20
-390.313335
 30
0.0
 40
55.0
  1
566(天井開口寸法)
 41
0.9
 72
     1
 11
140.881979
 21
-390.313335
 31
0.0
  0
LINE
  5
4F8
  8
SIZE
  6
CONTINUOUS
 62
    30
 10
415.5
 20
-406.71809699999989
 30
0.0
 11
-130.5
 21
-406.71809699999989
 31
0.0
  0
TEXT
  5
4F9
  8
SIZE
  6
CONTINUOUS
 62
    30
 10
86.534998857142867
 20
-232.626656
 30
0.0
 40
55.0
  1
600
 41
0.9
 72
     1
 11
150.17785599999999
 21
-232.626656
 31
0.0
  0
LINE
  5
4FA
  8
SIZE
  6
CONTINUOUS
 62
    30
 10
432.5
 20
-250.626656
 30
0.0
 11
-147.5
 21
-250.626656
 31
0.0
  0
LINE
  5
4FB
  8
OUTLINE
  6
CONTINUOUS
 62
     3
 10
-126.8
 20
-8.0
 30
0.0
 11
411.80000000000001
 21
-8.0
 31
0.0
  0
LINE
  5
4FC
  8
DETAIL
  6
CONTINUOUS
 62
     5
 10
-126.8
 20
-8.0
 30
0.0
 11
411.80000000000001
 21
-8.0
 31
0.0
  0
LINE
  5
4FD
  8
SIZE
  6
CONTINUOUS
 62
    30
 10
-140.5
 20
-19.0
 30
0.0
 11
-140.5
 21
-436.71809699999989
 31
0.0
  0
LINE
  5
4FE
  8
SIZE
  6
CONTINUOUS
 62
    30
 10
-140.5
 20
-19.0
 30
0.0
 11
-140.5
 21
-436.71809699999989
 31
0.0
  0
TEXT
  5
4FF
  8
SIZE
  6
CONTINUOUS
 62
    30
 10
-317.64285714285711
 20
-388.718097
 30
0.0
 40
55.0
  1
227
 41
0.9
 72
     1
 11
-254.0
 21
-388.718097
 31
0.0
  0
POINT
  5
500
  8
DEFPOINTS
  6
CONTINUOUS
 62
     7
 10
-140.5
 20
-406.71809699999989
 30
0.0
  0
LINE
  5
501
  8
SIZE
  6
CONTINUOUS
 62
    30
 10
-145.5
 20
-406.71809699999989
 30
0.0
 11
-150.5
 21
-406.71809699999989
 31
0.0
  0
CIRCLE
  5
502
  8
SIZE
  6
CONTINUOUS
 62
    30
 10
-140.5
 20
-406.71809699999989
 30
0.0
 40
5.0
  0
POINT
  5
503
  8
DEFPOINTS
  6
CONTINUOUS
 62
     7
 10
-140.5
 20
-406.71809699999989
 30
0.0
  0
LINE
  5
504
  8
SIZE
  6
CONTINUOUS
 62
    30
 10
-135.5
 20
-406.71809699999989
 30
0.0
 11
-130.5
 21
-406.71809699999989
 31
0.0
  0
CIRCLE
  5
505
  8
SIZE
  6
CONTINUOUS
 62
    30
 10
-140.5
 20
-406.71809699999989
 30
0.0
 40
5.0
  0
LINE
  5
506
  8
SIZE
  6
CONTINUOUS
 62
    30
 10
-130.5
 20
-149.31652800000001
 30
0.0
 11
-13.785714
 21
-149.31652800000001
 31
0.0
  0
LINE
  5
507
  8
SIZE
  6
CONTINUOUS
 62
    30
 10
-140.5
 20
-19.0
 30
0.0
 11
-140.5
 21
-179.31652800000001
 31
0.0
  0
LINE
  5
508
  8
SIZE
  6
CONTINUOUS
 62
    30
 10
-157.5
 20
-24.006508
 30
0.0
 11
-157.5
 21
-179.31652800000001
 31
0.0
  0
LINE
  5
509
  8
SIZE
  6
CONTINUOUS
 62
    30
 10
-157.5
 20
-24.006508
 30
0.0
 11
-157.5
 21
-280.62665600000003
 31
0.0
  0
POINT
  5
50A
  8
DEFPOINTS
  6
CONTINUOUS
 62
     7
 10
-157.5
 20
-250.626656
 30
0.0
  0
LINE
  5
50B
  8
SIZE
  6
CONTINUOUS
 62
    30
 10
-152.5
 20
-250.626656
 30
0.0
 11
-147.5
 21
-250.626656
 31
0.0
  0
CIRCLE
  5
50C
  8
SIZE
  6
CONTINUOUS
 62
    30
 10
-157.5
 20
-250.626656
 30
0.0
 40
5.0
  0
POINT
  5
50D
  8
DEFPOINTS
  6
CONTINUOUS
 62
     7
 10
-126.8
 20
-8.0
 30
0.0
  0
POINT
  5
50E
  8
DEFPOINTS
  6
CONTINUOUS
 62
     7
 10
-140.5
 20
-149.31652800000001
 30
0.0
  0
POINT
  5
50F
  8
DEFPOINTS
  6
CONTINUOUS
 62
     7
 10
-157.5
 20
-4.0065080000000002
 30
0.0
  0
LINE
  5
510
  8
SIZE
  6
CONTINUOUS
 62
    30
 10
-135.5
 20
-149.31652800000001
 30
0.0
 11
-130.5
 21
-149.31652800000001
 31
0.0
  0
CIRCLE
  5
511
  8
SIZE
  6
CONTINUOUS
 62
    30
 10
-140.5
 20
-149.31652800000001
 30
0.0
 40
5.0
  0
LINE
  5
512
  8
SIZE
  6
CONTINUOUS
 62
    30
 10
-162.5
 20
-149.31652800000001
 30
0.0
 11
-167.5
 21
-149.31652800000001
 31
0.0
  0
CIRCLE
  5
513
  8
SIZE
  6
CONTINUOUS
 62
    30
 10
-157.5
 20
-149.31652800000001
 30
0.0
 40
5.0
  0
LINE
  5
514
  8
SIZE
  6
CONTINUOUS
 62
    30
 10
-157.5
 20
-149.31652800000001
 30
0.0
 11
-140.5
 21
-149.31652800000001
 31
0.0
  0
LINE
  5
515
  8
SIZE
  6
CONTINUOUS
 62
    30
 10
-167.5
 20
-149.31652800000001
 30
0.0
 11
-177.5
 21
-149.31652800000001
 31
0.0
  0
POINT
  5
516
  8
DEFPOINTS
  6
CONTINUOUS
 62
     7
 10
-157.5
 20
-4.0065080000000002
 30
0.0
  0
ARC
  5
517
  8
OUTLINE
  6
CONTINUOUS
 62
     3
 10
-126.8
 20
112.0
 30
0.0
 40
120.0
 50
255.17703
 51
270.0
  0
ARC
  5
518
  8
DETAIL
  6
CONTINUOUS
 62
     5
 10
-126.8
 20
112.0
 30
0.0
 40
120.0
 50
255.17703
 51
270.0
  0
TEXT
  5
519
  8
SIZE
  6
CONTINUOUS
 62
    30
 10
-102.4999998571428
 20
-131.31652800000001
 30
0.0
 40
55.0
  1
17
 41
0.9
 72
     1
 11
-67.142856999999992
 21
-131.31652800000001
 31
0.0
  0
LINE
  5
51A
  8
SIZE
  6
CONTINUOUS
 62
    30
 10
425.49999999999989
 20
-19.0
 30
0.0
 11
425.49999999999989
 21
-436.71809699999989
 31
0.0
  0
LINE
  5
51B
  8
SIZE
  6
CONTINUOUS
 62
    30
 10
420.5
 20
-406.71809699999989
 30
0.0
 11
415.5
 21
-406.71809699999989
 31
0.0
  0
CIRCLE
  5
51C
  8
SIZE
  6
CONTINUOUS
 62
    30
 10
425.49999999999989
 20
-406.71809699999989
 30
0.0
 40
5.0
  0
TEXT
  5
51D
  8
SIZE
  6
CONTINUOUS
 62
    30
 10
316.78571414285722
 20
-131.31652800000001
 30
0.0
 40
55.0
  1
17
 41
0.9
 72
     1
 11
352.14285699999999
 21
-131.31652800000001
 31
0.0
  0
LINE
  5
51E
  8
SIZE
  6
CONTINUOUS
 62
    30
 10
415.5
 20
-149.31652800000001
 30
0.0
 11
298.78571399999998
 21
-149.31652800000001
 31
0.0
  0
LINE
  5
51F
  8
SIZE
  6
CONTINUOUS
 62
    30
 10
425.49999999999989
 20
-19.0
 30
0.0
 11
425.49999999999989
 21
-179.31652800000001
 31
0.0
  0
LINE
  5
520
  8
SIZE
  6
CONTINUOUS
 62
    30
 10
442.49999999999989
 20
-24.006508
 30
0.0
 11
442.49999999999989
 21
-179.31652800000001
 31
0.0
  0
LINE
  5
521
  8
SIZE
  6
CONTINUOUS
 62
    30
 10
442.49999999999989
 20
-24.006508
 30
0.0
 11
442.49999999999989
 21
-280.62665600000003
 31
0.0
  0
LINE
  5
522
  8
SIZE
  6
CONTINUOUS
 62
    30
 10
437.5
 20
-250.626656
 30
0.0
 11
432.5
 21
-250.626656
 31
0.0
  0
CIRCLE
  5
523
  8
SIZE
  6
CONTINUOUS
 62
    30
 10
442.49999999999989
 20
-250.626656
 30
0.0
 40
5.0
  0
LINE
  5
524
  8
SIZE
  6
CONTINUOUS
 62
    30
 10
452.5
 20
-149.31652800000001
 30
0.0
 11
462.5
 21
-149.31652800000001
 31
0.0
  0
POINT
  5
525
  8
DEFPOINTS
  6
CONTINUOUS
 62
     7
 10
425.49999999999989
 20
-149.31652800000001
 30
0.0
  0
POINT
  5
526
  8
DEFPOINTS
  6
CONTINUOUS
 62
     7
 10
442.49999999999989
 20
-4.0065080000000002
 30
0.0
  0
LINE
  5
527
  8
SIZE
  6
CONTINUOUS
 62
    30
 10
420.5
 20
-149.31652800000001
 30
0.0
 11
415.5
 21
-149.31652800000001
 31
0.0
  0
CIRCLE
  5
528
  8
SIZE
  6
CONTINUOUS
 62
    30
 10
425.49999999999989
 20
-149.31652800000001
 30
0.0
 40
5.0
  0
LINE
  5
529
  8
SIZE
  6
CONTINUOUS
 62
    30
 10
447.5
 20
-149.31652800000001
 30
0.0
 11
452.5
 21
-149.31652800000001
 31
0.0
  0
CIRCLE
  5
52A
  8
SIZE
  6
CONTINUOUS
 62
    30
 10
442.49999999999989
 20
-149.31652800000001
 30
0.0
 40
5.0
  0
LINE
  5
52B
  8
SIZE
  6
CONTINUOUS
 62
    30
 10
442.49999999999989
 20
-149.31652800000001
 30
0.0
 11
425.49999999999989
 21
-149.31652800000001
 31
0.0
  0
POINT
  5
52C
  8
DEFPOINTS
  6
CONTINUOUS
 62
     7
 10
442.49999999999989
 20
-4.0065080000000002
 30
0.0
  0
ARC
  5
52D
  8
OUTLINE
  6
CONTINUOUS
 62
     3
 10
411.80000000000001
 20
112.0
 30
0.0
 40
120.0
 50
270.0
 51
284.82297
  0
ARC
  5
52E
  8
DETAIL
  6
CONTINUOUS
 62
     5
 10
411.80000000000001
 20
112.0
 30
0.0
 40
120.0
 50
270.0
 51
284.82297
  0
LINE
  5
52F
  8
NOTE
  6
CONTINUOUS
 62
     4
 10
497.85074600000002
 20
212.877782
 30
0.0
 11
900.11997599999995
 21
212.877782
 31
0.0
  0
TEXT
  5
530
  8
NOTE
  6
CONTINUOUS
 62
     4
 10
496.04113099999989
 20
228.70434299999999
 30
0.0
 40
60.0
  1
4-%%C2.9取付穴
 50
359.99999700000001
 41
0.7
  7
STANDARD1
  0
LINE
  5
531
  8
SIZE
  6
CONTINUOUS
 62
    30
 10
345.65233330060067
 20
313.0
 30
0.0
 11
606.87223300000005
 21
313.0
 31
0.0
  0
LINE
  5
532
  8
SIZE
  6
CONTINUOUS
 62
    30
 10
387.5
 20
433.0
 30
0.0
 11
606.87223300000005
 21
433.0
 31
0.0
  0
LINE
  5
533
  8
NOTE
  6
CONTINUOUS
 62
     4
 10
464.97213099999988
 20
658.96709699999997
 30
0.0
 11
1194.0727589999999
 21
658.96709699999997
 31
0.0
  0
TEXT
  5
534
  8
NOTE
  6
CONTINUOUS
 62
     4
 10
477.99748699999998
 20
674.79365800000005
 30
0.0
 40
60.0
  1
AH 4-14×30長穴(M10)
 50
359.99999700000001
 41
0.7
  7
STANDARD1
  0
LINE
  5
535
  8
SIZE
  6
CONTINUOUS
 62
    30
 10
241.5
 20
424.09389700000003
 30
0.0
 11
241.5
 21
793.96975599999985
 31
0.0
  0
LINE
  5
536
  8
SIZE
  6
CONTINUOUS
 62
    30
 10
367.5
 20
453.0
 30
0.0
 11
367.5
 21
793.96975599999985
 31
0.0
  0
TEXT
  5
537
  8
NOTE
  6
CONTINUOUS
 62
     4
 10
-99.916984999999997
 20
576.77151900000001
 30
0.0
 40
60.0
  1
%%C150
 50
359.99999700000001
 41
0.7
  7
STANDARD1
  0
LINE
  5
538
  8
SIZE
  6
CONTINUOUS
 62
    30
 10
-175.5
 20
286.49999200000002
 30
0.0
 11
-175.5
 21
802.44769899999994
 31
0.0
  0
LINE
  5
539
  8
SIZE
  6
CONTINUOUS
 62
    30
 10
-239.5
 20
258.502634
 30
0.0
 11
-239.5
 21
802.44769899999994
 31
0.0
  0
LINE
  5
53A
  8
SIZE
  6
CONTINUOUS
 62
    30
 10
-239.5
 20
258.502634
 30
0.0
 11
-239.5
 21
802.44769899999994
 31
0.0
  0
LINE
  5
53B
  8
NOTE
  6
CONTINUOUS
 62
     4
 10
464.97213099999988
 20
658.96709699999997
 30
0.0
 11
336.5
 21
433.0
 31
0.0
  0
LINE
  5
53C
  8
SIZE
  6
CONTINUOUS
 62
    30
 10
367.5
 20
453.0
 30
0.0
 11
367.5
 21
1049.756433
 31
0.0
  0
LINE
  5
53D
  8
SIZE
  6
CONTINUOUS
 62
    30
 10
336.5
 20
467.99516599999998
 30
0.0
 11
336.5
 21
923.98808299999996
 31
0.0
  0
LINE
  5
53E
  8
SIZE
  6
CONTINUOUS
 62
    30
 10
336.5
 20
467.99516599999998
 30
0.0
 11
336.5
 21
923.98808299999996
 31
0.0
  0
LINE
  5
53F
  8
SIZE
  6
CONTINUOUS
 62
    30
 10
367.5
 20
453.0
 30
0.0
 11
367.5
 21
923.98808299999996
 31
0.0
  0
TEXT
  5
541
  8
SIZE
  6
CONTINUOUS
 62
    30
 10
105.30859994407329
 20
60.136340613034953
 30
0.0
 40
55.0
  1
%%c172
 50
65.286486999999994
 41
0.9
 72
     1
 11
139.307571
 21
134.00950700000001
 31
0.0
  0
LINE
  5
542
  8
SIZE
  6
CONTINUOUS
 62
    30
 10
114.13450899999999
 20
36.259504
 30
0.0
 11
201.364192
 21
225.792678
 31
0.0
  0
LINE
  5
543
  8
NOTE
  6
CONTINUOUS
 62
     4
 10
-123.849351
 20
559.13209800000004
 30
0.0
 11
150.81277399999999
 21
559.13209800000004
 31
0.0
  0
LINE
  5
544
  8
OUTLINE
  6
CONTINUOUS
 62
     3
 10
410.97000000000003
 20
47.0
 30
0.0
 11
-125.97
 21
47.0
 31
0.0
  0
LINE
  5
545
  8
DETAIL
  6
CONTINUOUS
 62
     5
 10
-367.5
 20
140.0
 30
0.0
 11
367.5
 21
140.0
 31
0.0
  0
LINE
  5
546
  8
DETAIL
  6
CONTINUOUS
 62
     5
 10
-125.97
 20
47.0
 30
0.0
 11
410.97000000000003
 21
47.0
 31
0.0
  0
LINE
  5
548
  8
NOTE
  6
CONTINUOUS
 62
     4
 10
-240.5
 20
1.0
 30
0.0
 11
-140.5
 21
1.0
 31
0.0
  0
LINE
  5
549
  8
NOTE
  6
CONTINUOUS
 62
     4
 10
-240.5
 20
21.0
 30
0.0
 11
-140.5
 21
21.0
 31
0.0
  0
LINE
  5
54A
  8
NOTE
  6
CONTINUOUS
 62
     4
 10
-198.838346
 20
1.0
 30
0.0
 11
-218.838346
 21
21.0
 31
0.0
  0
LINE
  5
54B
  8
NOTE
  6
CONTINUOUS
 62
     4
 10
-203.838346
 20
1.0
 30
0.0
 11
-223.838346
 21
21.0
 31
0.0
  0
LINE
  5
54C
  8
NOTE
  6
CONTINUOUS
 62
     4
 10
-208.838346
 20
1.0
 30
0.0
 11
-228.838346
 21
21.0
 31
0.0
  0
POINT
  5
54E
  8
DEFPOINTS
  6
CONTINUOUS
 62
     7
 10
-125.97
 20
47.0
 30
0.0
  0
POINT
  5
551
  8
DEFPOINTS
  6
CONTINUOUS
 62
     7
 10
-140.5
 20
1.0
 30
0.0
  0
POINT
  5
552
  8
DEFPOINTS
  6
CONTINUOUS
 62
     7
 10
-140.5
 20
1.0
 30
0.0
  0
POINT
  5
553
  8
DEFPOINTS
  6
CONTINUOUS
 62
     7
 10
-140.5
 20
1.0
 30
0.0
  0
LINE
  5
554
  8
OUTLINE
  6
CONTINUOUS
 62
     3
 10
-125.97
 20
47.0
 30
0.0
 11
-125.97
 21
0.0
 31
0.0
  0
LINE
  5
555
  8
NOTE
  6
CONTINUOUS
 62
     4
 10
-140.5
 20
1.0
 30
0.0
 11
-140.5
 21
21.0
 31
0.0
  0
LINE
  5
556
  8
NOTE
  6
CONTINUOUS
 62
     4
 10
-158.838346
 20
1.0
 30
0.0
 11
-178.838346
 21
21.0
 31
0.0
  0
LINE
  5
557
  8
NOTE
  6
CONTINUOUS
 62
     4
 10
-163.838346
 20
1.0
 30
0.0
 11
-183.838346
 21
21.0
 31
0.0
  0
LINE
  5
558
  8
NOTE
  6
CONTINUOUS
 62
     4
 10
-168.838346
 20
1.0
 30
0.0
 11
-188.838346
 21
21.0
 31
0.0
  0
LINE
  5
55A
  8
DETAIL
  6
CONTINUOUS
 62
     5
 10
-125.97
 20
0.0
 30
0.0
 11
-125.97
 21
47.0
 31
0.0
  0
POINT
  5
55B
  8
DEFPOINTS
  6
CONTINUOUS
 62
     7
 10
-239.5
 20
238.502634
 30
0.0
  0
POINT
  5
55C
  8
DEFPOINTS
  6
CONTINUOUS
 62
     7
 10
-239.5
 20
238.502634
 30
0.0
  0
POINT
  5
55D
  8
DEFPOINTS
  6
CONTINUOUS
 62
     7
 10
-245.00914900000009
 20
233.00264100000001
 30
0.0
  0
LINE
  5
55E
  8
NOTE
  6
CONTINUOUS
 62
     4
 10
-245.00914900000009
 20
232.9999995
 30
0.0
 11
-234.00914900000001
 21
232.9999995
 31
0.0
  0
LINE
  5
55F
  8
NOTE
  6
CONTINUOUS
 62
     4
 10
-239.5
 20
238.49999249999999
 30
0.0
 11
-239.5
 21
227.50000750000001
 31
0.0
  0
LINE
  5
560
  8
NOTE
  6
CONTINUOUS
 62
     4
 10
-239.5
 20
232.9999995
 30
0.0
 11
-264.52122800000001
 21
209.4142445
 31
0.0
  0
LINE
  5
561
  8
NOTE
  6
CONTINUOUS
 62
     4
 10
-239.5
 20
232.9999995
 30
0.0
 11
-252.42733200000001
 21
201.13726650000001
 31
0.0
  0
LINE
  5
562
  8
NOTE
  6
CONTINUOUS
 62
     4
 10
-245.00914900000009
 20
232.9999995
 30
0.0
 11
-234.00914900000001
 21
232.9999995
 31
0.0
  0
LINE
  5
563
  8
NOTE
  6
CONTINUOUS
 62
     4
 10
-239.5
 20
238.49999249999999
 30
0.0
 11
-239.5
 21
227.50000750000001
 31
0.0
  0
POINT
  5
564
  8
DEFPOINTS
  6
CONTINUOUS
 62
     7
 10
-175.5
 20
266.49999200000002
 30
0.0
  0
POINT
  5
565
  8
DEFPOINTS
  6
CONTINUOUS
 62
     7
 10
-181.00914900000001
 20
261.0
 30
0.0
  0
POINT
  5
566
  8
DEFPOINTS
  6
CONTINUOUS
 62
     7
 10
-181.00914900000001
 20
261.0
 30
0.0
  0
LINE
  5
567
  8
NOTE
  6
CONTINUOUS
 62
     4
 10
-175.5
 20
261.0
 30
0.0
 11
-198.02726200000001
 21
235.02169900000001
 31
0.0
  0
LINE
  5
568
  8
NOTE
  6
CONTINUOUS
 62
     4
 10
-175.5
 20
261.0
 30
0.0
 11
-185.16359499999999
 21
228.00053600000001
 31
0.0
  0
LINE
  5
569
  8
NOTE
  6
CONTINUOUS
 62
     4
 10
-181.00914900000001
 20
261.0
 30
0.0
 11
-170.00914900000001
 21
261.0
 31
0.0
  0
LINE
  5
56A
  8
NOTE
  6
CONTINUOUS
 62
     4
 10
-175.5
 20
266.49999200000002
 30
0.0
 11
-175.5
 21
255.50000800000001
 31
0.0
  0
LINE
  5
56B
  8
NOTE
  6
CONTINUOUS
 62
     4
 10
-181.00914900000001
 20
261.0
 30
0.0
 11
-170.00914900000001
 21
261.0
 31
0.0
  0
LINE
  5
56C
  8
NOTE
  6
CONTINUOUS
 62
     4
 10
-175.5
 20
266.49999200000002
 30
0.0
 11
-175.5
 21
255.50000800000001
 31
0.0
  0
ARC
  5
56D
  8
DETAIL
  6
CONTINUOUS
 62
     5
 10
-311.50025299999999
 20
421.0
 30
0.0
 40
3.0
 50
270.0
 51
0.0
  0
ARC
  5
56E
  8
DETAIL
  6
CONTINUOUS
 62
     5
 10
-325.50025299999999
 20
398.0
 30
0.0
 40
3.0
 50
270.0
 51
0.0
  0
LINE
  5
56F
  8
DETAIL
  6
CONTINUOUS
 62
     5
 10
-308.50025299999999
 20
433.0
 30
0.0
 11
-308.50025299999999
 21
421.0
 31
0.0
  0
ARC
  5
570
  8
DETAIL
  6
CONTINUOUS
 62
     5
 10
-311.50025299999999
 20
424.0
 30
0.0
 40
3.0
 50
270.0
 51
0.0
  0
LINE
  5
571
  8
DETAIL
  6
CONTINUOUS
 62
     5
 10
-311.50025299999999
 20
418.0
 30
0.0
 11
-322.50025299999999
 21
418.0
 31
0.0
  0
LINE
  5
572
  8
DETAIL
  6
CONTINUOUS
 62
     5
 10
-322.50025299999999
 20
418.0
 30
0.0
 11
-322.50025299999999
 21
398.0
 31
0.0
  0
LINE
  5
573
  8
NOTE
  6
CONTINUOUS
 62
     4
 10
497.85074600000002
 20
212.877782
 30
0.0
 11
327.5
 21
313.0
 31
0.0
  0
LINE
  5
574
  8
NOTE
  6
CONTINUOUS
 62
     4
 10
327.5
 20
313.0
 30
0.0
 11
360.57035100000002
 21
303.58185099999997
 31
0.0
  0
LINE
  5
575
  8
NOTE
  6
CONTINUOUS
 62
     4
 10
327.5
 20
313.0
 30
0.0
 11
351.43069000000003
 21
288.308468
 31
0.0
  0
LINE
  5
576
  8
SIZE
  6
CONTINUOUS
 62
    30
 10
277.454994
 20
391.12322599999999
 30
0.0
 11
205.545006
 21
234.87677400000001
 31
0.0
  0
CIRCLE
  5
577
  8
NOTE
  6
CONTINUOUS
 62
     4
 10
241.5
 20
313.0
 30
0.0
 40
86.0
  0
LINE
  5
578
  8
NOTE
  6
CONTINUOUS
 62
     4
 10
241.5
 20
374.94451500000002
 30
0.0
 11
241.5
 21
251.055485
 31
0.0
  0
CIRCLE
  5
579
  8
DETAIL
  6
CONTINUOUS
 62
     5
 10
241.5
 20
313.0
 30
0.0
 40
75.0
  0
LINE
  5
57A
  8
OUTLINE
  6
CONTINUOUS
 62
     3
 10
367.5
 20
140.0
 30
0.0
 11
367.5
 21
433.0
 31
0.0
  0
LINE
  5
57B
  8
DETAIL
  6
CONTINUOUS
 62
     5
 10
367.5
 20
433.0
 30
0.0
 11
367.5
 21
140.0
 31
0.0
  0
POINT
  5
57C
  8
DEFPOINTS
  6
CONTINUOUS
 62
     7
 10
205.545006
 20
234.87677400000001
 30
0.0
  0
LINE
  5
57D
  8
SIZE
  6
CONTINUOUS
 62
    30
 10
203.454599
 20
230.33472599999999
 30
0.0
 11
201.364192
 21
225.792678
 31
0.0
  0
CIRCLE
  5
57E
  8
SIZE
  6
CONTINUOUS
 62
    30
 10
205.545006
 20
234.87677400000001
 30
0.0
 40
5.0
  0
LINE
  5
57F
  8
NOTE
  6
CONTINUOUS
 62
     4
 10
241.5
 20
221.906103
 30
0.0
 11
241.5
 21
232.093897
 31
0.0
  0
LINE
  5
580
  8
NOTE
  6
CONTINUOUS
 62
     4
 10
236.406103
 20
227.0
 30
0.0
 11
246.593897
 21
227.0
 31
0.0
  0
CIRCLE
  5
581
  8
DETAIL
  6
CONTINUOUS
 62
     5
 10
241.5
 20
227.0
 30
0.0
 40
1.45
  0
TEXT
  5
582
  8
SIZE
  6
CONTINUOUS
 62
    30
 10
453.50000042857152
 20
99.25733000000001
 30
0.0
 40
55.0
  1
58
 41
0.9
 72
     1
 11
493.57142899999991
 21
99.25733000000001
 31
0.0
  0
LINE
  5
583
  8
SIZE
  6
CONTINUOUS
 62
    30
 10
425.49999999999989
 20
81.257330000000024
 30
0.0
 11
551.64285700000005
 21
81.257330000000024
 31
0.0
  0
LINE
  5
584
  8
NOTE
  6
CONTINUOUS
 62
     4
 10
467.161654
 20
1.0
 30
0.0
 11
447.161654
 21
21.0
 31
0.0
  0
LINE
  5
585
  8
NOTE
  6
CONTINUOUS
 62
     4
 10
462.16165399999988
 20
1.0
 30
0.0
 11
442.161654
 21
21.0
 31
0.0
  0
LINE
  5
586
  8
NOTE
  6
CONTINUOUS
 62
     4
 10
457.16165399999988
 20
1.0
 30
0.0
 11
437.16165399999988
 21
21.0
 31
0.0
  0
LINE
  5
587
  8
NOTE
  6
CONTINUOUS
 62
     4
 10
425.49999999999989
 20
21.0
 30
0.0
 11
518.20409400000005
 21
21.0
 31
0.0
  0
LINE
  5
588
  8
NOTE
  6
CONTINUOUS
 62
     4
 10
425.49999999999989
 20
1.0
 30
0.0
 11
518.20409400000005
 21
1.0
 31
0.0
  0
POINT
  5
589
  8
DEFPOINTS
  6
CONTINUOUS
 62
     7
 10
425.49999999999989
 20
81.257330000000024
 30
0.0
  0
POINT
  5
58A
  8
DEFPOINTS
  6
CONTINUOUS
 62
     7
 10
425.49999999999989
 20
21.0
 30
0.0
  0
POINT
  5
58B
  8
DEFPOINTS
  6
CONTINUOUS
 62
     7
 10
367.5
 20
140.0
 30
0.0
  0
LINE
  5
58C
  8
SIZE
  6
CONTINUOUS
 62
    30
 10
420.5
 20
81.257330000000024
 30
0.0
 11
415.5
 21
81.257330000000024
 31
0.0
  0
CIRCLE
  5
58D
  8
SIZE
  6
CONTINUOUS
 62
    30
 10
425.49999999999989
 20
81.257330000000024
 30
0.0
 40
5.0
  0
LINE
  5
58E
  8
SIZE
  6
CONTINUOUS
 62
    30
 10
372.5
 20
81.257330000000024
 30
0.0
 11
377.5
 21
81.257330000000024
 31
0.0
  0
CIRCLE
  5
58F
  8
SIZE
  6
CONTINUOUS
 62
    30
 10
367.5
 20
81.257330000000024
 30
0.0
 40
5.0
  0
LINE
  5
590
  8
SIZE
  6
CONTINUOUS
 62
    30
 10
377.5
 20
81.257330000000024
 30
0.0
 11
415.5
 21
81.257330000000024
 31
0.0
  0
LINE
  5
591
  8
SIZE
  6
CONTINUOUS
 62
    30
 10
425.49999999999989
 20
41.0
 30
0.0
 11
425.49999999999989
 21
111.25733
 31
0.0
  0
LINE
  5
592
  8
SIZE
  6
CONTINUOUS
 62
    30
 10
367.5
 20
120.0
 30
0.0
 11
367.5
 21
51.257330000000003
 31
0.0
  0
POINT
  5
593
  8
DEFPOINTS
  6
CONTINUOUS
 62
     7
 10
425.49999999999989
 20
1.0
 30
0.0
  0
POINT
  5
594
  8
DEFPOINTS
  6
CONTINUOUS
 62
     7
 10
425.49999999999989
 20
1.0
 30
0.0
  0
LINE
  5
595
  8
OUTLINE
  6
CONTINUOUS
 62
     3
 10
410.97000000000003
 20
0.0
 30
0.0
 11
410.97000000000003
 21
47.0
 31
0.0
  0
LINE
  5
596
  8
NOTE
  6
CONTINUOUS
 62
     4
 10
425.49999999999989
 20
1.0
 30
0.0
 11
425.49999999999989
 21
21.0
 31
0.0
  0
LINE
  5
597
  8
DETAIL
  6
CONTINUOUS
 62
     5
 10
410.97000000000003
 20
0.0
 30
0.0
 11
410.97000000000003
 21
47.0
 31
0.0
  0
LINE
  5
598
  8
OUTLINE
  6
CONTINUOUS
 62
     3
 10
-157.5
 20
0.0
 30
0.0
 11
442.49999999999989
 21
0.0
 31
0.0
  0
LINE
  5
599
  8
DETAIL
  6
CONTINUOUS
 62
     5
 10
-157.5
 20
0.0
 30
0.0
 11
442.49999999999989
 21
0.0
 31
0.0
  0
LINE
  5
59A
  8
NOTE
  6
CONTINUOUS
 62
     4
 10
497.161654
 20
1.0
 30
0.0
 11
477.161654
 21
21.0
 31
0.0
  0
LINE
  5
59B
  8
NOTE
  6
CONTINUOUS
 62
     4
 10
502.161654
 20
1.0
 30
0.0
 11
482.16165399999988
 21
21.0
 31
0.0
  0
LINE
  5
59C
  8
NOTE
  6
CONTINUOUS
 62
     4
 10
507.16165399999988
 20
1.0
 30
0.0
 11
487.16165399999988
 21
21.0
 31
0.0
  0
LINE
  5
59D
  8
NOTE
  6
CONTINUOUS
 62
     4
 10
336.5
 20
433.0
 30
0.0
 11
359.515064
 21
458.54714299999989
 31
0.0
  0
LINE
  5
59E
  8
NOTE
  6
CONTINUOUS
 62
     4
 10
336.5
 20
433.0
 30
0.0
 11
343.65805799999998
 21
466.63200699999999
 31
0.0
  0
CIRCLE
  5
59F
  8
FIX
  6
CONTINUOUS
 62
    11
 10
336.5
 20
433.0
 30
0.0
 40
12.421498
  0
LINE
  5
5A0
  8
NOTE
  6
CONTINUOUS
 62
     4
 10
351.49516599999998
 20
433.0
 30
0.0
 11
321.50483400000002
 21
433.0
 31
0.0
  0
LINE
  5
5A1
  8
DETAIL
  6
CONTINUOUS
 62
     5
 10
325.5
 20
395.0
 30
0.0
 11
364.5
 21
395.0
 31
0.0
  0
LINE
  5
5A2
  8
NOTE
  6
CONTINUOUS
 62
     4
 10
150.81277399999999
 20
559.13209800000004
 30
0.0
 11
241.5
 21
313.0
 31
0.0
  0
LINE
  5
5A3
  8
NOTE
  6
CONTINUOUS
 62
     4
 10
303.44451500000002
 20
313.0
 30
0.0
 11
179.555485
 21
313.0
 31
0.0
  0
LINE
  5
5A4
  8
NOTE
  6
CONTINUOUS
 62
     4
 10
241.5
 20
313.0
 30
0.0
 11
220.41022699999999
 21
340.15826099999998
 31
0.0
  0
LINE
  5
5A5
  8
NOTE
  6
CONTINUOUS
 62
     4
 10
155.5
 20
307.90610299999997
 30
0.0
 11
155.5
 21
318.09389700000003
 31
0.0
  0
LINE
  5
5A6
  8
NOTE
  6
CONTINUOUS
 62
     4
 10
150.406103
 20
313.0
 30
0.0
 11
160.593897
 21
313.0
 31
0.0
  0
CIRCLE
  5
5A7
  8
DETAIL
  6
CONTINUOUS
 62
     5
 10
155.5
 20
313.0
 30
0.0
 40
1.45
  0
POINT
  5
5A8
  8
DEFPOINTS
  6
CONTINUOUS
 62
     7
 10
277.454994
 20
391.12322599999999
 30
0.0
  0
LINE
  5
5A9
  8
SIZE
  6
CONTINUOUS
 62
    30
 10
279.54540100000003
 20
395.66527400000001
 30
0.0
 11
281.635808
 21
400.20732199999998
 31
0.0
  0
CIRCLE
  5
5AA
  8
SIZE
  6
CONTINUOUS
 62
    30
 10
277.454994
 20
391.12322599999999
 30
0.0
 40
5.0
  0
LINE
  5
5AB
  8
SIZE
  6
CONTINUOUS
 62
    30
 10
281.635808
 20
400.20732199999998
 30
0.0
 11
285.816621
 21
409.29141800000002
 31
0.0
  0
POINT
  5
5AC
  8
DEFPOINTS
  6
CONTINUOUS
 62
     7
 10
303.44451500000002
 20
313.0
 30
0.0
  0
POINT
  5
5AD
  8
DEFPOINTS
  6
CONTINUOUS
 62
     7
 10
241.5
 20
404.09389700000003
 30
0.0
  0
LINE
  5
5AE
  8
NOTE
  6
CONTINUOUS
 62
     4
 10
241.5
 20
393.90610299999997
 30
0.0
 11
241.5
 21
404.09389700000003
 31
0.0
  0
LINE
  5
5AF
  8
NOTE
  6
CONTINUOUS
 62
     4
 10
236.406103
 20
399.0
 30
0.0
 11
246.593897
 21
399.0
 31
0.0
  0
LINE
  5
5B0
  8
NOTE
  6
CONTINUOUS
 62
     4
 10
327.5
 20
307.90610299999997
 30
0.0
 11
327.5
 21
318.09389700000003
 31
0.0
  0
LINE
  5
5B1
  8
NOTE
  6
CONTINUOUS
 62
     4
 10
322.40610299999997
 20
313.0
 30
0.0
 11
332.59389700000003
 21
313.0
 31
0.0
  0
CIRCLE
  5
5B2
  8
DETAIL
  6
CONTINUOUS
 62
     5
 10
241.5
 20
399.0
 30
0.0
 40
1.45
  0
CIRCLE
  5
5B3
  8
DETAIL
  6
CONTINUOUS
 62
     5
 10
327.5
 20
313.0
 30
0.0
 40
1.45
  0
LINE
  5
5B4
  8
NOTE
  6
CONTINUOUS
 62
     4
 10
241.5
 20
313.0
 30
0.0
 11
236.814852
 21
347.06463100000002
 31
0.0
  0
POINT
  5
5B5
  8
DEFPOINTS
  6
CONTINUOUS
 62
     7
 10
336.5
 20
447.99516599999998
 30
0.0
  0
POINT
  5
5B6
  8
DEFPOINTS
  6
CONTINUOUS
 62
     7
 10
336.5
 20
447.99516599999998
 30
0.0
  0
LINE
  5
5B7
  8
NOTE
  6
CONTINUOUS
 62
     4
 10
336.5
 20
447.99516599999998
 30
0.0
 11
336.5
 21
418.0048339999999
 31
0.0
  0
ARC
  5
5B8
  8
DETAIL
  6
CONTINUOUS
 62
     5
 10
311.5
 20
421.0
 30
0.0
 40
3.0
 50
180.0
 51
270.0
  0
ARC
  5
5B9
  8
DETAIL
  6
CONTINUOUS
 62
     5
 10
325.5
 20
398.0
 30
0.0
 40
3.0
 50
180.0
 51
270.0
  0
LINE
  5
5BA
  8
DETAIL
  6
CONTINUOUS
 62
     5
 10
308.5
 20
433.0
 30
0.0
 11
308.5
 21
421.0
 31
0.0
  0
ARC
  5
5BB
  8
DETAIL
  6
CONTINUOUS
 62
     5
 10
329.0
 20
424.0
 30
0.0
 40
3.0
 50
270.0
 51
0.0
  0
LINE
  5
5BC
  8
DETAIL
  6
CONTINUOUS
 62
     5
 10
332.0
 20
433.0
 30
0.0
 11
332.0
 21
424.0
 31
0.0
  0
LINE
  5
5BD
  8
DETAIL
  6
CONTINUOUS
 62
     5
 10
329.0
 20
421.0
 30
0.0
 11
311.5
 21
421.0
 31
0.0
  0
ARC
  5
5BE
  8
DETAIL
  6
CONTINUOUS
 62
     5
 10
311.5
 20
424.0
 30
0.0
 40
3.0
 50
180.0
 51
270.0
  0
LINE
  5
5BF
  8
DETAIL
  6
CONTINUOUS
 62
     5
 10
311.5
 20
418.0
 30
0.0
 11
322.5
 21
418.0
 31
0.0
  0
LINE
  5
5C0
  8
DETAIL
  6
CONTINUOUS
 62
     5
 10
322.5
 20
418.0
 30
0.0
 11
322.5
 21
398.0
 31
0.0
  0
POINT
  5
5C1
  8
DEFPOINTS
  6
CONTINUOUS
 62
     7
 10
367.5
 20
433.0
 30
0.0
  0
POINT
  5
5C2
  8
DEFPOINTS
  6
CONTINUOUS
 62
     7
 10
367.5
 20
433.0
 30
0.0
  0
POINT
  5
5C3
  8
DEFPOINTS
  6
CONTINUOUS
 62
     7
 10
367.5
 20
433.0
 30
0.0
  0
POINT
  5
5C4
  8
DEFPOINTS
  6
CONTINUOUS
 62
     7
 10
367.5
 20
433.0
 30
0.0
  0
ARC
  5
5C6
  8
DETAIL
  6
CONTINUOUS
 62
     5
 10
364.5
 20
398.0
 30
0.0
 40
3.0
 50
270.0
 51
0.0
  0
LINE
  5
5C7
  8
DETAIL
  6
CONTINUOUS
 62
     5
 10
347.0
 20
421.0
 30
0.0
 11
364.5
 21
421.0
 31
0.0
  0
LINE
  5
5C8
  8
DETAIL
  6
CONTINUOUS
 62
     5
 10
344.0
 20
433.0
 30
0.0
 11
344.0
 21
424.0
 31
0.0
  0
ARC
  5
5C9
  8
DETAIL
  6
CONTINUOUS
 62
     5
 10
364.5
 20
424.0
 30
0.0
 40
3.0
 50
270.0
 51
0.0
  0
ARC
  5
5CA
  8
DETAIL
  6
CONTINUOUS
 62
     5
 10
347.0
 20
424.0
 30
0.0
 40
3.0
 50
180.0
 51
270.0
  0
TEXT
  5
5CB
  8
SIZE
  6
CONTINUOUS
 62
    30
 10
558.87223300000005
 20
460.99999957142859
 30
0.0
 40
55.0
  1
120
 50
90.0
 41
0.9
 72
     1
 11
558.87223300000005
 21
519.92857100000003
 31
0.0
  0
TEXT
  5
5CC
  8
NOTE
  6
CONTINUOUS
 62
     4
 10
-108.245771
 20
647.45192999999995
 30
0.0
 40
60.0
  1
外気取入口
 50
359.99999700000001
 41
0.7
  7
STANDARD1
  0
TEXT
  5
5CD
  8
SIZE
  6
CONTINUOUS
 62
    30
 10
-161.18398999999999
 20
910.02629000000002
 30
0.0
 40
60.0
  1
(吊りボルトピッチ)
 50
359.99999700000001
 41
0.75
  7
STANDARD1
  0
LINE
  5
5CE
  8
SIZE
  6
CONTINUOUS
 62
    30
 10
326.5
 20
893.98808299999985
 30
0.0
 11
-323.5
 21
893.98808299999985
 31
0.0
  0
TEXT
  5
5CF
  8
SIZE
  6
CONTINUOUS
 62
    30
 10
-299.06328914285712
 20
913.04086099999995
 30
0.0
 40
55.0
  1
670
 41
0.9
 72
     1
 11
-235.42043200000001
 21
913.04086099999995
 31
0.0
  0
TEXT
  5
5D0
  8
SIZE
  6
CONTINUOUS
 62
    30
 10
-248.75
 20
790.44769899999994
 30
0.0
 40
55.0
  1
64
 41
0.9
 72
     1
 11
-207.5
 21
790.44769899999994
 31
0.0
  0
LINE
  5
5D1
  8
SIZE
  6
CONTINUOUS
 62
    30
 10
-239.5
 20
772.44769899999994
 30
0.0
 11
-175.5
 21
772.44769899999994
 31
0.0
  0
LINE
  5
5D2
  8
SIZE
  6
CONTINUOUS
 62
    30
 10
-244.5
 20
772.44769899999994
 30
0.0
 11
-249.5
 21
772.44769899999994
 31
0.0
  0
CIRCLE
  5
5D3
  8
SIZE
  6
CONTINUOUS
 62
    30
 10
-239.5
 20
772.44769899999994
 30
0.0
 40
5.0
  0
LINE
  5
5D4
  8
SIZE
  6
CONTINUOUS
 62
    30
 10
-249.5
 20
772.44769899999994
 30
0.0
 11
-259.5
 21
772.44769899999994
 31
0.0
  0
POINT
  5
5D5
  8
DEFPOINTS
  6
CONTINUOUS
 62
     7
 10
-239.5
 20
772.44769899999994
 30
0.0
  0
LINE
  5
5D6
  8
SIZE
  6
CONTINUOUS
 62
    30
 10
-244.5
 20
772.44769899999994
 30
0.0
 11
-249.5
 21
772.44769899999994
 31
0.0
  0
CIRCLE
  5
5D7
  8
SIZE
  6
CONTINUOUS
 62
    30
 10
-239.5
 20
772.44769899999994
 30
0.0
 40
5.0
  0
LINE
  5
5D8
  8
SIZE
  6
CONTINUOUS
 62
    30
 10
-328.5
 20
893.98808299999985
 30
0.0
 11
-323.5
 21
893.98808299999985
 31
0.0
  0
POINT
  5
5D9
  8
DEFPOINTS
  6
CONTINUOUS
 62
     7
 10
-175.5
 20
772.44769899999994
 30
0.0
  0
LINE
  5
5DA
  8
SIZE
  6
CONTINUOUS
 62
    30
 10
-170.5
 20
772.44769899999994
 30
0.0
 11
-165.5
 21
772.44769899999994
 31
0.0
  0
CIRCLE
  5
5DB
  8
SIZE
  6
CONTINUOUS
 62
    30
 10
-175.5
 20
772.44769899999994
 30
0.0
 40
5.0
  0
LINE
  5
5DC
  8
SIZE
  6
CONTINUOUS
 62
    30
 10
-165.5
 20
772.44769899999994
 30
0.0
 11
-155.5
 21
772.44769899999994
 31
0.0
  0
TEXT
  5
5DD
  8
SIZE
  6
CONTINUOUS
 62
    30
 10
-63.642857142857139
 20
1037.756433
 30
0.0
 40
55.0
  1
735
 41
0.9
 72
     1
 11
0.0
 21
1037.756433
 31
0.0
  0
TEXT
  5
5DE
  8
SIZE
  6
CONTINUOUS
 62
    30
 10
405.50000028571418
 20
911.98808299999985
 30
0.0
 40
55.0
  1
31
 41
0.9
 72
     1
 11
434.96428600000002
 21
911.98808299999985
 31
0.0
  0
LINE
  5
5DF
  8
SIZE
  6
CONTINUOUS
 62
    30
 10
251.5
 20
763.96975599999996
 30
0.0
 11
357.5
 21
763.96975599999996
 31
0.0
  0
LINE
  5
5E0
  8
SIZE
  6
CONTINUOUS
 62
    30
 10
336.5
 20
893.98808299999985
 30
0.0
 11
367.5
 21
893.98808299999985
 31
0.0
  0
CIRCLE
  5
5E1
  8
SIZE
  6
CONTINUOUS
 62
    30
 10
241.5
 20
763.96975599999996
 30
0.0
 40
5.0
  0
POINT
  5
5E2
  8
DEFPOINTS
  6
CONTINUOUS
 62
     7
 10
241.5
 20
763.96975599999996
 30
0.0
  0
LINE
  5
5E3
  8
SIZE
  6
CONTINUOUS
 62
    30
 10
246.5
 20
763.96975599999996
 30
0.0
 11
251.5
 21
763.96975599999996
 31
0.0
  0
LINE
  5
5E4
  8
SIZE
  6
CONTINUOUS
 62
    30
 10
331.5
 20
893.98808299999985
 30
0.0
 11
326.5
 21
893.98808299999985
 31
0.0
  0
CIRCLE
  5
5E5
  8
SIZE
  6
CONTINUOUS
 62
    30
 10
336.5
 20
893.98808299999985
 30
0.0
 40
5.0
  0
POINT
  5
5E6
  8
DEFPOINTS
  6
CONTINUOUS
 62
     7
 10
336.5
 20
893.98808299999985
 30
0.0
  0
LINE
  5
5E7
  8
SIZE
  6
CONTINUOUS
 62
    30
 10
331.5
 20
893.98808299999985
 30
0.0
 11
326.5
 21
893.98808299999985
 31
0.0
  0
CIRCLE
  5
5E8
  8
SIZE
  6
CONTINUOUS
 62
    30
 10
336.5
 20
893.98808299999985
 30
0.0
 40
5.0
  0
LINE
  5
5E9
  8
SIZE
  6
CONTINUOUS
 62
    30
 10
326.5
 20
893.98808299999985
 30
0.0
 11
316.5
 21
893.98808299999985
 31
0.0
  0
CIRCLE
  5
5EA
  8
SIZE
  6
CONTINUOUS
 62
    30
 10
367.5
 20
763.96975599999996
 30
0.0
 40
5.0
  0
TEXT
  5
5EB
  8
SIZE
  6
CONTINUOUS
 62
    30
 10
395.5
 20
781.96975599999985
 30
0.0
 40
55.0
  1
126
 41
0.9
 72
     1
 11
453.24999999999989
 21
781.96975599999985
 31
0.0
  0
LINE
  5
5EC
  8
SIZE
  6
CONTINUOUS
 62
    30
 10
367.5
 20
763.96975599999996
 30
0.0
 11
529.0
 21
763.96975599999996
 31
0.0
  0
LINE
  5
5ED
  8
SIZE
  6
CONTINUOUS
 62
    30
 10
377.5
 20
893.98808299999985
 30
0.0
 11
482.42857099999992
 21
893.98808299999985
 31
0.0
  0
LINE
  5
5EE
  8
SIZE
  6
CONTINUOUS
 62
    30
 10
362.5
 20
763.96975599999996
 30
0.0
 11
357.5
 21
763.96975599999996
 31
0.0
  0
LINE
  5
5EF
  8
SIZE
  6
CONTINUOUS
 62
    30
 10
372.5
 20
893.98808299999985
 30
0.0
 11
377.5
 21
893.98808299999985
 31
0.0
  0
CIRCLE
  5
5F0
  8
SIZE
  6
CONTINUOUS
 62
    30
 10
367.5
 20
893.98808299999985
 30
0.0
 40
5.0
  0
LINE
  5
5F1
  8
SIZE
  6
CONTINUOUS
 62
    30
 10
362.5
 20
1019.756433
 30
0.0
 11
357.5
 21
1019.756433
 31
0.0
  0
CIRCLE
  5
5F2
  8
SIZE
  6
CONTINUOUS
 62
    30
 10
367.5
 20
1019.756433
 30
0.0
 40
5.0
  0
LINE
  5
5F3
  8
SIZE
  6
CONTINUOUS
 62
    30
 10
576.87223300000005
 20
433.0
 30
0.0
 11
576.87223300000005
 21
596.85714299999995
 31
0.0
  0
POINT
  5
5F4
  8
DEFPOINTS
  6
CONTINUOUS
 62
     7
 10
576.87223300000005
 20
313.0
 30
0.0
  0
LINE
  5
5F5
  8
SIZE
  6
CONTINUOUS
 62
    30
 10
576.87223300000005
 20
428.0
 30
0.0
 11
576.87223300000005
 21
423.0
 31
0.0
  0
CIRCLE
  5
5F6
  8
SIZE
  6
CONTINUOUS
 62
    30
 10
576.87223300000005
 20
433.0
 30
0.0
 40
5.0
  0
LINE
  5
5F7
  8
SIZE
  6
CONTINUOUS
 62
    30
 10
576.87223300000005
 20
318.0
 30
0.0
 11
576.87223300000005
 21
323.0
 31
0.0
  0
CIRCLE
  5
5F8
  8
SIZE
  6
CONTINUOUS
 62
    30
 10
576.87223300000005
 20
313.0
 30
0.0
 40
5.0
  0
LINE
  5
5F9
  8
SIZE
  6
CONTINUOUS
 62
    30
 10
576.87223300000005
 20
323.0
 30
0.0
 11
576.87223300000005
 21
423.0
 31
0.0
  0
ENDSEC
  0
EOF
