  0
SECTION
  2
HEADER
  9
$ACADVER
  1
AC1009
  9
$INSBASE
 10
0.0
 20
0.0
 30
0.0
  9
$EXTMIN
 10
-991.51607951093308
 20
-1011.4288079918221
 30
-0.0000000000112498
  9
$EXTMAX
 10
1135.2539285263661
 20
593.26173515671678
 30
0.0000000000002956
  9
$LIMMIN
 10
-6000.0
 20
-4500.0
  9
$LIMMAX
 10
6000.0
 20
4500.0
  9
$ORTHOMODE
 70
     1
  9
$REGENMODE
 70
     1
  9
$FILLMODE
 70
     1
  9
$QTEXTMODE
 70
     0
  9
$MIRRTEXT
 70
     0
  9
$DRAGMODE
 70
     2
  9
$LTSCALE
 40
20.0
  9
$OSMODE
 70
   959
  9
$ATTMODE
 70
     1
  9
$TEXTSIZE
 40
64.0
  9
$TRACEWID
 40
0.05
  9
$TEXTSTYLE
  7
STANDARD
  9
$CLAYER
  8
SYMBOLLINE
  9
$CELTYPE
  6
CONTINUOUS
  9
$CECOLOR
 62
     7
  9
$DIMSCALE
 40
1.0
  9
$DIMASZ
 40
10.0
  9
$DIMEXO
 40
20.0
  9
$DIMDLI
 40
200.0
  9
$DIMRND
 40
0.0
  9
$DIMDLE
 40
0.0
  9
$DIMEXE
 40
30.0
  9
$DIMTP
 40
0.0
  9
$DIMTM
 40
0.0
  9
$DIMTXT
 40
64.0
  9
$DIMCEN
 40
0.0
  9
$DIMTSZ
 40
0.0
  9
$DIMTOL
 70
     0
  9
$DIMLIM
 70
     0
  9
$DIMTIH
 70
     0
  9
$DIMTOH
 70
     0
  9
$DIMSE1
 70
     1
  9
$DIMSE2
 70
     0
  9
$DIMTAD
 70
     1
  9
$DIMZIN
 70
     8
  9
$DIMBLK
  1

  9
$DIMASO
 70
     1
  9
$DIMSHO
 70
     0
  9
$DIMPOST
  1

  9
$DIMAPOST
  1

  9
$DIMALT
 70
     0
  9
$DIMALTD
 70
     2
  9
$DIMALTF
 40
25.399999999999999
  9
$DIMLFAC
 40
1.0
  9
$DIMTOFL
 70
     1
  9
$DIMTVP
 40
0.0
  9
$DIMTIX
 70
     1
  9
$DIMSOXD
 70
     0
  9
$DIMSAH
 70
     1
  9
$DIMBLK1
  1
DOTBLANK
  9
$DIMBLK2
  1
DOTBLANK
  9
$DIMSTYLE
  2
STANDARD
  9
$DIMCLRD
 70
     0
  9
$DIMCLRE
 70
     0
  9
$DIMCLRT
 70
     0
  9
$DIMTFAC
 40
1.0
  9
$DIMGAP
 40
0.09
  9
$LUNITS
 70
     2
  9
$LUPREC
 70
     4
  9
$SKETCHINC
 40
0.1
  9
$FILLETRAD
 40
19.039999999999999
  9
$AUNITS
 70
     1
  9
$AUPREC
 70
     3
  9
$MENU
  1
ACAD
  9
$ELEVATION
 40
0.0
  9
$PELEVATION
 40
0.0
  9
$THICKNESS
 40
0.0
  9
$LIMCHECK
 70
     0
  9
$BLIPMODE
 70
     0
  9
$CHAMFERA
 40
0.0
  9
$CHAMFERB
 40
0.0
  9
$SKPOLY
 70
     0
  9
$TDCREATE
 40
2450330.4399309959
  9
$TDUPDATE
 40
2455580.7792013651
  9
$TDINDWG
 40
1.2769444444
  9
$TDUSRTIMER
 40
1.2769432639
  9
$USRTIMER
 70
     1
  9
$ANGBASE
 50
0.0
  9
$ANGDIR
 70
     0
  9
$PDMODE
 70
     3
  9
$PDSIZE
 40
-2.0
  9
$PLINEWID
 40
0.0
  9
$COORDS
 70
     0
  9
$SPLFRAME
 70
     0
  9
$SPLINETYPE
 70
     6
  9
$SPLINESEGS
 70
     8
  9
$ATTDIA
 70
     0
  9
$ATTREQ
 70
     1
  9
$HANDLING
 70
     1
  9
$HANDSEED
  5
613
  9
$SURFTAB1
 70
     6
  9
$SURFTAB2
 70
     6
  9
$SURFTYPE
 70
     6
  9
$SURFU
 70
     6
  9
$SURFV
 70
     6
  9
$UCSNAME
  2

  9
$UCSORG
 10
0.0
 20
0.0
 30
0.0
  9
$UCSXDIR
 10
1.0
 20
0.0
 30
0.0
  9
$UCSYDIR
 10
0.0
 20
1.0
 30
0.0
  9
$PUCSNAME
  2

  9
$PUCSORG
 10
0.0
 20
0.0
 30
0.0
  9
$PUCSXDIR
 10
1.0
 20
0.0
 30
0.0
  9
$PUCSYDIR
 10
0.0
 20
1.0
 30
0.0
  9
$USERI1
 70
     0
  9
$USERI2
 70
     0
  9
$USERI3
 70
     0
  9
$USERI4
 70
     0
  9
$USERI5
 70
     0
  9
$USERR1
 40
20.0
  9
$USERR2
 40
0.0
  9
$USERR3
 40
0.0
  9
$USERR4
 40
0.0
  9
$USERR5
 40
0.0
  9
$WORLDVIEW
 70
     1
  9
$SHADEDGE
 70
     3
  9
$SHADEDIF
 70
    70
  9
$TILEMODE
 70
     1
  9
$MAXACTVP
 70
    48
  9
$PLIMCHECK
 70
     0
  9
$PEXTMIN
 10
1.0000000000000000E+020
 20
1.0000000000000000E+020
 30
1.0000000000000000E+020
  9
$PEXTMAX
 10
-1.0000000000000000E+020
 20
-1.0000000000000000E+020
 30
-1.0000000000000000E+020
  9
$PLIMMIN
 10
0.0
 20
0.0
  9
$PLIMMAX
 10
12.0
 20
9.0
  9
$UNITMODE
 70
     0
  9
$VISRETAIN
 70
     1
  9
$PLINEGEN
 70
     0
  9
$PSLTSCALE
 70
     1
  0
ENDSEC
  0
SECTION
  2
TABLES
  0
TABLE
  2
VPORT
 70
     1
  0
VPORT
  2
*ACTIVE
 70
     0
 10
0.0
 20
0.0
 11
1.0
 21
1.0
 12
0.0
 22
0.0
 13
0.0
 23
0.0
 14
50.0
 24
50.0
 15
100.0
 25
100.0
 16
0.0
 26
0.0
 36
1.0
 17
0.0
 27
0.0
 37
0.0
 40
9068.9655172413786
 41
1.5639386189258311
 42
50.0
 43
0.0
 44
0.0
 50
0.0
 51
0.0
 71
     0
 72
  1000
 73
     1
 74
     0
 75
     0
 76
     0
 77
     0
 78
     0
  0
ENDTAB
  0
TABLE
  2
LTYPE
 70
     2
  0
LTYPE
  2
CONTINUOUS
 70
     0
  3
Ä└É³
 72
    65
 73
     0
 40
0.0
  0
LTYPE
  2
DASHDOT
 70
     0
  3
____ _ ____ _ ____ _ ____ _ ____ _ ____ _ ____
 72
    65
 73
     4
 40
5.5
 49
4.0
 49
-0.6
 49
0.3
 49
-0.6
  0
ENDTAB
  0
TABLE
  2
LAYER
 70
    12
  0
LAYER
  2
0
 70
     0
 62
     7
  6
CONTINUOUS
  0
LAYER
  2
SYMBOLLINE
 70
     0
 62
    15
  6
CONTINUOUS
  0
LAYER
  2
OUTLINE
 70
     0
 62
     3
  6
CONTINUOUS
  0
LAYER
  2
DETAIL
 70
     0
 62
     5
  6
CONTINUOUS
  0
LAYER
  2
BASIS
 70
     0
 62
     6
  6
DASHDOT
  0
LAYER
  2
SIZE
 70
     0
 62
    30
  6
CONTINUOUS
  0
LAYER
  2
NOTE
 70
     0
 62
     4
  6
CONTINUOUS
  0
LAYER
  2
ARRANGE
 70
     0
 62
     1
  6
CONTINUOUS
  0
LAYER
  2
FIX
 70
     0
 62
    11
  6
CONTINUOUS
  0
LAYER
  2
SERVICESPACE
 70
     0
 62
     2
  6
DASHDOT
  0
LAYER
  2
ETC
 70
     0
 62
    61
  6
CONTINUOUS
  0
LAYER
  2
DEFPOINTS
 70
     0
 62
     7
  6
CONTINUOUS
  0
ENDTAB
  0
TABLE
  2
STYLE
 70
     3
  0
STYLE
  2
STANDARD
 70
     0
 40
0.0
 41
0.9
 50
0.0
 71
     0
 42
64.0
  3
SIMPLEX
  4
BIGFONT
  0
STYLE
  2
ANNOTATIVE
 70
     0
 40
0.0
 41
1.0
 50
0.0
 71
     0
 42
0.2
  3
txt
  4

  0
STYLE
  2
STANDARD1
 70
     0
 40
0.0
 41
1.0
 50
0.0
 71
     0
 42
64.0
  3
MONOTXT
  4
BIGFONT
  0
ENDTAB
  0
TABLE
  2
VIEW
 70
     3
  0
VIEW
  2
ALL
 70
     0
 40
9000.0
 10
241.50664699999999
 20
0.0
 41
12483.01
 11
0.0
 21
0.0
 31
1.0
 12
0.0
 22
0.0
 32
0.0
 42
50.0
 43
0.0
 44
0.0
 50
0.0
 71
     0
  0
ENDTAB
  0
TABLE
  2
UCS
 70
     0
  0
ENDTAB
  0
TABLE
  2
APPID
 70
     4
  0
APPID
  2
ACAD
 70
     0
  0
APPID
  2
ACADANNOTATIVE
 70
     0
  0
APPID
  2
ACAD_MLEADERVER
 70
     0
  0
APPID
  2
ACAD_EXEMPT_FROM_CAD_STANDARDS
 70
     0
  0
ENDTAB
  0
TABLE
  2
DIMSTYLE
 70
     2
  0
DIMSTYLE
  2
STANDARD
 70
     0
  3

  4

  5

  6

  7

 40
1.0
 41
0.18
 42
0.0625
 43
0.38
 44
0.18
 45
0.0
 46
0.0
 47
0.0
 48
0.0
140
0.18
141
0.09
142
0.0
143
25.399999999999999
144
1.0
145
0.0
146
1.0
147
0.09
 71
     0
 72
     0
 73
     1
 74
     1
 75
     0
 76
     0
 77
     0
 78
     0
170
     0
171
     2
172
     0
173
     0
174
     0
175
     0
176
     0
177
     0
178
     0
  0
DIMSTYLE
  2
ANNOTATIVE
 70
     0
  3

  4

  5

  6

  7

 40
1.0
 41
0.18
 42
0.0625
 43
0.38
 44
0.18
 45
0.0
 46
0.0
 47
0.0
 48
0.0
140
0.18
141
0.09
142
0.0
143
25.399999999999999
144
1.0
145
0.0
146
1.0
147
0.09
 71
     0
 72
     0
 73
     1
 74
     1
 75
     0
 76
     0
 77
     0
 78
     0
170
     0
171
     2
172
     0
173
     0
174
     0
175
     0
176
     0
177
     0
178
     0
  0
ENDTAB
  0
ENDSEC
  0
SECTION
  2
BLOCKS
  0
BLOCK
  8
0
  2
$MODEL_SPACE
 70
     0
 10
0.0
 20
0.0
 30
0.0
  3
$MODEL_SPACE
  1

  0
ENDBLK
  5
5A2
  8
0
  0
BLOCK
 67
     1
  8
0
  2
$PAPER_SPACE
 70
     0
 10
0.0
 20
0.0
 30
0.0
  3
$PAPER_SPACE
  1

  0
ENDBLK
  5
59E
 67
     1
  8
0
  0
BLOCK
  8
0
  2
_DOTBLANK
 70
     0
 10
0.0
 20
0.0
 30
0.0
  3
_DOTBLANK
  1

  0
CIRCLE
  5
30
  8
0
  6
CONTINUOUS
 62
     7
 10
0.0
 20
0.0
 30
0.0
 40
0.5
  0
LINE
  5
31
  8
0
  6
CONTINUOUS
 62
     7
 10
-0.5
 20
0.0
 30
0.0
 11
-1.0
 21
0.0
 31
0.0
  0
ENDBLK
  5
32
  8
0
  0
BLOCK
  8
0
 62
     7
  2
A$C5B2B11A1
 70
     0
 10
0.0
 20
0.0
 30
0.0
  3
A$C5B2B11A1
  1

  0
LINE
  5
263
  8
NOTE
  6
CONTINUOUS
 62
     4
 10
150.0049158952896
 20
444.96485651643877
 30
0.0
 11
558.56359189528973
 21
444.96485651643877
 31
0.0
  0
TEXT
  5
264
  8
NOTE
  6
CONTINUOUS
 62
     4
 10
172.9732388952898
 20
467.80338451643888
 30
0.0
 40
55.0
  1
RL âË6.35
 41
0.9
  0
TEXT
  5
265
  8
NOTE
  6
CONTINUOUS
 62
     4
 10
223.76754109292239
 20
22.83852141223468
 30
0.0
 40
55.0
  1
RG âË12.7
 41
0.9
  0
LINE
  5
266
  8
NOTE
  6
CONTINUOUS
 62
     4
 10
186.4471981696766
 20
-0.0000065877653128
 30
0.0
 11
642.97121316967673
 21
-0.0000065877653128
 31
0.0
  0
LINE
  5
267
  8
NOTE
  6
CONTINUOUS
 62
     4
 10
20.000004169676689
 20
144.29176241223459
 30
0.0
 11
186.4471981696766
 21
-0.0000065877653128
 31
0.0
  0
LINE
  5
268
  8
NOTE
  6
CONTINUOUS
 62
     4
 10
36.000004169676693
 20
236.2917624122347
 30
0.0
 11
150.0049158952896
 21
444.96485651643877
 31
0.0
  0
LINE
  5
269
  8
NOTE
  6
CONTINUOUS
 62
     4
 10
0.0000041696766857
 20
144.29176241223459
 30
0.0
 11
40.000004169676679
 21
144.29176241223459
 31
0.0
  0
LINE
  5
26A
  8
NOTE
  6
CONTINUOUS
 62
     4
 10
20.000004169676689
 20
124.2917624122346
 30
0.0
 11
20.000004169676689
 21
164.2917624122347
 31
0.0
  0
LINE
  5
26B
  8
NOTE
  6
CONTINUOUS
 62
     4
 10
16.000004169676679
 20
236.2917624122347
 30
0.0
 11
56.000004169676679
 21
236.2917624122347
 31
0.0
  0
LINE
  5
26C
  8
NOTE
  6
CONTINUOUS
 62
     4
 10
36.000004169676693
 20
216.2917624122347
 30
0.0
 11
36.000004169676693
 21
256.29176241223468
 31
0.0
  0
LINE
  5
26D
  8
NOTE
  6
CONTINUOUS
 62
     4
 10
46.33891736051919
 20
274.9325040040934
 30
0.0
 11
36.000004169676693
 21
236.2917624122347
 31
0.0
  0
LINE
  5
26E
  8
NOTE
  6
CONTINUOUS
 62
     4
 10
36.000004169676693
 20
236.2917624122347
 30
0.0
 11
64.274135680840459
 21
264.58616887669859
 31
0.0
  0
LINE
  5
26F
  8
NOTE
  6
CONTINUOUS
 62
     4
 10
56.285810169676651
 20
127.4590474122346
 30
0.0
 11
20.000004169676689
 21
144.29176241223459
 31
0.0
  0
LINE
  5
270
  8
NOTE
  6
CONTINUOUS
 62
     4
 10
20.000004169676689
 20
144.29176241223459
 30
0.0
 11
43.008076169676713
 21
111.57130041223471
 31
0.0
  0
ENDBLK
  5
272
  8
0
 62
     7
  0
BLOCK
  8
0
 62
     7
  2
*D4
 70
     1
 10
0.0
 20
0.0
 30
0.0
  3
*D4
  1

  0
LINE
  5
2E1
  8
SIZE
  6
CONTINUOUS
 62
     0
 10
-423.5
 20
-400.0
 30
0.0
 11
-423.5
 21
-770.44981458266545
 31
0.0
  0
LINE
  5
2E2
  8
SIZE
  6
CONTINUOUS
 62
     0
 10
-233.5
 20
-740.44981458266545
 30
0.0
 11
-413.49999999999989
 21
-740.44981458266545
 31
0.0
  0
INSERT
  5
2E3
  8
SIZE
  6
CONTINUOUS
 62
     0
  2
_DOTBLANK
 10
-223.5
 20
-740.44981458266545
 30
0.0
 41
10.0
 42
10.0
 43
10.0
  0
INSERT
  5
2E4
  8
SIZE
  6
CONTINUOUS
 62
     0
  2
_DOTBLANK
 10
-423.5
 20
-740.44981458266545
 30
0.0
 41
10.0
 42
10.0
 43
10.0
 50
180.0
  0
INSERT
  5
2E5
  8
SYMBOLLINE
  6
CONTINUOUS
 62
     7
  2
*U5
 10
0.0
 20
0.0
 30
0.0
  0
POINT
  5
2E6
  8
DEFPOINTS
  6
CONTINUOUS
 62
     0
 10
-223.5
 20
-270.0
 30
0.0
  0
POINT
  5
2E7
  8
DEFPOINTS
  6
CONTINUOUS
 62
     0
 10
-423.5
 20
-380.0
 30
0.0
  0
POINT
  5
2E8
  8
DEFPOINTS
  6
CONTINUOUS
 62
     0
 10
-423.5
 20
-740.44981458266545
 30
0.0
  0
ENDBLK
  5
296
  8
0
 62
     7
  0
BLOCK
  8
0
 62
     7
  2
*U5
 70
     1
 10
0.0
 20
0.0
 30
0.0
  3
*U5
  1

  0
TEXT
  5
431
  8
SIZE
  6
CONTINUOUS
 62
     0
 10
-397.55714285714282
 20
-740.35981458266554
 30
0.0
 40
64.0
  1
200
 41
0.9
  0
ENDBLK
  5
433
  8
0
 62
     7
  0
BLOCK
  8
0
 62
     7
  2
*D6
 70
     1
 10
0.0
 20
0.0
 30
0.0
  3
*D6
  1

  0
LINE
  5
2E9
  8
SIZE
  6
CONTINUOUS
 62
     0
 10
-131.5
 20
-213.0
 30
0.0
 11
-131.5
 21
-770.44981458266545
 31
0.0
  0
LINE
  5
2EA
  8
SIZE
  6
CONTINUOUS
 62
     0
 10
-213.5
 20
-740.44981458266545
 30
0.0
 11
-141.5
 21
-740.44981458266545
 31
0.0
  0
LINE
  5
2EB
  8
SIZE
  6
CONTINUOUS
 62
     0
 10
-131.5
 20
-740.44981458266545
 30
0.0
 11
0.2825499554363802
 21
-740.44981458266545
 31
0.0
  0
INSERT
  5
2EC
  8
SIZE
  6
CONTINUOUS
 62
     0
  2
_DOTBLANK
 10
-223.5
 20
-740.44981458266545
 30
0.0
 41
10.0
 42
10.0
 43
10.0
 50
180.0
  0
INSERT
  5
2ED
  8
SIZE
  6
CONTINUOUS
 62
     0
  2
_DOTBLANK
 10
-131.5
 20
-740.44981458266545
 30
0.0
 41
10.0
 42
10.0
 43
10.0
  0
INSERT
  5
2EE
  8
SYMBOLLINE
  6
CONTINUOUS
 62
     7
  2
*U7
 10
0.0
 20
0.0
 30
0.0
  0
POINT
  5
2EF
  8
DEFPOINTS
  6
CONTINUOUS
 62
     0
 10
-223.5
 20
-270.0
 30
0.0
  0
POINT
  5
2F0
  8
DEFPOINTS
  6
CONTINUOUS
 62
     0
 10
-131.5
 20
-193.0
 30
0.0
  0
POINT
  5
2F1
  8
DEFPOINTS
  6
CONTINUOUS
 62
     0
 10
-131.5
 20
-740.44981458266545
 30
0.0
  0
ENDBLK
  5
2A2
  8
0
 62
     7
  0
BLOCK
  8
0
 62
     7
  2
*U7
 70
     1
 10
0.0
 20
0.0
 30
0.0
  3
*U7
  1

  0
TEXT
  5
435
  8
SIZE
  6
CONTINUOUS
 62
     0
 10
-93.064592901706433
 20
-740.35981458266554
 30
0.0
 40
64.0
  1
92
 41
0.9
  0
ENDBLK
  5
437
  8
0
 62
     7
  0
BLOCK
  8
0
 62
     7
  2
*D8
 70
     1
 10
0.0
 20
0.0
 30
0.0
  3
*D8
  1

  0
LINE
  5
31B
  8
0
  6
CONTINUOUS
 62
     0
 10
-443.5
 20
-380.0
 30
0.0
 11
-539.65871700000002
 21
-380.0
 31
0.0
  0
LINE
  5
31C
  8
0
  6
CONTINUOUS
 62
     0
 10
-509.65871699999991
 20
-239.99999999999989
 30
0.0
 11
-509.65871699999991
 21
-229.99999999999989
 31
0.0
  0
LINE
  5
31D
  8
0
  6
CONTINUOUS
 62
     0
 10
-509.65871700000002
 20
-390.0
 30
0.0
 11
-509.65871700000002
 21
-400.0
 31
0.0
  0
LINE
  5
31E
  8
0
  6
CONTINUOUS
 62
     0
 10
-509.65871699999991
 20
-249.99999999999989
 30
0.0
 11
-509.65871699999991
 21
-380.0
 31
0.0
  0
INSERT
  5
31F
  8
0
  6
CONTINUOUS
 62
     0
  2
_DOTBLANK
 10
-509.65871699999991
 20
-249.99999999999989
 30
0.0
 41
10.0
 42
10.0
 43
10.0
 50
270.0
  0
INSERT
  5
320
  8
0
  6
CONTINUOUS
 62
     0
  2
_DOTBLANK
 10
-509.65871699999991
 20
-380.0
 30
0.0
 41
10.0
 42
10.0
 43
10.0
 50
90.0
  0
INSERT
  5
321
  8
SYMBOLLINE
  6
CONTINUOUS
 62
     7
  2
*U9
 10
0.0
 20
0.0
 30
0.0
  0
POINT
  5
322
  8
DEFPOINTS
  6
CONTINUOUS
 62
     0
 10
-243.5
 20
-250.0
 30
0.0
  0
POINT
  5
323
  8
DEFPOINTS
  6
CONTINUOUS
 62
     0
 10
-423.5
 20
-380.0
 30
0.0
  0
POINT
  5
324
  8
DEFPOINTS
  6
CONTINUOUS
 62
     0
 10
-509.65871699999991
 20
-380.0
 30
0.0
  0
ENDBLK
  5
31A
  8
0
 62
     7
  0
BLOCK
  8
0
 62
     7
  2
*U9
 70
     1
 10
0.0
 20
0.0
 30
0.0
  3
*U9
  1

  0
TEXT
  5
439
  8
0
  6
CONTINUOUS
 62
     0
 10
-509.74871699999989
 20
-383.5714285714285
 30
0.0
 40
64.0
  1
130
 50
90.0
 41
0.9
  0
ENDBLK
  5
43B
  8
0
 62
     7
  0
BLOCK
  8
0
 62
     7
  2
*D10
 70
     1
 10
0.0
 20
0.0
 30
0.0
  3
*D10
  1

  0
LINE
  5
38A
  8
SIZE
  6
CONTINUOUS
 62
     0
 10
-403.5
 20
-380.0
 30
0.0
 11
177.5104036048796
 21
-380.00000000000023
 31
0.0
  0
LINE
  5
38B
  8
SIZE
  6
CONTINUOUS
 62
     0
 10
147.5104036048796
 20
-240.00000000000011
 30
0.0
 11
147.5104036048796
 21
-230.00000000000011
 31
0.0
  0
LINE
  5
38C
  8
SIZE
  6
CONTINUOUS
 62
     0
 10
147.5104036048796
 20
-390.00000000000028
 30
0.0
 11
147.5104036048796
 21
-400.0
 31
0.0
  0
LINE
  5
38D
  8
SIZE
  6
CONTINUOUS
 62
     0
 10
147.5104036048796
 20
-250.00000000000011
 30
0.0
 11
147.5104036048796
 21
-380.00000000000023
 31
0.0
  0
INSERT
  5
38E
  8
SIZE
  6
CONTINUOUS
 62
     0
  2
_DOTBLANK
 10
147.5104036048796
 20
-250.00000000000011
 30
0.0
 41
10.0
 42
10.0
 43
10.0
 50
270.0
  0
INSERT
  5
38F
  8
SIZE
  6
CONTINUOUS
 62
     0
  2
_DOTBLANK
 10
147.5104036048796
 20
-380.00000000000023
 30
0.0
 41
10.0
 42
10.0
 43
10.0
 50
90.0
  0
INSERT
  5
390
  8
SYMBOLLINE
  6
CONTINUOUS
 62
     7
  2
*U11
 10
0.0
 20
0.0
 30
0.0
  0
POINT
  5
391
  8
DEFPOINTS
  6
CONTINUOUS
 62
     0
 10
-203.5
 20
-250.0
 30
0.0
  0
POINT
  5
392
  8
DEFPOINTS
  6
CONTINUOUS
 62
     0
 10
-423.5
 20
-380.0
 30
0.0
  0
POINT
  5
393
  8
DEFPOINTS
  6
CONTINUOUS
 62
     0
 10
147.5104036048796
 20
-380.00000000000023
 30
0.0
  0
ENDBLK
  5
330
  8
0
 62
     7
  0
BLOCK
  8
0
 62
     7
  2
*U11
 70
     1
 10
0.0
 20
0.0
 30
0.0
  3
*U11
  1

  0
TEXT
  5
441
  8
SIZE
  6
CONTINUOUS
 62
     0
 10
147.42040360487971
 20
-383.57142857142878
 30
0.0
 40
64.0
  1
130
 50
90.0
 41
0.9
  0
ENDBLK
  5
443
  8
0
 62
     7
  0
BLOCK
  8
0
 62
     7
  2
*D12
 70
     1
 10
0.0
 20
0.0
 30
0.0
  3
*D12
  1

  0
LINE
  5
381
  8
SIZE
  6
CONTINUOUS
 62
     0
 10
-183.5
 20
-250.0
 30
0.0
 11
177.51040360487971
 21
-250.00000000000011
 31
0.0
  0
LINE
  5
382
  8
SIZE
  6
CONTINUOUS
 62
     0
 10
147.5104036048796
 20
-240.00000000000011
 30
0.0
 11
147.51040360487971
 21
-183.00000000000011
 31
0.0
  0
LINE
  5
383
  8
SIZE
  6
CONTINUOUS
 62
     0
 10
147.51040360487971
 20
-173.00000000000011
 30
0.0
 11
147.51040360487971
 21
-57.610757419783262
 31
0.0
  0
INSERT
  5
384
  8
SIZE
  6
CONTINUOUS
 62
     0
  2
_DOTBLANK
 10
147.5104036048796
 20
-250.00000000000011
 30
0.0
 41
10.0
 42
10.0
 43
10.0
 50
270.0
  0
INSERT
  5
385
  8
SIZE
  6
CONTINUOUS
 62
     0
  2
_DOTBLANK
 10
147.51040360487971
 20
-173.00000000000011
 30
0.0
 41
10.0
 42
10.0
 43
10.0
 50
90.0
  0
INSERT
  5
386
  8
SYMBOLLINE
  6
CONTINUOUS
 62
     7
  2
*U13
 10
0.0
 20
0.0
 30
0.0
  0
POINT
  5
387
  8
DEFPOINTS
  6
CONTINUOUS
 62
     0
 10
-111.5
 20
-173.0
 30
0.0
  0
POINT
  5
388
  8
DEFPOINTS
  6
CONTINUOUS
 62
     0
 10
-203.5
 20
-250.0
 30
0.0
  0
POINT
  5
389
  8
DEFPOINTS
  6
CONTINUOUS
 62
     0
 10
147.5104036048796
 20
-250.00000000000011
 30
0.0
  0
ENDBLK
  5
33E
  8
0
 62
     7
  0
BLOCK
  8
0
 62
     7
  2
*U13
 70
     1
 10
0.0
 20
0.0
 30
0.0
  3
*U13
  1

  0
TEXT
  5
43D
  8
SIZE
  6
CONTINUOUS
 62
     0
 10
147.42040360487971
 20
-150.9579002769261
 30
0.0
 40
64.0
  1
77
 50
90.0
 41
0.9
  0
ENDBLK
  5
43F
  8
0
 62
     7
  0
ENDSEC
  0
SECTION
  2
ENTITIES
  0
LINE
  5
34
  8
NOTE
  6
CONTINUOUS
 62
     4
 10
421.49999999999989
 20
-359.0
 30
0.0
 11
421.49999999999989
 21
-319.0
 31
0.0
  0
LINE
  5
35
  8
NOTE
  6
CONTINUOUS
 62
     4
 10
401.49999999999989
 20
-339.0
 30
0.0
 11
441.5
 21
-339.0
 31
0.0
  0
POLYLINE
  5
36
  8
NOTE
  6
CONTINUOUS
 62
     4
 66
     1
 10
0.0
 20
0.0
 30
0.0
  0
VERTEX
  5
5FB
  8
NOTE
  6
CONTINUOUS
 62
     4
 10
430.82838499999991
 20
-377.89705900000001
 30
0.0
  0
VERTEX
  5
5FC
  8
NOTE
  6
CONTINUOUS
 62
     4
 10
421.49999999999989
 20
-339.0
 30
0.0
  0
VERTEX
  5
5FD
  8
NOTE
  6
CONTINUOUS
 62
     4
 10
449.02714800000001
 20
-368.02164900000002
 30
0.0
  0
SEQEND
  5
5FE
  8
NOTE
  6
CONTINUOUS
 62
     4
  0
LINE
  5
40
  8
NOTE
  6
CONTINUOUS
 62
     4
 10
-392.5
 20
-359.0
 30
0.0
 11
-392.5
 21
-319.0
 31
0.0
  0
LINE
  5
41
  8
NOTE
  6
CONTINUOUS
 62
     4
 10
-412.5
 20
-339.0
 30
0.0
 11
-372.5
 21
-339.0
 31
0.0
  0
LINE
  5
42
  8
NOTE
  6
CONTINUOUS
 62
     4
 10
-417.49999999999989
 20
-261.0
 30
0.0
 11
-457.5
 21
-261.0
 31
0.0
  0
LINE
  5
43
  8
NOTE
  6
CONTINUOUS
 62
     4
 10
-437.5
 20
-281.0
 30
0.0
 11
-437.5
 21
-241.0
 31
0.0
  0
LINE
  5
44
  8
NOTE
  6
CONTINUOUS
 62
     4
 10
-417.49999999999989
 20
-211.0
 30
0.0
 11
-457.5
 21
-211.0
 31
0.0
  0
LINE
  5
45
  8
NOTE
  6
CONTINUOUS
 62
     4
 10
-437.5
 20
-231.0
 30
0.0
 11
-437.5
 21
-191.0
 31
0.0
  0
LINE
  5
46
  8
NOTE
  6
CONTINUOUS
 62
     4
 10
-417.49999999999989
 20
-161.0
 30
0.0
 11
-457.5
 21
-161.0
 31
0.0
  0
LINE
  5
47
  8
NOTE
  6
CONTINUOUS
 62
     4
 10
-437.5
 20
-181.0
 30
0.0
 11
-437.5
 21
-141.0
 31
0.0
  0
LINE
  5
48
  8
NOTE
  6
CONTINUOUS
 62
     4
 10
-417.49999999999989
 20
-111.0
 30
0.0
 11
-457.5
 21
-111.0
 31
0.0
  0
LINE
  5
49
  8
NOTE
  6
CONTINUOUS
 62
     4
 10
-437.5
 20
-131.0
 30
0.0
 11
-437.5
 21
-91.0
 31
0.0
  0
LINE
  5
4A
  8
NOTE
  6
CONTINUOUS
 62
     4
 10
-417.49999999999989
 20
-61.0
 30
0.0
 11
-457.5
 21
-61.0
 31
0.0
  0
LINE
  5
4B
  8
NOTE
  6
CONTINUOUS
 62
     4
 10
-437.5
 20
-81.0
 30
0.0
 11
-437.5
 21
-41.0
 31
0.0
  0
LINE
  5
4C
  8
NOTE
  6
CONTINUOUS
 62
     4
 10
417.49999999999989
 20
-318.0
 30
0.0
 11
457.5
 21
-318.0
 31
0.0
  0
LINE
  5
4D
  8
NOTE
  6
CONTINUOUS
 62
     4
 10
437.5
 20
-338.0
 30
0.0
 11
437.5
 21
-298.0
 31
0.0
  0
LINE
  5
4E
  8
NOTE
  6
CONTINUOUS
 62
     4
 10
417.49999999999989
 20
-268.0
 30
0.0
 11
457.5
 21
-268.0
 31
0.0
  0
LINE
  5
4F
  8
NOTE
  6
CONTINUOUS
 62
     4
 10
437.5
 20
-288.0
 30
0.0
 11
437.5
 21
-248.0
 31
0.0
  0
LINE
  5
50
  8
NOTE
  6
CONTINUOUS
 62
     4
 10
417.49999999999989
 20
-218.0
 30
0.0
 11
457.5
 21
-218.0
 31
0.0
  0
LINE
  5
51
  8
NOTE
  6
CONTINUOUS
 62
     4
 10
437.5
 20
-238.0
 30
0.0
 11
437.5
 21
-198.0
 31
0.0
  0
LINE
  5
52
  8
NOTE
  6
CONTINUOUS
 62
     4
 10
417.49999999999989
 20
-168.0
 30
0.0
 11
457.5
 21
-168.0
 31
0.0
  0
LINE
  5
53
  8
NOTE
  6
CONTINUOUS
 62
     4
 10
437.5
 20
-188.0
 30
0.0
 11
437.5
 21
-148.0
 31
0.0
  0
LINE
  5
54
  8
NOTE
  6
CONTINUOUS
 62
     4
 10
417.49999999999989
 20
-118.0
 30
0.0
 11
457.5
 21
-118.0
 31
0.0
  0
LINE
  5
55
  8
NOTE
  6
CONTINUOUS
 62
     4
 10
437.5
 20
-138.0
 30
0.0
 11
437.5
 21
-98.0
 31
0.0
  0
LINE
  5
56
  8
NOTE
  6
CONTINUOUS
 62
     4
 10
417.49999999999989
 20
-68.0
 30
0.0
 11
457.5
 21
-68.0
 31
0.0
  0
LINE
  5
57
  8
NOTE
  6
CONTINUOUS
 62
     4
 10
437.5
 20
-88.0
 30
0.0
 11
437.5
 21
-48.0
 31
0.0
  0
POLYLINE
  5
58
  8
NOTE
  6
CONTINUOUS
 62
     4
 66
     1
 10
0.0
 20
0.0
 30
0.0
  0
VERTEX
  5
5FF
  8
NOTE
  6
CONTINUOUS
 62
     4
 10
-466.31900100000001
 20
-33.260764000000002
 30
0.0
  0
VERTEX
  5
600
  8
NOTE
  6
CONTINUOUS
 62
     4
 10
-437.5
 20
-61.0
 30
0.0
  0
VERTEX
  5
601
  8
NOTE
  6
CONTINUOUS
 62
     4
 10
-476.32760499999989
 20
-51.386617999999999
 30
0.0
  0
SEQEND
  5
602
  8
NOTE
  6
CONTINUOUS
 62
     4
  0
POLYLINE
  5
5D
  8
NOTE
  6
CONTINUOUS
 62
     4
 66
     1
 10
0.0
 20
0.0
 30
0.0
  0
VERTEX
  5
603
  8
NOTE
  6
CONTINUOUS
 62
     4
 10
474.96894499999991
 20
-53.997208999999998
 30
0.0
  0
VERTEX
  5
604
  8
NOTE
  6
CONTINUOUS
 62
     4
 10
437.5
 20
-68.0
 30
0.0
  0
VERTEX
  5
605
  8
NOTE
  6
CONTINUOUS
 62
     4
 10
462.94766299999998
 20
-37.138755000000003
 30
0.0
  0
SEQEND
  5
606
  8
NOTE
  6
CONTINUOUS
 62
     4
  0
CIRCLE
  5
62
  8
SIZE
  6
CONTINUOUS
 62
    30
 10
-545.81743399999993
 20
-339.0
 30
0.0
 40
6.0
  0
CIRCLE
  5
63
  8
SIZE
  6
CONTINUOUS
 62
    30
 10
-545.81743399999993
 20
-380.0
 30
0.0
 40
6.0
  0
CIRCLE
  5
64
  8
SIZE
  6
CONTINUOUS
 62
    30
 10
-544.34166600000003
 20
-211.0
 30
0.0
 40
6.0
  0
CIRCLE
  5
65
  8
SIZE
  6
CONTINUOUS
 62
    30
 10
-544.34166600000003
 20
-261.0
 30
0.0
 40
6.0
  0
CIRCLE
  5
66
  8
SIZE
  6
CONTINUOUS
 62
    30
 10
-663.87887799999964
 20
-261.0
 30
0.0
 40
6.0
  0
CIRCLE
  5
67
  8
SIZE
  6
CONTINUOUS
 62
    30
 10
-663.87887799999964
 20
-61.0
 30
0.0
 40
6.0
  0
CIRCLE
  5
68
  8
SIZE
  6
CONTINUOUS
 62
    30
 10
-663.87887799999964
 20
-261.0
 30
0.0
 40
6.0
  0
CIRCLE
  5
69
  8
SIZE
  6
CONTINUOUS
 62
    30
 10
-663.87887799999964
 20
-286.0
 30
0.0
 40
6.0
  0
CIRCLE
  5
6A
  8
SIZE
  6
CONTINUOUS
 62
    30
 10
-784.89185799999984
 20
-286.0
 30
0.0
 40
6.0
  0
CIRCLE
  5
6B
  8
SIZE
  6
CONTINUOUS
 62
    30
 10
-784.89185799999984
 20
-36.0
 30
0.0
 40
6.0
  0
CIRCLE
  5
6C
  8
SIZE
  6
CONTINUOUS
 62
    30
 10
-784.89185799999984
 20
-286.0
 30
0.0
 40
6.0
  0
CIRCLE
  5
6D
  8
SIZE
  6
CONTINUOUS
 62
    30
 10
-784.89185799999984
 20
-380.0
 30
0.0
 40
6.0
  0
CIRCLE
  5
6E
  8
SIZE
  6
CONTINUOUS
 62
    30
 10
-904.42907000000014
 20
-380.0
 30
0.0
 40
6.0
  0
CIRCLE
  5
6F
  8
SIZE
  6
CONTINUOUS
 62
    30
 10
-904.42907000000014
 20
0.0
 30
0.0
 40
6.0
  0
CIRCLE
  5
70
  8
SIZE
  6
CONTINUOUS
 62
    30
 10
620.8221940000002
 20
-268.0
 30
0.0
 40
6.0
  0
CIRCLE
  5
71
  8
SIZE
  6
CONTINUOUS
 62
    30
 10
620.8221940000002
 20
-318.0
 30
0.0
 40
6.0
  0
CIRCLE
  5
72
  8
SIZE
  6
CONTINUOUS
 62
    30
 10
897.85980600000005
 20
-363.0
 30
0.0
 40
6.0
  0
CIRCLE
  5
73
  8
SIZE
  6
CONTINUOUS
 62
    30
 10
897.85980600000005
 20
-23.0
 30
0.0
 40
6.0
  0
CIRCLE
  5
74
  8
SIZE
  6
CONTINUOUS
 62
    30
 10
897.85980600000005
 20
-363.0
 30
0.0
 40
6.0
  0
CIRCLE
  5
75
  8
SIZE
  6
CONTINUOUS
 62
    30
 10
897.85980600000005
 20
-380.0
 30
0.0
 40
6.0
  0
CIRCLE
  5
76
  8
SIZE
  6
CONTINUOUS
 62
    30
 10
763.29867999999999
 20
-318.0
 30
0.0
 40
6.0
  0
CIRCLE
  5
77
  8
SIZE
  6
CONTINUOUS
 62
    30
 10
763.29867999999999
 20
-68.0
 30
0.0
 40
6.0
  0
CIRCLE
  5
78
  8
SIZE
  6
CONTINUOUS
 62
    30
 10
763.29867999999999
 20
-318.0
 30
0.0
 40
6.0
  0
CIRCLE
  5
79
  8
SIZE
  6
CONTINUOUS
 62
    30
 10
763.29867999999999
 20
-363.0
 30
0.0
 40
6.0
  0
CIRCLE
  5
7A
  8
SIZE
  6
CONTINUOUS
 62
    30
 10
451.49999999999989
 20
-981.59589176663121
 30
0.0
 40
6.0
  0
CIRCLE
  5
7B
  8
SIZE
  6
CONTINUOUS
 62
    30
 10
-452.5
 20
-981.59589176663121
 30
0.0
 40
6.0
  0
CIRCLE
  5
7C
  8
SIZE
  6
CONTINUOUS
 62
    30
 10
-452.5
 20
-859.14183976663139
 30
0.0
 40
6.0
  0
CIRCLE
  5
7D
  8
SIZE
  6
CONTINUOUS
 62
    30
 10
-392.5
 20
-859.14183976663139
 30
0.0
 40
6.0
  0
CIRCLE
  5
7E
  8
SIZE
  6
CONTINUOUS
 62
    30
 10
421.49999999999989
 20
-859.14183976663139
 30
0.0
 40
6.0
  0
CIRCLE
  5
7F
  8
SIZE
  6
CONTINUOUS
 62
    30
 10
-392.5
 20
-859.14183976663139
 30
0.0
 40
6.0
  0
CIRCLE
  5
80
  8
SIZE
  6
CONTINUOUS
 62
    30
 10
447.5
 20
51.513461
 30
0.0
 40
6.0
  0
CIRCLE
  5
81
  8
SIZE
  6
CONTINUOUS
 62
    30
 10
437.5
 20
51.513461
 30
0.0
 40
6.0
  0
CIRCLE
  5
82
  8
SIZE
  6
CONTINUOUS
 62
    30
 10
-437.5
 20
51.513461
 30
0.0
 40
6.0
  0
CIRCLE
  5
83
  8
SIZE
  6
CONTINUOUS
 62
    30
 10
-452.5
 20
51.513461
 30
0.0
 40
6.0
  0
CIRCLE
  5
84
  8
SIZE
  6
CONTINUOUS
 62
    30
 10
447.5
 20
398.63702254539999
 30
0.0
 40
6.0
  0
CIRCLE
  5
85
  8
SIZE
  6
CONTINUOUS
 62
    30
 10
-452.5
 20
398.63702254539999
 30
0.0
 40
6.0
  0
CIRCLE
  5
86
  8
SIZE
  6
CONTINUOUS
 62
    30
 10
-452.5
 20
268.65578254539997
 30
0.0
 40
6.0
  0
CIRCLE
  5
87
  8
SIZE
  6
CONTINUOUS
 62
    30
 10
-423.5
 20
268.65578254539997
 30
0.0
 40
6.0
  0
CIRCLE
  5
88
  8
SIZE
  6
CONTINUOUS
 62
    30
 10
447.5
 20
268.65578254539997
 30
0.0
 40
6.0
  0
CIRCLE
  5
89
  8
SIZE
  6
CONTINUOUS
 62
    30
 10
423.5
 20
268.65578254539997
 30
0.0
 40
6.0
  0
CIRCLE
  5
8A
  8
SIZE
  6
CONTINUOUS
 62
    30
 10
423.5
 20
268.65578254539997
 30
0.0
 40
6.0
  0
CIRCLE
  5
8B
  8
SIZE
  6
CONTINUOUS
 62
    30
 10
-423.5
 20
268.65578254539997
 30
0.0
 40
6.0
  0
TEXT
  5
8C
  8
SIZE
  6
CONTINUOUS
 62
    30
 10
-74.057143000000025
 20
300.65578254539997
 30
0.0
 40
55.0
  1
847
 41
0.9
  0
LINE
  5
8D
  8
SIZE
  6
CONTINUOUS
 62
    30
 10
-421.49999999999989
 20
268.65578254539997
 30
0.0
 11
0.0
 21
268.65578254539997
 31
0.0
  0
LINE
  5
8E
  8
SIZE
  6
CONTINUOUS
 62
    30
 10
421.49999999999989
 20
268.65578254539997
 30
0.0
 11
0.0
 21
268.65578254539997
 31
0.0
  0
LINE
  5
8F
  8
SIZE
  6
CONTINUOUS
 62
    30
 10
-423.5
 20
20.0
 30
0.0
 11
-423.5
 21
213.485106
 31
0.0
  0
LINE
  5
90
  8
SIZE
  6
CONTINUOUS
 62
    30
 10
423.5
 20
20.0
 30
0.0
 11
423.5
 21
213.485106
 31
0.0
  0
TEXT
  5
91
  8
SIZE
  6
CONTINUOUS
 62
    30
 10
486.09767799999992
 20
300.65578254539997
 30
0.0
 40
55.0
  1
24
 41
0.9
  0
LINE
  5
92
  8
SIZE
  6
CONTINUOUS
 62
    30
 10
447.5
 20
268.65578254539997
 30
0.0
 11
423.5
 21
268.65578254539997
 31
0.0
  0
LINE
  5
93
  8
SIZE
  6
CONTINUOUS
 62
    30
 10
421.49999999999989
 20
268.65578254539997
 30
0.0
 11
419.5
 21
268.65578254539997
 31
0.0
  0
LINE
  5
94
  8
SIZE
  6
CONTINUOUS
 62
    30
 10
449.5
 20
268.65578254539997
 30
0.0
 11
451.49999999999989
 21
268.65578254539997
 31
0.0
  0
LINE
  5
95
  8
SIZE
  6
CONTINUOUS
 62
    30
 10
447.5
 20
-3.0
 30
0.0
 11
447.5
 21
213.485106
 31
0.0
  0
LINE
  5
96
  8
SIZE
  6
CONTINUOUS
 62
    30
 10
423.5
 20
20.0
 30
0.0
 11
423.5
 21
299.35014811284049
 31
0.0
  0
TEXT
  5
97
  8
SIZE
  6
CONTINUOUS
 62
    30
 10
-583.52596700000004
 20
300.65578254539997
 30
0.0
 40
55.0
  1
29
 41
0.9
  0
LINE
  5
98
  8
SIZE
  6
CONTINUOUS
 62
    30
 10
-452.5
 20
268.65578254539997
 30
0.0
 11
-423.5
 21
268.65578254539997
 31
0.0
  0
LINE
  5
99
  8
SIZE
  6
CONTINUOUS
 62
    30
 10
-421.49999999999989
 20
268.65578254539997
 30
0.0
 11
-419.5
 21
268.65578254539997
 31
0.0
  0
LINE
  5
9A
  8
SIZE
  6
CONTINUOUS
 62
    30
 10
-454.49999999999989
 20
268.65578254539997
 30
0.0
 11
-456.5
 21
268.65578254539997
 31
0.0
  0
LINE
  5
9B
  8
SIZE
  6
CONTINUOUS
 62
    30
 10
-452.5
 20
-16.0
 30
0.0
 11
-452.5
 21
213.485106
 31
0.0
  0
LINE
  5
9C
  8
SIZE
  6
CONTINUOUS
 62
    30
 10
-423.5
 20
20.0
 30
0.0
 11
-423.5
 21
299.35014811284049
 31
0.0
  0
TEXT
  5
9D
  8
SIZE
  6
CONTINUOUS
 62
    30
 10
-76.557143000000025
 20
430.63702254539987
 30
0.0
 40
55.0
  1
900
 41
0.9
  0
LINE
  5
9E
  8
SIZE
  6
CONTINUOUS
 62
    30
 10
-450.49999999999989
 20
398.63702254539999
 30
0.0
 11
-2.5
 21
398.63702254539999
 31
0.0
  0
LINE
  5
9F
  8
SIZE
  6
CONTINUOUS
 62
    30
 10
445.5
 20
398.63702254539999
 30
0.0
 11
-2.5
 21
398.63702254539999
 31
0.0
  0
LINE
  5
A0
  8
SIZE
  6
CONTINUOUS
 62
    30
 10
-452.5
 20
-16.0
 30
0.0
 11
-452.5
 21
429.4346032472676
 31
0.0
  0
LINE
  5
A1
  8
SIZE
  6
CONTINUOUS
 62
    30
 10
447.5
 20
-3.0
 30
0.0
 11
447.5
 21
429.4346032472676
 31
0.0
  0
TEXT
  5
A2
  8
SIZE
  6
CONTINUOUS
 62
    30
 10
-554.65988700000003
 20
83.513460999999978
 30
0.0
 40
55.0
  1
15
 41
0.9
  0
LINE
  5
A3
  8
SIZE
  6
CONTINUOUS
 62
    30
 10
-437.5
 20
51.513461
 30
0.0
 11
-452.5
 21
51.513461
 31
0.0
  0
LINE
  5
A4
  8
SIZE
  6
CONTINUOUS
 62
    30
 10
-454.49999999999989
 20
51.513461
 30
0.0
 11
-456.5
 21
51.513461
 31
0.0
  0
LINE
  5
A5
  8
SIZE
  6
CONTINUOUS
 62
    30
 10
-435.5
 20
51.513461
 30
0.0
 11
-433.49999999999989
 21
51.513461
 31
0.0
  0
LINE
  5
A6
  8
SIZE
  6
CONTINUOUS
 62
    30
 10
-437.5
 20
-21.0
 30
0.0
 11
-437.5
 21
81.513460999999964
 31
0.0
  0
LINE
  5
A7
  8
SIZE
  6
CONTINUOUS
 62
    30
 10
-452.5
 20
-16.0
 30
0.0
 11
-452.5
 21
81.513460999999964
 31
0.0
  0
TEXT
  5
A8
  8
SIZE
  6
CONTINUOUS
 62
    30
 10
468.20302599999991
 20
83.513460999999978
 30
0.0
 40
55.0
  1
10
 41
0.9
  0
LINE
  5
A9
  8
SIZE
  6
CONTINUOUS
 62
    30
 10
447.5
 20
51.513461
 30
0.0
 11
437.5
 21
51.513461
 31
0.0
  0
LINE
  5
AA
  8
SIZE
  6
CONTINUOUS
 62
    30
 10
435.5
 20
51.513461
 30
0.0
 11
433.49999999999989
 21
51.513461
 31
0.0
  0
LINE
  5
AB
  8
SIZE
  6
CONTINUOUS
 62
    30
 10
449.5
 20
51.513461
 30
0.0
 11
451.49999999999989
 21
51.513461
 31
0.0
  0
LINE
  5
AC
  8
SIZE
  6
CONTINUOUS
 62
    30
 10
447.5
 20
-3.0
 30
0.0
 11
447.5
 21
81.513460999999964
 31
0.0
  0
LINE
  5
AD
  8
SIZE
  6
CONTINUOUS
 62
    30
 10
437.5
 20
-28.0
 30
0.0
 11
437.5
 21
81.513460999999964
 31
0.0
  0
TEXT
  5
AE
  8
SIZE
  6
CONTINUOUS
 62
    30
 10
-49.364359530532973
 20
-843.60258615911471
 30
0.0
 40
55.0
  1
814
 41
0.9
  0
LINE
  5
AF
  8
SIZE
  6
CONTINUOUS
 62
    30
 10
-390.5
 20
-859.14183976663139
 30
0.0
 11
14.5
 21
-859.14183976663139
 31
0.0
  0
LINE
  5
B0
  8
SIZE
  6
CONTINUOUS
 62
    30
 10
419.5
 20
-859.14183976663139
 30
0.0
 11
14.5
 21
-859.14183976663139
 31
0.0
  0
LINE
  5
B1
  8
SIZE
  6
CONTINUOUS
 62
    30
 10
-392.5
 20
-379.0
 30
0.0
 11
-392.5
 21
-704.37212999999986
 31
0.0
  0
LINE
  5
B2
  8
SIZE
  6
CONTINUOUS
 62
    30
 10
421.49999999999989
 20
-367.71932069000081
 30
0.0
 11
421.49999999999989
 21
-888.75026175636219
 31
0.0
  0
TEXT
  5
B3
  8
SIZE
  6
CONTINUOUS
 62
    30
 10
-556.076099
 20
-827.14183976663139
 30
0.0
 40
55.0
  1
60
 41
0.9
  0
LINE
  5
B4
  8
SIZE
  6
CONTINUOUS
 62
    30
 10
-452.5
 20
-859.14183976663139
 30
0.0
 11
-392.5
 21
-859.14183976663139
 31
0.0
  0
LINE
  5
B5
  8
SIZE
  6
CONTINUOUS
 62
    30
 10
-390.5
 20
-859.14183976663139
 30
0.0
 11
-388.5
 21
-859.14183976663139
 31
0.0
  0
LINE
  5
B6
  8
SIZE
  6
CONTINUOUS
 62
    30
 10
-454.49999999999989
 20
-859.14183976663139
 30
0.0
 11
-456.5
 21
-859.14183976663139
 31
0.0
  0
LINE
  5
B7
  8
SIZE
  6
CONTINUOUS
 62
    30
 10
-452.5
 20
-306.0
 30
0.0
 11
-452.5
 21
-887.80964458157553
 31
0.0
  0
LINE
  5
B8
  8
SIZE
  6
CONTINUOUS
 62
    30
 10
-392.5
 20
-366.69890779694458
 30
0.0
 11
-392.5
 21
-888.75026175636219
 31
0.0
  0
TEXT
  5
B9
  8
SIZE
  6
CONTINUOUS
 62
    30
 10
-76.656843825832766
 20
-964.00315613859118
 30
0.0
 40
55.0
  1
904
 41
0.9
  0
LINE
  5
BA
  8
SIZE
  6
CONTINUOUS
 62
    30
 10
-450.49999999999989
 20
-981.59589176663121
 30
0.0
 11
-0.5
 21
-981.59589176663121
 31
0.0
  0
LINE
  5
BB
  8
SIZE
  6
CONTINUOUS
 62
    30
 10
449.5
 20
-981.59589176663121
 30
0.0
 11
-0.5
 21
-981.59589176663121
 31
0.0
  0
LINE
  5
BC
  8
SIZE
  6
CONTINUOUS
 62
    30
 10
-452.5
 20
-306.0
 30
0.0
 11
-452.5
 21
-1011.0320870401659
 31
0.0
  0
LINE
  5
BD
  8
SIZE
  6
CONTINUOUS
 62
    30
 10
451.49999999999989
 20
-369.0
 30
0.0
 11
451.49999999999989
 21
-1010.0914698653791
 31
0.0
  0
TEXT
  5
BE
  8
SIZE
  6
CONTINUOUS
 62
    30
 10
731.29867999999999
 20
-494.56518599999993
 30
0.0
 40
55.0
  1
45
 50
90.0
 41
0.9
  0
LINE
  5
BF
  8
SIZE
  6
CONTINUOUS
 62
    30
 10
763.29867999999999
 20
-318.0
 30
0.0
 11
763.29867999999999
 21
-363.0
 31
0.0
  0
LINE
  5
C0
  8
SIZE
  6
CONTINUOUS
 62
    30
 10
763.29867999999999
 20
-365.0
 30
0.0
 11
763.29867999999999
 21
-367.0
 31
0.0
  0
LINE
  5
C1
  8
SIZE
  6
CONTINUOUS
 62
    30
 10
763.29867999999999
 20
-316.0
 30
0.0
 11
763.29867999999999
 21
-314.0
 31
0.0
  0
LINE
  5
C2
  8
SIZE
  6
CONTINUOUS
 62
    30
 10
477.5
 20
-318.0
 30
0.0
 11
793.29867999999999
 21
-318.0
 31
0.0
  0
LINE
  5
C3
  8
SIZE
  6
CONTINUOUS
 62
    30
 10
467.49999999999989
 20
-363.0
 30
0.0
 11
793.29867999999999
 21
-363.0
 31
0.0
  0
TEXT
  5
C4
  8
SIZE
  6
CONTINUOUS
 62
    30
 10
731.29867999999999
 20
-267.057143
 30
0.0
 40
55.0
  1
250
 50
90.0
 41
0.9
  0
LINE
  5
C5
  8
SIZE
  6
CONTINUOUS
 62
    30
 10
763.29867999999999
 20
-70.0
 30
0.0
 11
763.29867999999999
 21
-193.0
 31
0.0
  0
LINE
  5
C6
  8
SIZE
  6
CONTINUOUS
 62
    30
 10
763.29867999999999
 20
-316.0
 30
0.0
 11
763.29867999999999
 21
-193.0
 31
0.0
  0
LINE
  5
C7
  8
SIZE
  6
CONTINUOUS
 62
    30
 10
477.5
 20
-68.0
 30
0.0
 11
793.29867999999999
 21
-68.0
 31
0.0
  0
LINE
  5
C8
  8
SIZE
  6
CONTINUOUS
 62
    30
 10
477.5
 20
-318.0
 30
0.0
 11
793.29867999999999
 21
-318.0
 31
0.0
  0
TEXT
  5
C9
  8
SIZE
  6
CONTINUOUS
 62
    30
 10
865.85980600000005
 20
-482.75938499999972
 30
0.0
 40
55.0
  1
17
 50
90.0
 41
0.9
  0
LINE
  5
CA
  8
SIZE
  6
CONTINUOUS
 62
    30
 10
897.85980600000005
 20
-363.0
 30
0.0
 11
897.85980600000005
 21
-380.0
 31
0.0
  0
LINE
  5
CB
  8
SIZE
  6
CONTINUOUS
 62
    30
 10
897.85980600000005
 20
-382.0
 30
0.0
 11
897.85980600000005
 21
-384.0
 31
0.0
  0
LINE
  5
CC
  8
SIZE
  6
CONTINUOUS
 62
    30
 10
897.85980600000005
 20
-361.0
 30
0.0
 11
897.85980600000005
 21
-359.0
 31
0.0
  0
LINE
  5
CD
  8
SIZE
  6
CONTINUOUS
 62
    30
 10
467.49999999999989
 20
-363.0
 30
0.0
 11
927.85980600000005
 21
-363.0
 31
0.0
  0
LINE
  5
CE
  8
SIZE
  6
CONTINUOUS
 62
    30
 10
443.5
 20
-380.0
 30
0.0
 11
927.85980600000005
 21
-380.0
 31
0.0
  0
TEXT
  5
CF
  8
SIZE
  6
CONTINUOUS
 62
    30
 10
865.85980600000005
 20
-267.057143
 30
0.0
 40
55.0
  1
340
 50
90.0
 41
0.9
  0
LINE
  5
D0
  8
SIZE
  6
CONTINUOUS
 62
    30
 10
897.85980600000005
 20
-25.0
 30
0.0
 11
897.85980600000005
 21
-193.0
 31
0.0
  0
LINE
  5
D1
  8
SIZE
  6
CONTINUOUS
 62
    30
 10
897.85980600000005
 20
-361.0
 30
0.0
 11
897.85980600000005
 21
-193.0
 31
0.0
  0
LINE
  5
D2
  8
SIZE
  6
CONTINUOUS
 62
    30
 10
467.49999999999989
 20
-23.0
 30
0.0
 11
927.85980600000005
 21
-23.0
 31
0.0
  0
LINE
  5
D3
  8
SIZE
  6
CONTINUOUS
 62
    30
 10
467.49999999999989
 20
-363.0
 30
0.0
 11
927.85980600000005
 21
-363.0
 31
0.0
  0
TEXT
  5
D4
  8
SIZE
  6
CONTINUOUS
 62
    30
 10
588.82219400000008
 20
-242.37016199999999
 30
0.0
 40
55.0
  1
50
 50
90.0
 41
0.9
  0
LINE
  5
D5
  8
SIZE
  6
CONTINUOUS
 62
    30
 10
620.8221940000002
 20
-268.0
 30
0.0
 11
620.8221940000002
 21
-318.0
 31
0.0
  0
LINE
  5
D6
  8
SIZE
  6
CONTINUOUS
 62
    30
 10
620.8221940000002
 20
-320.0
 30
0.0
 11
620.8221940000002
 21
-322.0
 31
0.0
  0
LINE
  5
D7
  8
SIZE
  6
CONTINUOUS
 62
    30
 10
620.8221940000002
 20
-266.0
 30
0.0
 11
620.8221940000002
 21
-264.0
 31
0.0
  0
LINE
  5
D8
  8
SIZE
  6
CONTINUOUS
 62
    30
 10
477.5
 20
-268.0
 30
0.0
 11
650.8221940000002
 21
-268.0
 31
0.0
  0
LINE
  5
D9
  8
SIZE
  6
CONTINUOUS
 62
    30
 10
477.5
 20
-318.0
 30
0.0
 11
650.8221940000002
 21
-318.0
 31
0.0
  0
TEXT
  5
DA
  8
SIZE
  6
CONTINUOUS
 62
    30
 10
-936.42906999999991
 20
-264.057143
 30
0.0
 40
55.0
  1
380
 50
90.0
 41
0.9
  0
LINE
  5
DB
  8
SIZE
  6
CONTINUOUS
 62
    30
 10
-904.42907000000014
 20
-2.0
 30
0.0
 11
-904.42907000000014
 21
-190.0
 31
0.0
  0
LINE
  5
DC
  8
SIZE
  6
CONTINUOUS
 62
    30
 10
-904.42907000000014
 20
-378.0
 30
0.0
 11
-904.42907000000014
 21
-190.0
 31
0.0
  0
LINE
  5
DD
  8
SIZE
  6
CONTINUOUS
 62
    30
 10
-443.5
 20
0.0
 30
0.0
 11
-934.42907000000002
 21
0.0
 31
0.0
  0
LINE
  5
DE
  8
SIZE
  6
CONTINUOUS
 62
    30
 10
-443.5
 20
-380.0
 30
0.0
 11
-934.42907000000002
 21
-380.0
 31
0.0
  0
TEXT
  5
DF
  8
SIZE
  6
CONTINUOUS
 62
    30
 10
-816.89185799999973
 20
-499.07521500000001
 30
0.0
 40
55.0
  1
94
 50
90.0
 41
0.9
  0
LINE
  5
E0
  8
SIZE
  6
CONTINUOUS
 62
    30
 10
-784.89185799999984
 20
-286.0
 30
0.0
 11
-784.89185799999984
 21
-380.0
 31
0.0
  0
LINE
  5
E1
  8
SIZE
  6
CONTINUOUS
 62
    30
 10
-784.89185799999984
 20
-382.0
 30
0.0
 11
-784.89185799999984
 21
-384.0
 31
0.0
  0
LINE
  5
E2
  8
SIZE
  6
CONTINUOUS
 62
    30
 10
-784.89185799999984
 20
-284.0
 30
0.0
 11
-784.89185799999984
 21
-282.0
 31
0.0
  0
LINE
  5
E3
  8
SIZE
  6
CONTINUOUS
 62
    30
 10
-472.5
 20
-286.0
 30
0.0
 11
-814.89185799999984
 21
-286.0
 31
0.0
  0
LINE
  5
E4
  8
SIZE
  6
CONTINUOUS
 62
    30
 10
-443.5
 20
-380.0
 30
0.0
 11
-814.89185799999984
 21
-380.0
 31
0.0
  0
TEXT
  5
E5
  8
SIZE
  6
CONTINUOUS
 62
    30
 10
-816.89185799999973
 20
-235.057143
 30
0.0
 40
55.0
  1
250
 50
90.0
 41
0.9
  0
LINE
  5
E6
  8
SIZE
  6
CONTINUOUS
 62
    30
 10
-784.89185799999984
 20
-38.0
 30
0.0
 11
-784.89185799999984
 21
-161.0
 31
0.0
  0
LINE
  5
E7
  8
SIZE
  6
CONTINUOUS
 62
    30
 10
-784.89185799999984
 20
-284.0
 30
0.0
 11
-784.89185799999984
 21
-161.0
 31
0.0
  0
LINE
  5
E8
  8
SIZE
  6
CONTINUOUS
 62
    30
 10
-472.5
 20
-36.0
 30
0.0
 11
-814.89185799999984
 21
-36.0
 31
0.0
  0
LINE
  5
E9
  8
SIZE
  6
CONTINUOUS
 62
    30
 10
-472.5
 20
-286.0
 30
0.0
 11
-814.89185799999984
 21
-286.0
 31
0.0
  0
TEXT
  5
EA
  8
SIZE
  6
CONTINUOUS
 62
    30
 10
-695.87887799999987
 20
-495.76545399999998
 30
0.0
 40
55.0
  1
25
 50
90.0
 41
0.9
  0
LINE
  5
EB
  8
SIZE
  6
CONTINUOUS
 62
    30
 10
-663.87887799999964
 20
-261.0
 30
0.0
 11
-663.87887799999964
 21
-286.0
 31
0.0
  0
LINE
  5
EC
  8
SIZE
  6
CONTINUOUS
 62
    30
 10
-663.87887799999964
 20
-288.0
 30
0.0
 11
-663.87887799999964
 21
-290.0
 31
0.0
  0
LINE
  5
ED
  8
SIZE
  6
CONTINUOUS
 62
    30
 10
-663.87887799999964
 20
-259.0
 30
0.0
 11
-663.87887799999964
 21
-257.0
 31
0.0
  0
LINE
  5
EE
  8
SIZE
  6
CONTINUOUS
 62
    30
 10
-477.5
 20
-261.0
 30
0.0
 11
-693.87887799999999
 21
-261.0
 31
0.0
  0
LINE
  5
EF
  8
SIZE
  6
CONTINUOUS
 62
    30
 10
-472.5
 20
-286.0
 30
0.0
 11
-693.87887799999999
 21
-286.0
 31
0.0
  0
TEXT
  5
F0
  8
SIZE
  6
CONTINUOUS
 62
    30
 10
-695.87887799999987
 20
-235.057143
 30
0.0
 40
55.0
  1
200
 50
90.0
 41
0.9
  0
LINE
  5
F1
  8
SIZE
  6
CONTINUOUS
 62
    30
 10
-663.87887799999964
 20
-63.0
 30
0.0
 11
-663.87887799999964
 21
-161.0
 31
0.0
  0
LINE
  5
F2
  8
SIZE
  6
CONTINUOUS
 62
    30
 10
-663.87887799999964
 20
-259.0
 30
0.0
 11
-663.87887799999964
 21
-161.0
 31
0.0
  0
LINE
  5
F3
  8
SIZE
  6
CONTINUOUS
 62
    30
 10
-477.5
 20
-61.0
 30
0.0
 11
-693.87887799999999
 21
-61.0
 31
0.0
  0
LINE
  5
F4
  8
SIZE
  6
CONTINUOUS
 62
    30
 10
-477.5
 20
-261.0
 30
0.0
 11
-693.87887799999999
 21
-261.0
 31
0.0
  0
TEXT
  5
F5
  8
SIZE
  6
CONTINUOUS
 62
    30
 10
-576.34166600000003
 20
-195.54810000000001
 30
0.0
 40
55.0
  1
50
 50
90.0
 41
0.9
  0
LINE
  5
F6
  8
SIZE
  6
CONTINUOUS
 62
    30
 10
-544.34166600000003
 20
-211.0
 30
0.0
 11
-544.34166600000003
 21
-261.0
 31
0.0
  0
LINE
  5
F7
  8
SIZE
  6
CONTINUOUS
 62
    30
 10
-544.34166600000003
 20
-263.0
 30
0.0
 11
-544.34166600000003
 21
-265.0
 31
0.0
  0
LINE
  5
F8
  8
SIZE
  6
CONTINUOUS
 62
    30
 10
-544.34166600000003
 20
-209.0
 30
0.0
 11
-544.34166600000003
 21
-207.0
 31
0.0
  0
LINE
  5
F9
  8
SIZE
  6
CONTINUOUS
 62
    30
 10
-477.5
 20
-211.0
 30
0.0
 11
-574.34166600000003
 21
-211.0
 31
0.0
  0
LINE
  5
FA
  8
SIZE
  6
CONTINUOUS
 62
    30
 10
-477.5
 20
-261.0
 30
0.0
 11
-574.34166600000003
 21
-261.0
 31
0.0
  0
TEXT
  5
FB
  8
SIZE
  6
CONTINUOUS
 62
    30
 10
-577.81743399999982
 20
-479.39024499999999
 30
0.0
 40
55.0
  1
41
 50
90.0
 41
0.9
  0
LINE
  5
FC
  8
SIZE
  6
CONTINUOUS
 62
    30
 10
-545.81743399999993
 20
-339.0
 30
0.0
 11
-545.81743399999993
 21
-380.0
 31
0.0
  0
LINE
  5
FD
  8
SIZE
  6
CONTINUOUS
 62
    30
 10
-545.81743399999993
 20
-382.0
 30
0.0
 11
-545.81743399999993
 21
-384.0
 31
0.0
  0
LINE
  5
FE
  8
SIZE
  6
CONTINUOUS
 62
    30
 10
-545.81743399999993
 20
-337.0
 30
0.0
 11
-545.81743399999993
 21
-335.0
 31
0.0
  0
LINE
  5
FF
  8
SIZE
  6
CONTINUOUS
 62
    30
 10
-432.5
 20
-339.0
 30
0.0
 11
-575.81743399999982
 21
-339.0
 31
0.0
  0
LINE
  5
100
  8
SIZE
  6
CONTINUOUS
 62
    30
 10
-443.5
 20
-380.0
 30
0.0
 11
-575.81743399999982
 21
-380.0
 31
0.0
  0
POINT
  5
101
  8
ARRANGE
  6
CONTINUOUS
 62
     1
 10
0.0
 20
0.0
 30
0.0
  0
LINE
  5
102
  8
SIZE
  6
CONTINUOUS
 62
    30
 10
-663.87887799999964
 20
-290.0
 30
0.0
 11
-663.87887799999964
 21
-504.16389099999992
 31
0.0
  0
LINE
  5
103
  8
SIZE
  6
CONTINUOUS
 62
    30
 10
620.8221940000002
 20
-266.0
 30
0.0
 11
620.8221940000002
 21
-143.59202300000001
 31
0.0
  0
LINE
  5
104
  8
SIZE
  6
CONTINUOUS
 62
    30
 10
897.85980600000005
 20
-386.0
 30
0.0
 11
897.85980600000005
 21
-503.84550999999999
 31
0.0
  0
LINE
  5
105
  8
NOTE
  6
CONTINUOUS
 62
     4
 10
437.5
 20
-68.0
 30
0.0
 11
601.44672100000003
 21
44.749491999999996
 31
0.0
  0
LINE
  5
106
  8
NOTE
  6
CONTINUOUS
 62
     4
 10
-648.70454699999982
 20
55.585262999999998
 30
0.0
 11
-940.43706399999985
 21
55.585262999999998
 31
0.0
  0
TEXT
  5
107
  8
NOTE
  6
CONTINUOUS
 62
     4
 10
-929.72802899999988
 20
84.204690999999983
 30
0.0
 40
55.0
  1
48-âË3
 41
0.9
  0
LINE
  5
108
  8
NOTE
  6
CONTINUOUS
 62
     4
 10
-437.5
 20
-61.0
 30
0.0
 11
-648.70454699999982
 21
55.585262999999998
 31
0.0
  0
LINE
  5
109
  8
SIZE
  6
CONTINUOUS
 62
    30
 10
763.29867999999999
 20
-369.0
 30
0.0
 11
763.29867999999999
 21
-505.48377900000003
 31
0.0
  0
LINE
  5
10A
  8
SIZE
  6
CONTINUOUS
 62
    30
 10
-544.34166600000003
 20
-209.0
 30
0.0
 11
-544.34166600000003
 21
-97.525772000000003
 31
0.0
  0
LINE
  5
10B
  8
SIZE
  6
CONTINUOUS
 62
    30
 10
-784.89185799999984
 20
-384.0
 30
0.0
 11
-784.89185799999984
 21
-506.7247039999998
 31
0.0
  0
LINE
  5
10C
  8
SIZE
  6
CONTINUOUS
 62
    30
 10
-545.81743399999993
 20
-384.0
 30
0.0
 11
-545.81743399999993
 21
-489.31313200000011
 31
0.0
  0
LINE
  5
10D
  8
SIZE
  6
CONTINUOUS
 62
    30
 10
-454.49999999999989
 20
-859.14183976663139
 30
0.0
 11
-566.25069499999995
 21
-859.14183976663139
 31
0.0
  0
LINE
  5
10E
  8
SIZE
  6
CONTINUOUS
 62
    30
 10
451.49999999999989
 20
51.513461
 30
0.0
 11
574.51376500000003
 21
51.513461
 31
0.0
  0
LINE
  5
10F
  8
SIZE
  6
CONTINUOUS
 62
    30
 10
-452.5
 20
51.513461
 30
0.0
 11
-578.577718
 21
51.513461
 31
0.0
  0
LINE
  5
110
  8
SIZE
  6
CONTINUOUS
 62
    30
 10
447.5
 20
268.65578254539997
 30
0.0
 11
606.26556000000016
 21
268.65578254539997
 31
0.0
  0
LINE
  5
111
  8
SIZE
  6
CONTINUOUS
 62
    30
 10
-454.49999999999989
 20
268.65578254539997
 30
0.0
 11
-608.658365
 21
268.65578254539997
 31
0.0
  0
LINE
  5
112
  8
OUTLINE
  6
CONTINUOUS
 62
     3
 10
423.5
 20
-380.0
 30
0.0
 11
-423.5
 21
-380.0
 31
0.0
  0
LINE
  5
113
  8
OUTLINE
  6
CONTINUOUS
 62
     3
 10
423.5
 20
0.0
 30
0.0
 11
423.5
 21
-380.0
 31
0.0
  0
LINE
  5
114
  8
OUTLINE
  6
CONTINUOUS
 62
     3
 10
-423.5
 20
0.0
 30
0.0
 11
-423.5
 21
-380.0
 31
0.0
  0
LINE
  5
115
  8
OUTLINE
  6
CONTINUOUS
 62
     3
 10
423.5
 20
0.0
 30
0.0
 11
-423.5
 21
0.0
 31
0.0
  0
CIRCLE
  5
116
  8
DETAIL
  6
CONTINUOUS
 62
     5
 10
-437.5
 20
-261.0
 30
0.0
 40
1.5
  0
CIRCLE
  5
117
  8
DETAIL
  6
CONTINUOUS
 62
     5
 10
-437.5
 20
-211.0
 30
0.0
 40
1.5
  0
CIRCLE
  5
118
  8
DETAIL
  6
CONTINUOUS
 62
     5
 10
-437.5
 20
-161.0
 30
0.0
 40
1.5
  0
CIRCLE
  5
119
  8
DETAIL
  6
CONTINUOUS
 62
     5
 10
-437.5
 20
-111.0
 30
0.0
 40
1.5
  0
CIRCLE
  5
11A
  8
DETAIL
  6
CONTINUOUS
 62
     5
 10
-437.5
 20
-61.0
 30
0.0
 40
1.5
  0
CIRCLE
  5
11B
  8
DETAIL
  6
CONTINUOUS
 62
     5
 10
437.5
 20
-318.0
 30
0.0
 40
1.5
  0
CIRCLE
  5
11C
  8
DETAIL
  6
CONTINUOUS
 62
     5
 10
437.5
 20
-268.0
 30
0.0
 40
1.5
  0
CIRCLE
  5
11D
  8
DETAIL
  6
CONTINUOUS
 62
     5
 10
437.5
 20
-218.0
 30
0.0
 40
1.5
  0
CIRCLE
  5
11E
  8
DETAIL
  6
CONTINUOUS
 62
     5
 10
437.5
 20
-168.0
 30
0.0
 40
1.5
  0
CIRCLE
  5
11F
  8
DETAIL
  6
CONTINUOUS
 62
     5
 10
437.5
 20
-118.0
 30
0.0
 40
1.5
  0
CIRCLE
  5
120
  8
DETAIL
  6
CONTINUOUS
 62
     5
 10
437.5
 20
-68.0
 30
0.0
 40
1.5
  0
LINE
  5
121
  8
DETAIL
  6
CONTINUOUS
 62
     5
 10
-322.5
 20
-344.0
 30
0.0
 11
-322.5
 21
-380.0
 31
0.0
  0
LINE
  5
122
  8
DETAIL
  6
CONTINUOUS
 62
     5
 10
-322.5
 20
-344.0
 30
0.0
 11
-362.5
 21
-344.0
 31
0.0
  0
LINE
  5
123
  8
DETAIL
  6
CONTINUOUS
 62
     5
 10
351.5
 20
-344.0
 30
0.0
 11
351.5
 21
-380.0
 31
0.0
  0
LINE
  5
124
  8
DETAIL
  6
CONTINUOUS
 62
     5
 10
391.5
 20
-344.0
 30
0.0
 11
351.5
 21
-344.0
 31
0.0
  0
CIRCLE
  5
125
  8
ARRANGE
  6
CONTINUOUS
 62
     1
 10
0.0
 20
0.0
 30
0.0
 40
40.0
  0
CIRCLE
  5
128
  8
FIX
  6
CONTINUOUS
 62
    11
 10
-392.5
 20
-339.0
 30
0.0
 40
15.0
  0
LINE
  5
12A
  8
NOTE
  6
CONTINUOUS
 62
     4
 10
421.49999999999989
 20
-339.0
 30
0.0
 11
562.80405199999996
 21
-626.66953899999965
 31
0.0
  0
CIRCLE
  5
12B
  8
FIX
  6
CONTINUOUS
 62
    11
 10
421.49999999999989
 20
-339.0
 30
0.0
 40
15.0
  0
LINE
  5
12C
  8
DETAIL
  6
CONTINUOUS
 62
     5
 10
423.5
 20
-349.0
 30
0.0
 11
423.5
 21
-380.0
 31
0.0
  0
LINE
  5
12D
  8
DETAIL
  6
CONTINUOUS
 62
     5
 10
447.5
 20
-349.0
 30
0.0
 11
447.5
 21
-363.0
 31
0.0
  0
LINE
  5
12E
  8
DETAIL
  6
CONTINUOUS
 62
     5
 10
-362.5
 20
-339.0
 30
0.0
 11
-422.49999999999989
 21
-339.0
 31
0.0
  0
LINE
  5
12F
  8
DETAIL
  6
CONTINUOUS
 62
     5
 10
-362.5
 20
-349.0
 30
0.0
 11
-422.49999999999989
 21
-349.0
 31
0.0
  0
LINE
  5
130
  8
DETAIL
  6
CONTINUOUS
 62
     5
 10
451.49999999999989
 20
-349.0
 30
0.0
 11
391.5
 21
-349.0
 31
0.0
  0
LINE
  5
131
  8
DETAIL
  6
CONTINUOUS
 62
     5
 10
451.49999999999989
 20
-339.0
 30
0.0
 11
391.5
 21
-339.0
 31
0.0
  0
LINE
  5
132
  8
DETAIL
  6
CONTINUOUS
 62
     5
 10
-422.49999999999989
 20
-339.0
 30
0.0
 11
-422.49999999999989
 21
-349.0
 31
0.0
  0
LINE
  5
133
  8
DETAIL
  6
CONTINUOUS
 62
     5
 10
451.49999999999989
 20
-339.0
 30
0.0
 11
451.49999999999989
 21
-349.0
 31
0.0
  0
LINE
  5
134
  8
DETAIL
  6
CONTINUOUS
 62
     5
 10
391.5
 20
-339.0
 30
0.0
 11
391.5
 21
-349.0
 31
0.0
  0
LINE
  5
135
  8
DETAIL
  6
CONTINUOUS
 62
     5
 10
-362.5
 20
-339.0
 30
0.0
 11
-362.5
 21
-349.0
 31
0.0
  0
LINE
  5
136
  8
NOTE
  6
CONTINUOUS
 62
     4
 10
901.19635999999991
 20
44.749491999999996
 30
0.0
 11
601.44672100000003
 21
44.749491999999996
 31
0.0
  0
TEXT
  5
137
  8
NOTE
  6
CONTINUOUS
 62
     4
 10
601.97124099999985
 20
73.368919999999974
 30
0.0
 40
55.0
  1
54-âË3
 41
0.9
  0
LINE
  5
13A
  8
DETAIL
  6
CONTINUOUS
 62
     5
 10
-423.5
 20
-36.0
 30
0.0
 11
-452.5
 21
-36.0
 31
0.0
  0
LINE
  5
13B
  8
DETAIL
  6
CONTINUOUS
 62
     5
 10
447.5
 20
-23.0
 30
0.0
 11
423.5
 21
-23.0
 31
0.0
  0
LINE
  5
13C
  8
DETAIL
  6
CONTINUOUS
 62
     5
 10
-423.5
 20
-286.0
 30
0.0
 11
-452.5
 21
-286.0
 31
0.0
  0
LINE
  5
13D
  8
DETAIL
  6
CONTINUOUS
 62
     5
 10
447.5
 20
-363.0
 30
0.0
 11
423.5
 21
-363.0
 31
0.0
  0
LINE
  5
13E
  8
DETAIL
  6
CONTINUOUS
 62
     5
 10
-452.5
 20
-36.0
 30
0.0
 11
-452.5
 21
-286.0
 31
0.0
  0
LINE
  5
13F
  8
DETAIL
  6
CONTINUOUS
 62
     5
 10
447.5
 20
-23.0
 30
0.0
 11
447.5
 21
-339.0
 31
0.0
  0
LINE
  5
140
  8
DETAIL
  6
CONTINUOUS
 62
     5
 10
423.5
 20
0.0
 30
0.0
 11
-423.5
 21
0.0
 31
0.0
  0
LINE
  5
141
  8
DETAIL
  6
CONTINUOUS
 62
     5
 10
-423.5
 20
0.0
 30
0.0
 11
-423.5
 21
-380.0
 31
0.0
  0
LINE
  5
142
  8
DETAIL
  6
CONTINUOUS
 62
     5
 10
423.5
 20
0.0
 30
0.0
 11
423.5
 21
-339.0
 31
0.0
  0
LINE
  5
143
  8
DETAIL
  6
CONTINUOUS
 62
     5
 10
423.5
 20
-380.0
 30
0.0
 11
-423.5
 21
-380.0
 31
0.0
  0
LINE
  5
144
  8
BASIS
  6
DASHDOT
 62
     6
 10
0.0
 20
89.133783999999963
 30
0.0
 11
0.0
 21
-480.89146699999998
 31
0.0
  0
TEXT
  5
145
  8
ETC
  6
CONTINUOUS
 62
    61
 10
196.89623750843751
 20
529.17371902538048
 30
0.0
 40
64.0
  1
PE-RP112_160CA5_4
 41
0.9
  0
LINE
  5
250
  8
NOTE
  6
CONTINUOUS
 62
     4
 10
1050.649519492719
 20
-626.66954165803816
 30
0.0
 11
562.80404212097108
 21
-626.66954165803816
 31
0.0
  0
TEXT
  5
251
  8
NOTE
  6
CONTINUOUS
 62
     4
 10
571.55901334547525
 20
-612.28672118881809
 30
0.0
 40
55.0
  1
AH 4-14ü~30ÆÀîè
 50
0.000003
 41
0.7
  7
STANDARD1
  0
LINE
  5
285
  8
NOTE
  6
CONTINUOUS
 62
     4
 10
-115.4163335634657
 20
148.16450318150601
 30
0.0
 11
248.9088042471268
 21
148.16450318150601
 31
0.0
  0
TEXT
  5
286
  8
NOTE
  6
CONTINUOUS
 62
     4
 10
-92.448010563465687
 20
171.003031181506
 30
0.0
 40
55.0
  1
RL âË9.52
 41
0.9
  0
TEXT
  5
287
  8
NOTE
  6
CONTINUOUS
 62
     4
 10
9.2296375038640672
 20
-616.7049279225505
 30
0.0
 40
55.0
  1
RG âË15.88
 41
0.9
  0
LINE
  5
288
  8
NOTE
  6
CONTINUOUS
 62
     4
 10
6.472432205009679
 20
-639.54345592255027
 30
0.0
 11
386.71818585452257
 21
-639.54345592255027
 31
0.0
  0
LINE
  5
289
  8
NOTE
  6
CONTINUOUS
 62
     4
 10
-223.5
 20
-250.0
 30
0.0
 11
6.472432205009679
 21
-639.54345592255027
 31
0.0
  0
LINE
  5
28A
  8
NOTE
  6
CONTINUOUS
 62
     4
 10
-131.5
 20
-173.0
 30
0.0
 11
-115.4163335634657
 21
148.16450318150601
 31
0.0
  0
LINE
  5
28B
  8
NOTE
  6
CONTINUOUS
 62
     4
 10
-151.5
 20
-173.0
 30
0.0
 11
-111.5
 21
-173.0
 31
0.0
  0
LINE
  5
28C
  8
NOTE
  6
CONTINUOUS
 62
     4
 10
-131.5
 20
-193.0
 30
0.0
 11
-131.5
 21
-153.0
 31
0.0
  0
LINE
  5
28D
  8
NOTE
  6
CONTINUOUS
 62
     4
 10
-243.5
 20
-250.0
 30
0.0
 11
-203.5
 21
-250.0
 31
0.0
  0
LINE
  5
28E
  8
NOTE
  6
CONTINUOUS
 62
     4
 10
-223.5
 20
-270.0
 30
0.0
 11
-223.5
 21
-230.0
 31
0.0
  0
LINE
  5
28F
  8
NOTE
  6
CONTINUOUS
 62
     4
 10
-196.40204620759181
 20
-279.42279621315902
 30
0.0
 11
-223.5
 21
-250.0
 31
0.0
  0
LINE
  5
290
  8
NOTE
  6
CONTINUOUS
 62
     4
 10
-223.5
 20
-250.0
 30
0.0
 11
-214.74388198572441
 21
-289.0298648115384
 31
0.0
  0
LINE
  5
291
  8
NOTE
  6
CONTINUOUS
 62
     4
 10
-140.595816835096
 20
-134.04789957597609
 30
0.0
 11
-131.5
 21
-173.0
 31
0.0
  0
LINE
  5
292
  8
NOTE
  6
CONTINUOUS
 62
     4
 10
-131.5
 20
-173.0
 30
0.0
 11
-119.9011579011045
 21
-134.7185831947728
 31
0.0
  0
LINE
  5
2F2
  8
SIZE
  6
CONTINUOUS
 62
    30
 10
-423.5
 20
-400.0
 30
0.0
 11
-423.5
 21
-770.44981458266545
 31
0.0
  0
LINE
  5
2F3
  8
SIZE
  6
CONTINUOUS
 62
    30
 10
-233.5
 20
-740.44981458266545
 30
0.0
 11
-413.49999999999989
 21
-740.44981458266545
 31
0.0
  0
LINE
  5
2F9
  8
SIZE
  6
CONTINUOUS
 62
    30
 10
-131.5
 20
-213.0
 30
0.0
 11
-131.5
 21
-770.44981458266545
 31
0.0
  0
LINE
  5
2FA
  8
SIZE
  6
CONTINUOUS
 62
    30
 10
-213.5
 20
-740.44981458266545
 30
0.0
 11
-141.5
 21
-740.44981458266545
 31
0.0
  0
LINE
  5
2FB
  8
SIZE
  6
CONTINUOUS
 62
    30
 10
-131.5
 20
-740.44981458266545
 30
0.0
 11
0.2825499554363802
 21
-740.44981458266545
 31
0.0
  0
TEXT
  5
2FF
  8
SIZE
  6
CONTINUOUS
 62
    30
 10
-100.32317682153371
 20
-723.11918202146956
 30
0.0
 40
55.0
  1
92
 41
0.9
  0
CIRCLE
  5
300
  8
SIZE
  6
CONTINUOUS
 62
    30
 10
-131.5
 20
-740.44981458266545
 30
0.0
 40
5.0
  0
LINE
  5
301
  8
SIZE
  6
CONTINUOUS
 62
    30
 10
-136.5
 20
-740.44981458266545
 30
0.0
 11
-141.5
 21
-740.44981458266545
 31
0.0
  0
CIRCLE
  5
302
  8
SIZE
  6
CONTINUOUS
 62
    30
 10
-223.5
 20
-740.44981458266545
 30
0.0
 40
5.0
  0
LINE
  5
303
  8
SIZE
  6
CONTINUOUS
 62
    30
 10
-218.5
 20
-740.44981458266545
 30
0.0
 11
-213.5
 21
-740.44981458266545
 31
0.0
  0
TEXT
  5
304
  8
SIZE
  6
CONTINUOUS
 62
    30
 10
-383.81736859181552
 20
-722.95910862550215
 30
0.0
 40
55.0
  1
200
 41
0.9
  0
CIRCLE
  5
305
  8
SIZE
  6
CONTINUOUS
 62
    30
 10
-423.5
 20
-740.44981458266545
 30
0.0
 40
5.0
  0
LINE
  5
306
  8
SIZE
  6
CONTINUOUS
 62
    30
 10
-418.5
 20
-740.44981458266545
 30
0.0
 11
-413.49999999999989
 21
-740.44981458266545
 31
0.0
  0
CIRCLE
  5
307
  8
SIZE
  6
CONTINUOUS
 62
    30
 10
-223.5
 20
-740.44981458266545
 30
0.0
 40
5.0
  0
LINE
  5
308
  8
SIZE
  6
CONTINUOUS
 62
    30
 10
-228.5
 20
-740.44981458266545
 30
0.0
 11
-233.5
 21
-740.44981458266545
 31
0.0
  0
LINE
  5
310
  8
SIZE
  6
CONTINUOUS
 62
    30
 10
-223.4999884643621
 20
-285.01089106780643
 30
0.0
 11
-223.4999884643621
 21
-770.4498096373427
 31
0.0
  0
LINE
  5
394
  8
SIZE
  6
CONTINUOUS
 62
    30
 10
-183.5
 20
-250.0
 30
0.0
 11
177.51040360487971
 21
-250.00000000000011
 31
0.0
  0
LINE
  5
395
  8
SIZE
  6
CONTINUOUS
 62
    30
 10
147.5104036048796
 20
-240.00000000000011
 30
0.0
 11
147.51040360487971
 21
-183.00000000000011
 31
0.0
  0
LINE
  5
396
  8
SIZE
  6
CONTINUOUS
 62
    30
 10
147.51040360487971
 20
-173.00000000000011
 30
0.0
 11
147.51040360487971
 21
-57.610757419783262
 31
0.0
  0
LINE
  5
39A
  8
SIZE
  6
CONTINUOUS
 62
    30
 10
-403.5
 20
-380.0
 30
0.0
 11
177.5104036048796
 21
-380.00000000000023
 31
0.0
  0
LINE
  5
39B
  8
SIZE
  6
CONTINUOUS
 62
    30
 10
147.5104036048796
 20
-240.00000000000011
 30
0.0
 11
147.5104036048796
 21
-230.00000000000011
 31
0.0
  0
LINE
  5
39C
  8
SIZE
  6
CONTINUOUS
 62
    30
 10
147.5104036048796
 20
-390.00000000000028
 30
0.0
 11
147.5104036048796
 21
-540.53191029516518
 31
0.0
  0
LINE
  5
39D
  8
SIZE
  6
CONTINUOUS
 62
    30
 10
147.5104036048796
 20
-250.00000000000011
 30
0.0
 11
147.5104036048796
 21
-380.00000000000023
 31
0.0
  0
TEXT
  5
3A1
  8
SIZE
  6
CONTINUOUS
 62
    30
 10
134.51069150805409
 20
-150.9579002769261
 30
0.0
 40
55.0
  1
77
 50
90.0
 41
0.9
  0
CIRCLE
  5
3A2
  8
SIZE
  6
CONTINUOUS
 62
    30
 10
147.51040360487971
 20
-173.00000000000011
 30
0.0
 40
5.0
  0
LINE
  5
3A3
  8
SIZE
  6
CONTINUOUS
 62
    30
 10
147.51040360487971
 20
-178.00000000000011
 30
0.0
 11
147.51040360487971
 21
-183.00000000000011
 31
0.0
  0
CIRCLE
  5
3A4
  8
SIZE
  6
CONTINUOUS
 62
    30
 10
147.5104036048796
 20
-250.00000000000011
 30
0.0
 40
5.0
  0
LINE
  5
3A5
  8
SIZE
  6
CONTINUOUS
 62
    30
 10
147.5104036048796
 20
-245.00000000000011
 30
0.0
 11
147.5104036048796
 21
-240.00000000000011
 31
0.0
  0
TEXT
  5
3A6
  8
SIZE
  6
CONTINUOUS
 62
    30
 10
134.757595418574
 20
-519.52468163289802
 30
0.0
 40
55.0
  1
130
 50
90.0
 41
0.9
  0
CIRCLE
  5
3A7
  8
SIZE
  6
CONTINUOUS
 62
    30
 10
147.5104036048796
 20
-380.00000000000023
 30
0.0
 40
5.0
  0
LINE
  5
3A8
  8
SIZE
  6
CONTINUOUS
 62
    30
 10
147.5104036048796
 20
-385.00000000000023
 30
0.0
 11
147.5104036048796
 21
-390.00000000000028
 31
0.0
  0
CIRCLE
  5
3A9
  8
SIZE
  6
CONTINUOUS
 62
    30
 10
147.5104036048796
 20
-250.00000000000011
 30
0.0
 40
5.0
  0
LINE
  5
3AA
  8
SIZE
  6
CONTINUOUS
 62
    30
 10
147.5104036048796
 20
-245.00000000000011
 30
0.0
 11
147.5104036048796
 21
-240.00000000000011
 31
0.0
  0
LINE
  5
3B7
  8
SIZE
  6
CONTINUOUS
 62
    30
 10
-67.663039527004003
 20
-173.0
 30
0.0
 11
177.51040360487971
 21
-173.00000000000011
 31
0.0
  0
ENDSEC
  0
EOF
