  0
SECTION
  2
HEADER
  9
$ACADVER
  1
AC1009
  9
$INSBASE
 10
0.0
 20
0.0
 30
0.0
  9
$EXTMIN
 10
-917.35836458085043
 20
-1100.6927241113619
 30
-0.0000000000112498
  9
$EXTMAX
 10
1230.468772387208
 20
647.50673033705243
 30
0.0000000000002956
  9
$LIMMIN
 10
-6000.0
 20
-4500.0
  9
$LIMMAX
 10
6000.0
 20
4500.0
  9
$ORTHOMODE
 70
     1
  9
$REGENMODE
 70
     1
  9
$FILLMODE
 70
     1
  9
$QTEXTMODE
 70
     0
  9
$MIRRTEXT
 70
     0
  9
$DRAGMODE
 70
     2
  9
$LTSCALE
 40
20.0
  9
$OSMODE
 70
   959
  9
$ATTMODE
 70
     1
  9
$TEXTSIZE
 40
64.0
  9
$TRACEWID
 40
0.05
  9
$TEXTSTYLE
  7
STANDARD
  9
$CLAYER
  8
SYMBOLLINE
  9
$CELTYPE
  6
CONTINUOUS
  9
$CECOLOR
 62
     7
  9
$DIMSCALE
 40
1.0
  9
$DIMASZ
 40
10.0
  9
$DIMEXO
 40
20.0
  9
$DIMDLI
 40
200.0
  9
$DIMRND
 40
0.0
  9
$DIMDLE
 40
0.0
  9
$DIMEXE
 40
30.0
  9
$DIMTP
 40
0.0
  9
$DIMTM
 40
0.0
  9
$DIMTXT
 40
64.0
  9
$DIMCEN
 40
0.0
  9
$DIMTSZ
 40
0.0
  9
$DIMTOL
 70
     0
  9
$DIMLIM
 70
     0
  9
$DIMTIH
 70
     0
  9
$DIMTOH
 70
     0
  9
$DIMSE1
 70
     1
  9
$DIMSE2
 70
     0
  9
$DIMTAD
 70
     1
  9
$DIMZIN
 70
     8
  9
$DIMBLK
  1

  9
$DIMASO
 70
     1
  9
$DIMSHO
 70
     0
  9
$DIMPOST
  1

  9
$DIMAPOST
  1

  9
$DIMALT
 70
     0
  9
$DIMALTD
 70
     2
  9
$DIMALTF
 40
25.399999999999999
  9
$DIMLFAC
 40
1.0
  9
$DIMTOFL
 70
     1
  9
$DIMTVP
 40
0.0
  9
$DIMTIX
 70
     1
  9
$DIMSOXD
 70
     0
  9
$DIMSAH
 70
     1
  9
$DIMBLK1
  1
DOTBLANK
  9
$DIMBLK2
  1
DOTBLANK
  9
$DIMSTYLE
  2
STANDARD
  9
$DIMCLRD
 70
     0
  9
$DIMCLRE
 70
     0
  9
$DIMCLRT
 70
     0
  9
$DIMTFAC
 40
1.0
  9
$DIMGAP
 40
0.09
  9
$LUNITS
 70
     2
  9
$LUPREC
 70
     4
  9
$SKETCHINC
 40
0.1
  9
$FILLETRAD
 40
19.039999999999999
  9
$AUNITS
 70
     1
  9
$AUPREC
 70
     3
  9
$MENU
  1
ACAD
  9
$ELEVATION
 40
0.0
  9
$PELEVATION
 40
0.0
  9
$THICKNESS
 40
0.0
  9
$LIMCHECK
 70
     0
  9
$BLIPMODE
 70
     0
  9
$CHAMFERA
 40
0.0
  9
$CHAMFERB
 40
0.0
  9
$SKPOLY
 70
     0
  9
$TDCREATE
 40
2450330.4399309959
  9
$TDUPDATE
 40
2455580.778701528
  9
$TDINDWG
 40
1.25842375
  9
$TDUSRTIMER
 40
1.2584224074000001
  9
$USRTIMER
 70
     1
  9
$ANGBASE
 50
0.0
  9
$ANGDIR
 70
     0
  9
$PDMODE
 70
     3
  9
$PDSIZE
 40
-2.0
  9
$PLINEWID
 40
0.0
  9
$COORDS
 70
     0
  9
$SPLFRAME
 70
     0
  9
$SPLINETYPE
 70
     6
  9
$SPLINESEGS
 70
     8
  9
$ATTDIA
 70
     0
  9
$ATTREQ
 70
     1
  9
$HANDLING
 70
     1
  9
$HANDSEED
  5
520
  9
$SURFTAB1
 70
     6
  9
$SURFTAB2
 70
     6
  9
$SURFTYPE
 70
     6
  9
$SURFU
 70
     6
  9
$SURFV
 70
     6
  9
$UCSNAME
  2

  9
$UCSORG
 10
0.0
 20
0.0
 30
0.0
  9
$UCSXDIR
 10
1.0
 20
0.0
 30
0.0
  9
$UCSYDIR
 10
0.0
 20
1.0
 30
0.0
  9
$PUCSNAME
  2

  9
$PUCSORG
 10
0.0
 20
0.0
 30
0.0
  9
$PUCSXDIR
 10
1.0
 20
0.0
 30
0.0
  9
$PUCSYDIR
 10
0.0
 20
1.0
 30
0.0
  9
$USERI1
 70
     0
  9
$USERI2
 70
     0
  9
$USERI3
 70
     0
  9
$USERI4
 70
     0
  9
$USERI5
 70
     0
  9
$USERR1
 40
20.0
  9
$USERR2
 40
0.0
  9
$USERR3
 40
0.0
  9
$USERR4
 40
0.0
  9
$USERR5
 40
0.0
  9
$WORLDVIEW
 70
     1
  9
$SHADEDGE
 70
     3
  9
$SHADEDIF
 70
    70
  9
$TILEMODE
 70
     1
  9
$MAXACTVP
 70
    48
  9
$PLIMCHECK
 70
     0
  9
$PEXTMIN
 10
1.0000000000000000E+020
 20
1.0000000000000000E+020
 30
1.0000000000000000E+020
  9
$PEXTMAX
 10
-1.0000000000000000E+020
 20
-1.0000000000000000E+020
 30
-1.0000000000000000E+020
  9
$PLIMMIN
 10
0.0
 20
0.0
  9
$PLIMMAX
 10
12.0
 20
9.0
  9
$UNITMODE
 70
     0
  9
$VISRETAIN
 70
     1
  9
$PLINEGEN
 70
     0
  9
$PSLTSCALE
 70
     1
  0
ENDSEC
  0
SECTION
  2
TABLES
  0
TABLE
  2
VPORT
 70
     1
  0
VPORT
  2
*ACTIVE
 70
     0
 10
0.0
 20
0.0
 11
1.0
 21
1.0
 12
0.0
 22
0.0
 13
0.0
 23
0.0
 14
50.0
 24
50.0
 15
100.0
 25
100.0
 16
0.0
 26
0.0
 36
1.0
 17
0.0
 27
0.0
 37
0.0
 40
9068.9655172413786
 41
1.5639386189258311
 42
50.0
 43
0.0
 44
0.0
 50
0.0
 51
0.0
 71
     0
 72
  1000
 73
     1
 74
     0
 75
     0
 76
     0
 77
     0
 78
     0
  0
ENDTAB
  0
TABLE
  2
LTYPE
 70
     2
  0
LTYPE
  2
CONTINUOUS
 70
     0
  3
Ä└É³
 72
    65
 73
     0
 40
0.0
  0
LTYPE
  2
DASHDOT
 70
     0
  3
____ _ ____ _ ____ _ ____ _ ____ _ ____ _ ____
 72
    65
 73
     4
 40
5.5
 49
4.0
 49
-0.6
 49
0.3
 49
-0.6
  0
ENDTAB
  0
TABLE
  2
LAYER
 70
    12
  0
LAYER
  2
0
 70
     0
 62
     7
  6
CONTINUOUS
  0
LAYER
  2
SYMBOLLINE
 70
     0
 62
    15
  6
CONTINUOUS
  0
LAYER
  2
OUTLINE
 70
     0
 62
     3
  6
CONTINUOUS
  0
LAYER
  2
DETAIL
 70
     0
 62
     5
  6
CONTINUOUS
  0
LAYER
  2
BASIS
 70
     0
 62
     6
  6
DASHDOT
  0
LAYER
  2
SIZE
 70
     0
 62
    30
  6
CONTINUOUS
  0
LAYER
  2
NOTE
 70
     0
 62
     4
  6
CONTINUOUS
  0
LAYER
  2
ARRANGE
 70
     0
 62
     1
  6
CONTINUOUS
  0
LAYER
  2
FIX
 70
     0
 62
    11
  6
CONTINUOUS
  0
LAYER
  2
SERVICESPACE
 70
     0
 62
     2
  6
DASHDOT
  0
LAYER
  2
ETC
 70
     0
 62
    61
  6
CONTINUOUS
  0
LAYER
  2
DEFPOINTS
 70
     0
 62
     7
  6
CONTINUOUS
  0
ENDTAB
  0
TABLE
  2
STYLE
 70
     3
  0
STYLE
  2
STANDARD
 70
     0
 40
0.0
 41
0.9
 50
0.0
 71
     0
 42
64.0
  3
SIMPLEX
  4
BIGFONT
  0
STYLE
  2
ANNOTATIVE
 70
     0
 40
0.0
 41
1.0
 50
0.0
 71
     0
 42
0.2
  3
txt
  4

  0
STYLE
  2
STANDARD1
 70
     0
 40
0.0
 41
1.0
 50
0.0
 71
     0
 42
64.0
  3
MONOTXT
  4
BIGFONT
  0
ENDTAB
  0
TABLE
  2
VIEW
 70
     5
  0
VIEW
  2
ALL
 70
     0
 40
9000.0
 10
241.50664699999999
 20
0.0
 41
12483.01
 11
0.0
 21
0.0
 31
1.0
 12
0.0
 22
0.0
 32
0.0
 42
50.0
 43
0.0
 44
0.0
 50
0.0
 71
     0
  0
ENDTAB
  0
TABLE
  2
UCS
 70
     0
  0
ENDTAB
  0
TABLE
  2
APPID
 70
     4
  0
APPID
  2
ACAD
 70
     0
  0
APPID
  2
ACADANNOTATIVE
 70
     0
  0
APPID
  2
ACAD_MLEADERVER
 70
     0
  0
APPID
  2
ACAD_EXEMPT_FROM_CAD_STANDARDS
 70
     0
  0
ENDTAB
  0
TABLE
  2
DIMSTYLE
 70
     2
  0
DIMSTYLE
  2
STANDARD
 70
     0
  3

  4

  5

  6

  7

 40
1.0
 41
0.18
 42
0.0625
 43
0.38
 44
0.18
 45
0.0
 46
0.0
 47
0.0
 48
0.0
140
0.18
141
0.09
142
0.0
143
25.399999999999999
144
1.0
145
0.0
146
1.0
147
0.09
 71
     0
 72
     0
 73
     1
 74
     1
 75
     0
 76
     0
 77
     0
 78
     0
170
     0
171
     2
172
     0
173
     0
174
     0
175
     0
176
     0
177
     0
178
     0
  0
DIMSTYLE
  2
ANNOTATIVE
 70
     0
  3

  4

  5

  6

  7

 40
1.0
 41
0.18
 42
0.0625
 43
0.38
 44
0.18
 45
0.0
 46
0.0
 47
0.0
 48
0.0
140
0.18
141
0.09
142
0.0
143
25.399999999999999
144
1.0
145
0.0
146
1.0
147
0.09
 71
     0
 72
     0
 73
     1
 74
     1
 75
     0
 76
     0
 77
     0
 78
     0
170
     0
171
     2
172
     0
173
     0
174
     0
175
     0
176
     0
177
     0
178
     0
  0
ENDTAB
  0
ENDSEC
  0
SECTION
  2
BLOCKS
  0
BLOCK
  8
0
  2
$MODEL_SPACE
 70
     0
 10
0.0
 20
0.0
 30
0.0
  3
$MODEL_SPACE
  1

  0
ENDBLK
  5
48B
  8
0
  0
BLOCK
 67
     1
  8
0
  2
$PAPER_SPACE
 70
     0
 10
0.0
 20
0.0
 30
0.0
  3
$PAPER_SPACE
  1

  0
ENDBLK
  5
487
 67
     1
  8
0
  0
BLOCK
  8
0
  2
_DOTBLANK
 70
     0
 10
0.0
 20
0.0
 30
0.0
  3
_DOTBLANK
  1

  0
CIRCLE
  5
30
  8
0
  6
CONTINUOUS
 62
     7
 10
0.0
 20
0.0
 30
0.0
 40
0.5
  0
LINE
  5
31
  8
0
  6
CONTINUOUS
 62
     7
 10
-0.5
 20
0.0
 30
0.0
 11
-1.0
 21
0.0
 31
0.0
  0
ENDBLK
  5
32
  8
0
  0
ENDSEC
  0
SECTION
  2
ENTITIES
  0
LINE
  5
34
  8
NOTE
  6
CONTINUOUS
 62
     4
 10
-421.49999999999989
 20
-359.0
 30
0.0
 11
-421.49999999999989
 21
-319.0
 31
0.0
  0
LINE
  5
35
  8
NOTE
  6
CONTINUOUS
 62
     4
 10
-401.49999999999989
 20
-339.0
 30
0.0
 11
-441.5
 21
-339.0
 31
0.0
  0
POLYLINE
  5
3B
  8
NOTE
  6
CONTINUOUS
 62
     4
 66
     1
 10
0.0
 20
0.0
 30
0.0
  0
VERTEX
  5
4FC
  8
NOTE
  6
CONTINUOUS
 62
     4
 10
421.73008700000003
 20
-366.30571400000002
 30
0.0
  0
VERTEX
  5
4FD
  8
NOTE
  6
CONTINUOUS
 62
     4
 10
392.5
 20
-339.0
 30
0.0
  0
VERTEX
  5
4FE
  8
NOTE
  6
CONTINUOUS
 62
     4
 10
404.16114099999987
 20
-377.26248500000003
 30
0.0
  0
SEQEND
  5
4FF
  8
NOTE
  6
CONTINUOUS
 62
     4
  0
LINE
  5
40
  8
NOTE
  6
CONTINUOUS
 62
     4
 10
392.5
 20
-359.0
 30
0.0
 11
392.5
 21
-319.0
 31
0.0
  0
LINE
  5
41
  8
NOTE
  6
CONTINUOUS
 62
     4
 10
412.5
 20
-339.0
 30
0.0
 11
372.5
 21
-339.0
 31
0.0
  0
LINE
  5
42
  8
NOTE
  6
CONTINUOUS
 62
     4
 10
417.49999999999989
 20
-261.0
 30
0.0
 11
457.5
 21
-261.0
 31
0.0
  0
LINE
  5
43
  8
NOTE
  6
CONTINUOUS
 62
     4
 10
437.5
 20
-281.0
 30
0.0
 11
437.5
 21
-241.0
 31
0.0
  0
LINE
  5
44
  8
NOTE
  6
CONTINUOUS
 62
     4
 10
417.49999999999989
 20
-211.0
 30
0.0
 11
457.5
 21
-211.0
 31
0.0
  0
LINE
  5
45
  8
NOTE
  6
CONTINUOUS
 62
     4
 10
437.5
 20
-231.0
 30
0.0
 11
437.5
 21
-191.0
 31
0.0
  0
LINE
  5
46
  8
NOTE
  6
CONTINUOUS
 62
     4
 10
417.49999999999989
 20
-161.0
 30
0.0
 11
457.5
 21
-161.0
 31
0.0
  0
LINE
  5
47
  8
NOTE
  6
CONTINUOUS
 62
     4
 10
437.5
 20
-181.0
 30
0.0
 11
437.5
 21
-141.0
 31
0.0
  0
LINE
  5
48
  8
NOTE
  6
CONTINUOUS
 62
     4
 10
417.49999999999989
 20
-111.0
 30
0.0
 11
457.5
 21
-111.0
 31
0.0
  0
LINE
  5
49
  8
NOTE
  6
CONTINUOUS
 62
     4
 10
437.5
 20
-131.0
 30
0.0
 11
437.5
 21
-91.0
 31
0.0
  0
LINE
  5
4A
  8
NOTE
  6
CONTINUOUS
 62
     4
 10
417.49999999999989
 20
-61.0
 30
0.0
 11
457.5
 21
-61.0
 31
0.0
  0
LINE
  5
4B
  8
NOTE
  6
CONTINUOUS
 62
     4
 10
437.5
 20
-81.0
 30
0.0
 11
437.5
 21
-41.0
 31
0.0
  0
LINE
  5
4C
  8
NOTE
  6
CONTINUOUS
 62
     4
 10
-417.49999999999989
 20
-318.0
 30
0.0
 11
-457.5
 21
-318.0
 31
0.0
  0
LINE
  5
4D
  8
NOTE
  6
CONTINUOUS
 62
     4
 10
-437.5
 20
-338.0
 30
0.0
 11
-437.5
 21
-298.0
 31
0.0
  0
LINE
  5
4E
  8
NOTE
  6
CONTINUOUS
 62
     4
 10
-417.49999999999989
 20
-268.0
 30
0.0
 11
-457.5
 21
-268.0
 31
0.0
  0
LINE
  5
4F
  8
NOTE
  6
CONTINUOUS
 62
     4
 10
-437.5
 20
-288.0
 30
0.0
 11
-437.5
 21
-248.0
 31
0.0
  0
LINE
  5
50
  8
NOTE
  6
CONTINUOUS
 62
     4
 10
-417.49999999999989
 20
-218.0
 30
0.0
 11
-457.5
 21
-218.0
 31
0.0
  0
LINE
  5
51
  8
NOTE
  6
CONTINUOUS
 62
     4
 10
-437.5
 20
-238.0
 30
0.0
 11
-437.5
 21
-198.0
 31
0.0
  0
LINE
  5
52
  8
NOTE
  6
CONTINUOUS
 62
     4
 10
-417.49999999999989
 20
-168.0
 30
0.0
 11
-457.5
 21
-168.0
 31
0.0
  0
LINE
  5
53
  8
NOTE
  6
CONTINUOUS
 62
     4
 10
-437.5
 20
-188.0
 30
0.0
 11
-437.5
 21
-148.0
 31
0.0
  0
LINE
  5
54
  8
NOTE
  6
CONTINUOUS
 62
     4
 10
-417.49999999999989
 20
-118.0
 30
0.0
 11
-457.5
 21
-118.0
 31
0.0
  0
LINE
  5
55
  8
NOTE
  6
CONTINUOUS
 62
     4
 10
-437.5
 20
-138.0
 30
0.0
 11
-437.5
 21
-98.0
 31
0.0
  0
LINE
  5
56
  8
NOTE
  6
CONTINUOUS
 62
     4
 10
-417.49999999999989
 20
-68.0
 30
0.0
 11
-457.5
 21
-68.0
 31
0.0
  0
LINE
  5
57
  8
NOTE
  6
CONTINUOUS
 62
     4
 10
-437.5
 20
-88.0
 30
0.0
 11
-437.5
 21
-48.0
 31
0.0
  0
LINE
  5
58
  8
NOTE
  6
CONTINUOUS
 62
     4
 10
111.5
 20
-173.0
 30
0.0
 11
151.5
 21
-173.0
 31
0.0
  0
LINE
  5
59
  8
NOTE
  6
CONTINUOUS
 62
     4
 10
131.5
 20
-193.0
 30
0.0
 11
131.5
 21
-153.0
 31
0.0
  0
LINE
  5
5A
  8
NOTE
  6
CONTINUOUS
 62
     4
 10
203.5
 20
-250.0
 30
0.0
 11
243.5
 21
-250.0
 31
0.0
  0
LINE
  5
5B
  8
NOTE
  6
CONTINUOUS
 62
     4
 10
223.5
 20
-270.0
 30
0.0
 11
223.5
 21
-230.0
 31
0.0
  0
LINE
  5
5C
  8
NOTE
  6
CONTINUOUS
 62
     4
 10
60.5
 20
-350.0
 30
0.0
 11
100.5
 21
-350.0
 31
0.0
  0
LINE
  5
5D
  8
NOTE
  6
CONTINUOUS
 62
     4
 10
80.5
 20
-370.0
 30
0.0
 11
80.5
 21
-330.0
 31
0.0
  0
POLYLINE
  5
5E
  8
NOTE
  6
CONTINUOUS
 62
     4
 66
     1
 10
0.0
 20
0.0
 30
0.0
  0
VERTEX
  5
500
  8
NOTE
  6
CONTINUOUS
 62
     4
 10
78.604433999999998
 20
-389.95506
 30
0.0
  0
VERTEX
  5
501
  8
NOTE
  6
CONTINUOUS
 62
     4
 10
80.5
 20
-350.0
 30
0.0
  0
VERTEX
  5
502
  8
NOTE
  6
CONTINUOUS
 62
     4
 10
58.880862
 20
-383.654314
 30
0.0
  0
SEQEND
  5
503
  8
NOTE
  6
CONTINUOUS
 62
     4
  0
POLYLINE
  5
63
  8
NOTE
  6
CONTINUOUS
 62
     4
 66
     1
 10
0.0
 20
0.0
 30
0.0
  0
VERTEX
  5
504
  8
NOTE
  6
CONTINUOUS
 62
     4
 10
219.26134200000001
 20
-289.774788
 30
0.0
  0
VERTEX
  5
505
  8
NOTE
  6
CONTINUOUS
 62
     4
 10
223.5
 20
-250.0
 30
0.0
  0
VERTEX
  5
506
  8
NOTE
  6
CONTINUOUS
 62
     4
 10
199.941821
 20
-282.32664799999998
 30
0.0
  0
SEQEND
  5
507
  8
NOTE
  6
CONTINUOUS
 62
     4
  0
POLYLINE
  5
68
  8
NOTE
  6
CONTINUOUS
 62
     4
 66
     1
 10
0.0
 20
0.0
 30
0.0
  0
VERTEX
  5
508
  8
NOTE
  6
CONTINUOUS
 62
     4
 10
157.38740200000001
 20
-142.50668200000001
 30
0.0
  0
VERTEX
  5
509
  8
NOTE
  6
CONTINUOUS
 62
     4
 10
131.5
 20
-173.0
 30
0.0
  0
VERTEX
  5
50A
  8
NOTE
  6
CONTINUOUS
 62
     4
 10
169.165807
 20
-159.53571299999999
 30
0.0
  0
SEQEND
  5
50B
  8
NOTE
  6
CONTINUOUS
 62
     4
  0
POLYLINE
  5
6D
  8
NOTE
  6
CONTINUOUS
 62
     4
 66
     1
 10
0.0
 20
0.0
 30
0.0
  0
VERTEX
  5
50C
  8
NOTE
  6
CONTINUOUS
 62
     4
 10
466.31900100000001
 20
-33.260764000000002
 30
0.0
  0
VERTEX
  5
50D
  8
NOTE
  6
CONTINUOUS
 62
     4
 10
437.5
 20
-61.0
 30
0.0
  0
VERTEX
  5
50E
  8
NOTE
  6
CONTINUOUS
 62
     4
 10
476.32760499999989
 20
-51.386617999999999
 30
0.0
  0
SEQEND
  5
50F
  8
NOTE
  6
CONTINUOUS
 62
     4
  0
POLYLINE
  5
72
  8
NOTE
  6
CONTINUOUS
 62
     4
 66
     1
 10
0.0
 20
0.0
 30
0.0
  0
VERTEX
  5
510
  8
NOTE
  6
CONTINUOUS
 62
     4
 10
-474.96894499999991
 20
-53.997208999999998
 30
0.0
  0
VERTEX
  5
511
  8
NOTE
  6
CONTINUOUS
 62
     4
 10
-437.5
 20
-68.0
 30
0.0
  0
VERTEX
  5
512
  8
NOTE
  6
CONTINUOUS
 62
     4
 10
-462.94766299999998
 20
-37.138755000000003
 30
0.0
  0
SEQEND
  5
513
  8
NOTE
  6
CONTINUOUS
 62
     4
  0
CIRCLE
  5
7C
  8
SIZE
  6
CONTINUOUS
 62
    30
 10
756.77903099999958
 20
-261.0
 30
0.0
 40
6.0
  0
CIRCLE
  5
7D
  8
SIZE
  6
CONTINUOUS
 62
    30
 10
756.77903099999958
 20
-61.0
 30
0.0
 40
6.0
  0
CIRCLE
  5
7E
  8
SIZE
  6
CONTINUOUS
 62
    30
 10
-645.869193
 20
-318.0
 30
0.0
 40
6.0
  0
CIRCLE
  5
7F
  8
SIZE
  6
CONTINUOUS
 62
    30
 10
-645.869193
 20
-68.0
 30
0.0
 40
6.0
  0
CIRCLE
  5
80
  8
SIZE
  6
CONTINUOUS
 62
    30
 10
-521.48534500000005
 20
-268.0
 30
0.0
 40
6.0
  0
CIRCLE
  5
81
  8
SIZE
  6
CONTINUOUS
 62
    30
 10
-521.48534500000005
 20
-318.0
 30
0.0
 40
6.0
  0
CIRCLE
  5
82
  8
SIZE
  6
CONTINUOUS
 62
    30
 10
-645.869193
 20
-318.0
 30
0.0
 40
6.0
  0
CIRCLE
  5
83
  8
SIZE
  6
CONTINUOUS
 62
    30
 10
-645.869193
 20
-363.0
 30
0.0
 40
6.0
  0
CIRCLE
  5
84
  8
SIZE
  6
CONTINUOUS
 62
    30
 10
-759.46916099999987
 20
-363.0
 30
0.0
 40
6.0
  0
CIRCLE
  5
85
  8
SIZE
  6
CONTINUOUS
 62
    30
 10
-759.46916099999987
 20
-23.0
 30
0.0
 40
6.0
  0
CIRCLE
  5
86
  8
SIZE
  6
CONTINUOUS
 62
    30
 10
-759.46916099999987
 20
-363.0
 30
0.0
 40
6.0
  0
CIRCLE
  5
87
  8
SIZE
  6
CONTINUOUS
 62
    30
 10
-759.46916099999987
 20
-380.0
 30
0.0
 40
6.0
  0
CIRCLE
  5
88
  8
SIZE
  6
CONTINUOUS
 62
    30
 10
614.92864599999984
 20
-211.0
 30
0.0
 40
6.0
  0
CIRCLE
  5
89
  8
SIZE
  6
CONTINUOUS
 62
    30
 10
614.92864599999984
 20
-261.0
 30
0.0
 40
6.0
  0
CIRCLE
  5
8A
  8
SIZE
  6
CONTINUOUS
 62
    30
 10
756.77903099999958
 20
-261.0
 30
0.0
 40
6.0
  0
CIRCLE
  5
8B
  8
SIZE
  6
CONTINUOUS
 62
    30
 10
756.77903099999958
 20
-286.0
 30
0.0
 40
6.0
  0
CIRCLE
  5
8C
  8
SIZE
  6
CONTINUOUS
 62
    30
 10
1038.6800000000001
 20
-380.0
 30
0.0
 40
6.0
  0
CIRCLE
  5
8D
  8
SIZE
  6
CONTINUOUS
 62
    30
 10
1038.6800000000001
 20
0.0
 30
0.0
 40
6.0
  0
CIRCLE
  5
8E
  8
SIZE
  6
CONTINUOUS
 62
    30
 10
899.51383399999963
 20
-286.0
 30
0.0
 40
6.0
  0
CIRCLE
  5
8F
  8
SIZE
  6
CONTINUOUS
 62
    30
 10
899.51383399999963
 20
-36.0
 30
0.0
 40
6.0
  0
CIRCLE
  5
90
  8
SIZE
  6
CONTINUOUS
 62
    30
 10
899.51383399999963
 20
-286.0
 30
0.0
 40
6.0
  0
CIRCLE
  5
91
  8
SIZE
  6
CONTINUOUS
 62
    30
 10
899.51383399999963
 20
-380.0
 30
0.0
 40
6.0
  0
CIRCLE
  5
92
  8
SIZE
  6
CONTINUOUS
 62
    30
 10
603.33911699999976
 20
-339.0
 30
0.0
 40
6.0
  0
CIRCLE
  5
93
  8
SIZE
  6
CONTINUOUS
 62
    30
 10
603.33911699999976
 20
-380.0
 30
0.0
 40
6.0
  0
CIRCLE
  5
94
  8
SIZE
  6
CONTINUOUS
 62
    30
 10
-128.22887600000001
 20
-173.0
 30
0.0
 40
6.0
  0
CIRCLE
  5
95
  8
SIZE
  6
CONTINUOUS
 62
    30
 10
-128.22887600000001
 20
-250.0
 30
0.0
 40
6.0
  0
CIRCLE
  5
96
  8
SIZE
  6
CONTINUOUS
 62
    30
 10
-128.22887600000001
 20
-250.0
 30
0.0
 40
6.0
  0
CIRCLE
  5
97
  8
SIZE
  6
CONTINUOUS
 62
    30
 10
-128.22887600000001
 20
-380.0
 30
0.0
 40
6.0
  0
CIRCLE
  5
98
  8
SIZE
  6
CONTINUOUS
 62
    30
 10
-28.597156999999999
 20
-350.0
 30
0.0
 40
6.0
  0
CIRCLE
  5
99
  8
SIZE
  6
CONTINUOUS
 62
    30
 10
-28.597156999999999
 20
-380.0
 30
0.0
 40
6.0
  0
CIRCLE
  5
9A
  8
SIZE
  6
CONTINUOUS
 62
    30
 10
423.5
 20
-873.95034699999985
 30
0.0
 40
6.0
  0
CIRCLE
  5
9B
  8
SIZE
  6
CONTINUOUS
 62
    30
 10
80.5
 20
-873.95034699999985
 30
0.0
 40
6.0
  0
CIRCLE
  5
9C
  8
SIZE
  6
CONTINUOUS
 62
    30
 10
131.5
 20
-715.13340100000016
 30
0.0
 40
6.0
  0
CIRCLE
  5
9D
  8
SIZE
  6
CONTINUOUS
 62
    30
 10
223.5
 20
-715.13340100000016
 30
0.0
 40
6.0
  0
CIRCLE
  5
9E
  8
SIZE
  6
CONTINUOUS
 62
    30
 10
423.5
 20
-715.13340100000016
 30
0.0
 40
6.0
  0
CIRCLE
  5
9F
  8
SIZE
  6
CONTINUOUS
 62
    30
 10
223.5
 20
-715.13340100000016
 30
0.0
 40
6.0
  0
CIRCLE
  5
A0
  8
SIZE
  6
CONTINUOUS
 62
    30
 10
-451.49999999999989
 20
-1070.431
 30
0.0
 40
6.0
  0
CIRCLE
  5
A1
  8
SIZE
  6
CONTINUOUS
 62
    30
 10
452.5
 20
-1070.431
 30
0.0
 40
6.0
  0
CIRCLE
  5
A2
  8
SIZE
  6
CONTINUOUS
 62
    30
 10
452.5
 20
-947.97648399999991
 30
0.0
 40
6.0
  0
CIRCLE
  5
A3
  8
SIZE
  6
CONTINUOUS
 62
    30
 10
392.5
 20
-947.97648399999991
 30
0.0
 40
6.0
  0
CIRCLE
  5
A4
  8
SIZE
  6
CONTINUOUS
 62
    30
 10
-421.49999999999989
 20
-947.97648399999991
 30
0.0
 40
6.0
  0
CIRCLE
  5
A5
  8
SIZE
  6
CONTINUOUS
 62
    30
 10
392.5
 20
-947.97648399999991
 30
0.0
 40
6.0
  0
CIRCLE
  5
A6
  8
SIZE
  6
CONTINUOUS
 62
    30
 10
-447.5
 20
162.18488500000001
 30
0.0
 40
6.0
  0
CIRCLE
  5
A7
  8
SIZE
  6
CONTINUOUS
 62
    30
 10
-437.5
 20
162.18488500000001
 30
0.0
 40
6.0
  0
CIRCLE
  5
A8
  8
SIZE
  6
CONTINUOUS
 62
    30
 10
437.5
 20
162.18488500000001
 30
0.0
 40
6.0
  0
CIRCLE
  5
A9
  8
SIZE
  6
CONTINUOUS
 62
    30
 10
452.5
 20
162.18488500000001
 30
0.0
 40
6.0
  0
CIRCLE
  5
AA
  8
SIZE
  6
CONTINUOUS
 62
    30
 10
-447.5
 20
424.13776999999999
 30
0.0
 40
6.0
  0
CIRCLE
  5
AB
  8
SIZE
  6
CONTINUOUS
 62
    30
 10
452.5
 20
424.13776999999999
 30
0.0
 40
6.0
  0
CIRCLE
  5
AC
  8
SIZE
  6
CONTINUOUS
 62
    30
 10
452.5
 20
294.15652999999998
 30
0.0
 40
6.0
  0
CIRCLE
  5
AD
  8
SIZE
  6
CONTINUOUS
 62
    30
 10
423.5
 20
294.15652999999998
 30
0.0
 40
6.0
  0
CIRCLE
  5
AE
  8
SIZE
  6
CONTINUOUS
 62
    30
 10
-447.5
 20
294.15652999999998
 30
0.0
 40
6.0
  0
CIRCLE
  5
AF
  8
SIZE
  6
CONTINUOUS
 62
    30
 10
-423.5
 20
294.15652999999998
 30
0.0
 40
6.0
  0
CIRCLE
  5
B0
  8
SIZE
  6
CONTINUOUS
 62
    30
 10
-423.5
 20
294.15652999999998
 30
0.0
 40
6.0
  0
CIRCLE
  5
B1
  8
SIZE
  6
CONTINUOUS
 62
    30
 10
423.5
 20
294.15652999999998
 30
0.0
 40
6.0
  0
CIRCLE
  5
B2
  8
SIZE
  6
CONTINUOUS
 62
    30
 10
-381.5
 20
161.5756649999999
 30
0.0
 40
6.0
  0
CIRCLE
  5
B3
  8
SIZE
  6
CONTINUOUS
 62
    30
 10
1.5
 20
161.5756649999999
 30
0.0
 40
6.0
  0
TEXT
  5
B4
  8
SIZE
  6
CONTINUOUS
 62
    30
 10
-264.057143
 20
193.57566499999999
 30
0.0
 40
55.0
  1
383
 41
0.9
  0
LINE
  5
B5
  8
SIZE
  6
CONTINUOUS
 62
    30
 10
-379.5
 20
161.5756649999999
 30
0.0
 11
-0.5
 21
161.5756649999999
 31
0.0
  0
LINE
  5
B6
  8
SIZE
  6
CONTINUOUS
 62
    30
 10
1.5
 20
20.0
 30
0.0
 11
1.5
 21
191.57566499999999
 31
0.0
  0
LINE
  5
B7
  8
SIZE
  6
CONTINUOUS
 62
    30
 10
-381.5
 20
20.0
 30
0.0
 11
-381.5
 21
191.57566499999999
 31
0.0
  0
TEXT
  5
B8
  8
SIZE
  6
CONTINUOUS
 62
    30
 10
-74.057143000000025
 20
326.15652999999998
 30
0.0
 40
55.0
  1
847
 41
0.9
  0
LINE
  5
B9
  8
SIZE
  6
CONTINUOUS
 62
    30
 10
-421.49999999999989
 20
294.15652999999998
 30
0.0
 11
421.49999999999989
 21
294.15652999999998
 31
0.0
  0
LINE
  5
BA
  8
SIZE
  6
CONTINUOUS
 62
    30
 10
423.5
 20
20.0
 30
0.0
 11
423.5
 21
324.15652999999998
 31
0.0
  0
LINE
  5
BB
  8
SIZE
  6
CONTINUOUS
 62
    30
 10
-423.5
 20
20.0
 30
0.0
 11
-423.5
 21
324.15652999999998
 31
0.0
  0
TEXT
  5
BC
  8
SIZE
  6
CONTINUOUS
 62
    30
 10
-582.09767799999975
 20
326.15652999999998
 30
0.0
 40
55.0
  1
24
 41
0.9
  0
LINE
  5
BD
  8
SIZE
  6
CONTINUOUS
 62
    30
 10
-447.5
 20
294.15652999999998
 30
0.0
 11
-423.5
 21
294.15652999999998
 31
0.0
  0
LINE
  5
BE
  8
SIZE
  6
CONTINUOUS
 62
    30
 10
-421.49999999999989
 20
294.15652999999998
 30
0.0
 11
-419.5
 21
294.15652999999998
 31
0.0
  0
LINE
  5
BF
  8
SIZE
  6
CONTINUOUS
 62
    30
 10
-449.5
 20
294.15652999999998
 30
0.0
 11
-451.49999999999989
 21
294.15652999999998
 31
0.0
  0
LINE
  5
C0
  8
SIZE
  6
CONTINUOUS
 62
    30
 10
-447.5
 20
-3.0
 30
0.0
 11
-447.5
 21
324.15652999999998
 31
0.0
  0
LINE
  5
C1
  8
SIZE
  6
CONTINUOUS
 62
    30
 10
-423.5
 20
20.0
 30
0.0
 11
-423.5
 21
324.15652999999998
 31
0.0
  0
TEXT
  5
C2
  8
SIZE
  6
CONTINUOUS
 62
    30
 10
493.01168200000001
 20
326.15652999999998
 30
0.0
 40
55.0
  1
29
 41
0.9
  0
LINE
  5
C3
  8
SIZE
  6
CONTINUOUS
 62
    30
 10
452.5
 20
294.15652999999998
 30
0.0
 11
423.5
 21
294.15652999999998
 31
0.0
  0
LINE
  5
C4
  8
SIZE
  6
CONTINUOUS
 62
    30
 10
421.49999999999989
 20
294.15652999999998
 30
0.0
 11
419.5
 21
294.15652999999998
 31
0.0
  0
LINE
  5
C5
  8
SIZE
  6
CONTINUOUS
 62
    30
 10
454.49999999999989
 20
294.15652999999998
 30
0.0
 11
456.5
 21
294.15652999999998
 31
0.0
  0
LINE
  5
C6
  8
SIZE
  6
CONTINUOUS
 62
    30
 10
452.5
 20
-16.0
 30
0.0
 11
452.5
 21
324.15652999999998
 31
0.0
  0
LINE
  5
C7
  8
SIZE
  6
CONTINUOUS
 62
    30
 10
423.5
 20
20.0
 30
0.0
 11
423.5
 21
324.15652999999998
 31
0.0
  0
TEXT
  5
C8
  8
SIZE
  6
CONTINUOUS
 62
    30
 10
-71.557143000000025
 20
456.13776999999999
 30
0.0
 40
55.0
  1
900
 41
0.9
  0
LINE
  5
C9
  8
SIZE
  6
CONTINUOUS
 62
    30
 10
-445.5
 20
424.13776999999999
 30
0.0
 11
450.49999999999989
 21
424.13776999999999
 31
0.0
  0
LINE
  5
CA
  8
SIZE
  6
CONTINUOUS
 62
    30
 10
452.5
 20
-16.0
 30
0.0
 11
452.5
 21
454.13776999999988
 31
0.0
  0
LINE
  5
CB
  8
SIZE
  6
CONTINUOUS
 62
    30
 10
-447.5
 20
-3.0
 30
0.0
 11
-447.5
 21
454.13776999999988
 31
0.0
  0
TEXT
  5
CC
  8
SIZE
  6
CONTINUOUS
 62
    30
 10
472.37417299999993
 20
194.18488500000001
 30
0.0
 40
55.0
  1
15
 41
0.9
  0
LINE
  5
CD
  8
SIZE
  6
CONTINUOUS
 62
    30
 10
437.5
 20
162.18488500000001
 30
0.0
 11
452.5
 21
162.18488500000001
 31
0.0
  0
LINE
  5
CE
  8
SIZE
  6
CONTINUOUS
 62
    30
 10
454.49999999999989
 20
162.18488500000001
 30
0.0
 11
456.5
 21
162.18488500000001
 31
0.0
  0
LINE
  5
CF
  8
SIZE
  6
CONTINUOUS
 62
    30
 10
435.5
 20
162.18488500000001
 30
0.0
 11
433.49999999999989
 21
162.18488500000001
 31
0.0
  0
LINE
  5
D0
  8
SIZE
  6
CONTINUOUS
 62
    30
 10
437.5
 20
-21.0
 30
0.0
 11
437.5
 21
192.18488500000001
 31
0.0
  0
LINE
  5
D1
  8
SIZE
  6
CONTINUOUS
 62
    30
 10
452.5
 20
-16.0
 30
0.0
 11
452.5
 21
192.18488500000001
 31
0.0
  0
TEXT
  5
D2
  8
SIZE
  6
CONTINUOUS
 62
    30
 10
-550.48874000000001
 20
194.18488500000001
 30
0.0
 40
55.0
  1
10
 41
0.9
  0
LINE
  5
D3
  8
SIZE
  6
CONTINUOUS
 62
    30
 10
-447.5
 20
162.18488500000001
 30
0.0
 11
-437.5
 21
162.18488500000001
 31
0.0
  0
LINE
  5
D4
  8
SIZE
  6
CONTINUOUS
 62
    30
 10
-435.5
 20
162.18488500000001
 30
0.0
 11
-433.49999999999989
 21
162.18488500000001
 31
0.0
  0
LINE
  5
D5
  8
SIZE
  6
CONTINUOUS
 62
    30
 10
-449.5
 20
162.18488500000001
 30
0.0
 11
-451.49999999999989
 21
162.18488500000001
 31
0.0
  0
LINE
  5
D6
  8
SIZE
  6
CONTINUOUS
 62
    30
 10
-447.5
 20
-3.0
 30
0.0
 11
-447.5
 21
192.18488500000001
 31
0.0
  0
LINE
  5
D7
  8
SIZE
  6
CONTINUOUS
 62
    30
 10
-437.5
 20
-28.0
 30
0.0
 11
-437.5
 21
192.18488500000001
 31
0.0
  0
TEXT
  5
D8
  8
SIZE
  6
CONTINUOUS
 62
    30
 10
-84.442857000000004
 20
-915.97648400000014
 30
0.0
 40
55.0
  1
814
 41
0.9
  0
LINE
  5
D9
  8
SIZE
  6
CONTINUOUS
 62
    30
 10
390.5
 20
-947.97648399999991
 30
0.0
 11
-14.5
 21
-947.97648399999991
 31
0.0
  0
LINE
  5
DA
  8
SIZE
  6
CONTINUOUS
 62
    30
 10
-419.5
 20
-947.97648399999991
 30
0.0
 11
-14.5
 21
-947.97648399999991
 31
0.0
  0
LINE
  5
DB
  8
SIZE
  6
CONTINUOUS
 62
    30
 10
392.5
 20
-368.98668540547442
 30
0.0
 11
392.5
 21
-977.97648400000003
 31
0.0
  0
LINE
  5
DC
  8
SIZE
  6
CONTINUOUS
 62
    30
 10
-421.49999999999989
 20
-366.98215326013451
 30
0.0
 11
-421.49999999999989
 21
-977.97648400000003
 31
0.0
  0
TEXT
  5
DD
  8
SIZE
  6
CONTINUOUS
 62
    30
 10
462.81895600000001
 20
-915.97648400000014
 30
0.0
 40
55.0
  1
60
 41
0.9
  0
LINE
  5
DE
  8
SIZE
  6
CONTINUOUS
 62
    30
 10
452.5
 20
-947.97648399999991
 30
0.0
 11
392.5
 21
-947.97648399999991
 31
0.0
  0
LINE
  5
DF
  8
SIZE
  6
CONTINUOUS
 62
    30
 10
390.5
 20
-947.97648399999991
 30
0.0
 11
388.5
 21
-947.97648399999991
 31
0.0
  0
LINE
  5
E0
  8
SIZE
  6
CONTINUOUS
 62
    30
 10
454.49999999999989
 20
-947.97648399999991
 30
0.0
 11
456.5
 21
-947.97648399999991
 31
0.0
  0
LINE
  5
E1
  8
SIZE
  6
CONTINUOUS
 62
    30
 10
452.5
 20
-306.0
 30
0.0
 11
452.5
 21
-977.97648400000003
 31
0.0
  0
LINE
  5
E2
  8
SIZE
  6
CONTINUOUS
 62
    30
 10
392.5
 20
-368.98668540547442
 30
0.0
 11
392.5
 21
-977.97648400000003
 31
0.0
  0
TEXT
  5
E3
  8
SIZE
  6
CONTINUOUS
 62
    30
 10
-74.928570999999977
 20
-1038.431
 30
0.0
 40
55.0
  1
904
 41
0.9
  0
LINE
  5
E4
  8
SIZE
  6
CONTINUOUS
 62
    30
 10
450.49999999999989
 20
-1070.431
 30
0.0
 11
0.5
 21
-1070.431
 31
0.0
  0
LINE
  5
E5
  8
SIZE
  6
CONTINUOUS
 62
    30
 10
-449.5
 20
-1070.431
 30
0.0
 11
0.5
 21
-1070.431
 31
0.0
  0
LINE
  5
E6
  8
SIZE
  6
CONTINUOUS
 62
    30
 10
452.5
 20
-306.0
 30
0.0
 11
452.5
 21
-1100.431
 31
0.0
  0
LINE
  5
E7
  8
SIZE
  6
CONTINUOUS
 62
    30
 10
-451.49999999999989
 20
-369.0
 30
0.0
 11
-451.49999999999989
 21
-1100.431
 31
0.0
  0
TEXT
  5
E8
  8
SIZE
  6
CONTINUOUS
 62
    30
 10
249.442857
 20
-683.13340100000005
 30
0.0
 40
55.0
  1
200
 41
0.9
  0
LINE
  5
E9
  8
SIZE
  6
CONTINUOUS
 62
    30
 10
225.5
 20
-715.13340100000016
 30
0.0
 11
323.5
 21
-715.13340100000016
 31
0.0
  0
LINE
  5
EA
  8
SIZE
  6
CONTINUOUS
 62
    30
 10
421.49999999999989
 20
-715.13340100000016
 30
0.0
 11
323.5
 21
-715.13340100000016
 31
0.0
  0
LINE
  5
EB
  8
SIZE
  6
CONTINUOUS
 62
    30
 10
223.5
 20
-290.0
 30
0.0
 11
223.5
 21
-745.13340099999982
 31
0.0
  0
LINE
  5
EC
  8
SIZE
  6
CONTINUOUS
 62
    30
 10
423.5
 20
-400.0
 30
0.0
 11
423.5
 21
-745.13340099999982
 31
0.0
  0
TEXT
  5
ED
  8
SIZE
  6
CONTINUOUS
 62
    30
 10
130.87142900000001
 20
-683.13340100000005
 30
0.0
 40
55.0
  1
92
 41
0.9
  0
LINE
  5
EE
  8
SIZE
  6
CONTINUOUS
 62
    30
 10
131.5
 20
-715.13340100000016
 30
0.0
 11
223.5
 21
-715.13340100000016
 31
0.0
  0
LINE
  5
EF
  8
SIZE
  6
CONTINUOUS
 62
    30
 10
225.5
 20
-715.13340100000016
 30
0.0
 11
227.5
 21
-715.13340100000016
 31
0.0
  0
LINE
  5
F0
  8
SIZE
  6
CONTINUOUS
 62
    30
 10
129.5
 20
-715.13340100000016
 30
0.0
 11
127.5
 21
-715.13340100000016
 31
0.0
  0
LINE
  5
F1
  8
SIZE
  6
CONTINUOUS
 62
    30
 10
131.5
 20
-213.0
 30
0.0
 11
131.5
 21
-745.13340099999982
 31
0.0
  0
LINE
  5
F2
  8
SIZE
  6
CONTINUOUS
 62
    30
 10
223.5
 20
-290.0
 30
0.0
 11
223.5
 21
-745.13340099999982
 31
0.0
  0
TEXT
  5
F3
  8
SIZE
  6
CONTINUOUS
 62
    30
 10
177.942857
 20
-841.95034699999985
 30
0.0
 40
55.0
  1
343
 41
0.9
  0
LINE
  5
F4
  8
SIZE
  6
CONTINUOUS
 62
    30
 10
82.5
 20
-873.95034699999985
 30
0.0
 11
252.0
 21
-873.95034699999985
 31
0.0
  0
LINE
  5
F5
  8
SIZE
  6
CONTINUOUS
 62
    30
 10
421.49999999999989
 20
-873.95034699999985
 30
0.0
 11
252.0
 21
-873.95034699999985
 31
0.0
  0
LINE
  5
F6
  8
SIZE
  6
CONTINUOUS
 62
    30
 10
80.5
 20
-390.0
 30
0.0
 11
80.5
 21
-903.95034699999974
 31
0.0
  0
LINE
  5
F7
  8
SIZE
  6
CONTINUOUS
 62
    30
 10
423.5
 20
-400.0
 30
0.0
 11
423.5
 21
-903.95034699999974
 31
0.0
  0
TEXT
  5
F8
  8
SIZE
  6
CONTINUOUS
 62
    30
 10
-60.597156999999989
 20
-496.29357599999992
 30
0.0
 40
55.0
  1
30
 50
90.0
 41
0.9
  0
LINE
  5
F9
  8
SIZE
  6
CONTINUOUS
 62
    30
 10
-28.597156999999999
 20
-350.0
 30
0.0
 11
-28.597156999999999
 21
-380.0
 31
0.0
  0
LINE
  5
FA
  8
SIZE
  6
CONTINUOUS
 62
    30
 10
-28.597156999999999
 20
-382.0
 30
0.0
 11
-28.597156999999999
 21
-384.0
 31
0.0
  0
LINE
  5
FB
  8
SIZE
  6
CONTINUOUS
 62
    30
 10
-28.597156999999999
 20
-348.0
 30
0.0
 11
-28.597156999999999
 21
-346.0
 31
0.0
  0
LINE
  5
FC
  8
SIZE
  6
CONTINUOUS
 62
    30
 10
40.499999999999993
 20
-350.0
 30
0.0
 11
-58.597156999999982
 21
-350.0
 31
0.0
  0
LINE
  5
FD
  8
SIZE
  6
CONTINUOUS
 62
    30
 10
60.5
 20
-380.0
 30
0.0
 11
-58.597156999999982
 21
-380.0
 31
0.0
  0
TEXT
  5
FE
  8
SIZE
  6
CONTINUOUS
 62
    30
 10
-160.22887600000001
 20
-383.57142900000002
 30
0.0
 40
55.0
  1
130
 50
90.0
 41
0.9
  0
LINE
  5
FF
  8
SIZE
  6
CONTINUOUS
 62
    30
 10
-128.22887600000001
 20
-250.0
 30
0.0
 11
-128.22887600000001
 21
-380.0
 31
0.0
  0
LINE
  5
100
  8
SIZE
  6
CONTINUOUS
 62
    30
 10
-128.22887600000001
 20
-382.0
 30
0.0
 11
-128.22887600000001
 21
-384.0
 31
0.0
  0
LINE
  5
101
  8
SIZE
  6
CONTINUOUS
 62
    30
 10
-128.22887600000001
 20
-248.0
 30
0.0
 11
-128.22887600000001
 21
-246.0
 31
0.0
  0
LINE
  5
102
  8
SIZE
  6
CONTINUOUS
 62
    30
 10
183.5
 20
-250.0
 30
0.0
 11
-158.22887600000001
 21
-250.0
 31
0.0
  0
LINE
  5
103
  8
SIZE
  6
CONTINUOUS
 62
    30
 10
-81.905805000000015
 20
-380.0
 30
0.0
 11
-158.22887600000001
 21
-380.0
 31
0.0
  0
TEXT
  5
104
  8
SIZE
  6
CONTINUOUS
 62
    30
 10
-160.22887600000001
 20
-156.531744
 30
0.0
 40
55.0
  1
77
 50
90.0
 41
0.9
  0
LINE
  5
105
  8
SIZE
  6
CONTINUOUS
 62
    30
 10
-128.22887600000001
 20
-173.0
 30
0.0
 11
-128.22887600000001
 21
-250.0
 31
0.0
  0
LINE
  5
106
  8
SIZE
  6
CONTINUOUS
 62
    30
 10
-128.22887600000001
 20
-252.0
 30
0.0
 11
-128.22887600000001
 21
-254.0
 31
0.0
  0
LINE
  5
107
  8
SIZE
  6
CONTINUOUS
 62
    30
 10
-128.22887600000001
 20
-171.0
 30
0.0
 11
-128.22887600000001
 21
-169.0
 31
0.0
  0
LINE
  5
108
  8
SIZE
  6
CONTINUOUS
 62
    30
 10
91.5
 20
-173.0
 30
0.0
 11
-158.22887600000001
 21
-173.0
 31
0.0
  0
LINE
  5
109
  8
SIZE
  6
CONTINUOUS
 62
    30
 10
183.5
 20
-250.0
 30
0.0
 11
-158.22887600000001
 21
-250.0
 31
0.0
  0
TEXT
  5
10A
  8
SIZE
  6
CONTINUOUS
 62
    30
 10
571.33911699999999
 20
-477.05293899999998
 30
0.0
 40
55.0
  1
41
 50
90.0
 41
0.9
  0
LINE
  5
10B
  8
SIZE
  6
CONTINUOUS
 62
    30
 10
603.33911699999976
 20
-339.0
 30
0.0
 11
603.33911699999976
 21
-380.0
 31
0.0
  0
LINE
  5
10C
  8
SIZE
  6
CONTINUOUS
 62
    30
 10
603.33911699999976
 20
-382.0
 30
0.0
 11
603.33911699999976
 21
-384.0
 31
0.0
  0
LINE
  5
10D
  8
SIZE
  6
CONTINUOUS
 62
    30
 10
603.33911699999976
 20
-337.0
 30
0.0
 11
603.33911699999976
 21
-335.0
 31
0.0
  0
LINE
  5
10E
  8
SIZE
  6
CONTINUOUS
 62
    30
 10
432.5
 20
-339.0
 30
0.0
 11
633.33911699999965
 21
-339.0
 31
0.0
  0
LINE
  5
10F
  8
SIZE
  6
CONTINUOUS
 62
    30
 10
443.5
 20
-380.0
 30
0.0
 11
633.33911699999965
 21
-380.0
 31
0.0
  0
TEXT
  5
110
  8
SIZE
  6
CONTINUOUS
 62
    30
 10
867.51383399999975
 20
-491.62645500000002
 30
0.0
 40
55.0
  1
94
 50
90.0
 41
0.9
  0
LINE
  5
111
  8
SIZE
  6
CONTINUOUS
 62
    30
 10
899.51383399999963
 20
-286.0
 30
0.0
 11
899.51383399999963
 21
-380.0
 31
0.0
  0
LINE
  5
112
  8
SIZE
  6
CONTINUOUS
 62
    30
 10
899.51383399999963
 20
-382.0
 30
0.0
 11
899.51383399999963
 21
-384.0
 31
0.0
  0
LINE
  5
113
  8
SIZE
  6
CONTINUOUS
 62
    30
 10
899.51383399999963
 20
-284.0
 30
0.0
 11
899.51383399999963
 21
-282.0
 31
0.0
  0
LINE
  5
114
  8
SIZE
  6
CONTINUOUS
 62
    30
 10
472.5
 20
-286.0
 30
0.0
 11
929.51383399999986
 21
-286.0
 31
0.0
  0
LINE
  5
115
  8
SIZE
  6
CONTINUOUS
 62
    30
 10
443.5
 20
-380.0
 30
0.0
 11
929.51383399999986
 21
-380.0
 31
0.0
  0
TEXT
  5
116
  8
SIZE
  6
CONTINUOUS
 62
    30
 10
867.51383399999975
 20
-235.057143
 30
0.0
 40
55.0
  1
250
 50
90.0
 41
0.9
  0
LINE
  5
117
  8
SIZE
  6
CONTINUOUS
 62
    30
 10
899.51383399999963
 20
-38.0
 30
0.0
 11
899.51383399999963
 21
-161.0
 31
0.0
  0
LINE
  5
118
  8
SIZE
  6
CONTINUOUS
 62
    30
 10
899.51383399999963
 20
-284.0
 30
0.0
 11
899.51383399999963
 21
-161.0
 31
0.0
  0
LINE
  5
119
  8
SIZE
  6
CONTINUOUS
 62
    30
 10
472.5
 20
-36.0
 30
0.0
 11
929.51383399999986
 21
-36.0
 31
0.0
  0
LINE
  5
11A
  8
SIZE
  6
CONTINUOUS
 62
    30
 10
472.5
 20
-286.0
 30
0.0
 11
929.51383399999986
 21
-286.0
 31
0.0
  0
TEXT
  5
11B
  8
SIZE
  6
CONTINUOUS
 62
    30
 10
1006.6799999999999
 20
-264.057143
 30
0.0
 40
55.0
  1
380
 50
90.0
 41
0.9
  0
LINE
  5
11C
  8
SIZE
  6
CONTINUOUS
 62
    30
 10
1038.6800000000001
 20
-2.0
 30
0.0
 11
1038.6800000000001
 21
-190.0
 31
0.0
  0
LINE
  5
11D
  8
SIZE
  6
CONTINUOUS
 62
    30
 10
1038.6800000000001
 20
-378.0
 30
0.0
 11
1038.6800000000001
 21
-190.0
 31
0.0
  0
LINE
  5
11E
  8
SIZE
  6
CONTINUOUS
 62
    30
 10
443.5
 20
0.0
 30
0.0
 11
1068.6800000000001
 21
0.0
 31
0.0
  0
LINE
  5
11F
  8
SIZE
  6
CONTINUOUS
 62
    30
 10
443.5
 20
-380.0
 30
0.0
 11
1068.6800000000001
 21
-380.0
 31
0.0
  0
TEXT
  5
120
  8
SIZE
  6
CONTINUOUS
 62
    30
 10
724.77903099999969
 20
-378.41562800000003
 30
0.0
 40
55.0
  1
25
 50
90.0
 41
0.9
  0
LINE
  5
121
  8
SIZE
  6
CONTINUOUS
 62
    30
 10
756.77903099999958
 20
-261.0
 30
0.0
 11
756.77903099999958
 21
-286.0
 31
0.0
  0
LINE
  5
122
  8
SIZE
  6
CONTINUOUS
 62
    30
 10
756.77903099999958
 20
-288.0
 30
0.0
 11
756.77903099999958
 21
-290.0
 31
0.0
  0
LINE
  5
123
  8
SIZE
  6
CONTINUOUS
 62
    30
 10
756.77903099999958
 20
-259.0
 30
0.0
 11
756.77903099999958
 21
-257.0
 31
0.0
  0
LINE
  5
124
  8
SIZE
  6
CONTINUOUS
 62
    30
 10
477.5
 20
-261.0
 30
0.0
 11
786.77903099999969
 21
-261.0
 31
0.0
  0
LINE
  5
125
  8
SIZE
  6
CONTINUOUS
 62
    30
 10
472.5
 20
-286.0
 30
0.0
 11
786.77903099999969
 21
-286.0
 31
0.0
  0
TEXT
  5
126
  8
SIZE
  6
CONTINUOUS
 62
    30
 10
582.92864599999984
 20
-193.41368800000001
 30
0.0
 40
55.0
  1
50
 50
90.0
 41
0.9
  0
LINE
  5
127
  8
SIZE
  6
CONTINUOUS
 62
    30
 10
614.92864599999984
 20
-211.0
 30
0.0
 11
614.92864599999984
 21
-261.0
 31
0.0
  0
LINE
  5
128
  8
SIZE
  6
CONTINUOUS
 62
    30
 10
614.92864599999984
 20
-263.0
 30
0.0
 11
614.92864599999984
 21
-265.0
 31
0.0
  0
LINE
  5
129
  8
SIZE
  6
CONTINUOUS
 62
    30
 10
614.92864599999984
 20
-209.0
 30
0.0
 11
614.92864599999984
 21
-207.0
 31
0.0
  0
LINE
  5
12A
  8
SIZE
  6
CONTINUOUS
 62
    30
 10
477.5
 20
-211.0
 30
0.0
 11
644.92864599999984
 21
-211.0
 31
0.0
  0
LINE
  5
12B
  8
SIZE
  6
CONTINUOUS
 62
    30
 10
477.5
 20
-261.0
 30
0.0
 11
644.92864599999984
 21
-261.0
 31
0.0
  0
TEXT
  5
12C
  8
SIZE
  6
CONTINUOUS
 62
    30
 10
-791.46916099999999
 20
-412.64285699999988
 30
0.0
 40
55.0
  1
17
 50
90.0
 41
0.9
  0
LINE
  5
12D
  8
SIZE
  6
CONTINUOUS
 62
    30
 10
-759.46916099999987
 20
-363.0
 30
0.0
 11
-759.46916099999987
 21
-380.0
 31
0.0
  0
LINE
  5
12E
  8
SIZE
  6
CONTINUOUS
 62
    30
 10
-759.46916099999987
 20
-382.0
 30
0.0
 11
-759.46916099999987
 21
-384.0
 31
0.0
  0
LINE
  5
12F
  8
SIZE
  6
CONTINUOUS
 62
    30
 10
-759.46916099999987
 20
-361.0
 30
0.0
 11
-759.46916099999987
 21
-359.0
 31
0.0
  0
LINE
  5
130
  8
SIZE
  6
CONTINUOUS
 62
    30
 10
-467.49999999999989
 20
-363.0
 30
0.0
 11
-789.46916099999964
 21
-363.0
 31
0.0
  0
LINE
  5
131
  8
SIZE
  6
CONTINUOUS
 62
    30
 10
-443.5
 20
-380.0
 30
0.0
 11
-789.46916099999964
 21
-380.0
 31
0.0
  0
TEXT
  5
132
  8
SIZE
  6
CONTINUOUS
 62
    30
 10
-791.46916099999999
 20
-267.057143
 30
0.0
 40
55.0
  1
340
 50
90.0
 41
0.9
  0
LINE
  5
133
  8
SIZE
  6
CONTINUOUS
 62
    30
 10
-759.46916099999987
 20
-25.0
 30
0.0
 11
-759.46916099999987
 21
-193.0
 31
0.0
  0
LINE
  5
134
  8
SIZE
  6
CONTINUOUS
 62
    30
 10
-759.46916099999987
 20
-361.0
 30
0.0
 11
-759.46916099999987
 21
-193.0
 31
0.0
  0
LINE
  5
135
  8
SIZE
  6
CONTINUOUS
 62
    30
 10
-467.49999999999989
 20
-23.0
 30
0.0
 11
-789.46916099999964
 21
-23.0
 31
0.0
  0
LINE
  5
136
  8
SIZE
  6
CONTINUOUS
 62
    30
 10
-467.49999999999989
 20
-363.0
 30
0.0
 11
-789.46916099999964
 21
-363.0
 31
0.0
  0
TEXT
  5
137
  8
SIZE
  6
CONTINUOUS
 62
    30
 10
-677.86919299999988
 20
-485.28341199999988
 30
0.0
 40
55.0
  1
45
 50
90.0
 41
0.9
  0
LINE
  5
138
  8
SIZE
  6
CONTINUOUS
 62
    30
 10
-645.869193
 20
-318.0
 30
0.0
 11
-645.869193
 21
-363.0
 31
0.0
  0
LINE
  5
139
  8
SIZE
  6
CONTINUOUS
 62
    30
 10
-645.869193
 20
-365.0
 30
0.0
 11
-645.869193
 21
-367.0
 31
0.0
  0
LINE
  5
13A
  8
SIZE
  6
CONTINUOUS
 62
    30
 10
-645.869193
 20
-316.0
 30
0.0
 11
-645.869193
 21
-314.0
 31
0.0
  0
LINE
  5
13B
  8
SIZE
  6
CONTINUOUS
 62
    30
 10
-477.5
 20
-318.0
 30
0.0
 11
-675.869193
 21
-318.0
 31
0.0
  0
LINE
  5
13C
  8
SIZE
  6
CONTINUOUS
 62
    30
 10
-467.49999999999989
 20
-363.0
 30
0.0
 11
-675.869193
 21
-363.0
 31
0.0
  0
TEXT
  5
13D
  8
SIZE
  6
CONTINUOUS
 62
    30
 10
-553.48534500000005
 20
-251.43539000000001
 30
0.0
 40
55.0
  1
50
 50
90.0
 41
0.9
  0
LINE
  5
13E
  8
SIZE
  6
CONTINUOUS
 62
    30
 10
-521.48534500000005
 20
-268.0
 30
0.0
 11
-521.48534500000005
 21
-318.0
 31
0.0
  0
LINE
  5
13F
  8
SIZE
  6
CONTINUOUS
 62
    30
 10
-521.48534500000005
 20
-320.0
 30
0.0
 11
-521.48534500000005
 21
-322.0
 31
0.0
  0
LINE
  5
140
  8
SIZE
  6
CONTINUOUS
 62
    30
 10
-521.48534500000005
 20
-266.0
 30
0.0
 11
-521.48534500000005
 21
-264.0
 31
0.0
  0
LINE
  5
141
  8
SIZE
  6
CONTINUOUS
 62
    30
 10
-477.5
 20
-268.0
 30
0.0
 11
-551.48534500000005
 21
-268.0
 31
0.0
  0
LINE
  5
142
  8
SIZE
  6
CONTINUOUS
 62
    30
 10
-477.5
 20
-318.0
 30
0.0
 11
-551.48534500000005
 21
-318.0
 31
0.0
  0
TEXT
  5
143
  8
SIZE
  6
CONTINUOUS
 62
    30
 10
-677.86919299999988
 20
-267.057143
 30
0.0
 40
55.0
  1
250
 50
90.0
 41
0.9
  0
LINE
  5
144
  8
SIZE
  6
CONTINUOUS
 62
    30
 10
-645.869193
 20
-70.0
 30
0.0
 11
-645.869193
 21
-193.0
 31
0.0
  0
LINE
  5
145
  8
SIZE
  6
CONTINUOUS
 62
    30
 10
-645.869193
 20
-316.0
 30
0.0
 11
-645.869193
 21
-193.0
 31
0.0
  0
LINE
  5
146
  8
SIZE
  6
CONTINUOUS
 62
    30
 10
-477.5
 20
-68.0
 30
0.0
 11
-675.869193
 21
-68.0
 31
0.0
  0
LINE
  5
147
  8
SIZE
  6
CONTINUOUS
 62
    30
 10
-477.5
 20
-318.0
 30
0.0
 11
-675.869193
 21
-318.0
 31
0.0
  0
TEXT
  5
148
  8
SIZE
  6
CONTINUOUS
 62
    30
 10
724.77903099999969
 20
-235.057143
 30
0.0
 40
55.0
  1
200
 50
90.0
 41
0.9
  0
LINE
  5
149
  8
SIZE
  6
CONTINUOUS
 62
    30
 10
756.77903099999958
 20
-259.0
 30
0.0
 11
756.77903099999958
 21
-63.0
 31
0.0
  0
LINE
  5
14A
  8
SIZE
  6
CONTINUOUS
 62
    30
 10
477.5
 20
-61.0
 30
0.0
 11
786.77903099999969
 21
-61.0
 31
0.0
  0
LINE
  5
14B
  8
SIZE
  6
CONTINUOUS
 62
    30
 10
477.5
 20
-261.0
 30
0.0
 11
786.77903099999969
 21
-261.0
 31
0.0
  0
POINT
  5
14C
  8
ARRANGE
  6
CONTINUOUS
 62
     1
 10
0.0
 20
0.0
 30
0.0
  0
CIRCLE
  5
14D
  8
DETAIL
  6
CONTINUOUS
 62
     5
 10
223.5
 20
-250.0
 30
0.0
 40
7.9400000000000004
  0
CIRCLE
  5
14E
  8
DETAIL
  6
CONTINUOUS
 62
     5
 10
131.5
 20
-173.0
 30
0.0
 40
4.759999999999998
  0
LINE
  5
150
  8
NOTE
  6
CONTINUOUS
 62
     4
 10
-437.5
 20
-68.0
 30
0.0
 11
-601.44672100000003
 21
44.749491999999996
 31
0.0
  0
LINE
  5
151
  8
NOTE
  6
CONTINUOUS
 62
     4
 10
648.70454699999982
 20
55.585262999999998
 30
0.0
 11
961.42208600000015
 21
55.585262999999998
 31
0.0
  0
TEXT
  5
152
  8
NOTE
  6
CONTINUOUS
 62
     4
 10
652.1508869999999
 20
84.204690999999983
 30
0.0
 40
55.0
  1
48-âË3
 41
0.9
  0
LINE
  5
153
  8
NOTE
  6
CONTINUOUS
 62
     4
 10
437.5
 20
-61.0
 30
0.0
 11
648.70454699999982
 21
55.585262999999998
 31
0.0
  0
LINE
  5
154
  8
NOTE
  6
CONTINUOUS
 62
     4
 10
131.5
 20
-173.0
 30
0.0
 11
633.59437100000002
 21
176.44487699999999
 31
0.0
  0
LINE
  5
155
  8
NOTE
  6
CONTINUOUS
 62
     4
 10
223.5
 20
-250.0
 30
0.0
 11
20.811572000000002
 21
-771.14641700000004
 31
0.0
  0
LINE
  5
156
  8
SIZE
  6
CONTINUOUS
 62
    30
 10
-521.48534500000005
 20
-268.0
 30
0.0
 11
-521.48534500000005
 21
-151.46771899999999
 31
0.0
  0
LINE
  5
157
  8
SIZE
  6
CONTINUOUS
 62
    30
 10
-645.869193
 20
-367.0
 30
0.0
 11
-645.869193
 21
-484.84550999999988
 31
0.0
  0
LINE
  5
158
  8
SIZE
  6
CONTINUOUS
 62
    30
 10
614.92864599999984
 20
-209.0
 30
0.0
 11
614.92864599999984
 21
-97.525772000000003
 31
0.0
  0
LINE
  5
159
  8
SIZE
  6
CONTINUOUS
 62
    30
 10
756.77903099999958
 20
-286.0
 30
0.0
 11
756.77903099999958
 21
-375.87620800000002
 31
0.0
  0
LINE
  5
15A
  8
SIZE
  6
CONTINUOUS
 62
    30
 10
899.51383399999963
 20
-384.0
 30
0.0
 11
899.51383399999963
 21
-506.7247039999998
 31
0.0
  0
LINE
  5
15B
  8
SIZE
  6
CONTINUOUS
 62
    30
 10
603.33911699999976
 20
-380.0
 30
0.0
 11
603.33911699999976
 21
-485.31313200000011
 31
0.0
  0
LINE
  5
15C
  8
NOTE
  6
CONTINUOUS
 62
     4
 10
80.5
 20
-350.0
 30
0.0
 11
-18.373766
 21
-657.96142899999995
 31
0.0
  0
LINE
  5
15D
  8
SIZE
  6
CONTINUOUS
 62
    30
 10
-128.22887600000001
 20
-173.0
 30
0.0
 11
-128.22887600000001
 21
-55.130367
 31
0.0
  0
LINE
  5
15E
  8
SIZE
  6
CONTINUOUS
 62
    30
 10
-28.597156999999999
 20
-382.0
 30
0.0
 11
-28.597156999999999
 21
-513.10331299999984
 31
0.0
  0
LINE
  5
15F
  8
SIZE
  6
CONTINUOUS
 62
    30
 10
454.49999999999989
 20
-947.97648399999991
 30
0.0
 11
566.25069499999995
 21
-947.97648399999991
 31
0.0
  0
LINE
  5
160
  8
SIZE
  6
CONTINUOUS
 62
    30
 10
-451.49999999999989
 20
162.18488500000001
 30
0.0
 11
-574.51376500000003
 21
162.18488500000001
 31
0.0
  0
LINE
  5
161
  8
SIZE
  6
CONTINUOUS
 62
    30
 10
452.5
 20
162.18488500000001
 30
0.0
 11
578.577718
 21
162.18488500000001
 31
0.0
  0
LINE
  5
162
  8
SIZE
  6
CONTINUOUS
 62
    30
 10
-447.5
 20
294.15652999999998
 30
0.0
 11
-606.26556000000016
 21
294.15652999999998
 31
0.0
  0
LINE
  5
163
  8
SIZE
  6
CONTINUOUS
 62
    30
 10
454.49999999999989
 20
294.15652999999998
 30
0.0
 11
608.658365
 21
294.15652999999998
 31
0.0
  0
LINE
  5
164
  8
OUTLINE
  6
CONTINUOUS
 62
     3
 10
-423.5
 20
-380.0
 30
0.0
 11
423.5
 21
-380.0
 31
0.0
  0
LINE
  5
165
  8
OUTLINE
  6
CONTINUOUS
 62
     3
 10
-423.5
 20
0.0
 30
0.0
 11
-423.5
 21
-380.0
 31
0.0
  0
LINE
  5
166
  8
OUTLINE
  6
CONTINUOUS
 62
     3
 10
423.5
 20
0.0
 30
0.0
 11
423.5
 21
-380.0
 31
0.0
  0
LINE
  5
167
  8
OUTLINE
  6
CONTINUOUS
 62
     3
 10
-423.5
 20
0.0
 30
0.0
 11
423.5
 21
0.0
 31
0.0
  0
CIRCLE
  5
168
  8
DETAIL
  6
CONTINUOUS
 62
     5
 10
437.5
 20
-261.0
 30
0.0
 40
1.5
  0
CIRCLE
  5
169
  8
DETAIL
  6
CONTINUOUS
 62
     5
 10
437.5
 20
-211.0
 30
0.0
 40
1.5
  0
CIRCLE
  5
16A
  8
DETAIL
  6
CONTINUOUS
 62
     5
 10
437.5
 20
-161.0
 30
0.0
 40
1.5
  0
CIRCLE
  5
16B
  8
DETAIL
  6
CONTINUOUS
 62
     5
 10
437.5
 20
-111.0
 30
0.0
 40
1.5
  0
CIRCLE
  5
16C
  8
DETAIL
  6
CONTINUOUS
 62
     5
 10
437.5
 20
-61.0
 30
0.0
 40
1.5
  0
CIRCLE
  5
16D
  8
DETAIL
  6
CONTINUOUS
 62
     5
 10
-437.5
 20
-318.0
 30
0.0
 40
1.5
  0
CIRCLE
  5
16E
  8
DETAIL
  6
CONTINUOUS
 62
     5
 10
-437.5
 20
-268.0
 30
0.0
 40
1.5
  0
CIRCLE
  5
16F
  8
DETAIL
  6
CONTINUOUS
 62
     5
 10
-437.5
 20
-218.0
 30
0.0
 40
1.5
  0
CIRCLE
  5
170
  8
DETAIL
  6
CONTINUOUS
 62
     5
 10
-437.5
 20
-168.0
 30
0.0
 40
1.5
  0
CIRCLE
  5
171
  8
DETAIL
  6
CONTINUOUS
 62
     5
 10
-437.5
 20
-118.0
 30
0.0
 40
1.5
  0
CIRCLE
  5
172
  8
DETAIL
  6
CONTINUOUS
 62
     5
 10
-437.5
 20
-68.0
 30
0.0
 40
1.5
  0
LINE
  5
173
  8
DETAIL
  6
CONTINUOUS
 62
     5
 10
322.5
 20
-344.0
 30
0.0
 11
322.5
 21
-380.0
 31
0.0
  0
LINE
  5
174
  8
DETAIL
  6
CONTINUOUS
 62
     5
 10
322.5
 20
-344.0
 30
0.0
 11
362.5
 21
-344.0
 31
0.0
  0
LINE
  5
175
  8
DETAIL
  6
CONTINUOUS
 62
     5
 10
-351.5
 20
-344.0
 30
0.0
 11
-351.5
 21
-380.0
 31
0.0
  0
LINE
  5
176
  8
DETAIL
  6
CONTINUOUS
 62
     5
 10
-391.5
 20
-344.0
 30
0.0
 11
-351.5
 21
-344.0
 31
0.0
  0
CIRCLE
  5
177
  8
ARRANGE
  6
CONTINUOUS
 62
     1
 10
0.0
 20
0.0
 30
0.0
 40
40.0
  0
CIRCLE
  5
17A
  8
FIX
  6
CONTINUOUS
 62
    11
 10
392.5
 20
-339.0
 30
0.0
 40
15.0
  0
LINE
  5
17B
  8
NOTE
  6
CONTINUOUS
 62
     4
 10
392.5
 20
-339.0
 30
0.0
 11
588.70052999999984
 21
-626.88677000000018
 31
0.0
  0
CIRCLE
  5
17D
  8
FIX
  6
CONTINUOUS
 62
    11
 10
-421.49999999999989
 20
-339.0
 30
0.0
 40
15.0
  0
LINE
  5
17E
  8
DETAIL
  6
CONTINUOUS
 62
     5
 10
-423.5
 20
-349.0
 30
0.0
 11
-423.5
 21
-380.0
 31
0.0
  0
LINE
  5
17F
  8
DETAIL
  6
CONTINUOUS
 62
     5
 10
-447.5
 20
-349.0
 30
0.0
 11
-447.5
 21
-363.0
 31
0.0
  0
LINE
  5
180
  8
DETAIL
  6
CONTINUOUS
 62
     5
 10
362.5
 20
-339.0
 30
0.0
 11
422.49999999999989
 21
-339.0
 31
0.0
  0
LINE
  5
181
  8
DETAIL
  6
CONTINUOUS
 62
     5
 10
362.5
 20
-349.0
 30
0.0
 11
422.49999999999989
 21
-349.0
 31
0.0
  0
LINE
  5
182
  8
DETAIL
  6
CONTINUOUS
 62
     5
 10
-451.49999999999989
 20
-349.0
 30
0.0
 11
-391.5
 21
-349.0
 31
0.0
  0
LINE
  5
183
  8
DETAIL
  6
CONTINUOUS
 62
     5
 10
-451.49999999999989
 20
-339.0
 30
0.0
 11
-391.5
 21
-339.0
 31
0.0
  0
LINE
  5
184
  8
DETAIL
  6
CONTINUOUS
 62
     5
 10
422.49999999999989
 20
-339.0
 30
0.0
 11
422.49999999999989
 21
-349.0
 31
0.0
  0
LINE
  5
185
  8
DETAIL
  6
CONTINUOUS
 62
     5
 10
-451.49999999999989
 20
-339.0
 30
0.0
 11
-451.49999999999989
 21
-349.0
 31
0.0
  0
LINE
  5
186
  8
DETAIL
  6
CONTINUOUS
 62
     5
 10
-391.5
 20
-339.0
 30
0.0
 11
-391.5
 21
-349.0
 31
0.0
  0
LINE
  5
187
  8
DETAIL
  6
CONTINUOUS
 62
     5
 10
362.5
 20
-339.0
 30
0.0
 11
362.5
 21
-349.0
 31
0.0
  0
CIRCLE
  5
188
  8
DETAIL
  6
CONTINUOUS
 62
     5
 10
80.5
 20
-350.0
 30
0.0
 40
16.0
  0
LINE
  5
189
  8
DETAIL
  6
CONTINUOUS
 62
     5
 10
-381.5
 20
-320.0
 30
0.0
 11
1.5
 21
-320.0
 31
0.0
  0
LINE
  5
18A
  8
DETAIL
  6
CONTINUOUS
 62
     5
 10
1.5
 20
0.0
 30
0.0
 11
1.5
 21
-320.0
 31
0.0
  0
LINE
  5
18B
  8
DETAIL
  6
CONTINUOUS
 62
     5
 10
-381.5
 20
0.0
 30
0.0
 11
-381.5
 21
-320.0
 31
0.0
  0
LINE
  5
18C
  8
NOTE
  6
CONTINUOUS
 62
     4
 10
-916.98970199999997
 20
44.749491999999996
 30
0.0
 11
-601.44672100000003
 21
44.749491999999996
 31
0.0
  0
TEXT
  5
18D
  8
NOTE
  6
CONTINUOUS
 62
     4
 10
-899.3201929999999
 20
73.368919999999974
 30
0.0
 40
55.0
  1
54-âË3
 41
0.9
  0
LINE
  5
192
  8
NOTE
  6
CONTINUOUS
 62
     4
 10
-409.72629000000001
 20
-771.14641700000004
 30
0.0
 11
20.811572000000002
 21
-771.14641700000004
 31
0.0
  0
TEXT
  5
193
  8
NOTE
  6
CONTINUOUS
 62
     4
 10
-368.74590688422171
 20
-748.30788899999982
 30
0.0
 40
55.0
  1
RG âË15.88
 41
0.9
  0
LINE
  5
194
  8
NOTE
  6
CONTINUOUS
 62
     4
 10
633.59437100000002
 20
176.44487699999999
 30
0.0
 11
1042.153
 21
176.44487699999999
 31
0.0
  0
TEXT
  5
195
  8
NOTE
  6
CONTINUOUS
 62
     4
 10
656.56269400000019
 20
199.28340499999999
 30
0.0
 40
55.0
  1
RL âË9.52
 41
0.9
  0
LINE
  5
198
  8
DETAIL
  6
CONTINUOUS
 62
     5
 10
423.5
 20
-36.0
 30
0.0
 11
452.5
 21
-36.0
 31
0.0
  0
LINE
  5
199
  8
DETAIL
  6
CONTINUOUS
 62
     5
 10
-447.5
 20
-23.0
 30
0.0
 11
-423.5
 21
-23.0
 31
0.0
  0
LINE
  5
19A
  8
DETAIL
  6
CONTINUOUS
 62
     5
 10
423.5
 20
-286.0
 30
0.0
 11
452.5
 21
-286.0
 31
0.0
  0
LINE
  5
19B
  8
DETAIL
  6
CONTINUOUS
 62
     5
 10
-447.5
 20
-363.0
 30
0.0
 11
-423.5
 21
-363.0
 31
0.0
  0
LINE
  5
19C
  8
DETAIL
  6
CONTINUOUS
 62
     5
 10
452.5
 20
-36.0
 30
0.0
 11
452.5
 21
-286.0
 31
0.0
  0
LINE
  5
19D
  8
DETAIL
  6
CONTINUOUS
 62
     5
 10
-447.5
 20
-23.0
 30
0.0
 11
-447.5
 21
-339.0
 31
0.0
  0
LINE
  5
19E
  8
DETAIL
  6
CONTINUOUS
 62
     5
 10
-423.5
 20
0.0
 30
0.0
 11
423.5
 21
0.0
 31
0.0
  0
LINE
  5
19F
  8
DETAIL
  6
CONTINUOUS
 62
     5
 10
423.5
 20
0.0
 30
0.0
 11
423.5
 21
-380.0
 31
0.0
  0
LINE
  5
1A0
  8
DETAIL
  6
CONTINUOUS
 62
     5
 10
-423.5
 20
0.0
 30
0.0
 11
-423.5
 21
-339.0
 31
0.0
  0
LINE
  5
1A1
  8
DETAIL
  6
CONTINUOUS
 62
     5
 10
-423.5
 20
-380.0
 30
0.0
 11
423.5
 21
-380.0
 31
0.0
  0
LINE
  5
1A2
  8
BASIS
  6
DASHDOT
 62
     6
 10
0.0
 20
89.133783999999963
 30
0.0
 11
0.0
 21
-480.89146699999998
 31
0.0
  0
TEXT
  5
1A3
  8
ETC
  6
CONTINUOUS
 62
    61
 10
295.14518279297772
 20
582.99890657234926
 30
0.0
 40
64.0
  1
PE-RP112_160CA5_5
 41
0.9
  0
TEXT
  5
2AD
  8
NOTE
  6
CONTINUOUS
 62
     4
 10
-289.84028697446672
 20
-635.12289999999996
 30
0.0
 40
55.0
  1
D VP25
 41
0.9
  0
LINE
  5
2AE
  8
NOTE
  6
CONTINUOUS
 62
     4
 10
-298.82432797446683
 20
-657.96142899999995
 30
0.0
 11
-18.373765999999922
 21
-657.96142899999995
 31
0.0
  0
LINE
  5
2AF
  8
NOTE
  6
CONTINUOUS
 62
     4
 10
1078.9793017141851
 20
-626.88677000000018
 30
0.0
 11
588.70053000000007
 21
-626.88677000000018
 31
0.0
  0
TEXT
  5
2B0
  8
NOTE
  6
CONTINUOUS
 62
     4
 10
597.45550122450425
 20
-612.50394953077989
 30
0.0
 40
55.0
  1
AH 4-14ü~30ÆÀîè
 50
0.000003
 41
0.7
  7
STANDARD1
  0
ENDSEC
  0
EOF
