  0
SECTION
  2
HEADER
  9
$ACADVER
  1
AC1009
  9
$INSBASE
 10
0.0
 20
0.0
 30
0.0
  9
$EXTMIN
 10
-1568.2983067448949
 20
-1143.264745645298
 30
-0.0000000000000053
  9
$EXTMAX
 10
1256.103538042054
 20
1049.8809983836029
 30
0.0000000000000099
  9
$LIMMIN
 10
-6000.0
 20
-4500.0
  9
$LIMMAX
 10
6000.0
 20
4500.0
  9
$ORTHOMODE
 70
     1
  9
$REGENMODE
 70
     1
  9
$FILLMODE
 70
     1
  9
$QTEXTMODE
 70
     0
  9
$MIRRTEXT
 70
     0
  9
$DRAGMODE
 70
     2
  9
$LTSCALE
 40
20.0
  9
$OSMODE
 70
   959
  9
$ATTMODE
 70
     1
  9
$TEXTSIZE
 40
64.0
  9
$TRACEWID
 40
0.05
  9
$TEXTSTYLE
  7
STANDARD
  9
$CLAYER
  8
SYMBOLLINE
  9
$CELTYPE
  6
CONTINUOUS
  9
$CECOLOR
 62
     7
  9
$DIMSCALE
 40
1.0
  9
$DIMASZ
 40
10.0
  9
$DIMEXO
 40
20.0
  9
$DIMDLI
 40
200.0
  9
$DIMRND
 40
0.0
  9
$DIMDLE
 40
0.0
  9
$DIMEXE
 40
30.0
  9
$DIMTP
 40
0.0
  9
$DIMTM
 40
0.0
  9
$DIMTXT
 40
64.0
  9
$DIMCEN
 40
0.0
  9
$DIMTSZ
 40
0.0
  9
$DIMTOL
 70
     0
  9
$DIMLIM
 70
     0
  9
$DIMTIH
 70
     0
  9
$DIMTOH
 70
     0
  9
$DIMSE1
 70
     1
  9
$DIMSE2
 70
     0
  9
$DIMTAD
 70
     1
  9
$DIMZIN
 70
     8
  9
$DIMBLK
  1

  9
$DIMASO
 70
     1
  9
$DIMSHO
 70
     0
  9
$DIMPOST
  1

  9
$DIMAPOST
  1

  9
$DIMALT
 70
     0
  9
$DIMALTD
 70
     2
  9
$DIMALTF
 40
25.399999999999999
  9
$DIMLFAC
 40
1.0
  9
$DIMTOFL
 70
     1
  9
$DIMTVP
 40
0.0
  9
$DIMTIX
 70
     1
  9
$DIMSOXD
 70
     0
  9
$DIMSAH
 70
     1
  9
$DIMBLK1
  1
DOTBLANK
  9
$DIMBLK2
  1
DOTBLANK
  9
$DIMSTYLE
  2
STANDARD
  9
$DIMCLRD
 70
     0
  9
$DIMCLRE
 70
     0
  9
$DIMCLRT
 70
     0
  9
$DIMTFAC
 40
1.0
  9
$DIMGAP
 40
0.09
  9
$LUNITS
 70
     2
  9
$LUPREC
 70
     4
  9
$SKETCHINC
 40
0.1
  9
$FILLETRAD
 40
19.039999999999999
  9
$AUNITS
 70
     1
  9
$AUPREC
 70
     3
  9
$MENU
  1
ACAD
  9
$ELEVATION
 40
0.0
  9
$PELEVATION
 40
0.0
  9
$THICKNESS
 40
0.0
  9
$LIMCHECK
 70
     0
  9
$BLIPMODE
 70
     0
  9
$CHAMFERA
 40
0.0
  9
$CHAMFERB
 40
0.0
  9
$SKPOLY
 70
     0
  9
$TDCREATE
 40
2450330.4399309959
  9
$TDUPDATE
 40
2455581.3941056719
  9
$TDINDWG
 40
1.3691785764
  9
$TDUSRTIMER
 40
1.3691454861000001
  9
$USRTIMER
 70
     1
  9
$ANGBASE
 50
0.0
  9
$ANGDIR
 70
     0
  9
$PDMODE
 70
     3
  9
$PDSIZE
 40
-2.0
  9
$PLINEWID
 40
0.0
  9
$COORDS
 70
     0
  9
$SPLFRAME
 70
     0
  9
$SPLINETYPE
 70
     6
  9
$SPLINESEGS
 70
     8
  9
$ATTDIA
 70
     0
  9
$ATTREQ
 70
     1
  9
$HANDLING
 70
     1
  9
$HANDSEED
  5
F2A
  9
$SURFTAB1
 70
     6
  9
$SURFTAB2
 70
     6
  9
$SURFTYPE
 70
     6
  9
$SURFU
 70
     6
  9
$SURFV
 70
     6
  9
$UCSNAME
  2

  9
$UCSORG
 10
0.0
 20
0.0
 30
0.0
  9
$UCSXDIR
 10
1.0
 20
0.0
 30
0.0
  9
$UCSYDIR
 10
0.0
 20
1.0
 30
0.0
  9
$PUCSNAME
  2

  9
$PUCSORG
 10
0.0
 20
0.0
 30
0.0
  9
$PUCSXDIR
 10
1.0
 20
0.0
 30
0.0
  9
$PUCSYDIR
 10
0.0
 20
1.0
 30
0.0
  9
$USERI1
 70
     0
  9
$USERI2
 70
     0
  9
$USERI3
 70
     0
  9
$USERI4
 70
     0
  9
$USERI5
 70
     0
  9
$USERR1
 40
20.0
  9
$USERR2
 40
0.0
  9
$USERR3
 40
0.0
  9
$USERR4
 40
0.0
  9
$USERR5
 40
0.0
  9
$WORLDVIEW
 70
     1
  9
$SHADEDGE
 70
     3
  9
$SHADEDIF
 70
    70
  9
$TILEMODE
 70
     1
  9
$MAXACTVP
 70
    48
  9
$PLIMCHECK
 70
     0
  9
$PEXTMIN
 10
1.0000000000000000E+020
 20
1.0000000000000000E+020
 30
1.0000000000000000E+020
  9
$PEXTMAX
 10
-1.0000000000000000E+020
 20
-1.0000000000000000E+020
 30
-1.0000000000000000E+020
  9
$PLIMMIN
 10
0.0
 20
0.0
  9
$PLIMMAX
 10
12.0
 20
9.0
  9
$UNITMODE
 70
     0
  9
$VISRETAIN
 70
     1
  9
$PLINEGEN
 70
     0
  9
$PSLTSCALE
 70
     1
  0
ENDSEC
  0
SECTION
  2
TABLES
  0
TABLE
  2
VPORT
 70
     1
  0
VPORT
  2
*ACTIVE
 70
     0
 10
0.0
 20
0.0
 11
1.0
 21
1.0
 12
0.0
 22
0.0
 13
0.0
 23
0.0
 14
50.0
 24
50.0
 15
100.0
 25
100.0
 16
0.0
 26
0.0
 36
1.0
 17
0.0
 27
0.0
 37
0.0
 40
9068.9655172413786
 41
1.5639386189258311
 42
50.0
 43
0.0
 44
0.0
 50
0.0
 51
0.0
 71
     0
 72
  1000
 73
     1
 74
     0
 75
     0
 76
     0
 77
     0
 78
     0
  0
ENDTAB
  0
TABLE
  2
LTYPE
 70
     3
  0
LTYPE
  2
CONTINUOUS
 70
     0
  3
実線
 72
    65
 73
     0
 40
0.0
  0
LTYPE
  2
DASHDOT
 70
     0
  3
____ _ ____ _ ____ _ ____ _ ____ _ ____ _ ____
 72
    65
 73
     4
 40
5.5
 49
4.0
 49
-0.6
 49
0.3
 49
-0.6
  0
ENDTAB
  0
TABLE
  2
LAYER
 70
    13
  0
LAYER
  2
0
 70
     0
 62
     7
  6
CONTINUOUS
  0
LAYER
  2
SYMBOLLINE
 70
     0
 62
    15
  6
CONTINUOUS
  0
LAYER
  2
OUTLINE
 70
     0
 62
     3
  6
CONTINUOUS
  0
LAYER
  2
DETAIL
 70
     0
 62
     5
  6
CONTINUOUS
  0
LAYER
  2
BASIS
 70
     0
 62
     6
  6
DASHDOT
  0
LAYER
  2
SIZE
 70
     0
 62
    30
  6
CONTINUOUS
  0
LAYER
  2
NOTE
 70
     0
 62
     4
  6
CONTINUOUS
  0
LAYER
  2
ARRANGE
 70
     0
 62
     1
  6
CONTINUOUS
  0
LAYER
  2
FIX
 70
     0
 62
    11
  6
CONTINUOUS
  0
LAYER
  2
SERVICESPACE
 70
     0
 62
     2
  6
DASHDOT
  0
LAYER
  2
ETC
 70
     0
 62
    61
  6
CONTINUOUS
  0
LAYER
  2
DEFPOINTS
 70
     0
 62
     7
  6
CONTINUOUS
  0
ENDTAB
  0
TABLE
  2
STYLE
 70
     3
  0
STYLE
  2
STANDARD
 70
     0
 40
0.0
 41
0.9
 50
0.0
 71
     0
 42
64.0
  3
SIMPLEX
  4
BIGFONT
  0
STYLE
  2
ANNOTATIVE
 70
     0
 40
0.0
 41
1.0
 50
0.0
 71
     0
 42
0.2
  3
txt
  4

  0
STYLE
  2
STANDARD1
 70
     0
 40
0.0
 41
1.0
 50
0.0
 71
     0
 42
64.0
  3
MONOTXT
  4
BIGFONT
  0
ENDTAB
  0
TABLE
  2
VIEW
 70
     6
  0
VIEW
  2
ALL
 70
     0
 40
9000.0
 10
241.50664699999999
 20
0.0
 41
12483.01
 11
0.0
 21
0.0
 31
1.0
 12
0.0
 22
0.0
 32
0.0
 42
50.0
 43
0.0
 44
0.0
 50
0.0
 71
     0
  0
ENDTAB
  0
TABLE
  2
UCS
 70
     0
  0
ENDTAB
  0
TABLE
  2
APPID
 70
     5
  0
APPID
  2
ACAD
 70
     0
  0
APPID
  2
ACADANNOTATIVE
 70
     0
  0
APPID
  2
ACAD_MLEADERVER
 70
     0
  0
APPID
  2
ACAD_EXEMPT_FROM_CAD_STANDARDS
 70
     0
  0
APPID
  2
ACADANNOTATIVEDECOMPOSITION
 70
     0
  0
ENDTAB
  0
TABLE
  2
DIMSTYLE
 70
     3
  0
DIMSTYLE
  2
STANDARD
 70
     0
  3

  4

  5

  6

  7

 40
1.0
 41
0.18
 42
0.0625
 43
0.38
 44
0.18
 45
0.0
 46
0.0
 47
0.0
 48
0.0
140
0.18
141
0.09
142
0.0
143
25.399999999999999
144
1.0
145
0.0
146
1.0
147
0.09
 71
     0
 72
     0
 73
     1
 74
     1
 75
     0
 76
     0
 77
     0
 78
     0
170
     0
171
     2
172
     0
173
     0
174
     0
175
     0
176
     0
177
     0
178
     0
  0
DIMSTYLE
  2
ANNOTATIVE
 70
     0
  3

  4

  5

  6

  7

 40
1.0
 41
0.18
 42
0.0625
 43
0.38
 44
0.18
 45
0.0
 46
0.0
 47
0.0
 48
0.0
140
0.18
141
0.09
142
0.0
143
25.399999999999999
144
1.0
145
0.0
146
1.0
147
0.09
 71
     0
 72
     0
 73
     1
 74
     1
 75
     0
 76
     0
 77
     0
 78
     0
170
     0
171
     2
172
     0
173
     0
174
     0
175
     0
176
     0
177
     0
178
     0
  0
ENDTAB
  0
ENDSEC
  0
SECTION
  2
BLOCKS
  0
BLOCK
  8
0
  2
$MODEL_SPACE
 70
     0
 10
0.0
 20
0.0
 30
0.0
  3
$MODEL_SPACE
  1

  0
ENDBLK
  5
DF5
  8
0
  0
BLOCK
 67
     1
  8
0
  2
$PAPER_SPACE
 70
     0
 10
0.0
 20
0.0
 30
0.0
  3
$PAPER_SPACE
  1

  0
ENDBLK
  5
DF1
 67
     1
  8
0
  0
BLOCK
  8
0
  2
_DOTBLANK
 70
     0
 10
0.0
 20
0.0
 30
0.0
  3
_DOTBLANK
  1

  0
CIRCLE
  5
30
  8
0
  6
CONTINUOUS
 62
     7
 10
0.0
 20
0.0
 30
0.0
 40
0.5
  0
LINE
  5
31
  8
0
  6
CONTINUOUS
 62
     7
 10
-0.5
 20
0.0
 30
0.0
 11
-1.0
 21
0.0
 31
0.0
  0
ENDBLK
  5
32
  8
0
  0
BLOCK
  8
0
  2
_ORIGIN
 70
     0
 10
0.0
 20
0.0
 30
0.0
  3
_ORIGIN
  1

  0
CIRCLE
  5
37D
  8
0
  6
CONTINUOUS
 62
     7
 10
0.0
 20
0.0
 30
0.0
 40
0.5
  0
LINE
  5
37E
  8
0
  6
CONTINUOUS
 62
     7
 10
-0.5
 20
0.0
 30
0.0
 11
-1.0
 21
0.0
 31
0.0
  0
ENDBLK
  5
37F
  8
0
  0
BLOCK
  8
0
 62
     7
  2
*D4
 70
     1
 10
0.0
 20
0.0
 30
0.0
  3
*D4
  1

  0
LINE
  5
392
  8
SYMBOLLINE
  6
CONTINUOUS
 62
     0
 10
-960.0
 20
-423.5
 30
0.0
 11
-1265.7820555768269
 21
-423.49999999999989
 31
0.0
  0
LINE
  5
393
  8
SYMBOLLINE
  6
CONTINUOUS
 62
     0
 10
-1235.7820555768269
 20
413.49999626586202
 30
0.0
 11
-1235.7820555768269
 21
-413.49999999999989
 31
0.0
  0
INSERT
  5
394
  8
SYMBOLLINE
  6
CONTINUOUS
 62
     0
  2
_DOTBLANK
 10
-1235.7820555768269
 20
423.49999626586219
 30
0.0
 41
10.0
 42
10.0
 43
10.0
 50
90.0
  0
INSERT
  5
395
  8
SYMBOLLINE
  6
CONTINUOUS
 62
     0
  2
_DOTBLANK
 10
-1235.7820555768269
 20
-423.49999999999989
 30
0.0
 41
10.0
 42
10.0
 43
10.0
 50
270.0
  0
INSERT
  5
396
  8
SYMBOLLINE
  6
CONTINUOUS
 62
     7
  2
*U5
 10
0.0
 20
0.0
 30
0.0
  0
POINT
  5
397
  8
DEFPOINTS
  6
CONTINUOUS
 62
     0
 10
-940.0
 20
423.49999626586219
 30
0.0
  0
POINT
  5
398
  8
DEFPOINTS
  6
CONTINUOUS
 62
     0
 10
-940.0
 20
-423.5
 30
0.0
  0
POINT
  5
399
  8
DEFPOINTS
  6
CONTINUOUS
 62
     0
 10
-1235.7820555768269
 20
-423.49999999999989
 30
0.0
  0
ENDBLK
  5
391
  8
0
 62
     7
  0
BLOCK
  8
0
 62
     7
  2
*U5
 70
     1
 10
0.0
 20
0.0
 30
0.0
  3
*U5
  1

  0
TEXT
  5
5E0
  8
SYMBOLLINE
  6
CONTINUOUS
 62
     0
 10
-1235.8720555768259
 20
-74.057144724211923
 30
0.0
 40
64.0
  1
847
 50
90.0
 41
0.9
  0
ENDBLK
  5
5E2
  8
0
 62
     7
  0
BLOCK
  8
0
 62
     7
  2
*D6
 70
     1
 10
0.0
 20
0.0
 30
0.0
  3
*D6
  1

  0
LINE
  5
39E
  8
SYMBOLLINE
  6
CONTINUOUS
 62
     0
 10
-359.99998079782381
 20
-423.50000624870859
 30
0.0
 11
-1286.245978653737
 21
-423.50000624870847
 31
0.0
  0
LINE
  5
39F
  8
SYMBOLLINE
  6
CONTINUOUS
 62
     0
 10
-1256.2459786537361
 20
413.49999999999989
 30
0.0
 11
-1256.2459786537361
 21
-413.5000062487083
 31
0.0
  0
INSERT
  5
3A0
  8
SYMBOLLINE
  6
CONTINUOUS
 62
     0
  2
_DOTBLANK
 10
-1256.2459786537361
 20
423.50000000000023
 30
0.0
 41
10.0
 42
10.0
 43
10.0
 50
90.0
  0
INSERT
  5
3A1
  8
SYMBOLLINE
  6
CONTINUOUS
 62
     0
  2
_DOTBLANK
 10
-1256.2459786537361
 20
-423.50000624870847
 30
0.0
 41
10.0
 42
10.0
 43
10.0
 50
270.0
  0
INSERT
  5
3A2
  8
SYMBOLLINE
  6
CONTINUOUS
 62
     7
  2
*U7
 10
0.0
 20
0.0
 30
0.0
  0
POINT
  5
3A3
  8
DEFPOINTS
  6
CONTINUOUS
 62
     0
 10
-339.99999436760118
 20
423.5
 30
0.0
  0
POINT
  5
3A4
  8
DEFPOINTS
  6
CONTINUOUS
 62
     0
 10
-339.99998079782381
 20
-423.50000624870859
 30
0.0
  0
POINT
  5
3A5
  8
DEFPOINTS
  6
CONTINUOUS
 62
     0
 10
-1256.2459786537361
 20
-423.50000624870847
 30
0.0
  0
ENDBLK
  5
39D
  8
0
 62
     7
  0
BLOCK
  8
0
 62
     7
  2
*U7
 70
     1
 10
0.0
 20
0.0
 30
0.0
  3
*U7
  1

  0
TEXT
  5
5E4
  8
SYMBOLLINE
  6
CONTINUOUS
 62
     0
 10
-1256.335978653736
 20
-74.057145981497186
 30
0.0
 40
64.0
  1
847
 50
90.0
 41
0.9
  0
ENDBLK
  5
5E6
  8
0
 62
     7
  0
BLOCK
  8
0
 62
     7
  2
*D8
 70
     1
 10
0.0
 20
0.0
 30
0.0
  3
*D8
  1

  0
LINE
  5
3C3
  8
SIZE
  6
CONTINUOUS
 62
     0
 10
-359.99998079782381
 20
-423.50000624870859
 30
0.0
 11
-1280.7127617368089
 21
-423.50000624870847
 31
0.0
  0
LINE
  5
3C4
  8
SIZE
  6
CONTINUOUS
 62
     0
 10
-1250.7127617368089
 20
413.49999999999989
 30
0.0
 11
-1250.7127617368089
 21
-413.5000062487083
 31
0.0
  0
INSERT
  5
3C5
  8
SIZE
  6
CONTINUOUS
 62
     0
  2
_DOTBLANK
 10
-1250.7127617368089
 20
423.50000000000023
 30
0.0
 41
10.0
 42
10.0
 43
10.0
 50
90.0
  0
INSERT
  5
3C6
  8
SIZE
  6
CONTINUOUS
 62
     0
  2
_DOTBLANK
 10
-1250.7127617368089
 20
-423.50000624870847
 30
0.0
 41
10.0
 42
10.0
 43
10.0
 50
270.0
  0
INSERT
  5
3C7
  8
SYMBOLLINE
  6
CONTINUOUS
 62
     7
  2
*U9
 10
0.0
 20
0.0
 30
0.0
  0
POINT
  5
3C8
  8
DEFPOINTS
  6
CONTINUOUS
 62
     0
 10
-339.99999436760118
 20
423.5
 30
0.0
  0
POINT
  5
3C9
  8
DEFPOINTS
  6
CONTINUOUS
 62
     0
 10
-339.99998079782381
 20
-423.50000624870859
 30
0.0
  0
POINT
  5
3CA
  8
DEFPOINTS
  6
CONTINUOUS
 62
     0
 10
-1250.7127617368089
 20
-423.50000624870847
 30
0.0
  0
ENDBLK
  5
3A9
  8
0
 62
     7
  0
BLOCK
  8
0
 62
     7
  2
*U9
 70
     1
 10
0.0
 20
0.0
 30
0.0
  3
*U9
  1

  0
TEXT
  5
5E8
  8
SIZE
  6
CONTINUOUS
 62
     0
 10
-1250.80276173681
 20
-74.057145981497186
 30
0.0
 40
64.0
  1
847
 50
90.0
 41
0.9
  0
ENDBLK
  5
5EA
  8
0
 62
     7
  0
BLOCK
  8
0
 62
     7
  2
*D10
 70
     1
 10
0.0
 20
0.0
 30
0.0
  3
*D10
  1

  0
LINE
  5
3E8
  8
SYMBOLLINE
  6
CONTINUOUS
 62
     0
 10
-390.0625
 20
-473.50000373413758
 30
0.0
 11
-1250.892761736809
 21
-473.50000373413758
 31
0.0
  0
LINE
  5
3E9
  8
SYMBOLLINE
  6
CONTINUOUS
 62
     0
 10
-340.06248079782381
 20
-423.50000624870859
 30
0.0
 11
-1250.892761736809
 21
-423.50000624870847
 31
0.0
  0
LINE
  5
3EA
  8
SYMBOLLINE
  6
CONTINUOUS
 62
     0
 10
-1250.7127617368089
 20
-473.32000373413757
 30
0.0
 11
-1250.7127617368089
 21
-448.680004991423
 31
0.0
  0
LINE
  5
3EB
  8
SYMBOLLINE
  6
CONTINUOUS
 62
     0
 10
-1250.7127617368089
 20
-423.68000624870831
 30
0.0
 11
-1250.7127617368089
 21
-448.32000499142288
 31
0.0
  0
SOLID
  5
3EC
  8
SYMBOLLINE
  6
CONTINUOUS
 62
     0
 10
-1250.742761736808
 20
-473.32000373413757
 30
0.0
 11
-1250.6827617368101
 21
-473.32000373413757
 31
0.0
 12
-1250.7127617368089
 22
-473.50000373413758
 32
0.0
 13
-1250.7127617368089
 23
-473.50000373413758
 33
0.0
  0
SOLID
  5
3ED
  8
SYMBOLLINE
  6
CONTINUOUS
 62
     0
 10
-1250.742761736808
 20
-423.68000624870831
 30
0.0
 11
-1250.6827617368101
 21
-423.68000624870831
 31
0.0
 12
-1250.7127617368089
 22
-423.50000624870847
 32
0.0
 13
-1250.7127617368089
 23
-423.50000624870847
 33
0.0
  0
INSERT
  5
3EE
  8
SYMBOLLINE
  6
CONTINUOUS
 62
     7
  2
*U11
 10
0.0
 20
0.0
 30
0.0
  0
POINT
  5
3EF
  8
DEFPOINTS
  6
CONTINUOUS
 62
     0
 10
-390.0
 20
-473.50000373413758
 30
0.0
  0
POINT
  5
3F0
  8
DEFPOINTS
  6
CONTINUOUS
 62
     0
 10
-339.99998079782381
 20
-423.50000624870859
 30
0.0
  0
POINT
  5
3F1
  8
DEFPOINTS
  6
CONTINUOUS
 62
     0
 10
-1250.7127617368089
 20
-423.50000624870847
 30
0.0
  0
ENDBLK
  5
3DD
  8
0
 62
     7
  0
BLOCK
  8
0
 62
     7
  2
*U11
 70
     1
 10
0.0
 20
0.0
 30
0.0
  3
*U11
  1

  0
TEXT
  5
5EC
  8
SYMBOLLINE
  6
CONTINUOUS
 62
     0
 10
-1251.1910474510951
 20
-448.59000499142297
 30
0.0
 40
0.18
  1
50.0000
 41
0.9
  0
ENDBLK
  5
5EE
  8
0
 62
     7
  0
BLOCK
  8
0
 62
     7
  2
*D12
 70
     1
 10
0.0
 20
0.0
 30
0.0
  3
*D12
  1

  0
LINE
  5
418
  8
SIZE
  6
CONTINUOUS
 62
     0
 10
-410.0000135697768
 20
-473.49999748542882
 30
0.0
 11
-1280.7127617368089
 21
-473.49999748542882
 31
0.0
  0
LINE
  5
419
  8
SIZE
  6
CONTINUOUS
 62
     0
 10
-1250.7127617368089
 20
-413.5000062487083
 30
0.0
 11
-1250.7127617368089
 21
-403.50000624870842
 31
0.0
  0
LINE
  5
41A
  8
SIZE
  6
CONTINUOUS
 62
     0
 10
-1250.7127617368089
 20
-483.49999748542882
 30
0.0
 11
-1250.7127617368089
 21
-493.49999748542882
 31
0.0
  0
LINE
  5
41B
  8
SIZE
  6
CONTINUOUS
 62
     0
 10
-1250.7127617368089
 20
-423.50000624870847
 30
0.0
 11
-1250.7127617368089
 21
-473.49999748542882
 31
0.0
  0
INSERT
  5
41C
  8
SIZE
  6
CONTINUOUS
 62
     0
  2
_DOTBLANK
 10
-1250.7127617368089
 20
-423.50000624870847
 30
0.0
 41
10.0
 42
10.0
 43
10.0
 50
270.0
  0
INSERT
  5
41D
  8
SIZE
  6
CONTINUOUS
 62
     0
  2
_DOTBLANK
 10
-1250.7127617368089
 20
-473.49999748542882
 30
0.0
 41
10.0
 42
10.0
 43
10.0
 50
90.0
  0
INSERT
  5
41E
  8
SYMBOLLINE
  6
CONTINUOUS
 62
     7
  2
*U13
 10
0.0
 20
0.0
 30
0.0
  0
POINT
  5
41F
  8
DEFPOINTS
  6
CONTINUOUS
 62
     0
 10
-339.99998079782381
 20
-423.50000624870859
 30
0.0
  0
POINT
  5
420
  8
DEFPOINTS
  6
CONTINUOUS
 62
     0
 10
-390.00001356977742
 20
-473.49999748542882
 30
0.0
  0
POINT
  5
421
  8
DEFPOINTS
  6
CONTINUOUS
 62
     0
 10
-1250.7127617368089
 20
-473.49999748542882
 30
0.0
  0
ENDBLK
  5
403
  8
0
 62
     7
  0
BLOCK
  8
0
 62
     7
  2
*U13
 70
     1
 10
0.0
 20
0.0
 30
0.0
  3
*U13
  1

  0
TEXT
  5
5F0
  8
SIZE
  6
CONTINUOUS
 62
     0
 10
-1250.80276173681
 20
-495.12857329564031
 30
0.0
 40
64.0
  1
50
 50
90.0
 41
0.9
  0
ENDBLK
  5
5F2
  8
0
 62
     7
  0
BLOCK
  8
0
 62
     7
  2
*D14
 70
     1
 10
0.0
 20
0.0
 30
0.0
  3
*D14
  1

  0
LINE
  5
4CC
  8
SYMBOLLINE
  6
CONTINUOUS
 62
     0
 10
-402.0
 20
-131.5
 30
0.0
 11
-402.0
 21
-187.29478458622171
 31
0.0
  0
LINE
  5
4CD
  8
SYMBOLLINE
  6
CONTINUOUS
 62
     0
 10
-392.0
 20
-157.29478458622179
 30
0.0
 11
-349.99998079782381
 21
-157.29478458622179
 31
0.0
  0
LINE
  5
4CE
  8
SYMBOLLINE
  6
CONTINUOUS
 62
     0
 10
-339.99998079782381
 20
-157.29478458622179
 30
0.0
 11
-236.56283794068099
 21
-157.29478458622179
 31
0.0
  0
INSERT
  5
4CF
  8
SYMBOLLINE
  6
CONTINUOUS
 62
     0
  2
_DOTBLANK
 10
-402.0
 20
-157.29478458622179
 30
0.0
 41
10.0
 42
10.0
 43
10.0
 50
180.0
  0
INSERT
  5
4D0
  8
SYMBOLLINE
  6
CONTINUOUS
 62
     0
  2
_DOTBLANK
 10
-339.99998079782381
 20
-157.29478458622179
 30
0.0
 41
10.0
 42
10.0
 43
10.0
  0
INSERT
  5
4D1
  8
SYMBOLLINE
  6
CONTINUOUS
 62
     7
  2
*U15
 10
0.0
 20
0.0
 30
0.0
  0
POINT
  5
4D2
  8
DEFPOINTS
  6
CONTINUOUS
 62
     0
 10
-339.99998079782381
 20
-423.50000624870859
 30
0.0
  0
POINT
  5
4D3
  8
DEFPOINTS
  6
CONTINUOUS
 62
     0
 10
-402.0
 20
-111.5
 30
0.0
  0
POINT
  5
4D4
  8
DEFPOINTS
  6
CONTINUOUS
 62
     0
 10
-402.0
 20
-157.29478458622179
 30
0.0
  0
ENDBLK
  5
4C1
  8
0
 62
     7
  0
BLOCK
  8
0
 62
     7
  2
*U15
 70
     1
 10
0.0
 20
0.0
 30
0.0
  3
*U15
  1

  0
TEXT
  5
5F4
  8
SYMBOLLINE
  6
CONTINUOUS
 62
     0
 10
-329.90998079782378
 20
-157.20478458622179
 30
0.0
 40
64.0
  1
62
 41
0.9
  0
ENDBLK
  5
5F6
  8
0
 62
     7
  0
BLOCK
  8
0
 62
     7
  2
*D16
 70
     1
 10
0.0
 20
0.0
 30
0.0
  3
*D16
  1

  0
LINE
  5
523
  8
SIZE
  6
CONTINUOUS
 62
     0
 10
-402.0
 20
-171.5
 30
0.0
 11
-402.0
 21
-211.17669171763191
 31
0.0
  0
LINE
  5
524
  8
SIZE
  6
CONTINUOUS
 62
     0
 10
-392.0
 20
-181.17669171763191
 30
0.0
 11
-349.99998079782381
 21
-181.17669171763191
 31
0.0
  0
LINE
  5
525
  8
SIZE
  6
CONTINUOUS
 62
     0
 10
-339.99998079782381
 20
-181.17669171763191
 30
0.0
 11
-192.0548425844118
 21
-181.17669171763191
 31
0.0
  0
INSERT
  5
526
  8
SIZE
  6
CONTINUOUS
 62
     0
  2
_DOTBLANK
 10
-402.0
 20
-181.17669171763191
 30
0.0
 41
10.0
 42
10.0
 43
10.0
 50
180.0
  0
INSERT
  5
527
  8
SIZE
  6
CONTINUOUS
 62
     0
  2
_DOTBLANK
 10
-339.99998079782381
 20
-181.17669171763191
 30
0.0
 41
10.0
 42
10.0
 43
10.0
  0
INSERT
  5
528
  8
SYMBOLLINE
  6
CONTINUOUS
 62
     7
  2
*U17
 10
0.0
 20
0.0
 30
0.0
  0
POINT
  5
529
  8
DEFPOINTS
  6
CONTINUOUS
 62
     0
 10
-339.99998079782381
 20
-423.50000624870859
 30
0.0
  0
POINT
  5
52A
  8
DEFPOINTS
  6
CONTINUOUS
 62
     0
 10
-402.0
 20
-151.5
 30
0.0
  0
POINT
  5
52B
  8
DEFPOINTS
  6
CONTINUOUS
 62
     0
 10
-402.0
 20
-181.17669171763191
 30
0.0
  0
ENDBLK
  5
4D8
  8
0
 62
     7
  0
BLOCK
  8
0
 62
     7
  2
*U17
 70
     1
 10
0.0
 20
0.0
 30
0.0
  3
*U17
  1

  0
TEXT
  5
5FC
  8
SIZE
  6
CONTINUOUS
 62
     0
 10
-285.4019854415547
 20
-181.08669171763191
 30
0.0
 40
64.0
  1
62
 41
0.9
  0
ENDBLK
  5
5FE
  8
0
 62
     7
  0
BLOCK
  8
0
 62
     7
  2
*D18
 70
     1
 10
0.0
 20
0.0
 30
0.0
  3
*D18
  1

  0
LINE
  5
4F0
  8
SYMBOLLINE
  6
CONTINUOUS
 62
     0
 10
-340.0
 20
-443.50000624870881
 30
0.0
 11
-340.0
 21
-584.59502553995458
 31
0.0
  0
LINE
  5
4F1
  8
SYMBOLLINE
  6
CONTINUOUS
 62
     0
 10
-428.0
 20
-554.5950255399548
 30
0.0
 11
-438.0
 21
-554.5950255399548
 31
0.0
  0
LINE
  5
4F2
  8
SYMBOLLINE
  6
CONTINUOUS
 62
     0
 10
-330.0
 20
-554.5950255399548
 30
0.0
 11
-320.0
 21
-554.5950255399548
 31
0.0
  0
LINE
  5
4F3
  8
SYMBOLLINE
  6
CONTINUOUS
 62
     0
 10
-418.0
 20
-554.5950255399548
 30
0.0
 11
-340.0
 21
-554.5950255399548
 31
0.0
  0
INSERT
  5
4F4
  8
SYMBOLLINE
  6
CONTINUOUS
 62
     0
  2
_DOTBLANK
 10
-418.0
 20
-554.5950255399548
 30
0.0
 41
10.0
 42
10.0
 43
10.0
  0
INSERT
  5
4F5
  8
SYMBOLLINE
  6
CONTINUOUS
 62
     0
  2
_DOTBLANK
 10
-340.0
 20
-554.5950255399548
 30
0.0
 41
10.0
 42
10.0
 43
10.0
 50
180.0
  0
INSERT
  5
4F6
  8
SYMBOLLINE
  6
CONTINUOUS
 62
     7
  2
*U19
 10
0.0
 20
0.0
 30
0.0
  0
POINT
  5
4F7
  8
DEFPOINTS
  6
CONTINUOUS
 62
     0
 10
-418.0
 20
-243.5
 30
0.0
  0
POINT
  5
4F8
  8
DEFPOINTS
  6
CONTINUOUS
 62
     0
 10
-340.0
 20
-423.50000624870859
 30
0.0
  0
POINT
  5
4F9
  8
DEFPOINTS
  6
CONTINUOUS
 62
     0
 10
-340.0
 20
-554.5950255399548
 30
0.0
  0
ENDBLK
  5
4EF
  8
0
 62
     7
  0
BLOCK
  8
0
 62
     7
  2
*U19
 70
     1
 10
0.0
 20
0.0
 30
0.0
  3
*U19
  1

  0
TEXT
  5
5F8
  8
SYMBOLLINE
  6
CONTINUOUS
 62
     0
 10
-425.62857142857138
 20
-554.50502553995454
 30
0.0
 40
64.0
  1
78
 41
0.9
  0
ENDBLK
  5
5FA
  8
0
 62
     7
  0
BLOCK
  8
0
 62
     7
  2
*D20
 70
     1
 10
0.0
 20
0.0
 30
0.0
  3
*D20
  1

  0
LINE
  5
52C
  8
SIZE
  6
CONTINUOUS
 62
     0
 10
-418.0
 20
-263.5
 30
0.0
 11
-418.0
 21
-595.1578789718078
 31
0.0
  0
LINE
  5
52D
  8
SIZE
  6
CONTINUOUS
 62
     0
 10
-350.00000081587808
 20
-565.1578789718078
 30
0.0
 11
-408.0
 21
-565.1578789718078
 31
0.0
  0
LINE
  5
52E
  8
SIZE
  6
CONTINUOUS
 62
     0
 10
-418.0
 20
-565.1578789718078
 30
0.0
 11
-536.21133807408285
 21
-565.1578789718078
 31
0.0
  0
INSERT
  5
52F
  8
SIZE
  6
CONTINUOUS
 62
     0
  2
_DOTBLANK
 10
-340.00000081587808
 20
-565.1578789718078
 30
0.0
 41
10.0
 42
10.0
 43
10.0
  0
INSERT
  5
530
  8
SIZE
  6
CONTINUOUS
 62
     0
  2
_DOTBLANK
 10
-418.0
 20
-565.1578789718078
 30
0.0
 41
10.0
 42
10.0
 43
10.0
 50
180.0
  0
INSERT
  5
531
  8
SYMBOLLINE
  6
CONTINUOUS
 62
     7
  2
*U21
 10
0.0
 20
0.0
 30
0.0
  0
POINT
  5
532
  8
DEFPOINTS
  6
CONTINUOUS
 62
     0
 10
-340.00000081587808
 20
-423.50000624870859
 30
0.0
  0
POINT
  5
533
  8
DEFPOINTS
  6
CONTINUOUS
 62
     0
 10
-418.0
 20
-243.5
 30
0.0
  0
POINT
  5
534
  8
DEFPOINTS
  6
CONTINUOUS
 62
     0
 10
-418.0
 20
-565.1578789718078
 30
0.0
  0
ENDBLK
  5
4FD
  8
0
 62
     7
  0
BLOCK
  8
0
 62
     7
  2
*U21
 70
     1
 10
0.0
 20
0.0
 30
0.0
  3
*U21
  1

  0
TEXT
  5
600
  8
SIZE
  6
CONTINUOUS
 62
     0
 10
-536.12133807408281
 20
-565.06787897180743
 30
0.0
 40
64.0
  1
78
 41
0.9
  0
ENDBLK
  5
602
  8
0
 62
     7
  0
BLOCK
  8
0
 62
     7
  2
*D22
 70
     1
 10
0.0
 20
0.0
 30
0.0
  3
*D22
  1

  0
LINE
  5
6D5
  8
SIZE
  6
CONTINUOUS
 62
     0
 10
340.0
 20
171.4999981329309
 30
0.0
 11
340.0
 21
280.658793407627
 31
0.0
  0
LINE
  5
6D6
  8
SIZE
  6
CONTINUOUS
 62
     0
 10
399.99998643022258
 20
250.65879340762689
 30
0.0
 11
409.99998643022229
 21
250.65879340762689
 31
0.0
  0
LINE
  5
6D7
  8
SIZE
  6
CONTINUOUS
 62
     0
 10
330.0
 20
250.65879340762689
 30
0.0
 11
320.0
 21
250.65879340762689
 31
0.0
  0
LINE
  5
6D8
  8
SIZE
  6
CONTINUOUS
 62
     0
 10
389.99998643022258
 20
250.65879340762689
 30
0.0
 11
340.0
 21
250.65879340762689
 31
0.0
  0
INSERT
  5
6D9
  8
SIZE
  6
CONTINUOUS
 62
     0
  2
_DOTBLANK
 10
389.99998643022258
 20
250.65879340762689
 30
0.0
 41
10.0
 42
10.0
 43
10.0
 50
180.0
  0
INSERT
  5
6DA
  8
SIZE
  6
CONTINUOUS
 62
     0
  2
_DOTBLANK
 10
340.0
 20
250.65879340762689
 30
0.0
 41
10.0
 42
10.0
 43
10.0
  0
INSERT
  5
6DB
  8
SYMBOLLINE
  6
CONTINUOUS
 62
     7
  2
*U23
 10
0.0
 20
0.0
 30
0.0
  0
POINT
  5
6DC
  8
DEFPOINTS
  6
CONTINUOUS
 62
     0
 10
389.99998643022258
 20
151.5
 30
0.0
  0
POINT
  5
6DD
  8
DEFPOINTS
  6
CONTINUOUS
 62
     0
 10
340.0
 20
151.4999981329309
 30
0.0
  0
POINT
  5
6DE
  8
DEFPOINTS
  6
CONTINUOUS
 62
     0
 10
340.0
 20
250.65879340762689
 30
0.0
  0
ENDBLK
  5
6C0
  8
0
 62
     7
  0
BLOCK
  8
0
 62
     7
  2
*U23
 70
     1
 10
0.0
 20
0.0
 30
0.0
  3
*U23
  1

  0
TEXT
  5
73E
  8
SIZE
  6
CONTINUOUS
 62
     0
 10
318.37142178653988
 20
250.74879340762701
 30
0.0
 40
64.0
  1
50
 41
0.9
  0
ENDBLK
  5
740
  8
0
 62
     7
  0
BLOCK
  8
0
 62
     7
  2
A$C021B72EB
 70
     0
 10
0.0
 20
0.0
 30
0.0
  3
A$C021B72EB
  1

  0
LINE
  5
B5F
  8
SIZE
  6
CONTINUOUS
 62
    30
 10
-0.0000027240239433
 20
-0.0000101621917565
 30
0.0
 11
-0.0000027240239433
 21
229.21957983780831
 31
0.0
  0
ENDBLK
  5
B61
  8
0
 62
     7
  0
BLOCK
  8
0
 62
     7
  2
A$C0A287DCB
 70
     0
 10
0.0
 20
0.0
 30
0.0
  3
A$C0A287DCB
  1

  0
LINE
  5
BD9
  8
DETAIL
  6
CONTINUOUS
 62
     5
 10
0.0000032799434848
 20
0.0000018329555473
 30
0.0
 11
0.0000032799434848
 21
847.00000183295549
 31
0.0
  0
ENDBLK
  5
BDB
  8
0
 62
     7
  0
BLOCK
  8
0
 62
     7
  2
A$C5FE373D2
 70
     0
 10
0.0
 20
0.0
 30
0.0
  3
A$C5FE373D2
  1

  0
LINE
  5
E99
  8
NOTE
  6
CONTINUOUS
 62
     4
 10
131.49998707425399
 20
20.000003876950359
 30
0.0
 11
171.49998707425399
 21
20.000003876950359
 31
0.0
  0
CIRCLE
  5
E9A
  8
DETAIL
  6
CONTINUOUS
 62
     5
 10
1.499987074254022
 20
20.000003876950359
 30
0.0
 40
1.5
  0
LINE
  5
E9B
  8
NOTE
  6
CONTINUOUS
 62
     4
 10
31.499987074254019
 20
20.000003876950359
 30
0.0
 11
71.499987074254022
 21
20.000003876950359
 31
0.0
  0
LINE
  5
E9C
  8
NOTE
  6
CONTINUOUS
 62
     4
 10
51.499987074254022
 20
0.0000038769503021
 30
0.0
 11
51.499987074254022
 21
40.000003876950359
 31
0.0
  0
CIRCLE
  5
E9D
  8
DETAIL
  6
CONTINUOUS
 62
     5
 10
51.499987074254022
 20
20.000003876950359
 30
0.0
 40
1.5
  0
LINE
  5
E9E
  8
NOTE
  6
CONTINUOUS
 62
     4
 10
81.499987074254008
 20
20.000003876950359
 30
0.0
 11
121.49998707425399
 21
20.000003876950359
 31
0.0
  0
LINE
  5
E9F
  8
NOTE
  6
CONTINUOUS
 62
     4
 10
101.49998707425399
 20
0.0000038769503021
 30
0.0
 11
101.49998707425399
 21
40.000003876950359
 31
0.0
  0
CIRCLE
  5
EA0
  8
DETAIL
  6
CONTINUOUS
 62
     5
 10
101.49998707425399
 20
20.000003876950359
 30
0.0
 40
1.5
  0
LINE
  5
EA1
  8
NOTE
  6
CONTINUOUS
 62
     4
 10
151.49998707425399
 20
0.0000038769503021
 30
0.0
 11
151.49998707425399
 21
40.000003876950359
 31
0.0
  0
CIRCLE
  5
EA2
  8
DETAIL
  6
CONTINUOUS
 62
     5
 10
151.49998707425399
 20
20.000003876950359
 30
0.0
 40
1.5
  0
LINE
  5
EA3
  8
NOTE
  6
CONTINUOUS
 62
     4
 10
181.49998707425399
 20
20.000003876950359
 30
0.0
 11
221.49998707425399
 21
20.000003876950359
 31
0.0
  0
LINE
  5
EA4
  8
NOTE
  6
CONTINUOUS
 62
     4
 10
201.49998707425399
 20
0.0000038769503021
 30
0.0
 11
201.49998707425399
 21
40.000003876950359
 31
0.0
  0
CIRCLE
  5
EA5
  8
DETAIL
  6
CONTINUOUS
 62
     5
 10
201.49998707425399
 20
20.000003876950359
 30
0.0
 40
1.5
  0
ENDBLK
  5
EA7
  8
0
 62
     7
  0
ENDSEC
  0
SECTION
  2
ENTITIES
  0
LINE
  5
33
  8
NOTE
  6
CONTINUOUS
 62
     4
 10
-269.0
 20
437.5
 30
0.0
 11
-229.0
 21
437.5
 31
0.0
  0
LINE
  5
34
  8
NOTE
  6
CONTINUOUS
 62
     4
 10
-255.0
 20
-437.5
 30
0.0
 11
-215.0
 21
-437.5
 31
0.0
  0
TEXT
  5
37
  8
SIZE
  6
CONTINUOUS
 62
    30
 10
-70.121855336772569
 20
665.10343283601435
 30
0.0
 40
55.0
  1
1000
 41
0.9
  0
LINE
  5
38
  8
SIZE
  6
CONTINUOUS
 62
    30
 10
-499.0
 20
643.88166899999999
 30
0.0
 11
501.0
 21
643.88166899999999
 31
0.0
  0
TEXT
  5
39
  8
SIZE
  6
CONTINUOUS
 62
    30
 10
-77.951594889731496
 20
-1092.76901434209
 30
0.0
 40
55.0
  1
1250
 41
0.9
  0
TEXT
  5
3B
  8
SIZE
  6
CONTINUOUS
 62
    30
 10
-80.419673939875793
 20
-983.25726503135604
 30
0.0
 40
55.0
  1
1204
 41
0.9
  0
LINE
  5
3C
  8
SIZE
  6
CONTINUOUS
 62
    30
 10
-602.0
 20
-1000.669
 30
0.0
 11
602.0
 21
-1000.669
 31
0.0
  0
TEXT
  5
3D
  8
SIZE
  6
CONTINUOUS
 62
    30
 10
-45.86679839946737
 20
-726.81740022128724
 30
0.0
 40
55.0
  1
900
 41
0.9
  0
TEXT
  5
3F
  8
SIZE
  6
CONTINUOUS
 62
    30
 10
-71.945951278496054
 20
801.5195342774457
 30
0.0
 40
55.0
  1
1050
 41
0.9
  0
LINE
  5
40
  8
SIZE
  6
CONTINUOUS
 62
    30
 10
-524.0
 20
790.90326585065725
 30
0.0
 11
526.0
 21
790.90326585065725
 31
0.0
  0
TEXT
  5
41
  8
SIZE
  6
CONTINUOUS
 62
    30
 10
-68.07934473532805
 20
-866.45196373019655
 30
0.0
 40
55.0
  1
1000
 41
0.9
  0
LINE
  5
42
  8
SIZE
  6
CONTINUOUS
 62
    30
 10
-485.0
 20
-882.18980899999985
 30
0.0
 11
515.0
 21
-882.18980899999985
 31
0.0
  0
CIRCLE
  5
43
  8
DETAIL
  6
CONTINUOUS
 62
     5
 10
-249.0
 20
437.5
 30
0.0
 40
1.5
  0
TEXT
  5
44
  8
NOTE
  6
CONTINUOUS
 62
     4
 10
-314.43472200000002
 20
555.85824200000002
 30
0.0
 40
55.0
  1
54-φ3
 41
0.9
  0
LINE
  5
45
  8
NOTE
  6
CONTINUOUS
 62
     4
 10
-316.96051799999998
 20
527.23881399999993
 30
0.0
 11
-19.96254999999999
 21
527.23881399999993
 31
0.0
  0
LINE
  5
46
  8
NOTE
  6
CONTINUOUS
 62
     4
 10
-512.99508827438694
 20
77.17309410420421
 30
0.0
 11
-104.436412274387
 21
77.17309410420421
 31
0.0
  0
TEXT
  5
47
  8
NOTE
  6
CONTINUOUS
 62
     4
 10
-490.02676527438689
 20
100.01162210420421
 30
0.0
 40
55.0
  1
RL φ9.52
 41
0.9
  0
TEXT
  5
48
  8
NOTE
  6
CONTINUOUS
 62
     4
 10
-439.2324630767543
 20
-344.95324099999999
 30
0.0
 40
55.0
  1
RG φ15.88
 41
0.9
  0
LINE
  5
49
  8
NOTE
  6
CONTINUOUS
 62
     4
 10
-476.55280599999998
 20
-367.79176899999999
 30
0.0
 11
-20.02879100000003
 21
-367.79176899999999
 31
0.0
  0
LINE
  5
4A
  8
OUTLINE
  6
CONTINUOUS
 62
     3
 10
-565.0
 20
-423.5
 30
0.0
 11
565.0
 21
-423.5
 31
0.0
  0
LINE
  5
4B
  8
OUTLINE
  6
CONTINUOUS
 62
     3
 10
-565.0
 20
423.5
 30
0.0
 11
565.0
 21
423.49999999999989
 31
0.0
  0
POINT
  5
4C
  8
ARRANGE
  6
CONTINUOUS
 62
     1
 10
0.0
 20
0.0
 30
0.0
  0
CIRCLE
  5
4D
  8
ARRANGE
  6
CONTINUOUS
 62
     1
 10
0.0
 20
0.0
 30
0.0
 40
40.0
  0
LINE
  5
4E
  8
DETAIL
  6
CONTINUOUS
 62
     5
 10
-485.0
 20
-452.5
 30
0.0
 11
65.0
 21
-452.5
 31
0.0
  0
LINE
  5
4F
  8
DETAIL
  6
CONTINUOUS
 62
     5
 10
-485.0
 20
-452.5
 30
0.0
 11
515.0
 21
-452.5
 31
0.0
  0
LINE
  5
50
  8
DETAIL
  6
CONTINUOUS
 62
     5
 10
-524.0
 20
447.5
 30
0.0
 11
526.0
 21
447.5
 31
0.0
  0
LINE
  5
51
  8
DETAIL
  6
CONTINUOUS
 62
     5
 10
-565.0
 20
-423.5
 30
0.0
 11
565.0
 21
-423.5
 31
0.0
  0
LINE
  5
52
  8
DETAIL
  6
CONTINUOUS
 62
     5
 10
-565.0
 20
423.5
 30
0.0
 11
565.0
 21
423.49999999999989
 31
0.0
  0
LINE
  5
53
  8
BASIS
  6
DASHDOT
 62
     6
 10
-700.0
 20
0.0
 30
0.0
 11
700.0
 21
0.0
 31
0.0
  0
CIRCLE
  5
54
  8
SIZE
  6
CONTINUOUS
 62
    30
 10
-767.04280400000005
 20
-1.5
 30
0.0
 40
6.0
  0
LINE
  5
55
  8
SIZE
  6
CONTINUOUS
 62
    30
 10
-1316.4780000000001
 20
321.5
 30
0.0
 11
-1316.4780000000001
 21
-124.5
 31
0.0
  0
TEXT
  5
56
  8
NOTE
  6
CONTINUOUS
 62
     4
 10
-1092.231367405926
 20
36.685190896208951
 30
0.0
 40
40.0
  1
点検口
 50
90.0
 41
0.9
  0
LINE
  5
57
  8
SERVICESPACE
  6
DASHDOT
 62
     2
 10
-1165.0
 20
323.5
 30
0.0
 11
-715.0
 21
-126.5
 31
0.0
  0
LINE
  5
58
  8
SERVICESPACE
  6
DASHDOT
 62
     2
 10
-715.0
 20
323.5
 30
0.0
 11
-1165.0
 21
-126.5
 31
0.0
  0
LINE
  5
59
  8
SERVICESPACE
  6
DASHDOT
 62
     2
 10
-1165.0
 20
-423.5
 30
0.0
 11
-1165.0
 21
423.5
 31
0.0
  0
LINE
  5
5A
  8
SERVICESPACE
  6
DASHDOT
 62
     2
 10
-715.0
 20
-126.5
 30
0.0
 11
-715.0
 21
323.5
 31
0.0
  0
LINE
  5
5B
  8
OUTLINE
  6
CONTINUOUS
 62
     3
 10
-565.0
 20
-423.5
 30
0.0
 11
-565.0
 21
423.5
 31
0.0
  0
LINE
  5
5C
  8
DETAIL
  6
CONTINUOUS
 62
     5
 10
-635.0
 20
-1.5
 30
0.0
 11
-635.0
 21
381.5
 31
0.0
  0
LINE
  5
5D
  8
DETAIL
  6
CONTINUOUS
 62
     5
 10
-565.0
 20
-423.5
 30
0.0
 11
-565.0
 21
423.5
 31
0.0
  0
LINE
  5
5E
  8
BASIS
  6
DASHDOT
 62
     6
 10
0.0
 20
-500.0
 30
0.0
 11
0.0
 21
500.0
 31
0.0
  0
LINE
  5
5F
  8
SERVICESPACE
  6
DASHDOT
 62
     2
 10
-715.0
 20
-126.5
 30
0.0
 11
-1165.0
 21
-126.5
 31
0.0
  0
LINE
  5
60
  8
SIZE
  6
CONTINUOUS
 62
    30
 10
-1185.0
 20
-126.5
 30
0.0
 11
-1346.4780000000001
 21
-126.5
 31
0.0
  0
CIRCLE
  5
61
  8
SIZE
  6
CONTINUOUS
 62
    30
 10
-1316.4780000000001
 20
-126.5
 30
0.0
 40
6.0
  0
LINE
  5
62
  8
SIZE
  6
CONTINUOUS
 62
    30
 10
-625.0
 20
-442.49999999999989
 30
0.0
 11
-625.0
 21
-1142.7719999999999
 31
0.0
  0
LINE
  5
63
  8
SIZE
  6
CONTINUOUS
 62
    30
 10
-602.0
 20
-432.5
 30
0.0
 11
-602.0
 21
-1030.6690000000001
 31
0.0
  0
LINE
  5
64
  8
SIZE
  6
CONTINUOUS
 62
    30
 10
-625.0
 20
-442.49999999999989
 30
0.0
 11
-625.0
 21
-1030.6690000000001
 31
0.0
  0
LINE
  5
65
  8
SIZE
  6
CONTINUOUS
 62
    30
 10
-602.0
 20
-432.5
 30
0.0
 11
-602.0
 21
-1030.6690000000001
 31
0.0
  0
TEXT
  5
66
  8
SIZE
  6
CONTINUOUS
 62
    30
 10
-734.11422499999981
 20
-712.199881
 30
0.0
 40
55.0
  1
80
 41
0.9
  0
LINE
  5
67
  8
SIZE
  6
CONTINUOUS
 62
    30
 10
-485.0
 20
-472.5
 30
0.0
 11
-485.0
 21
-774.199881
 31
0.0
  0
LINE
  5
68
  8
SIZE
  6
CONTINUOUS
 62
    30
 10
-565.0
 20
-442.49999999999989
 30
0.0
 11
-565.0
 21
-774.199881
 31
0.0
  0
TEXT
  5
69
  8
SIZE
  6
CONTINUOUS
 62
    30
 10
-501.38750999999991
 20
-712.199881
 30
0.0
 40
55.0
  1
50
 41
0.9
  0
LINE
  5
6A
  8
SIZE
  6
CONTINUOUS
 62
    30
 10
-435.0
 20
-477.5
 30
0.0
 11
-435.0
 21
-774.199881
 31
0.0
  0
LINE
  5
6B
  8
SIZE
  6
CONTINUOUS
 62
    30
 10
-485.0
 20
-472.5
 30
0.0
 11
-485.0
 21
-774.199881
 31
0.0
  0
LINE
  5
6C
  8
SIZE
  6
CONTINUOUS
 62
    30
 10
-435.0
 20
-477.5
 30
0.0
 11
-435.0
 21
-774.199881
 31
0.0
  0
LINE
  5
6D
  8
SIZE
  6
CONTINUOUS
 62
    30
 10
-485.0
 20
-472.5
 30
0.0
 11
-485.0
 21
-912.18980899999997
 31
0.0
  0
TEXT
  5
6F
  8
SIZE
  6
CONTINUOUS
 62
    30
 10
-741.02668499999982
 20
-968.66898100000003
 30
0.0
 40
55.0
  1
23
 41
0.9
  0
LINE
  5
70
  8
SIZE
  6
CONTINUOUS
 62
    30
 10
-561.75893799999994
 20
-744.199881
 30
0.0
 11
-756.59832699999981
 21
-744.199881
 31
0.0
  0
LINE
  5
71
  8
SIZE
  6
CONTINUOUS
 62
    30
 10
-629.0
 20
-1000.669
 30
0.0
 11
-762.45294100000001
 21
-1000.669
 31
0.0
  0
LINE
  5
74
  8
SIZE
  6
CONTINUOUS
 62
    30
 10
-625.0
 20
-1112.7719999999999
 30
0.0
 11
625.0
 21
-1112.7719999999999
 31
0.0
  0
CIRCLE
  5
75
  8
SIZE
  6
CONTINUOUS
 62
    30
 10
-625.0
 20
-1112.7719999999999
 30
0.0
 40
6.0
  0
CIRCLE
  5
76
  8
SIZE
  6
CONTINUOUS
 62
    30
 10
-602.0
 20
-1000.669
 30
0.0
 40
6.0
  0
CIRCLE
  5
77
  8
SIZE
  6
CONTINUOUS
 62
    30
 10
-602.0
 20
-1000.669
 30
0.0
 40
6.0
  0
CIRCLE
  5
78
  8
SIZE
  6
CONTINUOUS
 62
    30
 10
-625.0
 20
-1000.669
 30
0.0
 40
6.0
  0
LINE
  5
79
  8
SIZE
  6
CONTINUOUS
 62
    30
 10
-602.0
 20
-1000.669
 30
0.0
 11
-625.0
 21
-1000.669
 31
0.0
  0
LINE
  5
7A
  8
SIZE
  6
CONTINUOUS
 62
    30
 10
-627.0
 20
-1000.669
 30
0.0
 11
-629.0
 21
-1000.669
 31
0.0
  0
LINE
  5
7B
  8
SIZE
  6
CONTINUOUS
 62
    30
 10
-600.0
 20
-1000.669
 30
0.0
 11
-598.0
 21
-1000.669
 31
0.0
  0
LINE
  5
7C
  8
SIZE
  6
CONTINUOUS
 62
    30
 10
-435.0
 20
-744.199881
 30
0.0
 11
-485.0
 21
-744.199881
 31
0.0
  0
CIRCLE
  5
7D
  8
SIZE
  6
CONTINUOUS
 62
    30
 10
-485.0
 20
-882.18980899999985
 30
0.0
 40
6.0
  0
CIRCLE
  5
7E
  8
SIZE
  6
CONTINUOUS
 62
    30
 10
-485.0
 20
-744.199881
 30
0.0
 40
6.0
  0
CIRCLE
  5
7F
  8
SIZE
  6
CONTINUOUS
 62
    30
 10
-485.0
 20
-744.199881
 30
0.0
 40
6.0
  0
CIRCLE
  5
80
  8
SIZE
  6
CONTINUOUS
 62
    30
 10
-565.0
 20
-744.199881
 30
0.0
 40
6.0
  0
LINE
  5
81
  8
SIZE
  6
CONTINUOUS
 62
    30
 10
-485.0
 20
-744.199881
 30
0.0
 11
-565.0
 21
-744.199881
 31
0.0
  0
LINE
  5
82
  8
SIZE
  6
CONTINUOUS
 62
    30
 10
-567.0
 20
-744.199881
 30
0.0
 11
-569.0
 21
-744.199881
 31
0.0
  0
LINE
  5
83
  8
SIZE
  6
CONTINUOUS
 62
    30
 10
-483.0
 20
-744.199881
 30
0.0
 11
-481.0
 21
-744.199881
 31
0.0
  0
LINE
  5
84
  8
SIZE
  6
CONTINUOUS
 62
    30
 10
-487.0
 20
-744.199881
 30
0.0
 11
-489.0
 21
-744.199881
 31
0.0
  0
CIRCLE
  5
85
  8
SIZE
  6
CONTINUOUS
 62
    30
 10
-435.0
 20
-744.199881
 30
0.0
 40
6.0
  0
CIRCLE
  5
86
  8
SIZE
  6
CONTINUOUS
 62
    30
 10
-435.0
 20
-744.199881
 30
0.0
 40
6.0
  0
LINE
  5
88
  8
NOTE
  6
CONTINUOUS
 62
     4
 10
-705.0
 20
-80.5
 30
0.0
 11
-665.0
 21
-80.5
 31
0.0
  0
LINE
  5
89
  8
SIZE
  6
CONTINUOUS
 62
    30
 10
-655.0
 20
-1.5
 30
0.0
 11
-797.04280400000005
 21
-1.5
 31
0.0
  0
LINE
  5
8A
  8
SIZE
  6
CONTINUOUS
 62
    30
 10
-585.0
 20
-423.5
 30
0.0
 11
-784.37019599999985
 21
-423.5
 31
0.0
  0
LINE
  5
8B
  8
SIZE
  6
CONTINUOUS
 62
    30
 10
-670.0
 20
-131.5
 30
0.0
 11
-784.37019599999985
 21
-131.5
 31
0.0
  0
LINE
  5
8C
  8
SIZE
  6
CONTINUOUS
 62
    30
 10
-585.0
 20
-423.5
 30
0.0
 11
-907.09602400000006
 21
-423.5
 31
0.0
  0
TEXT
  5
8D
  8
SIZE
  6
CONTINUOUS
 62
    30
 10
-748.55253948302197
 20
-397.557143
 30
0.0
 40
55.0
  1
200
 50
90.0
 41
0.9
  0
LINE
  5
8E
  8
SIZE
  6
CONTINUOUS
 62
    30
 10
-716.55253948302175
 20
-421.49999999999989
 30
0.0
 11
-716.55253948302175
 21
-323.5
 31
0.0
  0
LINE
  5
8F
  8
SIZE
  6
CONTINUOUS
 62
    30
 10
-877.09602400000006
 20
-421.49999999999989
 30
0.0
 11
-877.09602400000006
 21
-82.5
 31
0.0
  0
CIRCLE
  5
90
  8
SIZE
  6
CONTINUOUS
 62
    30
 10
-877.09602400000006
 20
-423.5
 30
0.0
 40
6.0
  0
CIRCLE
  5
91
  8
SIZE
  6
CONTINUOUS
 62
    30
 10
-716.55253948302175
 20
-423.5
 30
0.0
 40
6.0
  0
TEXT
  5
92
  8
SIZE
  6
CONTINUOUS
 62
    30
 10
-909.09602400000006
 20
-326.057143
 30
0.0
 40
55.0
  1
343
 50
90.0
 41
0.9
  0
TEXT
  5
93
  8
SIZE
  6
CONTINUOUS
 62
    30
 10
-748.55253948302197
 20
-224.12857099999999
 30
0.0
 40
55.0
  1
92
 50
90.0
 41
0.9
  0
LINE
  5
94
  8
SIZE
  6
CONTINUOUS
 62
    30
 10
-716.55253948302175
 20
-131.5
 30
0.0
 11
-716.55253948302175
 21
-223.5
 31
0.0
  0
LINE
  5
95
  8
SIZE
  6
CONTINUOUS
 62
    30
 10
-716.55253948302175
 20
-225.5
 30
0.0
 11
-716.55253948302175
 21
-323.5
 31
0.0
  0
LINE
  5
96
  8
SIZE
  6
CONTINUOUS
 62
    30
 10
-690.0
 20
-223.5
 30
0.0
 11
-784.37019599999985
 21
-223.5
 31
0.0
  0
LINE
  5
97
  8
SIZE
  6
CONTINUOUS
 62
    30
 10
-690.0
 20
-223.5
 30
0.0
 11
-784.37019599999985
 21
-223.5
 31
0.0
  0
CIRCLE
  5
98
  8
SIZE
  6
CONTINUOUS
 62
    30
 10
-716.55253948302175
 20
-223.5
 30
0.0
 40
6.0
  0
CIRCLE
  5
99
  8
SIZE
  6
CONTINUOUS
 62
    30
 10
-716.55253948302175
 20
-223.5
 30
0.0
 40
6.0
  0
LINE
  5
9A
  8
SIZE
  6
CONTINUOUS
 62
    30
 10
-716.55253948302175
 20
-225.5
 30
0.0
 11
-716.55253948302175
 21
-227.5
 31
0.0
  0
LINE
  5
9B
  8
SIZE
  6
CONTINUOUS
 62
    30
 10
-725.0
 20
-80.5
 30
0.0
 11
-907.09602400000006
 21
-80.5
 31
0.0
  0
CIRCLE
  5
9C
  8
SIZE
  6
CONTINUOUS
 62
    30
 10
-877.09602400000006
 20
-80.5
 30
0.0
 40
6.0
  0
CIRCLE
  5
9D
  8
SIZE
  6
CONTINUOUS
 62
    30
 10
-716.55253948302175
 20
-131.5
 30
0.0
 40
6.0
  0
LINE
  5
9E
  8
SIZE
  6
CONTINUOUS
 62
    30
 10
-716.55253948302175
 20
-129.5
 30
0.0
 11
-716.55253948302175
 21
-127.5
 31
0.0
  0
LINE
  5
9F
  8
NOTE
  6
CONTINUOUS
 62
     4
 10
-643.0
 20
-223.5
 30
0.0
 11
-476.55280599999998
 21
-367.79176899999999
 31
0.0
  0
LINE
  5
A0
  8
DETAIL
  6
CONTINUOUS
 62
     5
 10
-625.0
 20
-422.49999999999989
 30
0.0
 11
-565.0
 21
-422.49999999999989
 31
0.0
  0
LINE
  5
A1
  8
DETAIL
  6
CONTINUOUS
 62
     5
 10
-625.0
 20
-362.5
 30
0.0
 11
-565.0
 21
-362.5
 31
0.0
  0
LINE
  5
A7
  8
NOTE
  6
CONTINUOUS
 62
     4
 10
-602.0
 20
-412.5
 30
0.0
 11
-602.0
 21
-372.5
 31
0.0
  0
LINE
  5
A8
  8
DETAIL
  6
CONTINUOUS
 62
     5
 10
-625.0
 20
-422.49999999999989
 30
0.0
 11
-625.0
 21
-397.5
 31
0.0
  0
LINE
  5
A9
  8
NOTE
  6
CONTINUOUS
 62
     4
 10
-622.0
 20
-392.5
 30
0.0
 11
-582.0
 21
-392.5
 31
0.0
  0
CIRCLE
  5
AA
  8
FIX
  6
CONTINUOUS
 62
    11
 10
-602.0
 20
-392.5
 30
0.0
 40
15.0
  0
LINE
  5
AB
  8
DETAIL
  6
CONTINUOUS
 62
     5
 10
-625.0
 20
-387.5
 30
0.0
 11
-625.0
 21
-362.5
 31
0.0
  0
LINE
  5
AC
  8
DETAIL
  6
CONTINUOUS
 62
     5
 10
-607.0
 20
-402.49999600000001
 30
0.0
 11
-607.0
 21
-397.5
 31
0.0
  0
LINE
  5
AD
  8
DETAIL
  6
CONTINUOUS
 62
     5
 10
-597.0
 20
-402.49999600000001
 30
0.0
 11
-597.0
 21
-382.49217099999998
 31
0.0
  0
ARC
  5
AE
  8
DETAIL
  6
CONTINUOUS
 62
     5
 10
-602.0
 20
-382.5
 30
0.0
 40
5.0
 50
0.0
 51
180.0
  0
ARC
  5
AF
  8
DETAIL
  6
CONTINUOUS
 62
     5
 10
-602.0
 20
-402.5
 30
0.0
 40
5.0
 50
179.99995000000001
 51
0.00005
  0
LINE
  5
B0
  8
DETAIL
  6
CONTINUOUS
 62
     5
 10
-625.0
 20
-387.5
 30
0.0
 11
-607.0
 21
-387.5
 31
0.0
  0
LINE
  5
B1
  8
DETAIL
  6
CONTINUOUS
 62
     5
 10
-625.0
 20
-397.5
 30
0.0
 11
-607.0
 21
-397.5
 31
0.0
  0
LINE
  5
B2
  8
DETAIL
  6
CONTINUOUS
 62
     5
 10
-607.0
 20
-387.5
 30
0.0
 11
-607.0
 21
-382.49217099999998
 31
0.0
  0
LINE
  5
B3
  8
DETAIL
  6
CONTINUOUS
 62
     5
 10
-565.0
 20
-362.5
 30
0.0
 11
-565.0
 21
-422.49999999999989
 31
0.0
  0
LINE
  5
B4
  8
DETAIL
  6
CONTINUOUS
 62
     5
 10
-485.0
 20
-452.5
 30
0.0
 11
-485.0
 21
-423.5
 31
0.0
  0
LINE
  5
B5
  8
SIZE
  6
CONTINUOUS
 62
    30
 10
-385.0
 20
-477.5
 30
0.0
 11
-385.0
 21
-640.08606199999986
 31
0.0
  0
LINE
  5
B6
  8
SIZE
  6
CONTINUOUS
 62
    30
 10
-435.0
 20
-477.5
 30
0.0
 11
-435.0
 21
-640.08606199999986
 31
0.0
  0
TEXT
  5
B7
  8
SIZE
  6
CONTINUOUS
 62
    30
 10
-363.79824300000001
 20
-578.08606199999986
 30
0.0
 40
55.0
  1
50
 41
0.9
  0
LINE
  5
B8
  8
SIZE
  6
CONTINUOUS
 62
    30
 10
-377.758938
 20
-610.08606199999986
 30
0.0
 11
-259.98365100000001
 21
-610.08606199999986
 31
0.0
  0
LINE
  5
B9
  8
SIZE
  6
CONTINUOUS
 62
    30
 10
-385.0
 20
-610.08606199999986
 30
0.0
 11
-435.0
 21
-610.08606199999986
 31
0.0
  0
CIRCLE
  5
BA
  8
SIZE
  6
CONTINUOUS
 62
    30
 10
-435.0
 20
-610.08606199999986
 30
0.0
 40
6.0
  0
LINE
  5
BB
  8
SIZE
  6
CONTINUOUS
 62
    30
 10
-437.0
 20
-610.08606199999986
 30
0.0
 11
-439.0
 21
-610.08606199999986
 31
0.0
  0
CIRCLE
  5
BC
  8
SIZE
  6
CONTINUOUS
 62
    30
 10
-385.0
 20
-610.08606199999986
 30
0.0
 40
6.0
  0
LINE
  5
BD
  8
SIZE
  6
CONTINUOUS
 62
    30
 10
-383.0
 20
-610.08606199999986
 30
0.0
 11
-381.0
 21
-610.08606199999986
 31
0.0
  0
LINE
  5
BE
  8
NOTE
  6
CONTINUOUS
 62
     4
 10
-355.0
 20
-437.5
 30
0.0
 11
-315.0
 21
-437.5
 31
0.0
  0
LINE
  5
BF
  8
NOTE
  6
CONTINUOUS
 62
     4
 10
-405.0
 20
-437.5
 30
0.0
 11
-365.0
 21
-437.5
 31
0.0
  0
LINE
  5
C0
  8
NOTE
  6
CONTINUOUS
 62
     4
 10
-455.0
 20
-437.5
 30
0.0
 11
-415.0
 21
-437.5
 31
0.0
  0
LINE
  5
C1
  8
NOTE
  6
CONTINUOUS
 62
     4
 10
-435.0
 20
-457.5
 30
0.0
 11
-435.0
 21
-417.49999999999989
 31
0.0
  0
CIRCLE
  5
C2
  8
DETAIL
  6
CONTINUOUS
 62
     5
 10
-435.0
 20
-437.5
 30
0.0
 40
1.5
  0
LINE
  5
C3
  8
NOTE
  6
CONTINUOUS
 62
     4
 10
-385.0
 20
-457.5
 30
0.0
 11
-385.0
 21
-417.49999999999989
 31
0.0
  0
CIRCLE
  5
C4
  8
DETAIL
  6
CONTINUOUS
 62
     5
 10
-385.0
 20
-437.5
 30
0.0
 40
1.5
  0
LINE
  5
C5
  8
NOTE
  6
CONTINUOUS
 62
     4
 10
-305.0
 20
-437.5
 30
0.0
 11
-265.0
 21
-437.5
 31
0.0
  0
LINE
  5
C6
  8
NOTE
  6
CONTINUOUS
 62
     4
 10
-285.0
 20
-457.5
 30
0.0
 11
-285.0
 21
-417.49999999999989
 31
0.0
  0
LINE
  5
C7
  8
NOTE
  6
CONTINUOUS
 62
     4
 10
-335.0
 20
-457.5
 30
0.0
 11
-335.0
 21
-417.49999999999989
 31
0.0
  0
CIRCLE
  5
C8
  8
DETAIL
  6
CONTINUOUS
 62
     5
 10
-285.0
 20
-437.5
 30
0.0
 40
1.5
  0
CIRCLE
  5
C9
  8
DETAIL
  6
CONTINUOUS
 62
     5
 10
-335.0
 20
-437.5
 30
0.0
 40
1.5
  0
LINE
  5
CA
  8
NOTE
  6
CONTINUOUS
 62
     4
 10
-235.0
 20
-457.5
 30
0.0
 11
-235.0
 21
-417.49999999999989
 31
0.0
  0
CIRCLE
  5
CB
  8
DETAIL
  6
CONTINUOUS
 62
     5
 10
-235.0
 20
-437.5
 30
0.0
 40
1.5
  0
TEXT
  5
CC
  8
NOTE
  6
CONTINUOUS
 62
     4
 10
-513.48083145063299
 20
216.00559607996129
 30
0.0
 40
55.0
  1
D VP25
 41
0.9
  0
LINE
  5
CD
  8
NOTE
  6
CONTINUOUS
 62
     4
 10
-522.46487245063304
 20
193.1670670799613
 30
0.0
 11
-242.0143104761664
 21
193.1670670799613
 31
0.0
  0
LINE
  5
CE
  8
NOTE
  6
CONTINUOUS
 62
     4
 10
-627.0
 20
-131.5
 30
0.0
 11
-512.99508827438694
 21
77.17309410420421
 31
0.0
  0
LINE
  5
D6
  8
NOTE
  6
CONTINUOUS
 62
     4
 10
-663.0
 20
-223.5
 30
0.0
 11
-623.0
 21
-223.5
 31
0.0
  0
LINE
  5
D7
  8
NOTE
  6
CONTINUOUS
 62
     4
 10
-643.0
 20
-243.5
 30
0.0
 11
-643.0
 21
-203.5
 31
0.0
  0
LINE
  5
DB
  8
NOTE
  6
CONTINUOUS
 62
     4
 10
-685.0
 20
-80.5
 30
0.0
 11
-522.46487245063304
 21
193.1670670799613
 31
0.0
  0
LINE
  5
DC
  8
DETAIL
  6
CONTINUOUS
 62
     5
 10
-685.0
 20
-96.5
 30
0.0
 11
-565.0
 21
-96.5
 31
0.0
  0
LINE
  5
DD
  8
DETAIL
  6
CONTINUOUS
 62
     5
 10
-685.0
 20
-64.5
 30
0.0
 11
-565.0
 21
-64.5
 31
0.0
  0
LINE
  5
DE
  8
DETAIL
  6
CONTINUOUS
 62
     5
 10
-635.0
 20
-1.5
 30
0.0
 11
-565.0
 21
-1.5
 31
0.0
  0
POLYLINE
  5
DF
  8
NOTE
  6
CONTINUOUS
 62
     4
 66
     1
 10
0.0
 20
0.0
 30
0.0
  0
VERTEX
  5
F0B
  8
NOTE
  6
CONTINUOUS
 62
     4
 10
-678.84990188690085
 20
-40.97562392721494
 30
0.0
  0
VERTEX
  5
F0C
  8
NOTE
  6
CONTINUOUS
 62
     4
 10
-685.0
 20
-80.5
 30
0.0
  0
VERTEX
  5
F0D
  8
NOTE
  6
CONTINUOUS
 62
     4
 10
-659.91167104541432
 20
-49.345935591533809
 30
0.0
  0
SEQEND
  5
F0E
  8
NOTE
  6
CONTINUOUS
 62
     4
  0
LINE
  5
E4
  8
NOTE
  6
CONTINUOUS
 62
     4
 10
-685.0
 20
-100.5
 30
0.0
 11
-685.0
 21
-60.5
 31
0.0
  0
LINE
  5
E5
  8
DETAIL
  6
CONTINUOUS
 62
     5
 10
-685.0
 20
-96.5
 30
0.0
 11
-685.0
 21
-64.5
 31
0.0
  0
LINE
  5
E6
  8
NOTE
  6
CONTINUOUS
 62
     4
 10
-647.0
 20
-131.5
 30
0.0
 11
-607.0
 21
-131.5
 31
0.0
  0
LINE
  5
EC
  8
NOTE
  6
CONTINUOUS
 62
     4
 10
-627.0
 20
-151.5
 30
0.0
 11
-627.0
 21
-111.5
 31
0.0
  0
TEXT
  5
EE
  8
SIZE
  6
CONTINUOUS
 62
    30
 10
-1197.5014369999999
 20
574.71959000000004
 30
0.0
 40
55.0
  1
150～200
 41
0.9
  0
LINE
  5
EF
  8
SIZE
  6
CONTINUOUS
 62
    30
 10
-585.0
 20
423.5
 30
0.0
 11
-1504.710501949281
 21
423.5
 31
0.0
  0
TEXT
  5
F0
  8
NOTE
  6
CONTINUOUS
 62
     4
 10
-1154.2193240457559
 20
378.60789487940201
 30
0.0
 40
40.0
  1
サービススペース
 41
0.9
  0
LINE
  5
F1
  8
SIZE
  6
CONTINUOUS
 62
    30
 10
-713.0
 20
542.71959000000004
 30
0.0
 11
-1219.603564
 21
542.71959000000004
 31
0.0
  0
LINE
  5
F2
  8
SERVICESPACE
  6
DASHDOT
 62
     2
 10
-715.0
 20
323.5
 30
0.0
 11
-1165.0
 21
323.5
 31
0.0
  0
TEXT
  5
F3
  8
SIZE
  6
CONTINUOUS
 62
    30
 10
-1348.4780000000001
 20
450.072948
 30
0.0
 40
55.0
  1
100～200
 50
90.0
 41
0.9
  0
LINE
  5
F4
  8
SIZE
  6
CONTINUOUS
 62
    30
 10
-1316.4780000000001
 20
427.5
 30
0.0
 11
-1316.4780000000001
 21
811.31447300000002
 31
0.0
  0
CIRCLE
  5
F5
  8
SIZE
  6
CONTINUOUS
 62
    30
 10
-1316.4780000000001
 20
323.5
 30
0.0
 40
6.0
  0
CIRCLE
  5
F6
  8
SIZE
  6
CONTINUOUS
 62
    30
 10
-1316.4780000000001
 20
323.5
 30
0.0
 40
6.0
  0
LINE
  5
F7
  8
SIZE
  6
CONTINUOUS
 62
    30
 10
-1316.4780000000001
 20
323.5
 30
0.0
 11
-1316.4780000000001
 21
423.5
 31
0.0
  0
TEXT
  5
F8
  8
SIZE
  6
CONTINUOUS
 62
    30
 10
-1348.4780000000001
 20
24.442857
 30
0.0
 40
55.0
  1
450
 50
90.0
 41
0.9
  0
LINE
  5
F9
  8
SIZE
  6
CONTINUOUS
 62
    30
 10
-1185.0
 20
323.5
 30
0.0
 11
-1346.4780000000001
 21
323.5
 31
0.0
  0
LINE
  5
FA
  8
SIZE
  6
CONTINUOUS
 62
    30
 10
-1185.0
 20
323.5
 30
0.0
 11
-1346.4780000000001
 21
323.5
 31
0.0
  0
LINE
  5
FB
  8
SIZE
  6
CONTINUOUS
 62
    30
 10
-1316.4780000000001
 20
321.5
 30
0.0
 11
-1316.4780000000001
 21
319.5
 31
0.0
  0
CIRCLE
  5
FC
  8
SIZE
  6
CONTINUOUS
 62
    30
 10
-1316.4780000000001
 20
423.5
 30
0.0
 40
6.0
  0
LINE
  5
FD
  8
SIZE
  6
CONTINUOUS
 62
    30
 10
-1316.4780000000001
 20
425.49999999999989
 30
0.0
 11
-1316.4780000000001
 21
427.5
 31
0.0
  0
LINE
  5
FE
  8
SIZE
  6
CONTINUOUS
 62
    30
 10
-565.0
 20
443.5
 30
0.0
 11
-565.0
 21
903.27232600000002
 31
0.0
  0
LINE
  5
FF
  8
SIZE
  6
CONTINUOUS
 62
    30
 10
-524.0
 20
467.49999999999989
 30
0.0
 11
-524.0
 21
673.88166899999999
 31
0.0
  0
LINE
  5
100
  8
SIZE
  6
CONTINUOUS
 62
    30
 10
-565.0
 20
443.5
 30
0.0
 11
-565.0
 21
673.88166899999999
 31
0.0
  0
LINE
  5
101
  8
SIZE
  6
CONTINUOUS
 62
    30
 10
-499.0
 20
477.5
 30
0.0
 11
-499.0
 21
673.88166899999999
 31
0.0
  0
LINE
  5
102
  8
SIZE
  6
CONTINUOUS
 62
    30
 10
-499.0
 20
477.5
 30
0.0
 11
-499.0
 21
673.88166899999999
 31
0.0
  0
LINE
  5
103
  8
SIZE
  6
CONTINUOUS
 62
    30
 10
-524.0
 20
467.49999999999989
 30
0.0
 11
-524.0
 21
673.88166899999999
 31
0.0
  0
LINE
  5
104
  8
SIZE
  6
CONTINUOUS
 62
    30
 10
-524.0
 20
467.49999999999989
 30
0.0
 11
-524.0
 21
821.51729397007136
 31
0.0
  0
LINE
  5
106
  8
SIZE
  6
CONTINUOUS
 62
    30
 10
-655.0
 20
381.5
 30
0.0
 11
-797.04280400000005
 21
381.5
 31
0.0
  0
LINE
  5
107
  8
SIZE
  6
CONTINUOUS
 62
    30
 10
-715.0
 20
542.71959000000004
 30
0.0
 11
-565.0
 21
542.71959000000004
 31
0.0
  0
LINE
  5
108
  8
SIZE
  6
CONTINUOUS
 62
    30
 10
-767.04280400000005
 20
379.5
 30
0.0
 11
-767.04280400000005
 21
190.0
 31
0.0
  0
TEXT
  5
109
  8
SIZE
  6
CONTINUOUS
 62
    30
 10
-799.04280400000016
 20
115.942857
 30
0.0
 40
55.0
  1
383
 50
90.0
 41
0.9
  0
LINE
  5
10A
  8
SIZE
  6
CONTINUOUS
 62
    30
 10
-767.04280400000005
 20
0.5
 30
0.0
 11
-767.04280400000005
 21
190.0
 31
0.0
  0
LINE
  5
10B
  8
SIZE
  6
CONTINUOUS
 62
    30
 10
-715.0
 20
343.5
 30
0.0
 11
-715.0
 21
572.71959000000004
 31
0.0
  0
CIRCLE
  5
10C
  8
SIZE
  6
CONTINUOUS
 62
    30
 10
-767.04280400000005
 20
381.5
 30
0.0
 40
6.0
  0
CIRCLE
  5
10D
  8
SIZE
  6
CONTINUOUS
 62
    30
 10
-715.0
 20
542.71959000000004
 30
0.0
 40
6.0
  0
LINE
  5
10E
  8
SIZE
  6
CONTINUOUS
 62
    30
 10
-717.0
 20
542.71959000000004
 30
0.0
 11
-719.0
 21
542.71959000000004
 31
0.0
  0
TEXT
  5
10F
  8
SIZE
  6
CONTINUOUS
 62
    30
 10
-533.52882799999986
 20
336.46361806740862
 30
0.0
 40
55.0
  1
70
 41
0.9
  0
LINE
  5
110
  8
SIZE
  6
CONTINUOUS
 62
    30
 10
-565.0
 20
304.46361806740862
 30
0.0
 11
-415.04618099999999
 21
304.46361806740862
 31
0.0
  0
LINE
  5
112
  8
SIZE
  6
CONTINUOUS
 62
    30
 10
-565.0
 20
304.46361806740862
 30
0.0
 11
-635.0
 21
304.46361806740862
 31
0.0
  0
LINE
  5
113
  8
SIZE
  6
CONTINUOUS
 62
    30
 10
-635.0
 20
306.1701500674086
 30
0.0
 11
-635.0
 21
334.46361806740862
 31
0.0
  0
CIRCLE
  5
114
  8
SIZE
  6
CONTINUOUS
 62
    30
 10
-635.0
 20
304.46361806740862
 30
0.0
 40
6.0
  0
LINE
  5
115
  8
SIZE
  6
CONTINUOUS
 62
    30
 10
-637.0
 20
304.46361806740862
 30
0.0
 11
-639.0
 21
304.46361806740862
 31
0.0
  0
LINE
  5
116
  8
SIZE
  6
CONTINUOUS
 62
    30
 10
-565.0
 20
306.1701500674086
 30
0.0
 11
-565.0
 21
334.46361806740862
 31
0.0
  0
CIRCLE
  5
117
  8
SIZE
  6
CONTINUOUS
 62
    30
 10
-565.0
 20
304.46361806740862
 30
0.0
 40
6.0
  0
LINE
  5
118
  8
SIZE
  6
CONTINUOUS
 62
    30
 10
-563.0
 20
304.46361806740862
 30
0.0
 11
-561.0
 21
304.46361806740862
 31
0.0
  0
LINE
  5
120
  8
NOTE
  6
CONTINUOUS
 62
     4
 10
-519.0
 20
437.5
 30
0.0
 11
-479.0
 21
437.5
 31
0.0
  0
LINE
  5
121
  8
SIZE
  6
CONTINUOUS
 62
    30
 10
-449.0
 20
529.51156100000003
 30
0.0
 11
-499.0
 21
529.51156100000003
 31
0.0
  0
LINE
  5
122
  8
SIZE
  6
CONTINUOUS
 62
    30
 10
-499.0
 20
477.5
 30
0.0
 11
-499.0
 21
559.51156100000003
 31
0.0
  0
LINE
  5
123
  8
SIZE
  6
CONTINUOUS
 62
    30
 10
-565.0
 20
443.5
 30
0.0
 11
-565.0
 21
572.71959000000004
 31
0.0
  0
LINE
  5
124
  8
DETAIL
  6
CONTINUOUS
 62
     5
 10
-635.0
 20
381.5
 30
0.0
 11
-565.0
 21
381.5
 31
0.0
  0
LINE
  5
125
  8
DETAIL
  6
CONTINUOUS
 62
     5
 10
-625.0
 20
391.5
 30
0.0
 11
-565.0
 21
391.5
 31
0.0
  0
LINE
  5
126
  8
DETAIL
  6
CONTINUOUS
 62
     5
 10
-625.0
 20
451.49999999999989
 30
0.0
 11
-565.0
 21
451.49999999999989
 31
0.0
  0
LINE
  5
127
  8
NOTE
  6
CONTINUOUS
 62
     4
 10
-602.0
 20
401.49999999999989
 30
0.0
 11
-602.0
 21
441.5
 31
0.0
  0
ARC
  5
128
  8
DETAIL
  6
CONTINUOUS
 62
     5
 10
-602.0
 20
411.5
 30
0.0
 40
5.0
 50
179.99995000000001
 51
0.00005
  0
LINE
  5
129
  8
DETAIL
  6
CONTINUOUS
 62
     5
 10
-625.0
 20
391.5
 30
0.0
 11
-625.0
 21
416.5
 31
0.0
  0
LINE
  5
12F
  8
NOTE
  6
CONTINUOUS
 62
     4
 10
-622.0
 20
421.49999999999989
 30
0.0
 11
-582.0
 21
421.49999999999989
 31
0.0
  0
CIRCLE
  5
130
  8
FIX
  6
CONTINUOUS
 62
    11
 10
-602.0
 20
421.49999999999989
 30
0.0
 40
15.0
  0
LINE
  5
131
  8
DETAIL
  6
CONTINUOUS
 62
     5
 10
-607.0
 20
426.49999999999989
 30
0.0
 11
-607.0
 21
431.50782900000002
 31
0.0
  0
LINE
  5
132
  8
DETAIL
  6
CONTINUOUS
 62
     5
 10
-625.0
 20
426.49999999999989
 30
0.0
 11
-625.0
 21
451.49999999999989
 31
0.0
  0
LINE
  5
133
  8
DETAIL
  6
CONTINUOUS
 62
     5
 10
-625.0
 20
416.5
 30
0.0
 11
-607.0
 21
416.5
 31
0.0
  0
LINE
  5
134
  8
DETAIL
  6
CONTINUOUS
 62
     5
 10
-625.0
 20
426.49999999999989
 30
0.0
 11
-607.0
 21
426.49999999999989
 31
0.0
  0
ARC
  5
135
  8
DETAIL
  6
CONTINUOUS
 62
     5
 10
-602.0
 20
431.5
 30
0.0
 40
5.0
 50
0.0
 51
180.0
  0
LINE
  5
136
  8
DETAIL
  6
CONTINUOUS
 62
     5
 10
-597.0
 20
411.50000399999988
 30
0.0
 11
-597.0
 21
431.50782900000002
 31
0.0
  0
LINE
  5
137
  8
DETAIL
  6
CONTINUOUS
 62
     5
 10
-607.0
 20
411.50000399999988
 30
0.0
 11
-607.0
 21
416.5
 31
0.0
  0
LINE
  5
138
  8
DETAIL
  6
CONTINUOUS
 62
     5
 10
-565.0
 20
391.5
 30
0.0
 11
-565.0
 21
451.49999999999989
 31
0.0
  0
LINE
  5
139
  8
DETAIL
  6
CONTINUOUS
 62
     5
 10
-524.0
 20
423.5
 30
0.0
 11
-524.0
 21
447.5
 31
0.0
  0
LINE
  5
13A
  8
NOTE
  6
CONTINUOUS
 62
     4
 10
-499.0
 20
417.49999999999989
 30
0.0
 11
-499.0
 21
457.5
 31
0.0
  0
CIRCLE
  5
13B
  8
DETAIL
  6
CONTINUOUS
 62
     5
 10
-499.0
 20
437.5
 30
0.0
 40
1.5
  0
LINE
  5
13C
  8
SIZE
  6
CONTINUOUS
 62
    30
 10
-567.0
 20
643.88166899999999
 30
0.0
 11
-678.90671699999996
 21
643.88166899999999
 31
0.0
  0
CIRCLE
  5
13D
  8
SIZE
  6
CONTINUOUS
 62
    30
 10
-565.0
 20
542.71959000000004
 30
0.0
 40
6.0
  0
LINE
  5
13E
  8
SIZE
  6
CONTINUOUS
 62
    30
 10
-563.0
 20
542.71959000000004
 30
0.0
 11
-561.0
 21
542.71959000000004
 31
0.0
  0
CIRCLE
  5
13F
  8
SIZE
  6
CONTINUOUS
 62
    30
 10
-499.0
 20
529.51156100000003
 30
0.0
 40
6.0
  0
LINE
  5
140
  8
SIZE
  6
CONTINUOUS
 62
    30
 10
-501.0
 20
529.51156100000003
 30
0.0
 11
-503.0
 21
529.51156100000003
 31
0.0
  0
LINE
  5
141
  8
SIZE
  6
CONTINUOUS
 62
    30
 10
-499.0
 20
643.88166899999999
 30
0.0
 11
-524.0
 21
643.88166899999999
 31
0.0
  0
CIRCLE
  5
142
  8
SIZE
  6
CONTINUOUS
 62
    30
 10
-524.0
 20
643.88166899999999
 30
0.0
 40
6.0
  0
CIRCLE
  5
143
  8
SIZE
  6
CONTINUOUS
 62
    30
 10
-524.0
 20
643.88166899999999
 30
0.0
 40
6.0
  0
CIRCLE
  5
144
  8
SIZE
  6
CONTINUOUS
 62
    30
 10
-565.0
 20
643.88166899999999
 30
0.0
 40
6.0
  0
LINE
  5
145
  8
SIZE
  6
CONTINUOUS
 62
    30
 10
-524.0
 20
643.88166899999999
 30
0.0
 11
-565.0
 21
643.88166899999999
 31
0.0
  0
LINE
  5
146
  8
SIZE
  6
CONTINUOUS
 62
    30
 10
-567.0
 20
643.88166899999999
 30
0.0
 11
-569.0
 21
643.88166899999999
 31
0.0
  0
LINE
  5
147
  8
SIZE
  6
CONTINUOUS
 62
    30
 10
-522.0
 20
643.88166899999999
 30
0.0
 11
-520.0
 21
643.88166899999999
 31
0.0
  0
LINE
  5
148
  8
SIZE
  6
CONTINUOUS
 62
    30
 10
-526.0
 20
643.88166899999999
 30
0.0
 11
-528.0
 21
643.88166899999999
 31
0.0
  0
CIRCLE
  5
149
  8
SIZE
  6
CONTINUOUS
 62
    30
 10
-499.0
 20
643.88166899999999
 30
0.0
 40
6.0
  0
CIRCLE
  5
14A
  8
SIZE
  6
CONTINUOUS
 62
    30
 10
-499.0
 20
643.88166899999999
 30
0.0
 40
6.0
  0
LINE
  5
14B
  8
SIZE
  6
CONTINUOUS
 62
    30
 10
-497.0
 20
643.88166899999999
 30
0.0
 11
-495.0
 21
643.88166899999999
 31
0.0
  0
LINE
  5
14C
  8
SIZE
  6
CONTINUOUS
 62
    30
 10
-449.0
 20
477.5
 30
0.0
 11
-449.0
 21
559.51156100000003
 31
0.0
  0
LINE
  5
14D
  8
NOTE
  6
CONTINUOUS
 62
     4
 10
-449.0
 20
437.5
 30
0.0
 11
-316.96051799999998
 21
527.23881399999993
 31
0.0
  0
LINE
  5
14E
  8
NOTE
  6
CONTINUOUS
 62
     4
 10
-369.0
 20
437.5
 30
0.0
 11
-329.0
 21
437.5
 31
0.0
  0
POLYLINE
  5
14F
  8
NOTE
  6
CONTINUOUS
 62
     4
 66
     1
 10
0.0
 20
0.0
 30
0.0
  0
VERTEX
  5
F0F
  8
NOTE
  6
CONTINUOUS
 62
     4
 10
-424.11924499999992
 20
468.82008999999999
 30
0.0
  0
VERTEX
  5
F10
  8
NOTE
  6
CONTINUOUS
 62
     4
 10
-449.0
 20
437.5
 30
0.0
  0
VERTEX
  5
F11
  8
NOTE
  6
CONTINUOUS
 62
     4
 10
-411.79258900000002
 20
452.18361699999991
 30
0.0
  0
SEQEND
  5
F12
  8
NOTE
  6
CONTINUOUS
 62
     4
  0
LINE
  5
154
  8
NOTE
  6
CONTINUOUS
 62
     4
 10
-469.0
 20
437.5
 30
0.0
 11
-429.0
 21
437.5
 31
0.0
  0
LINE
  5
155
  8
NOTE
  6
CONTINUOUS
 62
     4
 10
-449.0
 20
417.49999999999989
 30
0.0
 11
-449.0
 21
457.5
 31
0.0
  0
CIRCLE
  5
156
  8
DETAIL
  6
CONTINUOUS
 62
     5
 10
-449.0
 20
437.5
 30
0.0
 40
1.5
  0
LINE
  5
157
  8
NOTE
  6
CONTINUOUS
 62
     4
 10
-419.0
 20
437.5
 30
0.0
 11
-379.0
 21
437.5
 31
0.0
  0
LINE
  5
158
  8
NOTE
  6
CONTINUOUS
 62
     4
 10
-399.0
 20
417.49999999999989
 30
0.0
 11
-399.0
 21
457.5
 31
0.0
  0
CIRCLE
  5
159
  8
DETAIL
  6
CONTINUOUS
 62
     5
 10
-399.0
 20
437.5
 30
0.0
 40
1.5
  0
LINE
  5
15A
  8
NOTE
  6
CONTINUOUS
 62
     4
 10
-319.0
 20
437.5
 30
0.0
 11
-279.0
 21
437.5
 31
0.0
  0
LINE
  5
15B
  8
NOTE
  6
CONTINUOUS
 62
     4
 10
-349.0
 20
417.49999999999989
 30
0.0
 11
-349.0
 21
457.5
 31
0.0
  0
CIRCLE
  5
15C
  8
DETAIL
  6
CONTINUOUS
 62
     5
 10
-349.0
 20
437.5
 30
0.0
 40
1.5
  0
LINE
  5
15D
  8
NOTE
  6
CONTINUOUS
 62
     4
 10
-299.0
 20
417.49999999999989
 30
0.0
 11
-299.0
 21
457.5
 31
0.0
  0
CIRCLE
  5
15E
  8
DETAIL
  6
CONTINUOUS
 62
     5
 10
-299.0
 20
437.5
 30
0.0
 40
1.5
  0
TEXT
  5
15F
  8
SIZE
  6
CONTINUOUS
 62
    30
 10
-438.77325499999989
 20
561.51156100000003
 30
0.0
 40
55.0
  1
50
 41
0.9
  0
LINE
  5
160
  8
SIZE
  6
CONTINUOUS
 62
    30
 10
-449.0
 20
529.51156100000003
 30
0.0
 11
-338.11844400000001
 21
529.51156100000003
 31
0.0
  0
CIRCLE
  5
161
  8
SIZE
  6
CONTINUOUS
 62
    30
 10
-449.0
 20
529.51156100000003
 30
0.0
 40
6.0
  0
LINE
  5
162
  8
SIZE
  6
CONTINUOUS
 62
    30
 10
-447.0
 20
529.51156100000003
 30
0.0
 11
-445.0
 21
529.51156100000003
 31
0.0
  0
LINE
  5
165
  8
SIZE
  6
CONTINUOUS
 62
    30
 10
-565.0
 20
873.27232600000002
 30
0.0
 11
565.0
 21
873.27232600000002
 31
0.0
  0
TEXT
  5
166
  8
SIZE
  6
CONTINUOUS
 62
    30
 10
-480.79198288542079
 20
720.68426235064885
 30
0.0
 40
55.0
  1
25
 41
0.9
  0
TEXT
  5
167
  8
SIZE
  6
CONTINUOUS
 62
    30
 10
-663.12625400000002
 20
675.88166899999965
 30
0.0
 40
55.0
  1
41
 41
0.9
  0
CIRCLE
  5
168
  8
SIZE
  6
CONTINUOUS
 62
    30
 10
-524.0
 20
790.90326585065725
 30
0.0
 40
6.0
  0
CIRCLE
  5
169
  8
SIZE
  6
CONTINUOUS
 62
    30
 10
-565.0
 20
873.27232600000002
 30
0.0
 40
6.0
  0
TEXT
  5
16A
  8
SIZE
  6
CONTINUOUS
 62
    30
 10
924.15407400000015
 20
-55.442857000000039
 30
0.0
 40
55.0
  1
814
 50
90.0
 41
0.9
  0
LINE
  5
16B
  8
SIZE
  6
CONTINUOUS
 62
    30
 10
956.15407399999981
 20
-390.50000000000011
 30
0.0
 11
956.15407399999981
 21
14.49999999999994
 31
0.0
  0
TEXT
  5
16C
  8
SIZE
  6
CONTINUOUS
 62
    30
 10
1026.3905890000001
 20
-75.928571000000034
 30
0.0
 40
55.0
  1
904
 50
90.0
 41
0.9
  0
LINE
  5
16D
  8
SIZE
  6
CONTINUOUS
 62
    30
 10
1058.3905890000001
 20
449.49999999999989
 30
0.0
 11
1058.3905890000001
 21
-0.500000000000057
 31
0.0
  0
LINE
  5
170
  8
OUTLINE
  6
CONTINUOUS
 62
     3
 10
565.0
 20
-423.5
 30
0.0
 11
565.0
 21
423.49999999999989
 31
0.0
  0
LINE
  5
171
  8
DETAIL
  6
CONTINUOUS
 62
     5
 10
565.0
 20
-423.5
 30
0.0
 11
565.0
 21
423.49999999999989
 31
0.0
  0
LINE
  5
172
  8
SIZE
  6
CONTINUOUS
 62
    30
 10
625.0
 20
-442.49999999999989
 30
0.0
 11
625.0
 21
-1142.7719999999999
 31
0.0
  0
LINE
  5
173
  8
SIZE
  6
CONTINUOUS
 62
    30
 10
602.0
 20
-432.50000000000011
 30
0.0
 11
602.0
 21
-1030.6690000000001
 31
0.0
  0
LINE
  5
174
  8
SIZE
  6
CONTINUOUS
 62
    30
 10
465.0
 20
-473.59580599999993
 30
0.0
 11
465.0
 21
-774.199881
 31
0.0
  0
LINE
  5
175
  8
SIZE
  6
CONTINUOUS
 62
    30
 10
515.0
 20
-472.5
 30
0.0
 11
515.0
 21
-912.18980899999997
 31
0.0
  0
LINE
  5
176
  8
NOTE
  6
CONTINUOUS
 62
     4
 10
465.0
 20
-437.5
 30
0.0
 11
705.9778299999997
 21
-883.74204599999985
 31
0.0
  0
CIRCLE
  5
178
  8
SIZE
  6
CONTINUOUS
 62
    30
 10
625.0
 20
-1112.7719999999999
 30
0.0
 40
6.0
  0
CIRCLE
  5
179
  8
SIZE
  6
CONTINUOUS
 62
    30
 10
602.0
 20
-1000.669
 30
0.0
 40
6.0
  0
LINE
  5
17A
  8
SIZE
  6
CONTINUOUS
 62
    30
 10
465.0
 20
-744.199881
 30
0.0
 11
-435.0
 21
-744.199881
 31
0.0
  0
CIRCLE
  5
17B
  8
SIZE
  6
CONTINUOUS
 62
    30
 10
515.0
 20
-882.18980899999985
 30
0.0
 40
6.0
  0
CIRCLE
  5
17C
  8
SIZE
  6
CONTINUOUS
 62
    30
 10
465.0
 20
-744.199881
 30
0.0
 40
6.0
  0
LINE
  5
17D
  8
NOTE
  6
CONTINUOUS
 62
     4
 10
705.9778299999997
 20
-883.74204599999985
 30
0.0
 11
1021.258607
 21
-883.74204599999985
 31
0.0
  0
TEXT
  5
17E
  8
NOTE
  6
CONTINUOUS
 62
     4
 10
727.56296499999985
 20
-855.12261799999999
 30
0.0
 40
55.0
  1
48-φ3
 41
0.9
  0
TEXT
  5
181
  8
SIZE
  6
CONTINUOUS
 62
    30
 10
752.82944999999995
 20
-548.93428900000004
 30
0.0
 40
55.0
  1
15
 50
90.0
 41
0.9
  0
LINE
  5
182
  8
SIZE
  6
CONTINUOUS
 62
    30
 10
502.39549599999998
 20
-437.5
 30
0.0
 11
814.82944999999995
 21
-437.5
 31
0.0
  0
LINE
  5
183
  8
SIZE
  6
CONTINUOUS
 62
    30
 10
535.0
 20
-452.5
 30
0.0
 11
814.82944999999995
 21
-452.5
 31
0.0
  0
LINE
  5
184
  8
SIZE
  6
CONTINUOUS
 62
    30
 10
642.0
 20
-392.50000000000011
 30
0.0
 11
986.15407400000004
 21
-392.50000000000011
 31
0.0
  0
LINE
  5
185
  8
SIZE
  6
CONTINUOUS
 62
    30
 10
535.0
 20
-452.5
 30
0.0
 11
986.15407400000004
 21
-452.5
 31
0.0
  0
LINE
  5
186
  8
SIZE
  6
CONTINUOUS
 62
    30
 10
642.0
 20
-392.50000000000011
 30
0.0
 11
986.15407400000004
 21
-392.50000000000011
 31
0.0
  0
LINE
  5
187
  8
SIZE
  6
CONTINUOUS
 62
    30
 10
535.0
 20
-452.5
 30
0.0
 11
1088.3905890000001
 21
-452.5
 31
0.0
  0
LINE
  5
189
  8
NOTE
  6
CONTINUOUS
 62
     4
 10
-5.0
 20
-437.5
 30
0.0
 11
35.0
 21
-437.5
 31
0.0
  0
LINE
  5
18A
  8
NOTE
  6
CONTINUOUS
 62
     4
 10
-205.0
 20
-437.5
 30
0.0
 11
-165.0
 21
-437.5
 31
0.0
  0
LINE
  5
18B
  8
NOTE
  6
CONTINUOUS
 62
     4
 10
-185.0
 20
-457.5
 30
0.0
 11
-185.0
 21
-417.49999999999989
 31
0.0
  0
CIRCLE
  5
18C
  8
DETAIL
  6
CONTINUOUS
 62
     5
 10
-185.0
 20
-437.5
 30
0.0
 40
1.5
  0
LINE
  5
18D
  8
NOTE
  6
CONTINUOUS
 62
     4
 10
-155.0
 20
-437.5
 30
0.0
 11
-115.0
 21
-437.5
 31
0.0
  0
LINE
  5
18E
  8
NOTE
  6
CONTINUOUS
 62
     4
 10
-135.0
 20
-457.5
 30
0.0
 11
-135.0
 21
-417.49999999999989
 31
0.0
  0
CIRCLE
  5
18F
  8
DETAIL
  6
CONTINUOUS
 62
     5
 10
-135.0
 20
-437.5
 30
0.0
 40
1.5
  0
LINE
  5
190
  8
NOTE
  6
CONTINUOUS
 62
     4
 10
-55.0
 20
-437.5
 30
0.0
 11
-15.0
 21
-437.5
 31
0.0
  0
LINE
  5
191
  8
NOTE
  6
CONTINUOUS
 62
     4
 10
-105.0
 20
-437.5
 30
0.0
 11
-65.0
 21
-437.5
 31
0.0
  0
LINE
  5
192
  8
NOTE
  6
CONTINUOUS
 62
     4
 10
-85.0
 20
-457.5
 30
0.0
 11
-85.0
 21
-417.49999999999989
 31
0.0
  0
CIRCLE
  5
193
  8
DETAIL
  6
CONTINUOUS
 62
     5
 10
-85.0
 20
-437.5
 30
0.0
 40
1.5
  0
LINE
  5
194
  8
NOTE
  6
CONTINUOUS
 62
     4
 10
-35.0
 20
-457.5
 30
0.0
 11
-35.0
 21
-417.49999999999989
 31
0.0
  0
CIRCLE
  5
195
  8
DETAIL
  6
CONTINUOUS
 62
     5
 10
-35.0
 20
-437.5
 30
0.0
 40
1.5
  0
LINE
  5
196
  8
DETAIL
  6
CONTINUOUS
 62
     5
 10
625.0
 20
-422.49999999999989
 30
0.0
 11
565.0
 21
-422.49999999999989
 31
0.0
  0
LINE
  5
197
  8
DETAIL
  6
CONTINUOUS
 62
     5
 10
625.0
 20
-362.5
 30
0.0
 11
565.0
 21
-362.5
 31
0.0
  0
LINE
  5
198
  8
DETAIL
  6
CONTINUOUS
 62
     5
 10
565.0
 20
-362.5
 30
0.0
 11
565.0
 21
-422.49999999999989
 31
0.0
  0
POLYLINE
  5
199
  8
NOTE
  6
CONTINUOUS
 62
     4
 66
     1
 10
0.0
 20
0.0
 30
0.0
  0
VERTEX
  5
F13
  8
NOTE
  6
CONTINUOUS
 62
     4
 10
493.30528799999979
 20
-465.76323899999988
 30
0.0
  0
VERTEX
  5
F14
  8
NOTE
  6
CONTINUOUS
 62
     4
 10
465.0
 20
-437.5
 30
0.0
  0
VERTEX
  5
F15
  8
NOTE
  6
CONTINUOUS
 62
     4
 10
475.3814789999999
 20
-476.12932699999988
 30
0.0
  0
SEQEND
  5
F16
  8
NOTE
  6
CONTINUOUS
 62
     4
  0
LINE
  5
19E
  8
NOTE
  6
CONTINUOUS
 62
     4
 10
15.0
 20
-457.5
 30
0.0
 11
15.0
 21
-417.49999999999989
 31
0.0
  0
CIRCLE
  5
19F
  8
DETAIL
  6
CONTINUOUS
 62
     5
 10
15.0
 20
-437.5
 30
0.0
 40
1.5
  0
LINE
  5
1A0
  8
DETAIL
  6
CONTINUOUS
 62
     5
 10
515.0
 20
-452.5
 30
0.0
 11
515.0
 21
-423.5
 31
0.0
  0
LINE
  5
1A6
  8
NOTE
  6
CONTINUOUS
 62
     4
 10
602.0
 20
-372.5
 30
0.0
 11
602.0
 21
-412.5
 31
0.0
  0
LINE
  5
1A7
  8
DETAIL
  6
CONTINUOUS
 62
     5
 10
625.0
 20
-397.50000000000011
 30
0.0
 11
625.0
 21
-422.49999999999989
 31
0.0
  0
LINE
  5
1A8
  8
NOTE
  6
CONTINUOUS
 62
     4
 10
622.0
 20
-392.50000000000011
 30
0.0
 11
582.0
 21
-392.50000000000011
 31
0.0
  0
CIRCLE
  5
1A9
  8
FIX
  6
CONTINUOUS
 62
    11
 10
602.0
 20
-392.50000000000011
 30
0.0
 40
15.0
  0
LINE
  5
1AA
  8
DETAIL
  6
CONTINUOUS
 62
     5
 10
625.0
 20
-362.5
 30
0.0
 11
625.0
 21
-387.5
 31
0.0
  0
LINE
  5
1AB
  8
DETAIL
  6
CONTINUOUS
 62
     5
 10
607.0
 20
-397.50000000000011
 30
0.0
 11
607.0
 21
-402.50782900000002
 31
0.0
  0
LINE
  5
1AC
  8
DETAIL
  6
CONTINUOUS
 62
     5
 10
625.0
 20
-387.5
 30
0.0
 11
607.0
 21
-387.5
 31
0.0
  0
LINE
  5
1AD
  8
DETAIL
  6
CONTINUOUS
 62
     5
 10
625.0
 20
-397.50000000000011
 30
0.0
 11
607.0
 21
-397.50000000000011
 31
0.0
  0
ARC
  5
1AE
  8
DETAIL
  6
CONTINUOUS
 62
     5
 10
602.0
 20
-382.50000000000011
 30
0.0
 40
5.0
 50
359.99995000000001
 51
180.0000499999999
  0
ARC
  5
1AF
  8
DETAIL
  6
CONTINUOUS
 62
     5
 10
602.0
 20
-402.5
 30
0.0
 40
5.0
 50
180.0
 51
0.0
  0
LINE
  5
1B0
  8
DETAIL
  6
CONTINUOUS
 62
     5
 10
597.0
 20
-382.50000399999999
 30
0.0
 11
597.0
 21
-402.50782900000002
 31
0.0
  0
LINE
  5
1B1
  8
DETAIL
  6
CONTINUOUS
 62
     5
 10
607.0
 20
-382.50000399999999
 30
0.0
 11
607.0
 21
-387.5
 31
0.0
  0
LINE
  5
1B2
  8
SIZE
  6
CONTINUOUS
 62
    30
 10
1058.3905890000001
 20
-450.49999999999989
 30
0.0
 11
1058.3905890000001
 21
-0.500000000000057
 31
0.0
  0
TEXT
  5
1B3
  8
SIZE
  6
CONTINUOUS
 62
    30
 10
924.15407400000015
 20
-562.70783700000015
 30
0.0
 40
55.0
  1
60
 50
90.0
 41
0.9
  0
LINE
  5
1B4
  8
SIZE
  6
CONTINUOUS
 62
    30
 10
784.82944999999995
 20
-456.5
 30
0.0
 11
784.82944999999995
 21
-552.41786099999979
 31
0.0
  0
CIRCLE
  5
1B5
  8
SIZE
  6
CONTINUOUS
 62
    30
 10
784.82944999999995
 20
-437.5
 30
0.0
 40
6.0
  0
CIRCLE
  5
1B6
  8
SIZE
  6
CONTINUOUS
 62
    30
 10
784.82944999999995
 20
-452.5
 30
0.0
 40
6.0
  0
LINE
  5
1B7
  8
SIZE
  6
CONTINUOUS
 62
    30
 10
784.82944999999995
 20
-437.5
 30
0.0
 11
784.82944999999995
 21
-452.5
 31
0.0
  0
LINE
  5
1B8
  8
SIZE
  6
CONTINUOUS
 62
    30
 10
784.82944999999995
 20
-454.49999999999989
 30
0.0
 11
784.82944999999995
 21
-456.5
 31
0.0
  0
LINE
  5
1B9
  8
SIZE
  6
CONTINUOUS
 62
    30
 10
784.82944999999995
 20
-435.5
 30
0.0
 11
784.82944999999995
 21
-433.49999999999989
 31
0.0
  0
LINE
  5
1BB
  8
SIZE
  6
CONTINUOUS
 62
    30
 10
956.15407399999981
 20
-454.49999999999989
 30
0.0
 11
956.15407399999981
 21
-580.67646799999966
 31
0.0
  0
LINE
  5
1BC
  8
SIZE
  6
CONTINUOUS
 62
    30
 10
956.15407399999981
 20
-392.50000000000011
 30
0.0
 11
956.15407399999981
 21
-452.5
 31
0.0
  0
CIRCLE
  5
1BD
  8
SIZE
  6
CONTINUOUS
 62
    30
 10
956.15407399999981
 20
-452.5
 30
0.0
 40
6.0
  0
LINE
  5
1BE
  8
SIZE
  6
CONTINUOUS
 62
    30
 10
956.15407399999981
 20
-454.49999999999989
 30
0.0
 11
956.15407399999981
 21
-456.5
 31
0.0
  0
CIRCLE
  5
1BF
  8
SIZE
  6
CONTINUOUS
 62
    30
 10
956.15407399999981
 20
-392.50000000000011
 30
0.0
 40
6.0
  0
CIRCLE
  5
1C0
  8
SIZE
  6
CONTINUOUS
 62
    30
 10
956.15407399999981
 20
-392.50000000000011
 30
0.0
 40
6.0
  0
LINE
  5
1C1
  8
SIZE
  6
CONTINUOUS
 62
    30
 10
956.15407399999981
 20
-390.50000000000011
 30
0.0
 11
956.15407399999981
 21
-388.50000000000011
 31
0.0
  0
CIRCLE
  5
1C2
  8
SIZE
  6
CONTINUOUS
 62
    30
 10
1058.3905890000001
 20
-452.5
 30
0.0
 40
6.0
  0
TEXT
  5
1C4
  8
ETC
  6
CONTINUOUS
 62
    61
 10
222.58674571383719
 20
985.75199913544907
 30
0.0
 40
64.0
  1
PE-RP112_160CA5_6
 41
0.9
  0
LINE
  5
1C5
  8
SIZE
  6
CONTINUOUS
 62
    30
 10
565.0
 20
443.49999999999989
 30
0.0
 11
565.0
 21
903.27232600000002
 31
0.0
  0
LINE
  5
1C6
  8
SIZE
  6
CONTINUOUS
 62
    30
 10
501.0
 20
477.5
 30
0.0
 11
501.0
 21
673.88166899999999
 31
0.0
  0
LINE
  5
1C7
  8
SIZE
  6
CONTINUOUS
 62
    30
 10
526.0
 20
467.49999999999977
 30
0.0
 11
526.0
 21
818.79814613017152
 31
0.0
  0
LINE
  5
1C9
  8
SIZE
  6
CONTINUOUS
 62
    30
 10
516.0
 20
437.49999999999989
 30
0.0
 11
830.79936899999984
 21
437.49999999999989
 31
0.0
  0
LINE
  5
1CA
  8
SIZE
  6
CONTINUOUS
 62
    30
 10
546.0
 20
447.49999999999989
 30
0.0
 11
830.79936899999984
 21
447.49999999999989
 31
0.0
  0
LINE
  5
1CB
  8
SIZE
  6
CONTINUOUS
 62
    30
 10
642.0
 20
421.49999999999977
 30
0.0
 11
986.15407400000004
 21
421.49999999999977
 31
0.0
  0
LINE
  5
1CC
  8
SIZE
  6
CONTINUOUS
 62
    30
 10
645.0
 20
451.49999999999972
 30
0.0
 11
1088.3905890000001
 21
451.49999999999972
 31
0.0
  0
LINE
  5
1CE
  8
NOTE
  6
CONTINUOUS
 62
     4
 10
602.0
 20
421.49999999999977
 30
0.0
 11
712.23668199999975
 21
602.59875699999975
 31
0.0
  0
LINE
  5
1CF
  8
NOTE
  6
CONTINUOUS
 62
     4
 10
-19.0
 20
437.5
 30
0.0
 11
21.0
 21
437.5
 31
0.0
  0
LINE
  5
1D1
  8
NOTE
  6
CONTINUOUS
 62
     4
 10
-169.0
 20
437.5
 30
0.0
 11
-129.0
 21
437.5
 31
0.0
  0
LINE
  5
1D2
  8
NOTE
  6
CONTINUOUS
 62
     4
 10
-219.0
 20
437.5
 30
0.0
 11
-179.0
 21
437.5
 31
0.0
  0
LINE
  5
1D3
  8
NOTE
  6
CONTINUOUS
 62
     4
 10
-199.0
 20
417.49999999999989
 30
0.0
 11
-199.0
 21
457.5
 31
0.0
  0
LINE
  5
1D4
  8
NOTE
  6
CONTINUOUS
 62
     4
 10
-249.0
 20
417.49999999999989
 30
0.0
 11
-249.0
 21
457.5
 31
0.0
  0
CIRCLE
  5
1D5
  8
DETAIL
  6
CONTINUOUS
 62
     5
 10
-199.0
 20
437.5
 30
0.0
 40
1.5
  0
LINE
  5
1D6
  8
NOTE
  6
CONTINUOUS
 62
     4
 10
-149.0
 20
417.49999999999989
 30
0.0
 11
-149.0
 21
457.5
 31
0.0
  0
CIRCLE
  5
1D7
  8
DETAIL
  6
CONTINUOUS
 62
     5
 10
-149.0
 20
437.5
 30
0.0
 40
1.5
  0
LINE
  5
1D8
  8
NOTE
  6
CONTINUOUS
 62
     4
 10
-119.0
 20
437.5
 30
0.0
 11
-79.0
 21
437.5
 31
0.0
  0
LINE
  5
1D9
  8
NOTE
  6
CONTINUOUS
 62
     4
 10
-99.0
 20
417.49999999999989
 30
0.0
 11
-99.0
 21
457.5
 31
0.0
  0
CIRCLE
  5
1DA
  8
DETAIL
  6
CONTINUOUS
 62
     5
 10
-99.0
 20
437.5
 30
0.0
 40
1.5
  0
LINE
  5
1DB
  8
NOTE
  6
CONTINUOUS
 62
     4
 10
-69.0
 20
437.5
 30
0.0
 11
-29.0
 21
437.5
 31
0.0
  0
LINE
  5
1DC
  8
NOTE
  6
CONTINUOUS
 62
     4
 10
-49.0
 20
417.49999999999989
 30
0.0
 11
-49.0
 21
457.5
 31
0.0
  0
CIRCLE
  5
1DD
  8
DETAIL
  6
CONTINUOUS
 62
     5
 10
-49.0
 20
437.5
 30
0.0
 40
1.5
  0
LINE
  5
1DE
  8
DETAIL
  6
CONTINUOUS
 62
     5
 10
625.0
 20
451.49999999999972
 30
0.0
 11
565.0
 21
451.49999999999972
 31
0.0
  0
LINE
  5
1DF
  8
DETAIL
  6
CONTINUOUS
 62
     5
 10
625.0
 20
391.5
 30
0.0
 11
565.0
 21
391.5
 31
0.0
  0
LINE
  5
1E0
  8
DETAIL
  6
CONTINUOUS
 62
     5
 10
565.0
 20
391.5
 30
0.0
 11
565.0
 21
451.49999999999972
 31
0.0
  0
LINE
  5
1E1
  8
NOTE
  6
CONTINUOUS
 62
     4
 10
1.0
 20
417.49999999999989
 30
0.0
 11
1.0
 21
457.5
 31
0.0
  0
CIRCLE
  5
1E2
  8
DETAIL
  6
CONTINUOUS
 62
     5
 10
1.0
 20
437.5
 30
0.0
 40
1.5
  0
LINE
  5
1E3
  8
DETAIL
  6
CONTINUOUS
 62
     5
 10
526.0
 20
423.5
 30
0.0
 11
526.0
 21
447.5
 31
0.0
  0
LINE
  5
1E4
  8
NOTE
  6
CONTINUOUS
 62
     4
 10
602.0
 20
401.49999999999972
 30
0.0
 11
602.0
 21
441.49999999999989
 31
0.0
  0
LINE
  5
1E5
  8
DETAIL
  6
CONTINUOUS
 62
     5
 10
625.0
 20
416.49999999999989
 30
0.0
 11
625.0
 21
391.5
 31
0.0
  0
ARC
  5
1E6
  8
DETAIL
  6
CONTINUOUS
 62
     5
 10
602.0
 20
411.49999999999989
 30
0.0
 40
5.0
 50
180.0
 51
0.0
  0
POLYLINE
  5
1E7
  8
NOTE
  6
CONTINUOUS
 62
     4
 66
     1
 10
0.0
 20
0.0
 30
0.0
  0
VERTEX
  5
F17
  8
NOTE
  6
CONTINUOUS
 62
     4
 10
613.44958900000006
 20
459.82632099999978
 30
0.0
  0
VERTEX
  5
F18
  8
NOTE
  6
CONTINUOUS
 62
     4
 10
602.0
 20
421.49999999999977
 30
0.0
  0
VERTEX
  5
F19
  8
NOTE
  6
CONTINUOUS
 62
     4
 10
631.07879499999979
 20
448.96677399999982
 30
0.0
  0
SEQEND
  5
F1A
  8
NOTE
  6
CONTINUOUS
 62
     4
  0
LINE
  5
1EC
  8
NOTE
  6
CONTINUOUS
 62
     4
 10
582.0
 20
421.49999999999977
 30
0.0
 11
622.0
 21
421.49999999999977
 31
0.0
  0
CIRCLE
  5
1ED
  8
FIX
  6
CONTINUOUS
 62
    11
 10
602.0
 20
421.49999999999977
 30
0.0
 40
15.0
  0
LINE
  5
1EE
  8
DETAIL
  6
CONTINUOUS
 62
     5
 10
607.0
 20
431.49999599999973
 30
0.0
 11
607.0
 21
426.49999999999972
 31
0.0
  0
LINE
  5
1EF
  8
DETAIL
  6
CONTINUOUS
 62
     5
 10
597.0
 20
431.49999599999973
 30
0.0
 11
597.0
 21
411.49217099999993
 31
0.0
  0
ARC
  5
1F0
  8
DETAIL
  6
CONTINUOUS
 62
     5
 10
602.0
 20
431.49999999999989
 30
0.0
 40
5.0
 50
359.99995000000001
 51
180.0000499999999
  0
LINE
  5
1F1
  8
DETAIL
  6
CONTINUOUS
 62
     5
 10
625.0
 20
416.49999999999989
 30
0.0
 11
607.0
 21
416.49999999999989
 31
0.0
  0
LINE
  5
1F2
  8
DETAIL
  6
CONTINUOUS
 62
     5
 10
625.0
 20
426.49999999999972
 30
0.0
 11
607.0
 21
426.49999999999972
 31
0.0
  0
LINE
  5
1F3
  8
DETAIL
  6
CONTINUOUS
 62
     5
 10
607.0
 20
416.49999999999989
 30
0.0
 11
607.0
 21
411.49217099999993
 31
0.0
  0
LINE
  5
1F4
  8
DETAIL
  6
CONTINUOUS
 62
     5
 10
625.0
 20
451.49999999999989
 30
0.0
 11
625.0
 21
426.49999999999989
 31
0.0
  0
CIRCLE
  5
1F5
  8
SIZE
  6
CONTINUOUS
 62
    30
 10
501.0
 20
643.88166899999999
 30
0.0
 40
6.0
  0
LINE
  5
1F6
  8
SIZE
  6
CONTINUOUS
 62
    30
 10
956.15407399999981
 20
419.49999999999989
 30
0.0
 11
956.15407399999981
 21
14.49999999999994
 31
0.0
  0
LINE
  5
1F7
  8
NOTE
  6
CONTINUOUS
 62
     4
 10
1255.1885786637281
 20
602.59875699999975
 30
0.0
 11
712.23668199999975
 21
602.59875699999975
 31
0.0
  0
TEXT
  5
1F8
  8
SIZE
  6
CONTINUOUS
 62
    30
 10
768.79936899999996
 20
478.40421900000001
 30
0.0
 40
55.0
  1
10
 50
90.0
 41
0.9
  0
LINE
  5
1F9
  8
SIZE
  6
CONTINUOUS
 62
    30
 10
800.79936900000018
 20
447.49999999999989
 30
0.0
 11
800.79936900000018
 21
575.09444800000017
 31
0.0
  0
CIRCLE
  5
1FA
  8
SIZE
  6
CONTINUOUS
 62
    30
 10
800.79936900000018
 20
437.49999999999989
 30
0.0
 40
6.0
  0
CIRCLE
  5
1FB
  8
SIZE
  6
CONTINUOUS
 62
    30
 10
800.79936900000018
 20
447.49999999999989
 30
0.0
 40
6.0
  0
LINE
  5
1FC
  8
SIZE
  6
CONTINUOUS
 62
    30
 10
800.79936900000018
 20
437.49999999999989
 30
0.0
 11
800.79936900000018
 21
447.49999999999989
 31
0.0
  0
LINE
  5
1FD
  8
SIZE
  6
CONTINUOUS
 62
    30
 10
800.79936900000018
 20
449.49999999999989
 30
0.0
 11
800.79936900000018
 21
451.49999999999972
 31
0.0
  0
LINE
  5
1FE
  8
SIZE
  6
CONTINUOUS
 62
    30
 10
800.79936900000018
 20
435.49999999999989
 30
0.0
 11
800.79936900000018
 21
433.49999999999989
 31
0.0
  0
CIRCLE
  5
200
  8
SIZE
  6
CONTINUOUS
 62
    30
 10
956.15407399999981
 20
421.49999999999977
 30
0.0
 40
6.0
  0
CIRCLE
  5
201
  8
SIZE
  6
CONTINUOUS
 62
    30
 10
1058.3905890000001
 20
451.49999999999972
 30
0.0
 40
6.0
  0
CIRCLE
  5
202
  8
SIZE
  6
CONTINUOUS
 62
    30
 10
526.0
 20
790.90326585065725
 30
0.0
 40
6.0
  0
CIRCLE
  5
203
  8
SIZE
  6
CONTINUOUS
 62
    30
 10
565.0
 20
873.27232600000002
 30
0.0
 40
6.0
  0
LINE
  5
31E
  8
SERVICESPACE
  6
DASHDOT
 62
     2
 10
-565.0
 20
423.5
 30
0.0
 11
-1165.000013569776
 21
423.49999626586191
 31
0.0
  0
LINE
  5
324
  8
SERVICESPACE
  6
DASHDOT
 62
     2
 10
-564.99998079782381
 20
-423.50000624870859
 30
0.0
 11
-1164.9999943676
 21
-423.50000998284639
 31
0.0
  0
LINE
  5
333
  8
SERVICESPACE
  6
DASHDOT
 62
     2
 10
-564.99999467877922
 20
-423.50000624870859
 30
0.0
 11
-564.99999436760118
 21
423.5
 31
0.0
  0
LINE
  5
339
  8
SERVICESPACE
  6
DASHDOT
 62
     2
 10
614.99998643022252
 20
-473.49999375129107
 30
0.0
 11
-615.00001356977725
 21
-473.49999748542882
 31
0.0
  0
LINE
  5
348
  8
SERVICESPACE
  6
DASHDOT
 62
     2
 10
-615.00001356977725
 20
-473.49999748542882
 30
0.0
 11
-615.00001356977725
 21
-423.50000655988708
 31
0.0
  0
LINE
  5
34E
  8
SERVICESPACE
  6
DASHDOT
 62
     2
 10
614.99998643022252
 20
-473.49999375129107
 30
0.0
 11
614.99998643022252
 21
151.4999999999998
 31
0.0
  0
LINE
  5
354
  8
SERVICESPACE
  6
DASHDOT
 62
     2
 10
614.99998643022252
 20
151.4999999999998
 30
0.0
 11
565.0
 21
151.4999981329309
 31
0.0
  0
TEXT
  5
35F
  8
NOTE
  6
CONTINUOUS
 62
     4
 10
-1156.7200208596839
 20
-409.6915122677492
 30
0.0
 40
40.0
  1
サービススペース
 41
0.9
  0
TEXT
  5
37A
  8
NOTE
  6
CONTINUOUS
 62
     4
 10
609.08663062345295
 20
-306.23022379002578
 30
0.0
 40
40.0
  1
サービススペース
 50
90.0
 41
0.9
  0
TEXT
  5
387
  8
NOTE
  6
CONTINUOUS
 62
     4
 10
720.99165322450403
 20
616.98157746921993
 30
0.0
 40
55.0
  1
AH 4-14×30長穴
 50
0.000003
 41
0.7
  7
STANDARD1
  0
LINE
  5
3CB
  8
SIZE
  6
CONTINUOUS
 62
    30
 10
-584.99998079782381
 20
-423.50000624870859
 30
0.0
 11
-1505.712761736808
 21
-423.50000624870847
 31
0.0
  0
LINE
  5
3CC
  8
SIZE
  6
CONTINUOUS
 62
    30
 10
-1475.7127617368089
 20
413.49999999999989
 30
0.0
 11
-1475.7127617368089
 21
-413.5000062487083
 31
0.0
  0
TEXT
  5
3D2
  8
SIZE
  6
CONTINUOUS
 62
    30
 10
-1513.2338976030881
 20
-74.057145981497186
 30
0.0
 40
55.0
  1
847
 50
90.0
 41
0.9
  0
CIRCLE
  5
3D3
  8
SIZE
  6
CONTINUOUS
 62
    30
 10
-1475.7127617368089
 20
423.50000000000023
 30
0.0
 40
5.0
  0
LINE
  5
3D4
  8
SIZE
  6
CONTINUOUS
 62
    30
 10
-1475.7127617368089
 20
418.5
 30
0.0
 11
-1475.7127617368089
 21
413.49999999999989
 31
0.0
  0
CIRCLE
  5
3D5
  8
SIZE
  6
CONTINUOUS
 62
    30
 10
-1475.7127617368089
 20
-423.50000624870847
 30
0.0
 40
5.0
  0
LINE
  5
3D6
  8
SIZE
  6
CONTINUOUS
 62
    30
 10
-1475.7127617368089
 20
-418.5000062487083
 30
0.0
 11
-1475.7127617368089
 21
-413.5000062487083
 31
0.0
  0
LINE
  5
422
  8
SIZE
  6
CONTINUOUS
 62
    30
 10
-635.0000135697768
 20
-473.49999748542882
 30
0.0
 11
-1505.712761736808
 21
-473.49999748542882
 31
0.0
  0
LINE
  5
423
  8
SIZE
  6
CONTINUOUS
 62
    30
 10
-1475.7127617368089
 20
-413.5000062487083
 30
0.0
 11
-1475.7127617368089
 21
-403.50000624870842
 31
0.0
  0
LINE
  5
424
  8
SIZE
  6
CONTINUOUS
 62
    30
 10
-1475.7127617368089
 20
-483.49999748542882
 30
0.0
 11
-1475.7127617368089
 21
-602.34444388407053
 31
0.0
  0
LINE
  5
425
  8
SIZE
  6
CONTINUOUS
 62
    30
 10
-1475.7127617368089
 20
-423.50000624870847
 30
0.0
 11
-1475.7127617368089
 21
-473.49999748542882
 31
0.0
  0
TEXT
  5
429
  8
SIZE
  6
CONTINUOUS
 62
    30
 10
-1500.970140385791
 20
-589.93449140334246
 30
0.0
 40
55.0
  1
50
 50
90.0
 41
0.9
  0
CIRCLE
  5
42A
  8
SIZE
  6
CONTINUOUS
 62
    30
 10
-1475.7127617368089
 20
-473.49999748542882
 30
0.0
 40
5.0
  0
LINE
  5
42B
  8
SIZE
  6
CONTINUOUS
 62
    30
 10
-1475.7127617368089
 20
-478.49999748542871
 30
0.0
 11
-1475.7127617368089
 21
-483.49999748542882
 31
0.0
  0
CIRCLE
  5
42C
  8
SIZE
  6
CONTINUOUS
 62
    30
 10
-1475.7127617368089
 20
-423.50000624870847
 30
0.0
 40
5.0
  0
LINE
  5
42D
  8
SIZE
  6
CONTINUOUS
 62
    30
 10
-1475.7127617368089
 20
-418.5000062487083
 30
0.0
 11
-1475.7127617368089
 21
-413.5000062487083
 31
0.0
  0
LINE
  5
483
  8
DETAIL
  6
CONTINUOUS
 62
     5
 10
-608.00914899999998
 20
-137.0
 30
0.0
 11
-565.0
 21
-137.0
 31
0.0
  0
LINE
  5
484
  8
DETAIL
  6
CONTINUOUS
 62
     5
 10
-607.00914899999998
 20
-141.00000000000011
 30
0.0
 11
-565.0
 21
-141.00000000000011
 31
0.0
  0
LINE
  5
485
  8
DETAIL
  6
CONTINUOUS
 62
     5
 10
-607.00914899999998
 20
-122.0
 30
0.0
 11
-565.0
 21
-122.0
 31
0.0
  0
LINE
  5
486
  8
DETAIL
  6
CONTINUOUS
 62
     5
 10
-608.00914899999998
 20
-126.0
 30
0.0
 11
-565.0
 21
-126.0
 31
0.0
  0
LINE
  5
487
  8
DETAIL
  6
CONTINUOUS
 62
     5
 10
-624.00914899999998
 20
-142.0
 30
0.0
 11
-611.00914899999998
 21
-142.0
 31
0.0
  0
LINE
  5
488
  8
DETAIL
  6
CONTINUOUS
 62
     5
 10
-623.00914899999987
 20
-137.0
 30
0.0
 11
-610.00914899999964
 21
-137.0
 31
0.0
  0
LINE
  5
489
  8
DETAIL
  6
CONTINUOUS
 62
     5
 10
-610.00914899999964
 20
-141.00000000000011
 30
0.0
 11
-611.00914899999998
 21
-142.0
 31
0.0
  0
LINE
  5
48A
  8
DETAIL
  6
CONTINUOUS
 62
     5
 10
-608.00914899999998
 20
-140.0
 30
0.0
 11
-607.00914899999998
 21
-141.00000000000011
 31
0.0
  0
LINE
  5
48B
  8
DETAIL
  6
CONTINUOUS
 62
     5
 10
-623.00914899999987
 20
-137.0
 30
0.0
 11
-624.00914899999998
 21
-136.0
 31
0.0
  0
LINE
  5
48C
  8
DETAIL
  6
CONTINUOUS
 62
     5
 10
-623.00914899999987
 20
-137.0
 30
0.0
 11
-624.00914899999998
 21
-138.0
 31
0.0
  0
LINE
  5
48D
  8
DETAIL
  6
CONTINUOUS
 62
     5
 10
-610.00914899999964
 20
-136.25999999999999
 30
0.0
 11
-608.00914899999998
 21
-136.25999999999999
 31
0.0
  0
LINE
  5
48E
  8
DETAIL
  6
CONTINUOUS
 62
     5
 10
-608.00914899999998
 20
-140.0
 30
0.0
 11
-608.00914899999998
 21
-123.0
 31
0.0
  0
LINE
  5
48F
  8
DETAIL
  6
CONTINUOUS
 62
     5
 10
-610.00914899999964
 20
-141.00000000000011
 30
0.0
 11
-610.00914899999964
 21
-122.0
 31
0.0
  0
LINE
  5
490
  8
DETAIL
  6
CONTINUOUS
 62
     5
 10
-624.00914899999998
 20
-121.0
 30
0.0
 11
-611.00914899999998
 21
-121.0
 31
0.0
  0
LINE
  5
491
  8
DETAIL
  6
CONTINUOUS
 62
     5
 10
-624.00914899999998
 20
-142.0
 30
0.0
 11
-624.00914899999998
 21
-121.0
 31
0.0
  0
LINE
  5
492
  8
DETAIL
  6
CONTINUOUS
 62
     5
 10
-623.00914899999987
 20
-126.0
 30
0.0
 11
-610.00914899999964
 21
-126.0
 31
0.0
  0
LINE
  5
493
  8
DETAIL
  6
CONTINUOUS
 62
     5
 10
-611.00914899999998
 20
-121.0
 30
0.0
 11
-610.00914899999964
 21
-122.0
 31
0.0
  0
LINE
  5
494
  8
DETAIL
  6
CONTINUOUS
 62
     5
 10
-608.00914899999998
 20
-123.0
 30
0.0
 11
-607.00914899999998
 21
-122.0
 31
0.0
  0
LINE
  5
495
  8
DETAIL
  6
CONTINUOUS
 62
     5
 10
-623.00914899999987
 20
-126.0
 30
0.0
 11
-624.00914899999998
 21
-125.0
 31
0.0
  0
LINE
  5
496
  8
DETAIL
  6
CONTINUOUS
 62
     5
 10
-623.00914899999987
 20
-126.0
 30
0.0
 11
-624.00914899999998
 21
-127.0
 31
0.0
  0
LINE
  5
497
  8
DETAIL
  6
CONTINUOUS
 62
     5
 10
-610.00914899999964
 20
-126.73999999999999
 30
0.0
 11
-608.00914899999998
 21
-126.73999999999999
 31
0.0
  0
LINE
  5
498
  8
DETAIL
  6
CONTINUOUS
 62
     5
 10
-627.0
 20
-137.0
 30
0.0
 11
-627.0
 21
-126.0
 31
0.0
  0
LINE
  5
499
  8
DETAIL
  6
CONTINUOUS
 62
     5
 10
-627.0
 20
-137.0
 30
0.0
 11
-624.00914899999998
 21
-142.0
 31
0.0
  0
LINE
  5
49A
  8
DETAIL
  6
CONTINUOUS
 62
     5
 10
-610.00914899999964
 20
-141.00000000000011
 30
0.0
 11
-611.00914899999998
 21
-142.0
 31
0.0
  0
LINE
  5
49B
  8
DETAIL
  6
CONTINUOUS
 62
     5
 10
-627.0
 20
-126.0
 30
0.0
 11
-624.00914899999998
 21
-121.0
 31
0.0
  0
LINE
  5
49C
  8
DETAIL
  6
CONTINUOUS
 62
     5
 10
-643.0
 20
-212.25
 30
0.0
 11
-643.0
 21
-234.75
 31
0.0
  0
LINE
  5
49D
  8
DETAIL
  6
CONTINUOUS
 62
     5
 10
-564.99999460952677
 20
-235.00000001138909
 30
0.0
 11
-618.00914899999987
 21
-235.0
 31
0.0
  0
LINE
  5
49E
  8
DETAIL
  6
CONTINUOUS
 62
     5
 10
-565.0
 20
-212.0
 30
0.0
 11
-618.00914899999987
 21
-212.0
 31
0.0
  0
LINE
  5
49F
  8
DETAIL
  6
CONTINUOUS
 62
     5
 10
-638.00914899999975
 20
-230.5
 30
0.0
 11
-640.00914899999964
 21
-232.5
 31
0.0
  0
LINE
  5
4A0
  8
DETAIL
  6
CONTINUOUS
 62
     5
 10
-638.00914899999975
 20
-230.5
 30
0.0
 11
-640.00914899999964
 21
-228.5
 31
0.0
  0
LINE
  5
4A1
  8
DETAIL
  6
CONTINUOUS
 62
     5
 10
-638.00914899999975
 20
-216.5
 30
0.0
 11
-640.00914899999964
 21
-218.5
 31
0.0
  0
LINE
  5
4A2
  8
DETAIL
  6
CONTINUOUS
 62
     5
 10
-638.00914899999975
 20
-216.5
 30
0.0
 11
-640.00914899999964
 21
-214.5
 31
0.0
  0
LINE
  5
4A3
  8
DETAIL
  6
CONTINUOUS
 62
     5
 10
-626.00914899999975
 20
-216.5
 30
0.0
 11
-624.00914899999998
 21
-214.5
 31
0.0
  0
LINE
  5
4A4
  8
DETAIL
  6
CONTINUOUS
 62
     5
 10
-626.00914899999975
 20
-216.5
 30
0.0
 11
-624.00914899999998
 21
-218.5
 31
0.0
  0
LINE
  5
4A5
  8
DETAIL
  6
CONTINUOUS
 62
     5
 10
-626.00914899999975
 20
-230.5
 30
0.0
 11
-624.00914899999998
 21
-228.5
 31
0.0
  0
LINE
  5
4A6
  8
DETAIL
  6
CONTINUOUS
 62
     5
 10
-626.00914899999975
 20
-230.5
 30
0.0
 11
-624.00914899999998
 21
-232.5
 31
0.0
  0
LINE
  5
4A7
  8
DETAIL
  6
CONTINUOUS
 62
     5
 10
-626.00914899999975
 20
-230.5
 30
0.0
 11
-638.00914899999975
 21
-230.5
 31
0.0
  0
LINE
  5
4A8
  8
DETAIL
  6
CONTINUOUS
 62
     5
 10
-626.00914899999975
 20
-216.5
 30
0.0
 11
-638.00914899999975
 21
-216.5
 31
0.0
  0
LINE
  5
4A9
  8
DETAIL
  6
CONTINUOUS
 62
     5
 10
-624.00914899999998
 20
-234.5
 30
0.0
 11
-626.00914899999975
 21
-236.5
 31
0.0
  0
LINE
  5
4AA
  8
DETAIL
  6
CONTINUOUS
 62
     5
 10
-624.00914899999998
 20
-212.5
 30
0.0
 11
-626.00914899999975
 21
-210.5
 31
0.0
  0
LINE
  5
4AB
  8
DETAIL
  6
CONTINUOUS
 62
     5
 10
-643.0
 20
-234.75
 30
0.0
 11
-640.00914899999964
 21
-236.5
 31
0.0
  0
LINE
  5
4AC
  8
DETAIL
  6
CONTINUOUS
 62
     5
 10
-640.00914899999964
 20
-210.5
 30
0.0
 11
-643.0
 21
-212.25000399999999
 31
0.0
  0
LINE
  5
4AD
  8
DETAIL
  6
CONTINUOUS
 62
     5
 10
-640.00914899999964
 20
-210.5
 30
0.0
 11
-640.00914899999964
 21
-236.5
 31
0.0
  0
LINE
  5
4AE
  8
DETAIL
  6
CONTINUOUS
 62
     5
 10
-624.00914899999998
 20
-212.5
 30
0.0
 11
-624.00914899999998
 21
-234.5
 31
0.0
  0
LINE
  5
4AF
  8
DETAIL
  6
CONTINUOUS
 62
     5
 10
-624.00914899999998
 20
-212.5
 30
0.0
 11
-624.00914899999998
 21
-234.5
 31
0.0
  0
LINE
  5
4B0
  8
DETAIL
  6
CONTINUOUS
 62
     5
 10
-626.00914899999975
 20
-236.5
 30
0.0
 11
-640.00914899999964
 21
-236.5
 31
0.0
  0
LINE
  5
4B1
  8
DETAIL
  6
CONTINUOUS
 62
     5
 10
-626.00914899999975
 20
-210.5
 30
0.0
 11
-640.00914899999964
 21
-210.5
 31
0.0
  0
LINE
  5
4B2
  8
DETAIL
  6
CONTINUOUS
 62
     5
 10
-624.00914899999998
 20
-215.5
 30
0.0
 11
-624.00914899999998
 21
-231.5
 31
0.0
  0
LINE
  5
4B3
  8
DETAIL
  6
CONTINUOUS
 62
     5
 10
-624.00914899999998
 20
-231.44
 30
0.0
 11
-620.00914899999998
 21
-231.44
 31
0.0
  0
LINE
  5
4B4
  8
DETAIL
  6
CONTINUOUS
 62
     5
 10
-624.00914899999998
 20
-215.56
 30
0.0
 11
-620.00914899999998
 21
-215.56
 31
0.0
  0
LINE
  5
4B5
  8
DETAIL
  6
CONTINUOUS
 62
     5
 10
-620.00914899999998
 20
-214.0
 30
0.0
 11
-618.00914899999987
 21
-212.0
 31
0.0
  0
LINE
  5
4B6
  8
DETAIL
  6
CONTINUOUS
 62
     5
 10
-620.00914899999998
 20
-233.0
 30
0.0
 11
-618.00914899999987
 21
-235.0
 31
0.0
  0
LINE
  5
4B7
  8
DETAIL
  6
CONTINUOUS
 62
     5
 10
-620.00914899999998
 20
-214.0
 30
0.0
 11
-620.00914899999998
 21
-233.0
 31
0.0
  0
POINT
  5
4B8
  8
DEFPOINTS
  6
CONTINUOUS
 62
     7
 10
-627.0
 20
-131.5
 30
0.0
  0
POINT
  5
4B9
  8
DEFPOINTS
  6
CONTINUOUS
 62
     7
 10
-643.0
 20
-223.5
 30
0.0
  0
LINE
  5
535
  8
SIZE
  6
CONTINUOUS
 62
    30
 10
-627.0
 20
-154.53835977151539
 30
0.0
 11
-627.0
 21
-194.2150514891473
 31
0.0
  0
LINE
  5
536
  8
SIZE
  6
CONTINUOUS
 62
    30
 10
-617.0
 20
-181.75076826638539
 30
0.0
 11
-574.9999807978237
 21
-181.75076826638539
 31
0.0
  0
LINE
  5
537
  8
SIZE
  6
CONTINUOUS
 62
    30
 10
-564.99998079782381
 20
-181.75076826638539
 30
0.0
 11
-417.0548425844118
 21
-181.75076826638539
 31
0.0
  0
LINE
  5
53B
  8
SIZE
  6
CONTINUOUS
 62
    30
 10
-643.0
 20
-263.5
 30
0.0
 11
-643.0
 21
-595.1578789718078
 31
0.0
  0
LINE
  5
53C
  8
SIZE
  6
CONTINUOUS
 62
    30
 10
-575.00000081587814
 20
-565.1578789718078
 30
0.0
 11
-633.0
 21
-565.1578789718078
 31
0.0
  0
LINE
  5
53D
  8
SIZE
  6
CONTINUOUS
 62
    30
 10
-643.0
 20
-565.1578789718078
 30
0.0
 11
-761.21133807408285
 21
-565.1578789718078
 31
0.0
  0
TEXT
  5
541
  8
SIZE
  6
CONTINUOUS
 62
    30
 10
-761.1213380740827
 20
-552.24771546409465
 30
0.0
 40
64.0
  1
78
 41
0.9
  0
CIRCLE
  5
542
  8
SIZE
  6
CONTINUOUS
 62
    30
 10
-643.0
 20
-565.1578789718078
 30
0.0
 40
5.0
  0
LINE
  5
543
  8
SIZE
  6
CONTINUOUS
 62
    30
 10
-638.0
 20
-565.1578789718078
 30
0.0
 11
-633.0
 21
-565.1578789718078
 31
0.0
  0
CIRCLE
  5
544
  8
SIZE
  6
CONTINUOUS
 62
    30
 10
-565.0000008158778
 20
-565.1578789718078
 30
0.0
 40
5.0
  0
LINE
  5
545
  8
SIZE
  6
CONTINUOUS
 62
    30
 10
-570.00000081587791
 20
-565.1578789718078
 30
0.0
 11
-575.00000081587814
 21
-565.1578789718078
 31
0.0
  0
TEXT
  5
546
  8
SIZE
  6
CONTINUOUS
 62
    30
 10
-526.61042646827991
 20
-161.9959007129037
 30
0.0
 40
64.0
  1
62
 41
0.9
  0
CIRCLE
  5
547
  8
SIZE
  6
CONTINUOUS
 62
    30
 10
-564.99998079782381
 20
-181.75076826638539
 30
0.0
 40
5.0
  0
LINE
  5
548
  8
SIZE
  6
CONTINUOUS
 62
    30
 10
-569.99998079782381
 20
-181.75076826638539
 30
0.0
 11
-574.9999807978237
 21
-181.75076826638539
 31
0.0
  0
CIRCLE
  5
549
  8
SIZE
  6
CONTINUOUS
 62
    30
 10
-627.0
 20
-181.75076826638539
 30
0.0
 40
5.0
  0
LINE
  5
54A
  8
SIZE
  6
CONTINUOUS
 62
    30
 10
-622.0
 20
-181.75076826638539
 30
0.0
 11
-617.0
 21
-181.75076826638539
 31
0.0
  0
LINE
  5
54B
  8
NOTE
  6
CONTINUOUS
 62
     4
 10
-616.66108680915738
 20
-92.859258408141287
 30
0.0
 11
-627.0
 21
-131.5
 31
0.0
  0
LINE
  5
54C
  8
NOTE
  6
CONTINUOUS
 62
     4
 10
-627.0
 20
-131.5
 30
0.0
 11
-598.72586848883623
 21
-103.2055935355361
 31
0.0
  0
LINE
  5
54D
  8
NOTE
  6
CONTINUOUS
 62
     4
 10
-606.71419399999991
 20
-240.33271500000001
 30
0.0
 11
-643.0
 21
-223.5
 31
0.0
  0
LINE
  5
54E
  8
NOTE
  6
CONTINUOUS
 62
     4
 10
-643.0
 20
-223.5
 30
0.0
 11
-619.99192799999992
 21
-256.220462
 31
0.0
  0
LINE
  5
556
  8
SIZE
  6
CONTINUOUS
 62
    30
 10
-565.0
 20
-154.53835482618879
 30
0.0
 11
-565.0
 21
-392.5
 31
0.0
  0
LINE
  5
592
  8
SERVICESPACE
  6
DASHDOT
 62
     2
 10
565.0
 20
-473.49999561836
 30
0.0
 11
565.0
 21
151.4999981329309
 31
0.0
  0
LINE
  5
6DF
  8
SIZE
  6
CONTINUOUS
 62
    30
 10
565.0
 20
171.49999813293081
 30
0.0
 11
565.0
 21
280.658793407627
 31
0.0
  0
LINE
  5
6E0
  8
SIZE
  6
CONTINUOUS
 62
    30
 10
624.99998643022252
 20
250.6587934076268
 30
0.0
 11
764.52216952315939
 21
250.6587934076268
 31
0.0
  0
LINE
  5
6E1
  8
SIZE
  6
CONTINUOUS
 62
    30
 10
555.0
 20
250.6587934076268
 30
0.0
 11
545.0
 21
250.6587934076268
 31
0.0
  0
LINE
  5
6E2
  8
SIZE
  6
CONTINUOUS
 62
    30
 10
614.99998643022252
 20
250.6587934076268
 30
0.0
 11
565.0
 21
250.6587934076268
 31
0.0
  0
TEXT
  5
6E8
  8
SIZE
  6
CONTINUOUS
 62
    30
 10
647.91423505516286
 20
269.1030770975085
 30
0.0
 40
55.0
  1
50
 41
0.9
  0
CIRCLE
  5
6E9
  8
SIZE
  6
CONTINUOUS
 62
    30
 10
565.0
 20
250.6587934076268
 30
0.0
 40
5.0
  0
LINE
  5
6EA
  8
SIZE
  6
CONTINUOUS
 62
    30
 10
560.0
 20
250.6587934076268
 30
0.0
 11
555.0
 21
250.6587934076268
 31
0.0
  0
CIRCLE
  5
6EB
  8
SIZE
  6
CONTINUOUS
 62
    30
 10
614.99998643022252
 20
250.6587934076268
 30
0.0
 40
5.0
  0
LINE
  5
6EC
  8
SIZE
  6
CONTINUOUS
 62
    30
 10
619.99998643022252
 20
250.6587934076268
 30
0.0
 11
624.99998643022252
 21
250.6587934076268
 31
0.0
  0
LINE
  5
6F4
  8
SIZE
  6
CONTINUOUS
 62
    30
 10
614.99997180881451
 20
171.50000198034431
 30
0.0
 11
614.99997180881451
 21
280.6587972550405
 31
0.0
  0
LINE
  5
B67
  8
SIZE
  6
CONTINUOUS
 62
    30
 10
-511.5
 20
643.88166899999999
 30
0.0
 11
-497.41662758848531
 21
707.95583536401296
 31
0.0
  0
LINE
  5
B6D
  8
SIZE
  6
CONTINUOUS
 62
    30
 10
-497.41662553144852
 20
707.95582803141269
 30
0.0
 11
-386.53506953144853
 21
707.95582803141269
 31
0.0
  0
LINE
  5
B83
  8
NOTE
  6
CONTINUOUS
 62
     4
 10
231.0
 20
437.5
 30
0.0
 11
271.0
 21
437.5
 31
0.0
  0
LINE
  5
B84
  8
NOTE
  6
CONTINUOUS
 62
     4
 10
81.0
 20
437.5
 30
0.0
 11
121.0
 21
437.5
 31
0.0
  0
LINE
  5
B85
  8
NOTE
  6
CONTINUOUS
 62
     4
 10
31.0
 20
437.5
 30
0.0
 11
71.0
 21
437.5
 31
0.0
  0
LINE
  5
B86
  8
NOTE
  6
CONTINUOUS
 62
     4
 10
51.0
 20
417.49999999999989
 30
0.0
 11
51.0
 21
457.5
 31
0.0
  0
CIRCLE
  5
B87
  8
DETAIL
  6
CONTINUOUS
 62
     5
 10
51.0
 20
437.5
 30
0.0
 40
1.5
  0
LINE
  5
B88
  8
NOTE
  6
CONTINUOUS
 62
     4
 10
101.0
 20
417.49999999999989
 30
0.0
 11
101.0
 21
457.5
 31
0.0
  0
CIRCLE
  5
B89
  8
DETAIL
  6
CONTINUOUS
 62
     5
 10
101.0
 20
437.5
 30
0.0
 40
1.5
  0
LINE
  5
B8A
  8
NOTE
  6
CONTINUOUS
 62
     4
 10
131.0
 20
437.5
 30
0.0
 11
171.0
 21
437.5
 31
0.0
  0
LINE
  5
B8B
  8
NOTE
  6
CONTINUOUS
 62
     4
 10
151.0
 20
417.49999999999989
 30
0.0
 11
151.0
 21
457.5
 31
0.0
  0
CIRCLE
  5
B8C
  8
DETAIL
  6
CONTINUOUS
 62
     5
 10
151.0
 20
437.5
 30
0.0
 40
1.5
  0
LINE
  5
B8D
  8
NOTE
  6
CONTINUOUS
 62
     4
 10
181.0
 20
437.5
 30
0.0
 11
221.0
 21
437.5
 31
0.0
  0
LINE
  5
B8E
  8
NOTE
  6
CONTINUOUS
 62
     4
 10
201.0
 20
417.49999999999989
 30
0.0
 11
201.0
 21
457.5
 31
0.0
  0
CIRCLE
  5
B8F
  8
DETAIL
  6
CONTINUOUS
 62
     5
 10
201.0
 20
437.5
 30
0.0
 40
1.5
  0
LINE
  5
B90
  8
NOTE
  6
CONTINUOUS
 62
     4
 10
251.0
 20
417.49999999999989
 30
0.0
 11
251.0
 21
457.5
 31
0.0
  0
CIRCLE
  5
B91
  8
DETAIL
  6
CONTINUOUS
 62
     5
 10
251.0
 20
437.5
 30
0.0
 40
1.5
  0
LINE
  5
BA7
  8
NOTE
  6
CONTINUOUS
 62
     4
 10
281.0
 20
437.5
 30
0.0
 11
321.0
 21
437.5
 31
0.0
  0
LINE
  5
BA9
  8
NOTE
  6
CONTINUOUS
 62
     4
 10
301.0
 20
417.49999999999989
 30
0.0
 11
301.0
 21
457.5
 31
0.0
  0
LINE
  5
BBC
  8
NOTE
  6
CONTINUOUS
 62
     4
 10
195.0
 20
-437.5
 30
0.0
 11
235.0
 21
-437.5
 31
0.0
  0
LINE
  5
BBE
  8
NOTE
  6
CONTINUOUS
 62
     4
 10
45.0
 20
-437.5
 30
0.0
 11
85.0
 21
-437.5
 31
0.0
  0
LINE
  5
BBF
  8
NOTE
  6
CONTINUOUS
 62
     4
 10
65.0
 20
-457.5
 30
0.0
 11
65.0
 21
-417.49999999999989
 31
0.0
  0
CIRCLE
  5
BC0
  8
DETAIL
  6
CONTINUOUS
 62
     5
 10
65.0
 20
-437.5
 30
0.0
 40
1.5
  0
LINE
  5
BC1
  8
NOTE
  6
CONTINUOUS
 62
     4
 10
145.0
 20
-437.5
 30
0.0
 11
185.0
 21
-437.5
 31
0.0
  0
LINE
  5
BC2
  8
NOTE
  6
CONTINUOUS
 62
     4
 10
95.0
 20
-437.5
 30
0.0
 11
135.0
 21
-437.5
 31
0.0
  0
LINE
  5
BC3
  8
NOTE
  6
CONTINUOUS
 62
     4
 10
115.0
 20
-457.5
 30
0.0
 11
115.0
 21
-417.49999999999989
 31
0.0
  0
CIRCLE
  5
BC4
  8
DETAIL
  6
CONTINUOUS
 62
     5
 10
115.0
 20
-437.5
 30
0.0
 40
1.5
  0
LINE
  5
BC5
  8
NOTE
  6
CONTINUOUS
 62
     4
 10
165.0
 20
-457.5
 30
0.0
 11
165.0
 21
-417.49999999999989
 31
0.0
  0
CIRCLE
  5
BC6
  8
DETAIL
  6
CONTINUOUS
 62
     5
 10
165.0
 20
-437.5
 30
0.0
 40
1.5
  0
LINE
  5
BC7
  8
NOTE
  6
CONTINUOUS
 62
     4
 10
215.0
 20
-457.5
 30
0.0
 11
215.0
 21
-417.49999999999989
 31
0.0
  0
CIRCLE
  5
BC8
  8
DETAIL
  6
CONTINUOUS
 62
     5
 10
215.0
 20
-437.5
 30
0.0
 40
1.5
  0
LINE
  5
BD1
  8
NOTE
  6
CONTINUOUS
 62
     4
 10
445.0
 20
-437.5
 30
0.0
 11
485.0
 21
-437.5
 31
0.0
  0
LINE
  5
BD3
  8
NOTE
  6
CONTINUOUS
 62
     4
 10
465.0
 20
-457.5
 30
0.0
 11
465.0
 21
-417.49999999999989
 31
0.0
  0
CIRCLE
  5
BD4
  8
DETAIL
  6
CONTINUOUS
 62
     5
 10
465.0
 20
-437.5
 30
0.0
 40
1.5
  0
TEXT
  5
D3A
  8
SIZE
  6
CONTINUOUS
 62
    30
 10
-66.473663453318295
 20
897.47260179424472
 30
0.0
 40
55.0
  1
1130
 41
0.9
  0
LINE
  5
E64
  8
NOTE
  6
CONTINUOUS
 62
     4
 10
431.0
 20
437.5
 30
0.0
 11
471.0
 21
437.5
 31
0.0
  0
CIRCLE
  5
E65
  8
DETAIL
  6
CONTINUOUS
 62
     5
 10
301.0
 20
437.5
 30
0.0
 40
1.5
  0
LINE
  5
E66
  8
NOTE
  6
CONTINUOUS
 62
     4
 10
331.0
 20
437.5
 30
0.0
 11
371.0
 21
437.5
 31
0.0
  0
LINE
  5
E67
  8
NOTE
  6
CONTINUOUS
 62
     4
 10
351.0
 20
417.49999999999989
 30
0.0
 11
351.0
 21
457.5
 31
0.0
  0
CIRCLE
  5
E68
  8
DETAIL
  6
CONTINUOUS
 62
     5
 10
351.0
 20
437.5
 30
0.0
 40
1.5
  0
LINE
  5
E69
  8
NOTE
  6
CONTINUOUS
 62
     4
 10
381.0
 20
437.5
 30
0.0
 11
421.0
 21
437.5
 31
0.0
  0
LINE
  5
E6A
  8
NOTE
  6
CONTINUOUS
 62
     4
 10
401.0
 20
417.49999999999989
 30
0.0
 11
401.0
 21
457.5
 31
0.0
  0
CIRCLE
  5
E6B
  8
DETAIL
  6
CONTINUOUS
 62
     5
 10
401.0
 20
437.5
 30
0.0
 40
1.5
  0
LINE
  5
E6C
  8
NOTE
  6
CONTINUOUS
 62
     4
 10
451.0
 20
417.49999999999989
 30
0.0
 11
451.0
 21
457.5
 31
0.0
  0
CIRCLE
  5
E6D
  8
DETAIL
  6
CONTINUOUS
 62
     5
 10
451.0
 20
437.5
 30
0.0
 40
1.5
  0
LINE
  5
E6E
  8
NOTE
  6
CONTINUOUS
 62
     4
 10
481.0
 20
437.5
 30
0.0
 11
521.0
 21
437.5
 31
0.0
  0
LINE
  5
E6F
  8
NOTE
  6
CONTINUOUS
 62
     4
 10
501.0
 20
417.49999999999989
 30
0.0
 11
501.0
 21
457.5
 31
0.0
  0
CIRCLE
  5
E70
  8
DETAIL
  6
CONTINUOUS
 62
     5
 10
501.0
 20
437.5
 30
0.0
 40
1.5
  0
LINE
  5
E82
  8
NOTE
  6
CONTINUOUS
 62
     4
 10
345.0
 20
-437.5
 30
0.0
 11
385.0
 21
-437.5
 31
0.0
  0
LINE
  5
E84
  8
NOTE
  6
CONTINUOUS
 62
     4
 10
245.0
 20
-437.5
 30
0.0
 11
285.0
 21
-437.5
 31
0.0
  0
LINE
  5
E85
  8
NOTE
  6
CONTINUOUS
 62
     4
 10
265.0
 20
-457.50000000000011
 30
0.0
 11
265.0
 21
-417.49999999999989
 31
0.0
  0
CIRCLE
  5
E86
  8
DETAIL
  6
CONTINUOUS
 62
     5
 10
265.0
 20
-437.5
 30
0.0
 40
1.5
  0
LINE
  5
E87
  8
NOTE
  6
CONTINUOUS
 62
     4
 10
295.0
 20
-437.5
 30
0.0
 11
335.0
 21
-437.5
 31
0.0
  0
LINE
  5
E88
  8
NOTE
  6
CONTINUOUS
 62
     4
 10
315.0
 20
-457.50000000000011
 30
0.0
 11
315.0
 21
-417.49999999999989
 31
0.0
  0
CIRCLE
  5
E89
  8
DETAIL
  6
CONTINUOUS
 62
     5
 10
315.0
 20
-437.5
 30
0.0
 40
1.5
  0
LINE
  5
E8A
  8
NOTE
  6
CONTINUOUS
 62
     4
 10
365.0
 20
-457.50000000000011
 30
0.0
 11
365.0
 21
-417.49999999999989
 31
0.0
  0
CIRCLE
  5
E8B
  8
DETAIL
  6
CONTINUOUS
 62
     5
 10
365.0
 20
-437.5
 30
0.0
 40
1.5
  0
LINE
  5
E8C
  8
NOTE
  6
CONTINUOUS
 62
     4
 10
395.0
 20
-437.5
 30
0.0
 11
435.0
 21
-437.5
 31
0.0
  0
LINE
  5
E8D
  8
NOTE
  6
CONTINUOUS
 62
     4
 10
415.0
 20
-457.50000000000011
 30
0.0
 11
415.0
 21
-417.49999999999989
 31
0.0
  0
CIRCLE
  5
E8E
  8
DETAIL
  6
CONTINUOUS
 62
     5
 10
415.0
 20
-437.5
 30
0.0
 40
1.5
  0
ENDSEC
  0
EOF
