  0
SECTION
  2
HEADER
  9
$ACADVER
  1
AC1009
  9
$INSBASE
 10
0.0
 20
0.0
 30
0.0
  9
$EXTMIN
 10
-1299.1332673690449
 20
-709.3047842026026
 30
-0.0000000000000053
  9
$EXTMAX
 10
1321.1059795239739
 20
642.70021177676972
 30
0.0000000000000099
  9
$LIMMIN
 10
-6000.0
 20
-4500.0
  9
$LIMMAX
 10
6000.0
 20
4500.0
  9
$ORTHOMODE
 70
     0
  9
$REGENMODE
 70
     1
  9
$FILLMODE
 70
     1
  9
$QTEXTMODE
 70
     0
  9
$MIRRTEXT
 70
     0
  9
$DRAGMODE
 70
     2
  9
$LTSCALE
 40
20.0
  9
$OSMODE
 70
   431
  9
$ATTMODE
 70
     1
  9
$TEXTSIZE
 40
64.0
  9
$TRACEWID
 40
0.05
  9
$TEXTSTYLE
  7
STANDARD
  9
$CLAYER
  8
SYMBOLLINE
  9
$CELTYPE
  6
CONTINUOUS
  9
$CECOLOR
 62
     7
  9
$DIMSCALE
 40
1.0
  9
$DIMASZ
 40
10.0
  9
$DIMEXO
 40
20.0
  9
$DIMDLI
 40
200.0
  9
$DIMRND
 40
0.0
  9
$DIMDLE
 40
0.0
  9
$DIMEXE
 40
30.0
  9
$DIMTP
 40
0.0
  9
$DIMTM
 40
0.0
  9
$DIMTXT
 40
64.0
  9
$DIMCEN
 40
0.0
  9
$DIMTSZ
 40
0.0
  9
$DIMTOL
 70
     0
  9
$DIMLIM
 70
     0
  9
$DIMTIH
 70
     0
  9
$DIMTOH
 70
     0
  9
$DIMSE1
 70
     1
  9
$DIMSE2
 70
     0
  9
$DIMTAD
 70
     1
  9
$DIMZIN
 70
     8
  9
$DIMBLK
  1

  9
$DIMASO
 70
     1
  9
$DIMSHO
 70
     0
  9
$DIMPOST
  1

  9
$DIMAPOST
  1

  9
$DIMALT
 70
     0
  9
$DIMALTD
 70
     2
  9
$DIMALTF
 40
25.399999999999999
  9
$DIMLFAC
 40
1.0
  9
$DIMTOFL
 70
     1
  9
$DIMTVP
 40
0.0
  9
$DIMTIX
 70
     1
  9
$DIMSOXD
 70
     0
  9
$DIMSAH
 70
     1
  9
$DIMBLK1
  1
DOTBLANK
  9
$DIMBLK2
  1
DOTBLANK
  9
$DIMSTYLE
  2
STANDARD
  9
$DIMCLRD
 70
     0
  9
$DIMCLRE
 70
     0
  9
$DIMCLRT
 70
     0
  9
$DIMTFAC
 40
1.0
  9
$DIMGAP
 40
0.09
  9
$LUNITS
 70
     2
  9
$LUPREC
 70
     4
  9
$SKETCHINC
 40
0.1
  9
$FILLETRAD
 40
19.039999999999999
  9
$AUNITS
 70
     1
  9
$AUPREC
 70
     3
  9
$MENU
  1
ACAD
  9
$ELEVATION
 40
0.0
  9
$PELEVATION
 40
0.0
  9
$THICKNESS
 40
0.0
  9
$LIMCHECK
 70
     0
  9
$BLIPMODE
 70
     0
  9
$CHAMFERA
 40
0.0
  9
$CHAMFERB
 40
0.0
  9
$SKPOLY
 70
     0
  9
$TDCREATE
 40
2450330.4399309959
  9
$TDUPDATE
 40
2455866.7830342008
  9
$TDINDWG
 40
1.3134185416999999
  9
$TDUSRTIMER
 40
1.3134146412000001
  9
$USRTIMER
 70
     1
  9
$ANGBASE
 50
0.0
  9
$ANGDIR
 70
     0
  9
$PDMODE
 70
     3
  9
$PDSIZE
 40
-2.0
  9
$PLINEWID
 40
0.0
  9
$COORDS
 70
     0
  9
$SPLFRAME
 70
     0
  9
$SPLINETYPE
 70
     6
  9
$SPLINESEGS
 70
     8
  9
$ATTDIA
 70
     0
  9
$ATTREQ
 70
     1
  9
$HANDLING
 70
     1
  9
$HANDSEED
  5
D3B
  9
$SURFTAB1
 70
     6
  9
$SURFTAB2
 70
     6
  9
$SURFTYPE
 70
     6
  9
$SURFU
 70
     6
  9
$SURFV
 70
     6
  9
$UCSNAME
  2

  9
$UCSORG
 10
0.0
 20
0.0
 30
0.0
  9
$UCSXDIR
 10
1.0
 20
0.0
 30
0.0
  9
$UCSYDIR
 10
0.0
 20
1.0
 30
0.0
  9
$PUCSNAME
  2

  9
$PUCSORG
 10
0.0
 20
0.0
 30
0.0
  9
$PUCSXDIR
 10
1.0
 20
0.0
 30
0.0
  9
$PUCSYDIR
 10
0.0
 20
1.0
 30
0.0
  9
$USERI1
 70
     0
  9
$USERI2
 70
     0
  9
$USERI3
 70
     0
  9
$USERI4
 70
     0
  9
$USERI5
 70
     0
  9
$USERR1
 40
20.0
  9
$USERR2
 40
0.0
  9
$USERR3
 40
0.0
  9
$USERR4
 40
0.0
  9
$USERR5
 40
0.0
  9
$WORLDVIEW
 70
     1
  9
$SHADEDGE
 70
     3
  9
$SHADEDIF
 70
    70
  9
$TILEMODE
 70
     1
  9
$MAXACTVP
 70
    48
  9
$PLIMCHECK
 70
     0
  9
$PEXTMIN
 10
1.0000000000000000E+020
 20
1.0000000000000000E+020
 30
1.0000000000000000E+020
  9
$PEXTMAX
 10
-1.0000000000000000E+020
 20
-1.0000000000000000E+020
 30
-1.0000000000000000E+020
  9
$PLIMMIN
 10
0.0
 20
0.0
  9
$PLIMMAX
 10
12.0
 20
9.0
  9
$UNITMODE
 70
     0
  9
$VISRETAIN
 70
     1
  9
$PLINEGEN
 70
     0
  9
$PSLTSCALE
 70
     1
  0
ENDSEC
  0
SECTION
  2
TABLES
  0
TABLE
  2
VPORT
 70
     1
  0
VPORT
  2
*ACTIVE
 70
     0
 10
0.0
 20
0.0
 11
1.0
 21
1.0
 12
-0.0000000000001137
 22
0.0
 13
0.0
 23
0.0
 14
50.0
 24
50.0
 15
100.0
 25
100.0
 16
0.0
 26
0.0
 36
1.0
 17
0.0
 27
0.0
 37
0.0
 40
9068.6149936467591
 41
1.555979643765903
 42
50.0
 43
0.0
 44
0.0
 50
0.0
 51
0.0
 71
     0
 72
  1000
 73
     1
 74
     0
 75
     0
 76
     0
 77
     0
 78
     0
  0
ENDTAB
  0
TABLE
  2
LTYPE
 70
     2
  0
LTYPE
  2
CONTINUOUS
 70
     0
  3
実線
 72
    65
 73
     0
 40
0.0
  0
LTYPE
  2
DASHDOT
 70
     0
  3
____ _ ____ _ ____ _ ____ _ ____ _ ____ _ ____
 72
    65
 73
     4
 40
5.5
 49
4.0
 49
-0.6
 49
0.3
 49
-0.6
  0
ENDTAB
  0
TABLE
  2
LAYER
 70
    12
  0
LAYER
  2
0
 70
     0
 62
     7
  6
CONTINUOUS
  0
LAYER
  2
SYMBOLLINE
 70
     0
 62
    15
  6
CONTINUOUS
  0
LAYER
  2
OUTLINE
 70
     0
 62
     3
  6
CONTINUOUS
  0
LAYER
  2
DETAIL
 70
     0
 62
     5
  6
CONTINUOUS
  0
LAYER
  2
BASIS
 70
     0
 62
     6
  6
DASHDOT
  0
LAYER
  2
SIZE
 70
     0
 62
    30
  6
CONTINUOUS
  0
LAYER
  2
NOTE
 70
     0
 62
     4
  6
CONTINUOUS
  0
LAYER
  2
ARRANGE
 70
     0
 62
     1
  6
CONTINUOUS
  0
LAYER
  2
FIX
 70
     0
 62
    11
  6
CONTINUOUS
  0
LAYER
  2
SERVICESPACE
 70
     0
 62
     2
  6
DASHDOT
  0
LAYER
  2
ETC
 70
     0
 62
    61
  6
CONTINUOUS
  0
LAYER
  2
DEFPOINTS
 70
     0
 62
     7
  6
CONTINUOUS
  0
ENDTAB
  0
TABLE
  2
STYLE
 70
     3
  0
STYLE
  2
STANDARD
 70
     0
 40
0.0
 41
0.9
 50
0.0
 71
     0
 42
64.0
  3
SIMPLEX
  4
BIGFONT
  0
STYLE
  2
ANNOTATIVE
 70
     0
 40
0.0
 41
1.0
 50
0.0
 71
     0
 42
0.2
  3
txt
  4

  0
STYLE
  2
STANDARD1
 70
     0
 40
0.0
 41
1.0
 50
0.0
 71
     0
 42
64.0
  3
MONOTXT
  4
BIGFONT
  0
ENDTAB
  0
TABLE
  2
VIEW
 70
     2
  0
VIEW
  2
ALL
 70
     0
 40
9000.0
 10
241.50664699999999
 20
0.0
 41
12483.01
 11
0.0
 21
0.0
 31
1.0
 12
0.0
 22
0.0
 32
0.0
 42
50.0
 43
0.0
 44
0.0
 50
0.0
 71
     0
  0
ENDTAB
  0
TABLE
  2
UCS
 70
     0
  0
ENDTAB
  0
TABLE
  2
APPID
 70
     4
  0
APPID
  2
ACAD
 70
     0
  0
APPID
  2
ACADANNOTATIVE
 70
     0
  0
APPID
  2
ACAD_MLEADERVER
 70
     0
  0
APPID
  2
ACAD_EXEMPT_FROM_CAD_STANDARDS
 70
     0
  0
ENDTAB
  0
TABLE
  2
DIMSTYLE
 70
     2
  0
DIMSTYLE
  2
STANDARD
 70
     0
  3

  4

  5

  6

  7

 40
1.0
 41
0.18
 42
0.0625
 43
0.38
 44
0.18
 45
0.0
 46
0.0
 47
0.0
 48
0.0
140
0.18
141
0.09
142
0.0
143
25.399999999999999
144
1.0
145
0.0
146
1.0
147
0.09
 71
     0
 72
     0
 73
     1
 74
     1
 75
     0
 76
     0
 77
     0
 78
     0
170
     0
171
     2
172
     0
173
     0
174
     0
175
     0
176
     0
177
     0
178
     0
  0
DIMSTYLE
  2
ANNOTATIVE
 70
     0
  3

  4

  5

  6

  7

 40
1.0
 41
0.18
 42
0.0625
 43
0.38
 44
0.18
 45
0.0
 46
0.0
 47
0.0
 48
0.0
140
0.18
141
0.09
142
0.0
143
25.399999999999999
144
1.0
145
0.0
146
1.0
147
0.09
 71
     0
 72
     0
 73
     1
 74
     1
 75
     0
 76
     0
 77
     0
 78
     0
170
     0
171
     2
172
     0
173
     0
174
     0
175
     0
176
     0
177
     0
178
     0
  0
ENDTAB
  0
ENDSEC
  0
SECTION
  2
BLOCKS
  0
BLOCK
  8
0
  2
$MODEL_SPACE
 70
     0
 10
0.0
 20
0.0
 30
0.0
  3
$MODEL_SPACE
  1

  0
ENDBLK
  5
CCF
  8
0
  0
BLOCK
 67
     1
  8
0
  2
$PAPER_SPACE
 70
     0
 10
0.0
 20
0.0
 30
0.0
  3
$PAPER_SPACE
  1

  0
ENDBLK
  5
CCB
 67
     1
  8
0
  0
BLOCK
  8
0
  2
_DOTBLANK
 70
     0
 10
0.0
 20
0.0
 30
0.0
  3
_DOTBLANK
  1

  0
CIRCLE
  5
30
  8
0
  6
CONTINUOUS
 62
     7
 10
0.0
 20
0.0
 30
0.0
 40
0.5
  0
LINE
  5
31
  8
0
  6
CONTINUOUS
 62
     7
 10
-0.5
 20
0.0
 30
0.0
 11
-1.0
 21
0.0
 31
0.0
  0
ENDBLK
  5
32
  8
0
  0
BLOCK
  8
0
  2
_ORIGIN
 70
     0
 10
0.0
 20
0.0
 30
0.0
  3
_ORIGIN
  1

  0
CIRCLE
  5
266
  8
0
  6
CONTINUOUS
 62
     7
 10
0.0
 20
0.0
 30
0.0
 40
0.5
  0
LINE
  5
267
  8
0
  6
CONTINUOUS
 62
     7
 10
-0.5
 20
0.0
 30
0.0
 11
-1.0
 21
0.0
 31
0.0
  0
ENDBLK
  5
268
  8
0
  0
BLOCK
  8
0
 62
     7
  2
A$C051C3E03
 70
     0
 10
0.0
 20
0.0
 30
0.0
  3
A$C051C3E03
  1

  0
POINT
  5
26B
  8
DEFPOINTS
  6
CONTINUOUS
 62
     7
 10
15.99999847811705
 20
7.7009232893022359
 30
0.0
  0
POINT
  5
26C
  8
DEFPOINTS
  6
CONTINUOUS
 62
     7
 10
15.99999847811705
 20
7.7009232893022359
 30
0.0
  0
ARC
  5
26D
  8
DETAIL
  6
CONTINUOUS
 62
     5
 10
11.69972347811688
 20
7.7011632893023121
 30
0.0
 40
2.0
 50
0.0
 51
90.0
  0
LINE
  5
26E
  8
DETAIL
  6
CONTINUOUS
 62
     5
 10
-0.0000015218829503
 20
9.7011632893022561
 30
0.0
 11
11.69972347811688
 21
9.7011632893022561
 31
0.0
  0
LINE
  5
26F
  8
DETAIL
  6
CONTINUOUS
 62
     5
 10
13.69972347811688
 20
0.0000012893022472
 30
0.0
 11
15.99999847811705
 21
0.0000012893022472
 31
0.0
  0
LINE
  5
270
  8
DETAIL
  6
CONTINUOUS
 62
     5
 10
13.69972347811688
 20
7.7011632893023121
 30
0.0
 11
13.69972347811688
 21
0.0000012893022472
 31
0.0
  0
LINE
  5
271
  8
DETAIL
  6
CONTINUOUS
 62
     5
 10
15.99999847811705
 20
7.7009232893022359
 30
0.0
 11
15.99999847811705
 21
0.0000012893022472
 31
0.0
  0
ARC
  5
272
  8
DETAIL
  6
CONTINUOUS
 62
     5
 10
11.69948347811702
 20
7.7009232893022359
 30
0.0
 40
4.3005149999999981
 50
0.0
 51
90.0
  0
ENDBLK
  5
274
  8
0
 62
     7
  0
BLOCK
  8
0
 62
     7
  2
*D5
 70
     1
 10
0.0
 20
0.0
 30
0.0
  3
*D5
  1

  0
LINE
  5
3C5
  8
SIZE
  6
CONTINUOUS
 62
     0
 10
-402.0
 20
-133.0
 30
0.0
 11
-402.0
 21
-12.65258209095555
 31
0.0
  0
LINE
  5
3C6
  8
SIZE
  6
CONTINUOUS
 62
     0
 10
-350.0
 20
-42.652582090955548
 30
0.0
 11
-392.0
 21
-42.652582090955548
 31
0.0
  0
LINE
  5
3C7
  8
SIZE
  6
CONTINUOUS
 62
     0
 10
-402.0
 20
-42.652582090955548
 30
0.0
 11
-521.58836057348333
 21
-42.652582090955548
 31
0.0
  0
INSERT
  5
3C8
  8
SIZE
  6
CONTINUOUS
 62
     0
  2
_DOTBLANK
 10
-340.0
 20
-42.652582090955548
 30
0.0
 41
10.0
 42
10.0
 43
10.0
  0
INSERT
  5
3C9
  8
SIZE
  6
CONTINUOUS
 62
     0
  2
_DOTBLANK
 10
-402.0
 20
-42.652582090955548
 30
0.0
 41
10.0
 42
10.0
 43
10.0
 50
180.0
  0
INSERT
  5
3CA
  8
SYMBOLLINE
  6
CONTINUOUS
 62
     7
  2
*U6
 10
0.0
 20
0.0
 30
0.0
  0
POINT
  5
3CB
  8
DEFPOINTS
  6
CONTINUOUS
 62
     0
 10
-340.0
 20
-163.5
 30
0.0
  0
POINT
  5
3CC
  8
DEFPOINTS
  6
CONTINUOUS
 62
     0
 10
-402.0
 20
-153.0
 30
0.0
  0
POINT
  5
3CD
  8
DEFPOINTS
  6
CONTINUOUS
 62
     0
 10
-402.0
 20
-42.652582090955548
 30
0.0
  0
ENDBLK
  5
37F
  8
0
 62
     7
  0
BLOCK
  8
0
 62
     7
  2
*U6
 70
     1
 10
0.0
 20
0.0
 30
0.0
  3
*U6
  1

  0
TEXT
  5
46B
  8
SIZE
  6
CONTINUOUS
 62
     0
 10
-521.4983605734833
 20
-42.56258209095553
 30
0.0
 40
64.0
  1
62
 41
0.9
  0
ENDBLK
  5
46D
  8
0
 62
     7
  0
BLOCK
  8
0
 62
     7
  2
*D7
 70
     1
 10
0.0
 20
0.0
 30
0.0
  3
*D7
  1

  0
LINE
  5
3BC
  8
SIZE
  6
CONTINUOUS
 62
     0
 10
-340.0
 20
-218.5
 30
0.0
 11
-340.0
 21
-94.208562890264147
 31
0.0
  0
LINE
  5
3BD
  8
SIZE
  6
CONTINUOUS
 62
     0
 10
-350.0
 20
-124.2085628902641
 30
0.0
 11
-408.0
 21
-124.2085628902641
 31
0.0
  0
LINE
  5
3BE
  8
SIZE
  6
CONTINUOUS
 62
     0
 10
-418.0
 20
-124.2085628902641
 30
0.0
 11
-523.87082893769355
 21
-124.2085628902641
 31
0.0
  0
INSERT
  5
3BF
  8
SIZE
  6
CONTINUOUS
 62
     0
  2
_DOTBLANK
 10
-340.0
 20
-124.2085628902641
 30
0.0
 41
10.0
 42
10.0
 43
10.0
  0
INSERT
  5
3C0
  8
SIZE
  6
CONTINUOUS
 62
     0
  2
_DOTBLANK
 10
-418.0
 20
-124.2085628902641
 30
0.0
 41
10.0
 42
10.0
 43
10.0
 50
180.0
  0
INSERT
  5
3C1
  8
SYMBOLLINE
  6
CONTINUOUS
 62
     7
  2
*U8
 10
0.0
 20
0.0
 30
0.0
  0
POINT
  5
3C2
  8
DEFPOINTS
  6
CONTINUOUS
 62
     0
 10
-418.0
 20
-230.0
 30
0.0
  0
POINT
  5
3C3
  8
DEFPOINTS
  6
CONTINUOUS
 62
     0
 10
-340.0
 20
-238.5
 30
0.0
  0
POINT
  5
3C4
  8
DEFPOINTS
  6
CONTINUOUS
 62
     0
 10
-340.0
 20
-124.2085628902641
 30
0.0
  0
ENDBLK
  5
38D
  8
0
 62
     7
  0
BLOCK
  8
0
 62
     7
  2
*U8
 70
     1
 10
0.0
 20
0.0
 30
0.0
  3
*U8
  1

  0
TEXT
  5
467
  8
SIZE
  6
CONTINUOUS
 62
     0
 10
-523.78082893769351
 20
-124.1185628902641
 30
0.0
 40
64.0
  1
78
 41
0.9
  0
ENDBLK
  5
469
  8
0
 62
     7
  0
ENDSEC
  0
SECTION
  2
ENTITIES
  0
LINE
  5
39
  8
NOTE
  6
CONTINUOUS
 62
     4
 10
-602.0
 20
-359.0
 30
0.0
 11
-602.0
 21
-319.0
 31
0.0
  0
LINE
  5
3A
  8
NOTE
  6
CONTINUOUS
 62
     4
 10
622.0
 20
-339.0
 30
0.0
 11
582.0
 21
-339.0
 31
0.0
  0
LINE
  5
3B
  8
NOTE
  6
CONTINUOUS
 62
     4
 10
602.0
 20
-359.0
 30
0.0
 11
602.0
 21
-319.0
 31
0.0
  0
POLYLINE
  5
3C
  8
NOTE
  6
CONTINUOUS
 62
     4
 66
     1
 10
0.0
 20
0.0
 30
0.0
  0
VERTEX
  5
D1B
  8
NOTE
  6
CONTINUOUS
 62
     4
 10
655.6324372874127
 20
-287.95288511470511
 30
0.0
  0
VERTEX
  5
D1C
  8
NOTE
  6
CONTINUOUS
 62
     4
 10
643.0
 20
-250.0
 30
0.0
  0
VERTEX
  5
D1D
  8
NOTE
  6
CONTINUOUS
 62
     4
 10
672.91645473235644
 20
-276.55194422556912
 30
0.0
  0
SEQEND
  5
D1E
  8
NOTE
  6
CONTINUOUS
 62
     4
  0
LINE
  5
41
  8
NOTE
  6
CONTINUOUS
 62
     4
 10
663.0
 20
-250.0
 30
0.0
 11
623.0
 21
-250.0
 31
0.0
  0
LINE
  5
42
  8
NOTE
  6
CONTINUOUS
 62
     4
 10
643.0
 20
-270.0
 30
0.0
 11
643.0
 21
-230.0
 31
0.0
  0
LINE
  5
43
  8
NOTE
  6
CONTINUOUS
 62
     4
 10
705.0
 20
-350.0
 30
0.0
 11
665.0
 21
-350.0
 31
0.0
  0
LINE
  5
44
  8
NOTE
  6
CONTINUOUS
 62
     4
 10
685.0
 20
-370.0
 30
0.0
 11
685.0
 21
-330.0
 31
0.0
  0
POLYLINE
  5
45
  8
NOTE
  6
CONTINUOUS
 62
     4
 66
     1
 10
0.0
 20
0.0
 30
0.0
  0
VERTEX
  5
D1F
  8
NOTE
  6
CONTINUOUS
 62
     4
 10
682.60810403883715
 20
-389.92842159222499
 30
0.0
  0
VERTEX
  5
D20
  8
NOTE
  6
CONTINUOUS
 62
     4
 10
685.0
 20
-350.0
 30
0.0
  0
VERTEX
  5
D21
  8
NOTE
  6
CONTINUOUS
 62
     4
 10
702.89276898128799
 20
-385.7749748156387
 30
0.0
  0
SEQEND
  5
D22
  8
NOTE
  6
CONTINUOUS
 62
     4
  0
POLYLINE
  5
4A
  8
NOTE
  6
CONTINUOUS
 62
     4
 66
     1
 10
0.0
 20
0.0
 30
0.0
  0
VERTEX
  5
D23
  8
NOTE
  6
CONTINUOUS
 62
     4
 10
666.42156134819163
 20
-166.2220557695255
 30
0.0
  0
VERTEX
  5
D24
  8
NOTE
  6
CONTINUOUS
 62
     4
 10
627.0
 20
-173.0
 30
0.0
  0
VERTEX
  5
D25
  8
NOTE
  6
CONTINUOUS
 62
     4
 10
657.7511011522497
 20
-147.41934692048579
 30
0.0
  0
SEQEND
  5
D26
  8
NOTE
  6
CONTINUOUS
 62
     4
  0
LINE
  5
4F
  8
NOTE
  6
CONTINUOUS
 62
     4
 10
647.0
 20
-173.0
 30
0.0
 11
607.0
 21
-173.0
 31
0.0
  0
LINE
  5
50
  8
NOTE
  6
CONTINUOUS
 62
     4
 10
627.0
 20
-193.0
 30
0.0
 11
627.0
 21
-153.0
 31
0.0
  0
POLYLINE
  5
92
  8
NOTE
  6
CONTINUOUS
 62
     4
 66
     1
 10
0.0
 20
0.0
 30
0.0
  0
VERTEX
  5
D27
  8
NOTE
  6
CONTINUOUS
 62
     4
 10
-633.64215271455089
 20
-363.4698622364977
 30
0.0
  0
VERTEX
  5
D28
  8
NOTE
  6
CONTINUOUS
 62
     4
 10
-602.0
 20
-339.0
 30
0.0
  0
VERTEX
  5
D29
  8
NOTE
  6
CONTINUOUS
 62
     4
 10
-617.16797697430002
 20
-376.01259848548318
 30
0.0
  0
SEQEND
  5
D2A
  8
NOTE
  6
CONTINUOUS
 62
     4
  0
CIRCLE
  5
A1
  8
SIZE
  6
CONTINUOUS
 62
    30
 10
-602.0
 20
-636.83171899999979
 30
0.0
 40
6.0
  0
CIRCLE
  5
A2
  8
SIZE
  6
CONTINUOUS
 62
    30
 10
602.0
 20
-636.83171899999979
 30
0.0
 40
6.0
  0
CIRCLE
  5
A3
  8
SIZE
  6
CONTINUOUS
 62
    30
 10
-602.0
 20
-636.83171899999979
 30
0.0
 40
6.0
  0
CIRCLE
  5
A4
  8
SIZE
  6
CONTINUOUS
 62
    30
 10
-625.0
 20
-636.83171899999979
 30
0.0
 40
6.0
  0
CIRCLE
  5
A5
  8
SIZE
  6
CONTINUOUS
 62
    30
 10
-758.82268499999975
 20
-339.0
 30
0.0
 40
6.0
  0
CIRCLE
  5
A6
  8
SIZE
  6
CONTINUOUS
 62
    30
 10
-758.82268499999975
 20
-380.0
 30
0.0
 40
6.0
  0
CIRCLE
  5
AF
  8
SIZE
  6
CONTINUOUS
 62
    30
 10
992.03647035732183
 20
-173.0
 30
0.0
 40
6.0
  0
CIRCLE
  5
B0
  8
SIZE
  6
CONTINUOUS
 62
    30
 10
992.03647035732183
 20
-250.0
 30
0.0
 40
6.0
  0
CIRCLE
  5
B1
  8
SIZE
  6
CONTINUOUS
 62
    30
 10
992.03647035732183
 20
-250.0
 30
0.0
 40
6.0
  0
CIRCLE
  5
B2
  8
SIZE
  6
CONTINUOUS
 62
    30
 10
992.03647035732183
 20
-380.0
 30
0.0
 40
6.0
  0
CIRCLE
  5
B3
  8
SIZE
  6
CONTINUOUS
 62
    30
 10
823.20184200000006
 20
-350.0
 30
0.0
 40
6.0
  0
CIRCLE
  5
B4
  8
SIZE
  6
CONTINUOUS
 62
    30
 10
823.20184200000006
 20
-380.0
 30
0.0
 40
6.0
  0
CIRCLE
  5
B5
  8
SIZE
  6
CONTINUOUS
 62
    30
 10
-1174.9645640000001
 20
0.0
 30
0.0
 40
6.0
  0
CIRCLE
  5
B6
  8
SIZE
  6
CONTINUOUS
 62
    30
 10
-1174.9645640000001
 20
-380.0
 30
0.0
 40
6.0
  0
CIRCLE
  5
B7
  8
SIZE
  6
CONTINUOUS
 62
    30
 10
635.0
 20
38.674292999999999
 30
0.0
 40
6.0
  0
CIRCLE
  5
B8
  8
SIZE
  6
CONTINUOUS
 62
    30
 10
565.0
 20
38.674292999999999
 30
0.0
 40
6.0
  0
CIRCLE
  5
B9
  8
SIZE
  6
CONTINUOUS
 62
    30
 10
-565.0
 20
456.85992818539722
 30
0.0
 40
6.0
  0
CIRCLE
  5
BA
  8
SIZE
  6
CONTINUOUS
 62
    30
 10
565.0
 20
456.85992818539722
 30
0.0
 40
6.0
  0
LINE
  5
CA
  8
SIZE
  6
CONTINUOUS
 62
    30
 10
565.0
 20
20.0
 30
0.0
 11
565.0
 21
199.85075699999999
 31
0.0
  0
TEXT
  5
E1
  8
SIZE
  6
CONTINUOUS
 62
    30
 10
-76.418233043921603
 20
473.4710369509811
 30
0.0
 40
55.0
  1
1130
 41
0.9
  0
LINE
  5
E2
  8
SIZE
  6
CONTINUOUS
 62
    30
 10
565.0
 20
456.85992818539722
 30
0.0
 11
-565.0
 21
456.85992818539722
 31
0.0
  0
LINE
  5
E4
  8
SIZE
  6
CONTINUOUS
 62
    30
 10
565.0
 20
20.0
 30
0.0
 11
565.0
 21
489.04238984670519
 31
0.0
  0
LINE
  5
E5
  8
SIZE
  6
CONTINUOUS
 62
    30
 10
-565.0
 20
20.0
 30
0.0
 11
-565.0
 21
489.04238984670519
 31
0.0
  0
TEXT
  5
E6
  8
SIZE
  6
CONTINUOUS
 62
    30
 10
566.48571385714285
 20
70.674293000000034
 30
0.0
 40
55.0
  1
70
 41
0.9
  0
LINE
  5
E7
  8
SIZE
  6
CONTINUOUS
 62
    30
 10
635.0
 20
38.674292999999999
 30
0.0
 11
565.0
 21
38.674292999999999
 31
0.0
  0
LINE
  5
E8
  8
SIZE
  6
CONTINUOUS
 62
    30
 10
563.0
 20
38.674292999999999
 30
0.0
 11
561.0
 21
38.674292999999999
 31
0.0
  0
LINE
  5
E9
  8
SIZE
  6
CONTINUOUS
 62
    30
 10
637.0
 20
38.674292999999999
 30
0.0
 11
639.0
 21
38.674292999999999
 31
0.0
  0
LINE
  5
EA
  8
SIZE
  6
CONTINUOUS
 62
    30
 10
635.0
 20
20.0
 30
0.0
 11
635.0
 21
68.674293000000006
 31
0.0
  0
LINE
  5
EB
  8
SIZE
  6
CONTINUOUS
 62
    30
 10
565.0
 20
20.0
 30
0.0
 11
565.0
 21
68.674293000000006
 31
0.0
  0
TEXT
  5
EC
  8
SIZE
  6
CONTINUOUS
 62
    30
 10
-1204.3128579945619
 20
-247.10444977301441
 30
0.0
 40
55.0
  1
380
 50
90.0
 41
0.9
  0
LINE
  5
ED
  8
SIZE
  6
CONTINUOUS
 62
    30
 10
-1174.9645640000001
 20
-378.0
 30
0.0
 11
-1174.9645640000001
 21
-190.0
 31
0.0
  0
LINE
  5
EE
  8
SIZE
  6
CONTINUOUS
 62
    30
 10
-1174.9645640000001
 20
-2.0
 30
0.0
 11
-1174.9645640000001
 21
-190.0
 31
0.0
  0
LINE
  5
EF
  8
SIZE
  6
CONTINUOUS
 62
    30
 10
-585.0
 20
-380.0
 30
0.0
 11
-1204.9645640000001
 21
-380.0
 31
0.0
  0
LINE
  5
F0
  8
SIZE
  6
CONTINUOUS
 62
    30
 10
-585.0
 20
0.0
 30
0.0
 11
-1204.9645640000001
 21
0.0
 31
0.0
  0
TEXT
  5
F1
  8
SIZE
  6
CONTINUOUS
 62
    30
 10
810.3388472958103
 20
-477.07580399555798
 30
0.0
 40
55.0
  1
30
 50
90.0
 41
0.9
  0
LINE
  5
F2
  8
SIZE
  6
CONTINUOUS
 62
    30
 10
823.20184200000006
 20
-350.0
 30
0.0
 11
823.20184200000006
 21
-380.0
 31
0.0
  0
LINE
  5
F3
  8
SIZE
  6
CONTINUOUS
 62
    30
 10
823.20184200000006
 20
-382.0
 30
0.0
 11
823.20184200000006
 21
-384.0
 31
0.0
  0
LINE
  5
F4
  8
SIZE
  6
CONTINUOUS
 62
    30
 10
823.20184200000006
 20
-348.0
 30
0.0
 11
823.20184200000006
 21
-346.0
 31
0.0
  0
LINE
  5
F5
  8
SIZE
  6
CONTINUOUS
 62
    30
 10
725.0
 20
-350.0
 30
0.0
 11
853.20184199999983
 21
-350.0
 31
0.0
  0
TEXT
  5
F7
  8
SIZE
  6
CONTINUOUS
 62
    30
 10
979.94120212215751
 20
-373.32233208766053
 30
0.0
 40
55.0
  1
130
 50
90.0
 41
0.9
  0
LINE
  5
F8
  8
SIZE
  6
CONTINUOUS
 62
    30
 10
992.03647035732183
 20
-250.0
 30
0.0
 11
992.03647035732183
 21
-380.0
 31
0.0
  0
LINE
  5
F9
  8
SIZE
  6
CONTINUOUS
 62
    30
 10
992.03647035732183
 20
-382.0
 30
0.0
 11
992.03647035732183
 21
-384.0
 31
0.0
  0
LINE
  5
FA
  8
SIZE
  6
CONTINUOUS
 62
    30
 10
992.03647035732183
 20
-248.0
 30
0.0
 11
992.03647035732183
 21
-246.0
 31
0.0
  0
LINE
  5
FB
  8
SIZE
  6
CONTINUOUS
 62
    30
 10
690.0
 20
-250.0
 30
0.0
 11
1026.553919919184
 21
-250.0
 31
0.0
  0
LINE
  5
FC
  8
SIZE
  6
CONTINUOUS
 62
    30
 10
581.67196483147552
 20
-380.0
 30
0.0
 11
1026.553919919184
 21
-380.0
 31
0.0
  0
TEXT
  5
FD
  8
SIZE
  6
CONTINUOUS
 62
    30
 10
980.27920429625385
 20
-159.7636288861504
 30
0.0
 40
55.0
  1
77
 50
90.0
 41
0.9
  0
LINE
  5
FE
  8
SIZE
  6
CONTINUOUS
 62
    30
 10
992.03647035732183
 20
-173.0
 30
0.0
 11
992.03647035732183
 21
-250.0
 31
0.0
  0
LINE
  5
FF
  8
SIZE
  6
CONTINUOUS
 62
    30
 10
992.03647035732183
 20
-252.0
 30
0.0
 11
992.03647035732183
 21
-254.0
 31
0.0
  0
LINE
  5
100
  8
SIZE
  6
CONTINUOUS
 62
    30
 10
992.03647035732183
 20
-171.0
 30
0.0
 11
992.03647035732183
 21
-169.0
 31
0.0
  0
LINE
  5
101
  8
SIZE
  6
CONTINUOUS
 62
    30
 10
670.0
 20
-173.0
 30
0.0
 11
1025.681775120451
 21
-173.0
 31
0.0
  0
LINE
  5
102
  8
SIZE
  6
CONTINUOUS
 62
    30
 10
690.0
 20
-250.0
 30
0.0
 11
1026.553919919184
 21
-250.0
 31
0.0
  0
LINE
  5
108
  8
SIZE
  6
CONTINUOUS
 62
    30
 10
-585.0
 20
-380.0
 30
0.0
 11
-1077.2782540000001
 21
-380.0
 31
0.0
  0
TEXT
  5
11A
  8
SIZE
  6
CONTINUOUS
 62
    30
 10
-773.87594056764613
 20
-477.48853899999989
 30
0.0
 40
55.0
  1
41
 50
90.0
 41
0.9
  0
LINE
  5
11B
  8
SIZE
  6
CONTINUOUS
 62
    30
 10
-758.82268499999975
 20
-339.0
 30
0.0
 11
-758.82268499999975
 21
-380.0
 31
0.0
  0
LINE
  5
11C
  8
SIZE
  6
CONTINUOUS
 62
    30
 10
-758.82268499999975
 20
-382.0
 30
0.0
 11
-758.82268499999975
 21
-384.0
 31
0.0
  0
LINE
  5
11D
  8
SIZE
  6
CONTINUOUS
 62
    30
 10
-758.82268499999975
 20
-337.0
 30
0.0
 11
-758.82268499999975
 21
-335.0
 31
0.0
  0
LINE
  5
11E
  8
SIZE
  6
CONTINUOUS
 62
    30
 10
-642.0
 20
-339.0
 30
0.0
 11
-788.82268499999975
 21
-339.0
 31
0.0
  0
LINE
  5
11F
  8
SIZE
  6
CONTINUOUS
 62
    30
 10
-585.0
 20
-380.0
 30
0.0
 11
-788.82268499999975
 21
-380.0
 31
0.0
  0
TEXT
  5
120
  8
SIZE
  6
CONTINUOUS
 62
    30
 10
-721.63290695468436
 20
-604.83171900000002
 30
0.0
 40
55.0
  1
23
 41
0.9
  0
LINE
  5
121
  8
SIZE
  6
CONTINUOUS
 62
    30
 10
-602.0
 20
-636.83171899999979
 30
0.0
 11
-625.0
 21
-636.83171899999979
 31
0.0
  0
LINE
  5
122
  8
SIZE
  6
CONTINUOUS
 62
    30
 10
-631.0
 20
-636.83171899999979
 30
0.0
 11
-633.0
 21
-636.83171899999979
 31
0.0
  0
LINE
  5
124
  8
SIZE
  6
CONTINUOUS
 62
    30
 10
-602.0
 20
-379.0
 30
0.0
 11
-602.0
 21
-666.83171900000002
 31
0.0
  0
LINE
  5
125
  8
SIZE
  6
CONTINUOUS
 62
    30
 10
-625.0
 20
-369.0
 30
0.0
 11
-625.0
 21
-666.83171900000002
 31
0.0
  0
TEXT
  5
126
  8
SIZE
  6
CONTINUOUS
 62
    30
 10
-76.418233043921603
 20
-616.02658974696521
 30
0.0
 40
55.0
  1
1204
 41
0.9
  0
LINE
  5
127
  8
SIZE
  6
CONTINUOUS
 62
    30
 10
602.0
 20
-636.83171899999979
 30
0.0
 11
-602.0
 21
-636.83171899999979
 31
0.0
  0
LINE
  5
129
  8
SIZE
  6
CONTINUOUS
 62
    30
 10
602.0
 20
-379.0
 30
0.0
 11
602.0
 21
-666.83171900000002
 31
0.0
  0
LINE
  5
12A
  8
SIZE
  6
CONTINUOUS
 62
    30
 10
-602.0
 20
-379.0
 30
0.0
 11
-602.0
 21
-666.83171900000002
 31
0.0
  0
POINT
  5
12B
  8
ARRANGE
  6
CONTINUOUS
 62
     1
 10
0.0
 20
0.0
 30
0.0
  0
LINE
  5
12C
  8
OUTLINE
  6
CONTINUOUS
 62
     3
 10
-565.0
 20
0.0
 30
0.0
 11
-565.0
 21
-380.0
 31
0.0
  0
LINE
  5
12D
  8
OUTLINE
  6
CONTINUOUS
 62
     3
 10
565.0
 20
0.0
 30
0.0
 11
565.0
 21
-380.0
 31
0.0
  0
LINE
  5
12E
  8
OUTLINE
  6
CONTINUOUS
 62
     3
 10
565.0
 20
0.0
 30
0.0
 11
-565.0
 21
0.0
 31
0.0
  0
LINE
  5
12F
  8
OUTLINE
  6
CONTINUOUS
 62
     3
 10
565.0
 20
-380.0
 30
0.0
 11
-565.0
 21
-380.0
 31
0.0
  0
LINE
  5
132
  8
NOTE
  6
CONTINUOUS
 62
     4
 10
-602.0
 20
-339.0
 30
0.0
 11
-818.60612173003665
 21
-648.87524299999995
 31
0.0
  0
LINE
  5
134
  8
SIZE
  6
CONTINUOUS
 62
    30
 10
-758.82268499999975
 20
-382.0
 30
0.0
 11
-758.82268499999975
 21
-502.855976
 31
0.0
  0
LINE
  5
137
  8
SIZE
  6
CONTINUOUS
 62
    30
 10
992.03647035732183
 20
-173.0
 30
0.0
 11
992.03647035732183
 21
-70.837126999999995
 31
0.0
  0
LINE
  5
138
  8
SIZE
  6
CONTINUOUS
 62
    30
 10
823.20184200000006
 20
-384.0
 30
0.0
 11
823.20184200000006
 21
-491.16408899999999
 31
0.0
  0
LINE
  5
13B
  8
NOTE
  6
CONTINUOUS
 62
     4
 10
-698.00420599999973
 20
106.437426
 30
0.0
 11
-965.13444100000004
 21
106.437426
 31
0.0
  0
TEXT
  5
13C
  8
NOTE
  6
CONTINUOUS
 62
     4
 10
-945.97563457142803
 20
135.05685399999999
 30
0.0
 40
55.0
  1
54-φ3
 41
0.9
  0
CIRCLE
  5
143
  8
FIX
  6
CONTINUOUS
 62
    11
 10
602.0
 20
-339.0
 30
0.0
 40
15.0
  0
CIRCLE
  5
144
  8
FIX
  6
CONTINUOUS
 62
    11
 10
-602.0
 20
-339.0
 30
0.0
 40
15.0
  0
CIRCLE
  5
145
  8
ARRANGE
  6
CONTINUOUS
 62
     1
 10
0.0
 20
0.0
 30
0.0
 40
40.0
  0
LINE
  5
147
  8
NOTE
  6
CONTINUOUS
 62
     4
 10
1320.5220621476831
 20
-38.44274386094969
 30
0.0
 11
920.03265014768283
 21
-38.44274386094969
 31
0.0
  0
TEXT
  5
148
  8
NOTE
  6
CONTINUOUS
 62
     4
 10
968.02449071911155
 20
-15.604215860949649
 30
0.0
 40
55.0
  1
RL φ9.52
 41
0.9
  0
LINE
  5
149
  8
NOTE
  6
CONTINUOUS
 62
     4
 10
627.0
 20
-173.0
 30
0.0
 11
920.03265014768283
 21
-38.44274386094969
 31
0.0
  0
LINE
  5
14D
  8
NOTE
  6
CONTINUOUS
 62
     4
 10
685.0
 20
-350.0
 30
0.0
 11
764.63159684530547
 21
-709.06819958153187
 31
0.0
  0
LINE
  5
14E
  8
DETAIL
  6
CONTINUOUS
 62
     5
 10
685.0
 20
-366.0
 30
0.0
 11
685.0
 21
-334.0
 31
0.0
  0
LINE
  5
14F
  8
DETAIL
  6
CONTINUOUS
 62
     5
 10
685.0
 20
-334.0
 30
0.0
 11
565.0
 21
-334.0
 31
0.0
  0
LINE
  5
150
  8
DETAIL
  6
CONTINUOUS
 62
     5
 10
685.0
 20
-366.0
 30
0.0
 11
565.0
 21
-366.0
 31
0.0
  0
LINE
  5
152
  8
NOTE
  6
CONTINUOUS
 62
     4
 10
643.0
 20
-250.0
 30
0.0
 11
828.53061154078159
 21
-560.94489139931954
 31
0.0
  0
LINE
  5
153
  8
NOTE
  6
CONTINUOUS
 62
     4
 10
1274.1923535407821
 20
-560.94489139931954
 30
0.0
 11
828.53061154078159
 21
-560.94489139931954
 31
0.0
  0
TEXT
  5
154
  8
NOTE
  6
CONTINUOUS
 62
     4
 10
879.77572835783224
 20
-539.19972552843683
 30
0.0
 40
55.0
  1
RG φ15.88
 41
0.9
  0
LINE
  5
157
  8
DETAIL
  6
CONTINUOUS
 62
     5
 10
565.0
 20
-320.0
 30
0.0
 11
635.0
 21
-320.0
 31
0.0
  0
LINE
  5
158
  8
DETAIL
  6
CONTINUOUS
 62
     5
 10
565.0
 20
0.0
 30
0.0
 11
635.0
 21
0.0
 31
0.0
  0
LINE
  5
159
  8
DETAIL
  6
CONTINUOUS
 62
     5
 10
635.0
 20
0.8305609795970665
 30
0.0
 11
635.0
 21
-319.16943902040299
 31
0.0
  0
LINE
  5
15C
  8
DETAIL
  6
CONTINUOUS
 62
     5
 10
565.0
 20
-380.0
 30
0.0
 11
-565.0
 21
-380.0
 31
0.0
  0
LINE
  5
15D
  8
DETAIL
  6
CONTINUOUS
 62
     5
 10
565.0
 20
0.0
 30
0.0
 11
-565.0
 21
0.0
 31
0.0
  0
LINE
  5
161
  8
DETAIL
  6
CONTINUOUS
 62
     5
 10
565.0
 20
0.0
 30
0.0
 11
565.0
 21
-380.0
 31
0.0
  0
LINE
  5
162
  8
DETAIL
  6
CONTINUOUS
 62
     5
 10
-565.0
 20
0.0
 30
0.0
 11
-565.0
 21
-380.0
 31
0.0
  0
LINE
  5
163
  8
BASIS
  6
DASHDOT
 62
     6
 10
0.0
 20
129.245848
 30
0.0
 11
0.0
 21
-481.66203499999989
 31
0.0
  0
TEXT
  5
164
  8
ETC
  6
CONTINUOUS
 62
    61
 10
185.51193158953541
 20
578.49055326403322
 30
0.0
 40
64.0
  1
PE-RP112_160CA6_3
 41
0.9
  0
ARC
  5
279
  8
DETAIL
  6
CONTINUOUS
 62
     5
 10
-620.6997249999996
 20
-343.30027499999989
 30
0.0
 40
2.0
 50
90.0
 51
180.0
  0
LINE
  5
27A
  8
DETAIL
  6
CONTINUOUS
 62
     5
 10
-565.0
 20
-341.300275
 30
0.0
 11
-620.6997249999996
 21
-341.30027499999989
 31
0.0
  0
LINE
  5
27B
  8
DETAIL
  6
CONTINUOUS
 62
     5
 10
-622.6997249999996
 20
-351.00143700000001
 30
0.0
 11
-625.0
 21
-351.00143700000001
 31
0.0
  0
LINE
  5
27C
  8
DETAIL
  6
CONTINUOUS
 62
     5
 10
-622.6997249999996
 20
-343.30027499999989
 30
0.0
 11
-622.6997249999996
 21
-351.00143700000001
 31
0.0
  0
LINE
  5
27D
  8
DETAIL
  6
CONTINUOUS
 62
     5
 10
-625.0
 20
-343.30051500000002
 30
0.0
 11
-625.0
 21
-351.00143700000001
 31
0.0
  0
ARC
  5
27E
  8
DETAIL
  6
CONTINUOUS
 62
     5
 10
-620.69948499999998
 20
-343.30051500000002
 30
0.0
 40
4.3005149999999981
 50
90.0
 51
180.0
  0
LINE
  5
285
  8
NOTE
  6
CONTINUOUS
 62
     4
 10
-1299.1079507662289
 20
-648.87524565803824
 30
0.0
 11
-818.60612173003665
 21
-648.87524565803824
 31
0.0
  0
TEXT
  5
286
  8
NOTE
  6
CONTINUOUS
 62
     4
 10
-1286.7944262878741
 20
-634.49240113294445
 30
0.0
 40
55.0
  1
AH 4-14×30長穴
 50
359.99999699999978
 41
0.7
  7
STANDARD1
  0
TEXT
  5
294
  8
NOTE
  6
CONTINUOUS
 62
     4
 10
780.11240353405788
 20
-686.2296705815321
 30
0.0
 40
55.0
  1
D VP25
 41
0.9
  0
LINE
  5
295
  8
NOTE
  6
CONTINUOUS
 62
     4
 10
1045.0821588197721
 20
-709.06819958153187
 30
0.0
 11
764.63159684530547
 21
-709.06819958153187
 31
0.0
  0
LINE
  5
29B
  8
DETAIL
  6
CONTINUOUS
 62
     5
 10
-565.0
 20
-339.0
 30
0.0
 11
-620.69948499999998
 21
-339.0
 31
0.0
  0
LINE
  5
2AA
  8
NOTE
  6
CONTINUOUS
 62
     4
 10
-582.0
 20
-339.0
 30
0.0
 11
-622.0
 21
-339.0
 31
0.0
  0
ARC
  5
2D1
  8
DETAIL
  6
CONTINUOUS
 62
     5
 10
620.6997249999996
 20
-343.30027499999989
 30
0.0
 40
2.0
 50
0.000000000000007
 51
90.0
  0
LINE
  5
2D2
  8
DETAIL
  6
CONTINUOUS
 62
     5
 10
565.0
 20
-341.300275
 30
0.0
 11
620.6997249999996
 21
-341.30027499999989
 31
0.0
  0
LINE
  5
2D3
  8
DETAIL
  6
CONTINUOUS
 62
     5
 10
622.6997249999996
 20
-351.00143700000001
 30
0.0
 11
625.0
 21
-351.00143700000001
 31
0.0
  0
LINE
  5
2D4
  8
DETAIL
  6
CONTINUOUS
 62
     5
 10
622.6997249999996
 20
-343.30027499999989
 30
0.0
 11
622.6997249999996
 21
-351.00143700000001
 31
0.0
  0
LINE
  5
2D5
  8
DETAIL
  6
CONTINUOUS
 62
     5
 10
625.0
 20
-343.30051500000002
 30
0.0
 11
625.0
 21
-351.00143700000001
 31
0.0
  0
ARC
  5
2D6
  8
DETAIL
  6
CONTINUOUS
 62
     5
 10
620.69948499999998
 20
-343.30051500000002
 30
0.0
 40
4.3005149999999981
 50
0.000000000000007
 51
90.0
  0
LINE
  5
2D7
  8
DETAIL
  6
CONTINUOUS
 62
     5
 10
565.0
 20
-339.0
 30
0.0
 11
620.69948499999998
 21
-339.0
 31
0.0
  0
LINE
  5
340
  8
DETAIL
  6
CONTINUOUS
 62
     5
 10
643.0
 20
-238.75
 30
0.0
 11
643.0
 21
-261.25
 31
0.0
  0
LINE
  5
343
  8
DETAIL
  6
CONTINUOUS
 62
     5
 10
638.00914899999975
 20
-257.0
 30
0.0
 11
640.00914899999964
 21
-259.0
 31
0.0
  0
LINE
  5
344
  8
DETAIL
  6
CONTINUOUS
 62
     5
 10
638.00914899999975
 20
-257.0
 30
0.0
 11
640.00914899999964
 21
-255.0
 31
0.0
  0
LINE
  5
345
  8
DETAIL
  6
CONTINUOUS
 62
     5
 10
638.00914899999975
 20
-243.0
 30
0.0
 11
640.00914899999964
 21
-245.0
 31
0.0
  0
LINE
  5
346
  8
DETAIL
  6
CONTINUOUS
 62
     5
 10
638.00914899999975
 20
-243.0
 30
0.0
 11
640.00914899999964
 21
-241.0
 31
0.0
  0
LINE
  5
34B
  8
DETAIL
  6
CONTINUOUS
 62
     5
 10
635.0
 20
-257.0
 30
0.0
 11
638.00914899999975
 21
-257.0
 31
0.0
  0
LINE
  5
34C
  8
DETAIL
  6
CONTINUOUS
 62
     5
 10
635.0
 20
-243.0
 30
0.0
 11
638.00914899999975
 21
-243.0
 31
0.0
  0
LINE
  5
34F
  8
DETAIL
  6
CONTINUOUS
 62
     5
 10
643.0
 20
-261.25
 30
0.0
 11
640.00914899999964
 21
-263.0
 31
0.0
  0
LINE
  5
350
  8
DETAIL
  6
CONTINUOUS
 62
     5
 10
640.00914899999964
 20
-237.0
 30
0.0
 11
643.0
 21
-238.75000399999999
 31
0.0
  0
LINE
  5
351
  8
DETAIL
  6
CONTINUOUS
 62
     5
 10
640.00914899999964
 20
-237.0
 30
0.0
 11
640.00914899999964
 21
-263.0
 31
0.0
  0
LINE
  5
354
  8
DETAIL
  6
CONTINUOUS
 62
     5
 10
635.0
 20
-263.0
 30
0.0
 11
640.00914899999964
 21
-263.0
 31
0.0
  0
LINE
  5
355
  8
DETAIL
  6
CONTINUOUS
 62
     5
 10
635.0
 20
-237.0
 30
0.0
 11
640.00914899999964
 21
-237.0
 31
0.0
  0
POINT
  5
35D
  8
DEFPOINTS
  6
CONTINUOUS
 62
     7
 10
643.0
 20
-250.0
 30
0.0
 50
180.0
  0
LINE
  5
3CE
  8
SIZE
  6
CONTINUOUS
 62
    30
 10
565.0
 20
-371.0392877655467
 30
0.0
 11
565.0
 21
-94.208562890264147
 31
0.0
  0
LINE
  5
3CF
  8
SIZE
  6
CONTINUOUS
 62
    30
 10
575.0
 20
-124.2085628902641
 30
0.0
 11
633.0
 21
-124.2085628902641
 31
0.0
  0
LINE
  5
3D0
  8
SIZE
  6
CONTINUOUS
 62
    30
 10
643.0
 20
-124.2085628902641
 30
0.0
 11
748.87082893769343
 21
-124.2085628902641
 31
0.0
  0
LINE
  5
3D4
  8
SIZE
  6
CONTINUOUS
 62
    30
 10
627.0
 20
-144.26830121713641
 30
0.0
 11
627.0
 21
-12.65258209095555
 31
0.0
  0
LINE
  5
3D5
  8
SIZE
  6
CONTINUOUS
 62
    30
 10
575.0
 20
-42.652582090955548
 30
0.0
 11
617.0
 21
-42.652582090955548
 31
0.0
  0
LINE
  5
3D6
  8
SIZE
  6
CONTINUOUS
 62
    30
 10
627.0
 20
-42.652582090955548
 30
0.0
 11
746.58836057348344
 21
-42.652582090955548
 31
0.0
  0
TEXT
  5
3DA
  8
SIZE
  6
CONTINUOUS
 62
    30
 10
654.54484242770161
 20
-115.937824701832
 30
0.0
 40
55.0
  1
78
 41
0.9
  0
CIRCLE
  5
3DB
  8
SIZE
  6
CONTINUOUS
 62
    30
 10
643.0
 20
-124.2085628902641
 30
0.0
 40
5.0
  0
LINE
  5
3DC
  8
SIZE
  6
CONTINUOUS
 62
    30
 10
638.0
 20
-124.2085628902641
 30
0.0
 11
633.0
 21
-124.2085628902641
 31
0.0
  0
CIRCLE
  5
3DD
  8
SIZE
  6
CONTINUOUS
 62
    30
 10
565.0
 20
-124.2085628902641
 30
0.0
 40
5.0
  0
LINE
  5
3DE
  8
SIZE
  6
CONTINUOUS
 62
    30
 10
570.0
 20
-124.2085628902641
 30
0.0
 11
575.0
 21
-124.2085628902641
 31
0.0
  0
TEXT
  5
3DF
  8
SIZE
  6
CONTINUOUS
 62
    30
 10
653.11293738890117
 20
-32.93045450274802
 30
0.0
 40
55.0
  1
62
 41
0.9
  0
CIRCLE
  5
3E0
  8
SIZE
  6
CONTINUOUS
 62
    30
 10
627.0
 20
-42.652582090955548
 30
0.0
 40
5.0
  0
LINE
  5
3E1
  8
SIZE
  6
CONTINUOUS
 62
    30
 10
622.0
 20
-42.652582090955548
 30
0.0
 11
617.0
 21
-42.652582090955548
 31
0.0
  0
CIRCLE
  5
3E2
  8
SIZE
  6
CONTINUOUS
 62
    30
 10
565.0
 20
-42.652582090955548
 30
0.0
 40
5.0
  0
LINE
  5
3E3
  8
SIZE
  6
CONTINUOUS
 62
    30
 10
570.0
 20
-42.652582090955548
 30
0.0
 11
575.0
 21
-42.652582090955548
 31
0.0
  0
LINE
  5
3EB
  8
SIZE
  6
CONTINUOUS
 62
    30
 10
565.0
 20
-132.99999414104971
 30
0.0
 11
565.0
 21
-12.652576232005231
 31
0.0
  0
LINE
  5
3F3
  8
SIZE
  6
CONTINUOUS
 62
    30
 10
643.0000136244488
 20
-222.5986113516592
 30
0.0
 11
643.0000136244488
 21
-94.208555509998405
 31
0.0
  0
POLYLINE
  5
7CE
  8
NOTE
  6
CONTINUOUS
 62
     4
 66
     1
 10
0.0
 20
0.0
 30
0.0
  0
VERTEX
  5
D2B
  8
NOTE
  6
CONTINUOUS
 62
     4
 10
-547.64474900000005
 20
-34.362151999999917
 30
0.0
  0
VERTEX
  5
D2C
  8
NOTE
  6
CONTINUOUS
 62
     4
 10
-526.0
 20
-68.0
 30
0.0
  0
VERTEX
  5
D2D
  8
NOTE
  6
CONTINUOUS
 62
     4
 10
-561.56382699999995
 20
-49.691143000000011
 30
0.0
  0
SEQEND
  5
D2E
  8
NOTE
  6
CONTINUOUS
 62
     4
  0
LINE
  5
7CF
  8
NOTE
  6
CONTINUOUS
 62
     4
 10
19.0
 20
-363.0
 30
0.0
 11
-21.0
 21
-363.0
 31
0.0
  0
LINE
  5
7D0
  8
NOTE
  6
CONTINUOUS
 62
     4
 10
-1.0
 20
-383.0
 30
0.0
 11
-1.0
 21
-343.0
 31
0.0
  0
LINE
  5
7D1
  8
NOTE
  6
CONTINUOUS
 62
     4
 10
69.0
 20
-363.0
 30
0.0
 11
29.0
 21
-363.0
 31
0.0
  0
LINE
  5
7D2
  8
NOTE
  6
CONTINUOUS
 62
     4
 10
49.0
 20
-383.0
 30
0.0
 11
49.0
 21
-343.0
 31
0.0
  0
LINE
  5
7D3
  8
NOTE
  6
CONTINUOUS
 62
     4
 10
119.0
 20
-363.0
 30
0.0
 11
79.0
 21
-363.0
 31
0.0
  0
LINE
  5
7D4
  8
NOTE
  6
CONTINUOUS
 62
     4
 10
99.0
 20
-383.0
 30
0.0
 11
99.0
 21
-343.0
 31
0.0
  0
LINE
  5
7D5
  8
NOTE
  6
CONTINUOUS
 62
     4
 10
169.0
 20
-363.0
 30
0.0
 11
129.0
 21
-363.0
 31
0.0
  0
LINE
  5
7D6
  8
NOTE
  6
CONTINUOUS
 62
     4
 10
149.0
 20
-383.0
 30
0.0
 11
149.0
 21
-343.0
 31
0.0
  0
LINE
  5
7D7
  8
NOTE
  6
CONTINUOUS
 62
     4
 10
219.0
 20
-363.0
 30
0.0
 11
179.0
 21
-363.0
 31
0.0
  0
LINE
  5
7D8
  8
NOTE
  6
CONTINUOUS
 62
     4
 10
199.0
 20
-383.0
 30
0.0
 11
199.0
 21
-343.0
 31
0.0
  0
LINE
  5
7D9
  8
NOTE
  6
CONTINUOUS
 62
     4
 10
249.0
 20
-383.0
 30
0.0
 11
249.0
 21
-343.0
 31
0.0
  0
LINE
  5
7DA
  8
NOTE
  6
CONTINUOUS
 62
     4
 10
319.0
 20
-363.0
 30
0.0
 11
279.0
 21
-363.0
 31
0.0
  0
LINE
  5
7DB
  8
NOTE
  6
CONTINUOUS
 62
     4
 10
299.0
 20
-383.0
 30
0.0
 11
299.0
 21
-343.0
 31
0.0
  0
LINE
  5
7DC
  8
NOTE
  6
CONTINUOUS
 62
     4
 10
369.0
 20
-363.0
 30
0.0
 11
329.0
 21
-363.0
 31
0.0
  0
LINE
  5
7DD
  8
NOTE
  6
CONTINUOUS
 62
     4
 10
349.0
 20
-383.0
 30
0.0
 11
349.0
 21
-343.0
 31
0.0
  0
LINE
  5
7DE
  8
NOTE
  6
CONTINUOUS
 62
     4
 10
419.0
 20
-363.0
 30
0.0
 11
379.0
 21
-363.0
 31
0.0
  0
LINE
  5
7DF
  8
NOTE
  6
CONTINUOUS
 62
     4
 10
399.0
 20
-383.0
 30
0.0
 11
399.0
 21
-343.0
 31
0.0
  0
LINE
  5
7E0
  8
NOTE
  6
CONTINUOUS
 62
     4
 10
469.0
 20
-363.0
 30
0.0
 11
429.0
 21
-363.0
 31
0.0
  0
LINE
  5
7E1
  8
NOTE
  6
CONTINUOUS
 62
     4
 10
449.0
 20
-383.0
 30
0.0
 11
449.0
 21
-343.0
 31
0.0
  0
LINE
  5
7E2
  8
NOTE
  6
CONTINUOUS
 62
     4
 10
519.0
 20
-363.0
 30
0.0
 11
479.0
 21
-363.0
 31
0.0
  0
LINE
  5
7E3
  8
NOTE
  6
CONTINUOUS
 62
     4
 10
499.0
 20
-383.0
 30
0.0
 11
499.0
 21
-343.0
 31
0.0
  0
LINE
  5
7E4
  8
NOTE
  6
CONTINUOUS
 62
     4
 10
519.0
 20
-23.0
 30
0.0
 11
479.0
 21
-23.0
 31
0.0
  0
LINE
  5
7E5
  8
NOTE
  6
CONTINUOUS
 62
     4
 10
499.0
 20
-43.0
 30
0.0
 11
499.0
 21
-3.0
 31
0.0
  0
LINE
  5
7E6
  8
NOTE
  6
CONTINUOUS
 62
     4
 10
469.0
 20
-23.0
 30
0.0
 11
429.0
 21
-23.0
 31
0.0
  0
LINE
  5
7E7
  8
NOTE
  6
CONTINUOUS
 62
     4
 10
449.0
 20
-43.0
 30
0.0
 11
449.0
 21
-3.0
 31
0.0
  0
LINE
  5
7E8
  8
NOTE
  6
CONTINUOUS
 62
     4
 10
419.0
 20
-23.0
 30
0.0
 11
379.0
 21
-23.0
 31
0.0
  0
LINE
  5
7E9
  8
NOTE
  6
CONTINUOUS
 62
     4
 10
399.0
 20
-43.0
 30
0.0
 11
399.0
 21
-3.0
 31
0.0
  0
LINE
  5
7EA
  8
NOTE
  6
CONTINUOUS
 62
     4
 10
369.0
 20
-23.0
 30
0.0
 11
329.0
 21
-23.0
 31
0.0
  0
LINE
  5
7EB
  8
NOTE
  6
CONTINUOUS
 62
     4
 10
349.0
 20
-43.0
 30
0.0
 11
349.0
 21
-3.0
 31
0.0
  0
LINE
  5
7EC
  8
NOTE
  6
CONTINUOUS
 62
     4
 10
319.0
 20
-23.0
 30
0.0
 11
279.0
 21
-23.0
 31
0.0
  0
LINE
  5
7ED
  8
NOTE
  6
CONTINUOUS
 62
     4
 10
299.0
 20
-43.0
 30
0.0
 11
299.0
 21
-3.0
 31
0.0
  0
LINE
  5
7EE
  8
NOTE
  6
CONTINUOUS
 62
     4
 10
249.0
 20
-43.0
 30
0.0
 11
249.0
 21
-3.0
 31
0.0
  0
LINE
  5
7EF
  8
NOTE
  6
CONTINUOUS
 62
     4
 10
219.0
 20
-23.0
 30
0.0
 11
179.0
 21
-23.0
 31
0.0
  0
LINE
  5
7F0
  8
NOTE
  6
CONTINUOUS
 62
     4
 10
199.0
 20
-43.0
 30
0.0
 11
199.0
 21
-3.0
 31
0.0
  0
LINE
  5
7F1
  8
NOTE
  6
CONTINUOUS
 62
     4
 10
169.0
 20
-23.0
 30
0.0
 11
129.0
 21
-23.0
 31
0.0
  0
LINE
  5
7F2
  8
NOTE
  6
CONTINUOUS
 62
     4
 10
149.0
 20
-43.0
 30
0.0
 11
149.0
 21
-3.0
 31
0.0
  0
LINE
  5
7F3
  8
NOTE
  6
CONTINUOUS
 62
     4
 10
119.0
 20
-23.0
 30
0.0
 11
79.0
 21
-23.0
 31
0.0
  0
LINE
  5
7F4
  8
NOTE
  6
CONTINUOUS
 62
     4
 10
99.0
 20
-43.0
 30
0.0
 11
99.0
 21
-3.0
 31
0.0
  0
LINE
  5
7F5
  8
NOTE
  6
CONTINUOUS
 62
     4
 10
69.0
 20
-23.0
 30
0.0
 11
29.0
 21
-23.0
 31
0.0
  0
LINE
  5
7F6
  8
NOTE
  6
CONTINUOUS
 62
     4
 10
49.0
 20
-43.0
 30
0.0
 11
49.0
 21
-3.0
 31
0.0
  0
LINE
  5
7F7
  8
NOTE
  6
CONTINUOUS
 62
     4
 10
-6.0
 20
-23.0
 30
0.0
 11
-46.0
 21
-23.0
 31
0.0
  0
LINE
  5
7F8
  8
NOTE
  6
CONTINUOUS
 62
     4
 10
-1.0
 20
-43.0
 30
0.0
 11
-1.0
 21
-3.0
 31
0.0
  0
LINE
  5
7F9
  8
NOTE
  6
CONTINUOUS
 62
     4
 10
-506.0
 20
-68.0
 30
0.0
 11
-546.0
 21
-68.0
 31
0.0
  0
LINE
  5
7FA
  8
NOTE
  6
CONTINUOUS
 62
     4
 10
-526.0
 20
-88.0
 30
0.0
 11
-526.0
 21
-48.0
 31
0.0
  0
LINE
  5
7FB
  8
NOTE
  6
CONTINUOUS
 62
     4
 10
-506.0
 20
-118.0
 30
0.0
 11
-546.0
 21
-118.0
 31
0.0
  0
LINE
  5
7FC
  8
NOTE
  6
CONTINUOUS
 62
     4
 10
-526.0
 20
-138.0
 30
0.0
 11
-526.0
 21
-98.0
 31
0.0
  0
LINE
  5
7FD
  8
NOTE
  6
CONTINUOUS
 62
     4
 10
-506.0
 20
-168.0
 30
0.0
 11
-546.0
 21
-168.0
 31
0.0
  0
LINE
  5
7FE
  8
NOTE
  6
CONTINUOUS
 62
     4
 10
-526.0
 20
-188.0
 30
0.0
 11
-526.0
 21
-148.0
 31
0.0
  0
LINE
  5
7FF
  8
NOTE
  6
CONTINUOUS
 62
     4
 10
-506.0
 20
-218.0
 30
0.0
 11
-546.0
 21
-218.0
 31
0.0
  0
LINE
  5
800
  8
NOTE
  6
CONTINUOUS
 62
     4
 10
-526.0
 20
-238.0
 30
0.0
 11
-526.0
 21
-198.0
 31
0.0
  0
LINE
  5
801
  8
NOTE
  6
CONTINUOUS
 62
     4
 10
-506.0
 20
-268.0
 30
0.0
 11
-546.0
 21
-268.0
 31
0.0
  0
LINE
  5
802
  8
NOTE
  6
CONTINUOUS
 62
     4
 10
-526.0
 20
-288.0
 30
0.0
 11
-526.0
 21
-248.0
 31
0.0
  0
LINE
  5
803
  8
NOTE
  6
CONTINUOUS
 62
     4
 10
-506.0
 20
-318.0
 30
0.0
 11
-546.0
 21
-318.0
 31
0.0
  0
LINE
  5
804
  8
NOTE
  6
CONTINUOUS
 62
     4
 10
-526.0
 20
-338.0
 30
0.0
 11
-526.0
 21
-298.0
 31
0.0
  0
LINE
  5
805
  8
NOTE
  6
CONTINUOUS
 62
     4
 10
544.0
 20
-68.0
 30
0.0
 11
504.0
 21
-68.0
 31
0.0
  0
LINE
  5
806
  8
NOTE
  6
CONTINUOUS
 62
     4
 10
524.0
 20
-88.0
 30
0.0
 11
524.0
 21
-48.0
 31
0.0
  0
LINE
  5
807
  8
NOTE
  6
CONTINUOUS
 62
     4
 10
544.0
 20
-118.0
 30
0.0
 11
504.0
 21
-118.0
 31
0.0
  0
LINE
  5
808
  8
NOTE
  6
CONTINUOUS
 62
     4
 10
524.0
 20
-138.0
 30
0.0
 11
524.0
 21
-98.0
 31
0.0
  0
LINE
  5
809
  8
NOTE
  6
CONTINUOUS
 62
     4
 10
544.0
 20
-168.0
 30
0.0
 11
504.0
 21
-168.0
 31
0.0
  0
LINE
  5
80A
  8
NOTE
  6
CONTINUOUS
 62
     4
 10
524.0
 20
-188.0
 30
0.0
 11
524.0
 21
-148.0
 31
0.0
  0
LINE
  5
80B
  8
NOTE
  6
CONTINUOUS
 62
     4
 10
544.0
 20
-218.0
 30
0.0
 11
504.0
 21
-218.0
 31
0.0
  0
LINE
  5
80C
  8
NOTE
  6
CONTINUOUS
 62
     4
 10
524.0
 20
-238.0
 30
0.0
 11
524.0
 21
-198.0
 31
0.0
  0
LINE
  5
80D
  8
NOTE
  6
CONTINUOUS
 62
     4
 10
544.0
 20
-268.0
 30
0.0
 11
504.0
 21
-268.0
 31
0.0
  0
LINE
  5
80E
  8
NOTE
  6
CONTINUOUS
 62
     4
 10
524.0
 20
-288.0
 30
0.0
 11
524.0
 21
-248.0
 31
0.0
  0
LINE
  5
80F
  8
NOTE
  6
CONTINUOUS
 62
     4
 10
544.0
 20
-318.0
 30
0.0
 11
504.0
 21
-318.0
 31
0.0
  0
LINE
  5
810
  8
NOTE
  6
CONTINUOUS
 62
     4
 10
524.0
 20
-338.0
 30
0.0
 11
524.0
 21
-298.0
 31
0.0
  0
CIRCLE
  5
811
  8
SIZE
  6
CONTINUOUS
 62
    30
 10
524.0
 20
357.69970234925898
 30
0.0
 40
6.0
  0
CIRCLE
  5
812
  8
SIZE
  6
CONTINUOUS
 62
    30
 10
-526.0
 20
357.69970234925898
 30
0.0
 40
6.0
  0
CIRCLE
  5
813
  8
SIZE
  6
CONTINUOUS
 62
    30
 10
499.0
 20
178.58211716386171
 30
0.0
 40
6.0
  0
CIRCLE
  5
814
  8
SIZE
  6
CONTINUOUS
 62
    30
 10
-501.0
 20
178.58211716386171
 30
0.0
 40
6.0
  0
CIRCLE
  5
815
  8
SIZE
  6
CONTINUOUS
 62
    30
 10
449.0
 20
99.74666000000002
 30
0.0
 40
6.0
  0
CIRCLE
  5
816
  8
SIZE
  6
CONTINUOUS
 62
    30
 10
499.0
 20
99.74666000000002
 30
0.0
 40
6.0
  0
CIRCLE
  5
817
  8
SIZE
  6
CONTINUOUS
 62
    30
 10
499.0
 20
178.58211716386171
 30
0.0
 40
6.0
  0
CIRCLE
  5
818
  8
SIZE
  6
CONTINUOUS
 62
    30
 10
524.0
 20
178.58211716386171
 30
0.0
 40
6.0
  0
CIRCLE
  5
819
  8
SIZE
  6
CONTINUOUS
 62
    30
 10
524.0
 20
178.58211716386171
 30
0.0
 40
6.0
  0
CIRCLE
  5
81A
  8
SIZE
  6
CONTINUOUS
 62
    30
 10
565.0
 20
178.58211716386171
 30
0.0
 40
6.0
  0
CIRCLE
  5
81B
  8
SIZE
  6
CONTINUOUS
 62
    30
 10
-847.15009999999984
 20
-268.0
 30
0.0
 40
6.0
  0
CIRCLE
  5
81C
  8
SIZE
  6
CONTINUOUS
 62
    30
 10
-847.15009999999984
 20
-318.0
 30
0.0
 40
6.0
  0
CIRCLE
  5
81D
  8
SIZE
  6
CONTINUOUS
 62
    30
 10
-847.15009999999984
 20
-318.0
 30
0.0
 40
6.0
  0
CIRCLE
  5
81E
  8
SIZE
  6
CONTINUOUS
 62
    30
 10
-847.15009999999984
 20
-363.0
 30
0.0
 40
6.0
  0
CIRCLE
  5
81F
  8
SIZE
  6
CONTINUOUS
 62
    30
 10
-971.28955099999985
 20
-363.0
 30
0.0
 40
6.0
  0
CIRCLE
  5
820
  8
SIZE
  6
CONTINUOUS
 62
    30
 10
-971.28955099999985
 20
-23.0
 30
0.0
 40
6.0
  0
CIRCLE
  5
821
  8
SIZE
  6
CONTINUOUS
 62
    30
 10
-971.28955099999985
 20
-363.0
 30
0.0
 40
6.0
  0
CIRCLE
  5
822
  8
SIZE
  6
CONTINUOUS
 62
    30
 10
-971.28955099999985
 20
-380.0
 30
0.0
 40
6.0
  0
TEXT
  5
823
  8
SIZE
  6
CONTINUOUS
 62
    30
 10
-1003.289551
 20
-479.36150700000002
 30
0.0
 40
55.0
  1
17
 50
90.0
 41
0.9
  0
LINE
  5
824
  8
SIZE
  6
CONTINUOUS
 62
    30
 10
-971.28955099999985
 20
-363.0
 30
0.0
 11
-971.28955099999985
 21
-380.0
 31
0.0
  0
LINE
  5
825
  8
SIZE
  6
CONTINUOUS
 62
    30
 10
-971.28955099999985
 20
-382.0
 30
0.0
 11
-971.28955099999985
 21
-384.0
 31
0.0
  0
LINE
  5
826
  8
SIZE
  6
CONTINUOUS
 62
    30
 10
-971.28955099999985
 20
-361.0
 30
0.0
 11
-971.28955099999985
 21
-359.0
 31
0.0
  0
TEXT
  5
827
  8
SIZE
  6
CONTINUOUS
 62
    30
 10
-1003.289551
 20
-267.057143
 30
0.0
 40
55.0
  1
340
 50
90.0
 41
0.9
  0
LINE
  5
828
  8
SIZE
  6
CONTINUOUS
 62
    30
 10
-971.28955099999985
 20
-25.0
 30
0.0
 11
-971.28955099999985
 21
-193.0
 31
0.0
  0
LINE
  5
829
  8
SIZE
  6
CONTINUOUS
 62
    30
 10
-971.28955099999985
 20
-361.0
 30
0.0
 11
-971.28955099999985
 21
-193.0
 31
0.0
  0
LINE
  5
82A
  8
SIZE
  6
CONTINUOUS
 62
    30
 10
-546.0
 20
-23.0
 30
0.0
 11
-1001.289551
 21
-23.0
 31
0.0
  0
LINE
  5
82B
  8
SIZE
  6
CONTINUOUS
 62
    30
 10
-546.0
 20
-363.0
 30
0.0
 11
-1001.289551
 21
-363.0
 31
0.0
  0
TEXT
  5
82C
  8
SIZE
  6
CONTINUOUS
 62
    30
 10
-879.15009999999984
 20
-491.89798199999967
 30
0.0
 40
55.0
  1
45
 50
90.0
 41
0.9
  0
LINE
  5
82D
  8
SIZE
  6
CONTINUOUS
 62
    30
 10
-847.15009999999984
 20
-318.0
 30
0.0
 11
-847.15009999999984
 21
-363.0
 31
0.0
  0
LINE
  5
82E
  8
SIZE
  6
CONTINUOUS
 62
    30
 10
-847.15009999999984
 20
-365.0
 30
0.0
 11
-847.15009999999984
 21
-367.0
 31
0.0
  0
LINE
  5
82F
  8
SIZE
  6
CONTINUOUS
 62
    30
 10
-847.15009999999984
 20
-316.0
 30
0.0
 11
-847.15009999999984
 21
-314.0
 31
0.0
  0
LINE
  5
830
  8
SIZE
  6
CONTINUOUS
 62
    30
 10
-566.0
 20
-318.0
 30
0.0
 11
-877.15009999999984
 21
-318.0
 31
0.0
  0
TEXT
  5
831
  8
SIZE
  6
CONTINUOUS
 62
    30
 10
-879.15009999999984
 20
-251.69710200000009
 30
0.0
 40
55.0
  1
50
 50
90.0
 41
0.9
  0
LINE
  5
832
  8
SIZE
  6
CONTINUOUS
 62
    30
 10
-847.15009999999984
 20
-268.0
 30
0.0
 11
-847.15009999999984
 21
-318.0
 31
0.0
  0
LINE
  5
833
  8
SIZE
  6
CONTINUOUS
 62
    30
 10
-847.15009999999984
 20
-320.0
 30
0.0
 11
-847.15009999999984
 21
-322.0
 31
0.0
  0
LINE
  5
834
  8
SIZE
  6
CONTINUOUS
 62
    30
 10
-847.15009999999984
 20
-266.0
 30
0.0
 11
-847.15009999999984
 21
-264.0
 31
0.0
  0
LINE
  5
835
  8
SIZE
  6
CONTINUOUS
 62
    30
 10
-566.0
 20
-268.0
 30
0.0
 11
-877.15009999999984
 21
-268.0
 31
0.0
  0
LINE
  5
836
  8
SIZE
  6
CONTINUOUS
 62
    30
 10
-566.0
 20
-318.0
 30
0.0
 11
-877.15009999999984
 21
-318.0
 31
0.0
  0
TEXT
  5
837
  8
SIZE
  6
CONTINUOUS
 62
    30
 10
584.30772699999955
 20
210.13803016856761
 30
0.0
 40
55.0
  1
41
 41
0.9
  0
LINE
  5
838
  8
SIZE
  6
CONTINUOUS
 62
    30
 10
524.0
 20
178.58211716386171
 30
0.0
 11
565.0
 21
178.58211716386171
 31
0.0
  0
LINE
  5
839
  8
SIZE
  6
CONTINUOUS
 62
    30
 10
567.0
 20
178.58211716386171
 30
0.0
 11
569.0
 21
178.58211716386171
 31
0.0
  0
LINE
  5
83B
  8
SIZE
  6
CONTINUOUS
 62
    30
 10
565.0
 20
20.0
 30
0.0
 11
565.0
 21
261.00314299999991
 31
0.0
  0
TEXT
  5
83C
  8
SIZE
  6
CONTINUOUS
 62
    30
 10
399.37740661963483
 20
256.16277888156401
 30
0.0
 40
55.0
  1
25
 41
0.9
  0
LINE
  5
83D
  8
SIZE
  6
CONTINUOUS
 62
    30
 10
499.0
 20
178.58211716386171
 30
0.0
 11
524.0
 21
178.58211716386171
 31
0.0
  0
LINE
  5
83E
  8
SIZE
  6
CONTINUOUS
 62
    30
 10
526.0
 20
178.58211716386171
 30
0.0
 11
528.0
 21
178.58211716386171
 31
0.0
  0
LINE
  5
83F
  8
SIZE
  6
CONTINUOUS
 62
    30
 10
497.0
 20
178.58211716386171
 30
0.0
 11
495.0
 21
178.58211716386171
 31
0.0
  0
LINE
  5
840
  8
SIZE
  6
CONTINUOUS
 62
    30
 10
499.0
 20
17.0
 30
0.0
 11
499.0
 21
211.1677403906651
 31
0.0
  0
TEXT
  5
841
  8
SIZE
  6
CONTINUOUS
 62
    30
 10
341.86800700000009
 20
113.18409597155539
 30
0.0
 40
55.0
  1
50
 41
0.9
  0
LINE
  5
842
  8
SIZE
  6
CONTINUOUS
 62
    30
 10
449.0
 20
99.74666000000002
 30
0.0
 11
499.0
 21
99.74666000000002
 31
0.0
  0
LINE
  5
843
  8
SIZE
  6
CONTINUOUS
 62
    30
 10
501.0
 20
99.74666000000002
 30
0.0
 11
503.0
 21
99.74666000000002
 31
0.0
  0
LINE
  5
844
  8
SIZE
  6
CONTINUOUS
 62
    30
 10
447.0
 20
99.74666000000002
 30
0.0
 11
445.0
 21
99.74666000000002
 31
0.0
  0
LINE
  5
845
  8
SIZE
  6
CONTINUOUS
 62
    30
 10
449.0
 20
17.0
 30
0.0
 11
449.0
 21
129.74665999999999
 31
0.0
  0
LINE
  5
846
  8
SIZE
  6
CONTINUOUS
 62
    30
 10
499.0
 20
17.0
 30
0.0
 11
499.0
 21
129.74665999999999
 31
0.0
  0
TEXT
  5
847
  8
SIZE
  6
CONTINUOUS
 62
    30
 10
-82.874080322508206
 20
193.43132705073
 30
0.0
 40
55.0
  1
1000
 41
0.9
  0
LINE
  5
848
  8
SIZE
  6
CONTINUOUS
 62
    30
 10
499.0
 20
178.58211716386171
 30
0.0
 11
-501.0
 21
178.58211716386171
 31
0.0
  0
LINE
  5
849
  8
SIZE
  6
CONTINUOUS
 62
    30
 10
-501.0
 20
17.0
 30
0.0
 11
-501.0
 21
211.1677403906651
 31
0.0
  0
LINE
  5
84A
  8
SIZE
  6
CONTINUOUS
 62
    30
 10
499.0
 20
17.0
 30
0.0
 11
499.0
 21
211.1677403906651
 31
0.0
  0
TEXT
  5
84B
  8
SIZE
  6
CONTINUOUS
 62
    30
 10
-85.02606243845365
 20
371.26677574900532
 30
0.0
 40
55.0
  1
1050
 41
0.9
  0
LINE
  5
84C
  8
SIZE
  6
CONTINUOUS
 62
    30
 10
524.0
 20
357.69970234925898
 30
0.0
 11
-526.0
 21
357.69970234925898
 31
0.0
  0
LINE
  5
84D
  8
SIZE
  6
CONTINUOUS
 62
    30
 10
-526.0
 20
-3.0
 30
0.0
 11
-526.0
 21
389.66629493757858
 31
0.0
  0
LINE
  5
84E
  8
SIZE
  6
CONTINUOUS
 62
    30
 10
524.0
 20
-3.0
 30
0.0
 11
524.0
 21
390.67009664877691
 31
0.0
  0
LINE
  5
84F
  8
SIZE
  6
CONTINUOUS
 62
    30
 10
-971.28955099999985
 20
-382.0
 30
0.0
 11
-971.28955099999985
 21
-499.20617299999992
 31
0.0
  0
LINE
  5
850
  8
SIZE
  6
CONTINUOUS
 62
    30
 10
449.0
 20
99.74666000000002
 30
0.0
 11
338.91168199999998
 21
99.74666000000002
 31
0.0
  0
LINE
  5
851
  8
SIZE
  6
CONTINUOUS
 62
    30
 10
567.0
 20
178.58211716386171
 30
0.0
 11
683.39305000000013
 21
178.58211716386171
 31
0.0
  0
LINE
  5
852
  8
SIZE
  6
CONTINUOUS
 62
    30
 10
-847.15009999999984
 20
-266.0
 30
0.0
 11
-847.15009999999984
 21
-160.19525200000001
 31
0.0
  0
LINE
  5
853
  8
SIZE
  6
CONTINUOUS
 62
    30
 10
-847.15009999999984
 20
-367.0
 30
0.0
 11
-847.15009999999984
 21
-497.88951100000003
 31
0.0
  0
LINE
  5
854
  8
DETAIL
  6
CONTINUOUS
 62
     5
 10
524.0
 20
-23.0
 30
0.0
 11
-526.0
 21
-23.0
 31
0.0
  0
LINE
  5
855
  8
DETAIL
  6
CONTINUOUS
 62
     5
 10
524.0
 20
-363.0
 30
0.0
 11
-526.0
 21
-363.0
 31
0.0
  0
LINE
  5
856
  8
DETAIL
  6
CONTINUOUS
 62
     5
 10
-526.0
 20
-23.0
 30
0.0
 11
-526.0
 21
-363.0
 31
0.0
  0
LINE
  5
857
  8
DETAIL
  6
CONTINUOUS
 62
     5
 10
524.0
 20
-23.0
 30
0.0
 11
524.0
 21
-363.0
 31
0.0
  0
LINE
  5
858
  8
NOTE
  6
CONTINUOUS
 62
     4
 10
-526.0
 20
-68.0
 30
0.0
 11
-698.00420599999973
 21
106.4374259999999
 31
0.0
  0
LINE
  5
864
  8
NOTE
  6
CONTINUOUS
 62
     4
 10
269.0
 20
-23.0
 30
0.0
 11
229.0
 21
-23.0
 31
0.0
  0
LINE
  5
86A
  8
NOTE
  6
CONTINUOUS
 62
     4
 10
268.99999864138948
 20
-363.00000665384869
 30
0.0
 11
228.99999864138951
 21
-363.00000665384869
 31
0.0
  0
LINE
  5
888
  8
SIZE
  6
CONTINUOUS
 62
    30
 10
-633.0
 20
-636.83171899999979
 30
0.0
 11
-742.07535696934065
 21
-636.83171899999979
 31
0.0
  0
LINE
  5
A85
  8
NOTE
  6
CONTINUOUS
 62
     4
 10
-31.0
 20
-23.0
 30
0.0
 11
-71.0
 21
-23.0
 31
0.0
  0
LINE
  5
A86
  8
NOTE
  6
CONTINUOUS
 62
     4
 10
-51.0
 20
-43.0
 30
0.0
 11
-51.0
 21
-3.0
 31
0.0
  0
LINE
  5
A87
  8
NOTE
  6
CONTINUOUS
 62
     4
 10
-101.0
 20
-43.0
 30
0.0
 11
-101.0
 21
-3.0
 31
0.0
  0
LINE
  5
A88
  8
NOTE
  6
CONTINUOUS
 62
     4
 10
-131.0
 20
-23.0
 30
0.0
 11
-171.0
 21
-23.0
 31
0.0
  0
LINE
  5
A89
  8
NOTE
  6
CONTINUOUS
 62
     4
 10
-151.0
 20
-43.0
 30
0.0
 11
-151.0
 21
-3.0
 31
0.0
  0
LINE
  5
A8A
  8
NOTE
  6
CONTINUOUS
 62
     4
 10
-181.0
 20
-23.0
 30
0.0
 11
-221.0
 21
-23.0
 31
0.0
  0
LINE
  5
A8B
  8
NOTE
  6
CONTINUOUS
 62
     4
 10
-201.0
 20
-43.0
 30
0.0
 11
-201.0
 21
-3.0
 31
0.0
  0
LINE
  5
A8C
  8
NOTE
  6
CONTINUOUS
 62
     4
 10
-231.0
 20
-23.0
 30
0.0
 11
-271.0
 21
-23.0
 31
0.0
  0
LINE
  5
A8D
  8
NOTE
  6
CONTINUOUS
 62
     4
 10
-251.0
 20
-43.0
 30
0.0
 11
-251.0
 21
-3.0
 31
0.0
  0
LINE
  5
A8E
  8
NOTE
  6
CONTINUOUS
 62
     4
 10
-281.0
 20
-23.0
 30
0.0
 11
-321.0
 21
-23.0
 31
0.0
  0
LINE
  5
A8F
  8
NOTE
  6
CONTINUOUS
 62
     4
 10
-301.0
 20
-43.0
 30
0.0
 11
-301.0
 21
-3.0
 31
0.0
  0
LINE
  5
A91
  8
NOTE
  6
CONTINUOUS
 62
     4
 10
-81.0
 20
-23.0
 30
0.0
 11
-121.0
 21
-23.0
 31
0.0
  0
LINE
  5
A97
  8
NOTE
  6
CONTINUOUS
 62
     4
 10
19.0
 20
-23.0
 30
0.0
 11
-21.0
 21
-23.0
 31
0.0
  0
LINE
  5
AB0
  8
NOTE
  6
CONTINUOUS
 62
     4
 10
-31.0
 20
-363.0
 30
0.0
 11
-71.0
 21
-363.0
 31
0.0
  0
LINE
  5
AB1
  8
NOTE
  6
CONTINUOUS
 62
     4
 10
-51.0
 20
-383.0
 30
0.0
 11
-51.0
 21
-343.0
 31
0.0
  0
LINE
  5
AB2
  8
NOTE
  6
CONTINUOUS
 62
     4
 10
-101.0
 20
-383.0
 30
0.0
 11
-101.0
 21
-343.0
 31
0.0
  0
LINE
  5
AB3
  8
NOTE
  6
CONTINUOUS
 62
     4
 10
-131.0
 20
-363.0
 30
0.0
 11
-171.0
 21
-363.0
 31
0.0
  0
LINE
  5
AB4
  8
NOTE
  6
CONTINUOUS
 62
     4
 10
-151.0
 20
-383.0
 30
0.0
 11
-151.0
 21
-343.0
 31
0.0
  0
LINE
  5
AB5
  8
NOTE
  6
CONTINUOUS
 62
     4
 10
-181.0
 20
-363.0
 30
0.0
 11
-221.0
 21
-363.0
 31
0.0
  0
LINE
  5
AB6
  8
NOTE
  6
CONTINUOUS
 62
     4
 10
-201.0
 20
-383.0
 30
0.0
 11
-201.0
 21
-343.0
 31
0.0
  0
LINE
  5
AB7
  8
NOTE
  6
CONTINUOUS
 62
     4
 10
-231.0
 20
-363.0
 30
0.0
 11
-271.0
 21
-363.0
 31
0.0
  0
LINE
  5
AB8
  8
NOTE
  6
CONTINUOUS
 62
     4
 10
-251.0
 20
-383.0
 30
0.0
 11
-251.0
 21
-343.0
 31
0.0
  0
LINE
  5
AB9
  8
NOTE
  6
CONTINUOUS
 62
     4
 10
-281.0
 20
-363.0
 30
0.0
 11
-321.0
 21
-363.0
 31
0.0
  0
LINE
  5
ABA
  8
NOTE
  6
CONTINUOUS
 62
     4
 10
-301.0
 20
-383.0
 30
0.0
 11
-301.0
 21
-343.0
 31
0.0
  0
LINE
  5
ABB
  8
NOTE
  6
CONTINUOUS
 62
     4
 10
-81.0
 20
-363.0
 30
0.0
 11
-121.0
 21
-363.0
 31
0.0
  0
LINE
  5
ACF
  8
SIZE
  6
CONTINUOUS
 62
    30
 10
511.5
 20
178.58211716386171
 30
0.0
 11
497.41662758848531
 21
242.65628352787479
 31
0.0
  0
LINE
  5
AD0
  8
SIZE
  6
CONTINUOUS
 62
    30
 10
497.41662553144818
 20
242.6562761952745
 30
0.0
 11
386.53506953144853
 21
242.6562761952745
 31
0.0
  0
LINE
  5
BE6
  8
NOTE
  6
CONTINUOUS
 62
     4
 10
-331.0
 20
-23.0
 30
0.0
 11
-371.0
 21
-23.0
 31
0.0
  0
LINE
  5
BE7
  8
NOTE
  6
CONTINUOUS
 62
     4
 10
-351.0
 20
-43.0
 30
0.0
 11
-351.0
 21
-3.0
 31
0.0
  0
LINE
  5
BE8
  8
NOTE
  6
CONTINUOUS
 62
     4
 10
-381.0
 20
-23.0
 30
0.0
 11
-421.0
 21
-23.0
 31
0.0
  0
LINE
  5
BE9
  8
NOTE
  6
CONTINUOUS
 62
     4
 10
-401.0
 20
-43.0
 30
0.0
 11
-401.0
 21
-3.0
 31
0.0
  0
LINE
  5
BEA
  8
NOTE
  6
CONTINUOUS
 62
     4
 10
-431.0
 20
-23.0
 30
0.0
 11
-471.0
 21
-23.0
 31
0.0
  0
LINE
  5
BEB
  8
NOTE
  6
CONTINUOUS
 62
     4
 10
-451.0
 20
-43.0
 30
0.0
 11
-451.0
 21
-3.0
 31
0.0
  0
LINE
  5
BEC
  8
NOTE
  6
CONTINUOUS
 62
     4
 10
-481.0
 20
-23.0
 30
0.0
 11
-521.0
 21
-23.0
 31
0.0
  0
LINE
  5
BED
  8
NOTE
  6
CONTINUOUS
 62
     4
 10
-501.0
 20
-43.0
 30
0.0
 11
-501.0
 21
-3.0
 31
0.0
  0
LINE
  5
BFC
  8
NOTE
  6
CONTINUOUS
 62
     4
 10
-331.0
 20
-363.0
 30
0.0
 11
-371.0
 21
-363.0
 31
0.0
  0
LINE
  5
BFD
  8
NOTE
  6
CONTINUOUS
 62
     4
 10
-351.0
 20
-383.0
 30
0.0
 11
-351.0
 21
-343.0
 31
0.0
  0
LINE
  5
BFE
  8
NOTE
  6
CONTINUOUS
 62
     4
 10
-381.0
 20
-363.0
 30
0.0
 11
-421.0
 21
-363.0
 31
0.0
  0
LINE
  5
BFF
  8
NOTE
  6
CONTINUOUS
 62
     4
 10
-401.0
 20
-383.0
 30
0.0
 11
-401.0
 21
-343.0
 31
0.0
  0
LINE
  5
C00
  8
NOTE
  6
CONTINUOUS
 62
     4
 10
-431.0
 20
-363.0
 30
0.0
 11
-471.0
 21
-363.0
 31
0.0
  0
LINE
  5
C01
  8
NOTE
  6
CONTINUOUS
 62
     4
 10
-451.0
 20
-383.0
 30
0.0
 11
-451.0
 21
-343.0
 31
0.0
  0
LINE
  5
C02
  8
NOTE
  6
CONTINUOUS
 62
     4
 10
-481.0
 20
-363.0
 30
0.0
 11
-521.0
 21
-363.0
 31
0.0
  0
LINE
  5
C03
  8
NOTE
  6
CONTINUOUS
 62
     4
 10
-501.0
 20
-383.0
 30
0.0
 11
-501.0
 21
-343.0
 31
0.0
  0
ENDSEC
  0
EOF
