  0
SECTION
  2
HEADER
  9
$ACADVER
  1
AC1009
  9
$INSBASE
 10
0.0
 20
0.0
 30
0.0
  9
$EXTMIN
 10
-1000.42907
 20
-826.826182
 30
0.0
  9
$EXTMAX
 10
1757.436846
 20
409.466346
 30
0.0
  9
$LIMMIN
 10
-2970.0
 20
-2100.0
  9
$LIMMAX
 10
2970.0
 20
2100.0
  9
$ORTHOMODE
 70
     0
  9
$REGENMODE
 70
     0
  9
$FILLMODE
 70
     1
  9
$QTEXTMODE
 70
     0
  9
$MIRRTEXT
 70
     0
  9
$DRAGMODE
 70
     2
  9
$LTSCALE
 40
20.0
  9
$OSMODE
 70
     0
  9
$ATTMODE
 70
     1
  9
$TEXTSIZE
 40
64.0
  9
$TRACEWID
 40
0.05
  9
$TEXTSTYLE
  7
STANDARD
  9
$CLAYER
  8
0
  9
$CELTYPE
  6
CONTINUOUS
  9
$CECOLOR
 62
     1
  9
$DIMSCALE
 40
1.0
  9
$DIMASZ
 40
2.0
  9
$DIMEXO
 40
20.0
  9
$DIMDLI
 40
200.0
  9
$DIMRND
 40
0.0
  9
$DIMDLE
 40
0.0
  9
$DIMEXE
 40
30.0
  9
$DIMTP
 40
0.0
  9
$DIMTM
 40
0.0
  9
$DIMTXT
 40
64.0
  9
$DIMCEN
 40
0.09
  9
$DIMTSZ
 40
0.0
  9
$DIMTOL
 70
     0
  9
$DIMLIM
 70
     0
  9
$DIMTIH
 70
     0
  9
$DIMTOH
 70
     0
  9
$DIMSE1
 70
     0
  9
$DIMSE2
 70
     0
  9
$DIMTAD
 70
     1
  9
$DIMZIN
 70
     8
  9
$DIMBLK
  1

  9
$DIMASO
 70
     1
  9
$DIMSHO
 70
     0
  9
$DIMPOST
  1

  9
$DIMAPOST
  1

  9
$DIMALT
 70
     0
  9
$DIMALTD
 70
     2
  9
$DIMALTF
 40
25.4
  9
$DIMLFAC
 40
1.0
  9
$DIMTOFL
 70
     1
  9
$DIMTVP
 40
0.0
  9
$DIMTIX
 70
     1
  9
$DIMSOXD
 70
     0
  9
$DIMSAH
 70
     0
  9
$DIMBLK1
  1

  9
$DIMBLK2
  1

  9
$DIMSTYLE
  2
STANDARD
  9
$DIMCLRD
 70
     0
  9
$DIMCLRE
 70
     0
  9
$DIMCLRT
 70
     0
  9
$DIMTFAC
 40
1.0
  9
$DIMGAP
 40
0.09
  9
$LUNITS
 70
     2
  9
$LUPREC
 70
     4
  9
$SKETCHINC
 40
0.1
  9
$FILLETRAD
 40
10.0
  9
$AUNITS
 70
     1
  9
$AUPREC
 70
     3
  9
$MENU
  1
ACAD
  9
$ELEVATION
 40
0.0
  9
$PELEVATION
 40
0.0
  9
$THICKNESS
 40
0.0
  9
$LIMCHECK
 70
     0
  9
$BLIPMODE
 70
     0
  9
$CHAMFERA
 40
0.0
  9
$CHAMFERB
 40
0.0
  9
$SKPOLY
 70
     0
  9
$TDCREATE
 40
2450959.368461
  9
$TDUPDATE
 40
2451261.663183
  9
$TDINDWG
 40
0.004491
  9
$TDUSRTIMER
 40
0.004491
  9
$USRTIMER
 70
     1
  9
$ANGBASE
 50
0.0
  9
$ANGDIR
 70
     0
  9
$PDMODE
 70
     3
  9
$PDSIZE
 40
-2.0
  9
$PLINEWID
 40
0.0
  9
$COORDS
 70
     0
  9
$SPLFRAME
 70
     0
  9
$SPLINETYPE
 70
     6
  9
$SPLINESEGS
 70
     8
  9
$ATTDIA
 70
     0
  9
$ATTREQ
 70
     1
  9
$HANDLING
 70
     1
  9
$HANDSEED
  5
1A9
  9
$SURFTAB1
 70
     6
  9
$SURFTAB2
 70
     6
  9
$SURFTYPE
 70
     6
  9
$SURFU
 70
     6
  9
$SURFV
 70
     6
  9
$UCSNAME
  2

  9
$UCSORG
 10
0.0
 20
0.0
 30
0.0
  9
$UCSXDIR
 10
1.0
 20
0.0
 30
0.0
  9
$UCSYDIR
 10
0.0
 20
1.0
 30
0.0
  9
$PUCSNAME
  2

  9
$PUCSORG
 10
0.0
 20
0.0
 30
0.0
  9
$PUCSXDIR
 10
1.0
 20
0.0
 30
0.0
  9
$PUCSYDIR
 10
0.0
 20
1.0
 30
0.0
  9
$USERI1
 70
     0
  9
$USERI2
 70
     0
  9
$USERI3
 70
     0
  9
$USERI4
 70
     0
  9
$USERI5
 70
     0
  9
$USERR1
 40
20.0
  9
$USERR2
 40
0.0
  9
$USERR3
 40
0.0
  9
$USERR4
 40
0.0
  9
$USERR5
 40
0.0
  9
$WORLDVIEW
 70
     1
  9
$SHADEDGE
 70
     3
  9
$SHADEDIF
 70
    70
  9
$TILEMODE
 70
     1
  9
$MAXACTVP
 70
    48
  9
$PLIMCHECK
 70
     0
  9
$PEXTMIN
 10
1.000000E+020
 20
1.000000E+020
 30
1.000000E+020
  9
$PEXTMAX
 10
-1.000000E+020
 20
-1.000000E+020
 30
-1.000000E+020
  9
$PLIMMIN
 10
0.0
 20
0.0
  9
$PLIMMAX
 10
12.0
 20
9.0
  9
$UNITMODE
 70
     0
  9
$VISRETAIN
 70
     1
  9
$PLINEGEN
 70
     0
  9
$PSLTSCALE
 70
     1
  0
ENDSEC
  0
SECTION
  2
TABLES
  0
TABLE
  2
VPORT
 70
     2
  0
VPORT
  2
*ACTIVE
 70
     0
 10
0.0
 20
0.0
 11
1.0
 21
1.0
 12
17.25
 22
0.0
 13
0.0
 23
0.0
 14
400.0
 24
400.0
 15
400.0
 25
400.0
 16
0.0
 26
0.0
 36
1.0
 17
0.0
 27
0.0
 37
0.0
 40
4200.0
 41
1.4225
 42
50.0
 43
0.0
 44
0.0
 50
0.0
 51
0.0
 71
     0
 72
   500
 73
     1
 74
     0
 75
     0
 76
     0
 77
     0
 78
     0
  0
ENDTAB
  0
TABLE
  2
LTYPE
 70
     2
  0
LTYPE
  2
CONTINUOUS
 70
     0
  3
Ä└É³
 72
    65
 73
     0
 40
0.0
  0
LTYPE
  2
DASHDOT
 70
     0
  3
____ _ ____ _ ____ _ ____ _ ____ _ ____ _ ____
 72
    65
 73
     4
 40
5.5
 49
4.0
 49
-0.6
 49
0.3
 49
-0.6
  0
ENDTAB
  0
TABLE
  2
LAYER
 70
    12
  0
LAYER
  2
0
 70
     0
 62
     7
  6
CONTINUOUS
  0
LAYER
  2
OUTLINE
 70
     0
 62
     3
  6
CONTINUOUS
  0
LAYER
  2
DETAIL
 70
     0
 62
     5
  6
CONTINUOUS
  0
LAYER
  2
BASIS
 70
     0
 62
     6
  6
DASHDOT
  0
LAYER
  2
SIZE
 70
     0
 62
    30
  6
CONTINUOUS
  0
LAYER
  2
NOTE
 70
     0
 62
     4
  6
CONTINUOUS
  0
LAYER
  2
ARRANGE
 70
     0
 62
     1
  6
CONTINUOUS
  0
LAYER
  2
FIX
 70
     0
 62
    11
  6
CONTINUOUS
  0
LAYER
  2
SERVICESPACE
 70
     0
 62
     2
  6
DASHDOT
  0
LAYER
  2
ETC
 70
     0
 62
    61
  6
CONTINUOUS
  0
LAYER
  2
SYMBOLLINE
 70
     0
 62
    15
  6
CONTINUOUS
  0
LAYER
  2
DEFPOINTS
 70
     0
 62
     7
  6
CONTINUOUS
  0
ENDTAB
  0
TABLE
  2
STYLE
 70
     1
  0
STYLE
  2
STANDARD
 70
     0
 40
0.0
 41
0.9
 50
0.0
 71
     0
 42
64.0
  3
SIMPLEX
  4
BIGFONT
  0
ENDTAB
  0
TABLE
  2
VIEW
 70
     1
  0
VIEW
  2
ALL
 70
     0
 40
4282.62
 10
0.0
 20
41.309904
 41
5940.0
 11
0.0
 21
0.0
 31
1.0
 12
0.0
 22
0.0
 32
0.0
 42
50.0
 43
0.0
 44
0.0
 50
0.0
 71
     0
  0
ENDTAB
  0
TABLE
  2
UCS
 70
     0
  0
ENDTAB
  0
TABLE
  2
APPID
 70
     1
  0
APPID
  2
ACAD
 70
     0
  0
ENDTAB
  0
TABLE
  2
DIMSTYLE
 70
     1
  0
DIMSTYLE
  2
STANDARD
 70
     0
  3

  4

  5

  6

  7

 40
1.0
 41
0.18
 42
0.0625
 43
0.38
 44
0.18
 45
0.0
 46
0.0
 47
0.0
 48
0.0
140
0.18
141
0.09
142
0.0
143
25.4
144
1.0
145
0.0
146
1.0
147
0.09
 71
     0
 72
     0
 73
     1
 74
     1
 75
     0
 76
     0
 77
     0
 78
     0
170
     0
171
     2
172
     0
173
     0
174
     0
175
     0
176
     0
177
     0
178
     0
  0
ENDTAB
  0
ENDSEC
  0
SECTION
  2
BLOCKS
  0
BLOCK
  8
0
  2
$MODEL_SPACE
 70
     0
 10
0.0
 20
0.0
 30
0.0
  3
$MODEL_SPACE
  1

  0
ENDBLK
  5
18F
  8
0
  0
BLOCK
 67
     1
  8
0
  2
$PAPER_SPACE
 70
     0
 10
0.0
 20
0.0
 30
0.0
  3
$PAPER_SPACE
  1

  0
ENDBLK
  5
18C
 67
     1
  8
0
  0
ENDSEC
  0
SECTION
  2
ENTITIES
  0
TEXT
  5
2E
  8
ETC
  6
CONTINUOUS
 62
    61
 10
712.408275
 20
321.02184
 30
0.0
 40
64.0
  1
PEFY-P112_160M-E1_4
 41
0.9
  0
LINE
  5
2F
  8
BASIS
  6
DASHDOT
 62
     6
 10
0.0
 20
89.133784
 30
0.0
 11
0.0
 21
-480.891467
 31
0.0
  0
LINE
  5
30
  8
DETAIL
  6
CONTINUOUS
 62
     5
 10
423.5
 20
-380.0
 30
0.0
 11
-423.5
 21
-380.0
 31
0.0
  0
LINE
  5
31
  8
DETAIL
  6
CONTINUOUS
 62
     5
 10
423.5
 20
0.0
 30
0.0
 11
423.5
 21
-339.0
 31
0.0
  0
LINE
  5
32
  8
DETAIL
  6
CONTINUOUS
 62
     5
 10
-423.5
 20
0.0
 30
0.0
 11
-423.5
 21
-380.0
 31
0.0
  0
LINE
  5
33
  8
DETAIL
  6
CONTINUOUS
 62
     5
 10
423.5
 20
0.0
 30
0.0
 11
-423.5
 21
0.0
 31
0.0
  0
LINE
  5
34
  8
DETAIL
  6
CONTINUOUS
 62
     5
 10
447.5
 20
-23.0
 30
0.0
 11
447.5
 21
-339.0
 31
0.0
  0
LINE
  5
35
  8
DETAIL
  6
CONTINUOUS
 62
     5
 10
-452.5
 20
-36.0
 30
0.0
 11
-452.5
 21
-286.0
 31
0.0
  0
LINE
  5
36
  8
DETAIL
  6
CONTINUOUS
 62
     5
 10
447.5
 20
-363.0
 30
0.0
 11
423.5
 21
-363.0
 31
0.0
  0
LINE
  5
37
  8
DETAIL
  6
CONTINUOUS
 62
     5
 10
-423.5
 20
-286.0
 30
0.0
 11
-452.5
 21
-286.0
 31
0.0
  0
LINE
  5
38
  8
DETAIL
  6
CONTINUOUS
 62
     5
 10
447.5
 20
-23.0
 30
0.0
 11
423.5
 21
-23.0
 31
0.0
  0
LINE
  5
39
  8
DETAIL
  6
CONTINUOUS
 62
     5
 10
-423.5
 20
-36.0
 30
0.0
 11
-452.5
 21
-36.0
 31
0.0
  0
TEXT
  5
3A
  8
NOTE
  6
CONTINUOUS
 62
     4
 10
-867.39524
 20
-608.253973
 30
0.0
 40
64.0
  1
AHâË10
 41
0.9
  0
LINE
  5
3B
  8
NOTE
  6
CONTINUOUS
 62
     4
 10
-869.536035
 20
-628.124561
 30
0.0
 11
-590.004638
 21
-628.124561
 31
0.0
  0
TEXT
  5
3C
  8
NOTE
  6
CONTINUOUS
 62
     4
 10
601.971241
 20
73.36892
 30
0.0
 40
64.0
  1
54-âË3
 41
0.9
  0
LINE
  5
3D
  8
NOTE
  6
CONTINUOUS
 62
     4
 10
893.544144
 20
44.749492
 30
0.0
 11
601.446721
 21
44.749492
 31
0.0
  0
LINE
  5
3E
  8
DETAIL
  6
CONTINUOUS
 62
     5
 10
-362.5
 20
-339.0
 30
0.0
 11
-362.5
 21
-349.0
 31
0.0
  0
LINE
  5
3F
  8
DETAIL
  6
CONTINUOUS
 62
     5
 10
391.5
 20
-339.0
 30
0.0
 11
391.5
 21
-349.0
 31
0.0
  0
LINE
  5
40
  8
DETAIL
  6
CONTINUOUS
 62
     5
 10
451.5
 20
-339.0
 30
0.0
 11
451.5
 21
-349.0
 31
0.0
  0
LINE
  5
41
  8
DETAIL
  6
CONTINUOUS
 62
     5
 10
-422.5
 20
-339.0
 30
0.0
 11
-422.5
 21
-349.0
 31
0.0
  0
LINE
  5
42
  8
DETAIL
  6
CONTINUOUS
 62
     5
 10
451.5
 20
-339.0
 30
0.0
 11
391.5
 21
-339.0
 31
0.0
  0
LINE
  5
43
  8
DETAIL
  6
CONTINUOUS
 62
     5
 10
451.5
 20
-349.0
 30
0.0
 11
391.5
 21
-349.0
 31
0.0
  0
LINE
  5
44
  8
DETAIL
  6
CONTINUOUS
 62
     5
 10
-362.5
 20
-349.0
 30
0.0
 11
-422.5
 21
-349.0
 31
0.0
  0
LINE
  5
45
  8
DETAIL
  6
CONTINUOUS
 62
     5
 10
-362.5
 20
-339.0
 30
0.0
 11
-422.5
 21
-339.0
 31
0.0
  0
LINE
  5
46
  8
DETAIL
  6
CONTINUOUS
 62
     5
 10
447.5
 20
-349.0
 30
0.0
 11
447.5
 21
-363.0
 31
0.0
  0
LINE
  5
47
  8
DETAIL
  6
CONTINUOUS
 62
     5
 10
423.5
 20
-349.0
 30
0.0
 11
423.5
 21
-380.0
 31
0.0
  0
CIRCLE
  5
48
  8
FIX
  6
CONTINUOUS
 62
    11
 10
421.5
 20
-339.0
 30
0.0
 40
5.0
  0
LINE
  5
49
  8
NOTE
  6
CONTINUOUS
 62
     4
 10
421.5
 20
-339.0
 30
0.0
 11
562.804052
 21
-626.669539
 31
0.0
  0
LINE
  5
4A
  8
NOTE
  6
CONTINUOUS
 62
     4
 10
-392.5
 20
-339.0
 30
0.0
 11
-588.70053
 21
-626.88677
 31
0.0
  0
CIRCLE
  5
4B
  8
FIX
  6
CONTINUOUS
 62
    11
 10
-392.5
 20
-339.0
 30
0.0
 40
5.0
  0
TEXT
  5
4C
  8
NOTE
  6
CONTINUOUS
 62
     4
 10
565.358047
 20
-606.798951
 30
0.0
 40
64.0
  1
AHâË10
 41
0.9
  0
LINE
  5
4D
  8
NOTE
  6
CONTINUOUS
 62
     4
 10
562.804052
 20
-626.669539
 30
0.0
 11
842.748649
 21
-626.669539
 31
0.0
  0
CIRCLE
  5
4E
  8
ARRANGE
  6
CONTINUOUS
 62
     1
 10
0.0
 20
0.0
 30
0.0
 40
40.0
  0
LINE
  5
4F
  8
DETAIL
  6
CONTINUOUS
 62
     5
 10
391.5
 20
-344.0
 30
0.0
 11
351.5
 21
-344.0
 31
0.0
  0
LINE
  5
50
  8
DETAIL
  6
CONTINUOUS
 62
     5
 10
351.5
 20
-344.0
 30
0.0
 11
351.5
 21
-380.0
 31
0.0
  0
LINE
  5
51
  8
DETAIL
  6
CONTINUOUS
 62
     5
 10
-322.5
 20
-344.0
 30
0.0
 11
-362.5
 21
-344.0
 31
0.0
  0
LINE
  5
52
  8
DETAIL
  6
CONTINUOUS
 62
     5
 10
-322.5
 20
-344.0
 30
0.0
 11
-322.5
 21
-380.0
 31
0.0
  0
CIRCLE
  5
53
  8
DETAIL
  6
CONTINUOUS
 62
     5
 10
437.5
 20
-68.0
 30
0.0
 40
1.5
  0
CIRCLE
  5
54
  8
DETAIL
  6
CONTINUOUS
 62
     5
 10
437.5
 20
-118.0
 30
0.0
 40
1.5
  0
CIRCLE
  5
55
  8
DETAIL
  6
CONTINUOUS
 62
     5
 10
437.5
 20
-168.0
 30
0.0
 40
1.5
  0
CIRCLE
  5
56
  8
DETAIL
  6
CONTINUOUS
 62
     5
 10
437.5
 20
-218.0
 30
0.0
 40
1.5
  0
CIRCLE
  5
57
  8
DETAIL
  6
CONTINUOUS
 62
     5
 10
437.5
 20
-268.0
 30
0.0
 40
1.5
  0
CIRCLE
  5
58
  8
DETAIL
  6
CONTINUOUS
 62
     5
 10
437.5
 20
-318.0
 30
0.0
 40
1.5
  0
CIRCLE
  5
59
  8
DETAIL
  6
CONTINUOUS
 62
     5
 10
-437.5
 20
-61.0
 30
0.0
 40
1.5
  0
CIRCLE
  5
5A
  8
DETAIL
  6
CONTINUOUS
 62
     5
 10
-437.5
 20
-111.0
 30
0.0
 40
1.5
  0
CIRCLE
  5
5B
  8
DETAIL
  6
CONTINUOUS
 62
     5
 10
-437.5
 20
-161.0
 30
0.0
 40
1.5
  0
CIRCLE
  5
5C
  8
DETAIL
  6
CONTINUOUS
 62
     5
 10
-437.5
 20
-211.0
 30
0.0
 40
1.5
  0
CIRCLE
  5
5D
  8
DETAIL
  6
CONTINUOUS
 62
     5
 10
-437.5
 20
-261.0
 30
0.0
 40
1.5
  0
LINE
  5
5E
  8
OUTLINE
  6
CONTINUOUS
 62
     3
 10
423.5
 20
0.0
 30
0.0
 11
-423.5
 21
0.0
 31
0.0
  0
LINE
  5
5F
  8
OUTLINE
  6
CONTINUOUS
 62
     3
 10
-423.5
 20
0.0
 30
0.0
 11
-423.5
 21
-380.0
 31
0.0
  0
LINE
  5
60
  8
OUTLINE
  6
CONTINUOUS
 62
     3
 10
423.5
 20
0.0
 30
0.0
 11
423.5
 21
-380.0
 31
0.0
  0
LINE
  5
61
  8
OUTLINE
  6
CONTINUOUS
 62
     3
 10
423.5
 20
-380.0
 30
0.0
 11
-423.5
 21
-380.0
 31
0.0
  0
LINE
  5
62
  8
SIZE
  6
CONTINUOUS
 62
    30
 10
-454.5
 20
183.485106
 30
0.0
 11
-608.658365
 21
183.485106
 31
0.0
  0
LINE
  5
63
  8
SIZE
  6
CONTINUOUS
 62
    30
 10
447.5
 20
183.485106
 30
0.0
 11
606.26556
 21
183.485106
 31
0.0
  0
LINE
  5
64
  8
SIZE
  6
CONTINUOUS
 62
    30
 10
-452.5
 20
51.513461
 30
0.0
 11
-578.577718
 21
51.513461
 31
0.0
  0
LINE
  5
65
  8
SIZE
  6
CONTINUOUS
 62
    30
 10
451.5
 20
51.513461
 30
0.0
 11
574.513765
 21
51.513461
 31
0.0
  0
LINE
  5
66
  8
SIZE
  6
CONTINUOUS
 62
    30
 10
-454.5
 20
-674.37213
 30
0.0
 11
-566.250695
 21
-674.37213
 31
0.0
  0
LINE
  5
67
  8
SIZE
  6
CONTINUOUS
 62
    30
 10
-545.817434
 20
-384.0
 30
0.0
 11
-545.817434
 21
-489.313132
 31
0.0
  0
LINE
  5
68
  8
SIZE
  6
CONTINUOUS
 62
    30
 10
-784.891858
 20
-384.0
 30
0.0
 11
-784.891858
 21
-506.724704
 31
0.0
  0
LINE
  5
69
  8
SIZE
  6
CONTINUOUS
 62
    30
 10
-544.341666
 20
-209.0
 30
0.0
 11
-544.341666
 21
-97.525772
 31
0.0
  0
LINE
  5
6A
  8
SIZE
  6
CONTINUOUS
 62
    30
 10
763.29868
 20
-369.0
 30
0.0
 11
763.29868
 21
-505.483779
 31
0.0
  0
LINE
  5
6B
  8
NOTE
  6
CONTINUOUS
 62
     4
 10
-437.5
 20
-61.0
 30
0.0
 11
-648.704547
 21
55.585263
 31
0.0
  0
TEXT
  5
6C
  8
NOTE
  6
CONTINUOUS
 62
     4
 10
-929.728029
 20
84.204691
 30
0.0
 40
64.0
  1
48-âË3
 41
0.9
  0
LINE
  5
6D
  8
NOTE
  6
CONTINUOUS
 62
     4
 10
-648.704547
 20
55.585263
 30
0.0
 11
-937.886325
 21
55.585263
 31
0.0
  0
LINE
  5
6E
  8
NOTE
  6
CONTINUOUS
 62
     4
 10
437.5
 20
-68.0
 30
0.0
 11
601.446721
 21
44.749492
 31
0.0
  0
LINE
  5
6F
  8
SIZE
  6
CONTINUOUS
 62
    30
 10
897.859806
 20
-386.0
 30
0.0
 11
897.859806
 21
-503.84551
 31
0.0
  0
LINE
  5
70
  8
SIZE
  6
CONTINUOUS
 62
    30
 10
620.822194
 20
-266.0
 30
0.0
 11
620.822194
 21
-143.592023
 31
0.0
  0
LINE
  5
71
  8
SIZE
  6
CONTINUOUS
 62
    30
 10
-663.878878
 20
-290.0
 30
0.0
 11
-663.878878
 21
-504.163891
 31
0.0
  0
POINT
  5
72
  8
ARRANGE
  6
CONTINUOUS
 62
     1
 10
0.0
 20
0.0
 30
0.0
  0
LINE
  5
73
  8
SIZE
  6
CONTINUOUS
 62
    30
 10
-443.5
 20
-380.0
 30
0.0
 11
-575.817434
 21
-380.0
 31
0.0
  0
LINE
  5
74
  8
SIZE
  6
CONTINUOUS
 62
    30
 10
-432.5
 20
-339.0
 30
0.0
 11
-575.817434
 21
-339.0
 31
0.0
  0
LINE
  5
75
  8
SIZE
  6
CONTINUOUS
 62
    30
 10
-545.817434
 20
-337.0
 30
0.0
 11
-545.817434
 21
-335.0
 31
0.0
  0
LINE
  5
76
  8
SIZE
  6
CONTINUOUS
 62
    30
 10
-545.817434
 20
-382.0
 30
0.0
 11
-545.817434
 21
-384.0
 31
0.0
  0
LINE
  5
77
  8
SIZE
  6
CONTINUOUS
 62
    30
 10
-545.817434
 20
-339.0
 30
0.0
 11
-545.817434
 21
-380.0
 31
0.0
  0
TEXT
  5
78
  8
SIZE
  6
CONTINUOUS
 62
    30
 10
-577.817434
 20
-479.390245
 30
0.0
 40
64.0
  1
41
 50
90.0
 41
0.9
  0
LINE
  5
79
  8
SIZE
  6
CONTINUOUS
 62
    30
 10
-477.5
 20
-261.0
 30
0.0
 11
-574.341666
 21
-261.0
 31
0.0
  0
LINE
  5
7A
  8
SIZE
  6
CONTINUOUS
 62
    30
 10
-477.5
 20
-211.0
 30
0.0
 11
-574.341666
 21
-211.0
 31
0.0
  0
LINE
  5
7B
  8
SIZE
  6
CONTINUOUS
 62
    30
 10
-544.341666
 20
-209.0
 30
0.0
 11
-544.341666
 21
-207.0
 31
0.0
  0
LINE
  5
7C
  8
SIZE
  6
CONTINUOUS
 62
    30
 10
-544.341666
 20
-263.0
 30
0.0
 11
-544.341666
 21
-265.0
 31
0.0
  0
LINE
  5
7D
  8
SIZE
  6
CONTINUOUS
 62
    30
 10
-544.341666
 20
-211.0
 30
0.0
 11
-544.341666
 21
-261.0
 31
0.0
  0
TEXT
  5
7E
  8
SIZE
  6
CONTINUOUS
 62
    30
 10
-576.341666
 20
-195.5481
 30
0.0
 40
64.0
  1
50
 50
90.0
 41
0.9
  0
LINE
  5
7F
  8
SIZE
  6
CONTINUOUS
 62
    30
 10
-477.5
 20
-261.0
 30
0.0
 11
-693.878878
 21
-261.0
 31
0.0
  0
LINE
  5
80
  8
SIZE
  6
CONTINUOUS
 62
    30
 10
-477.5
 20
-61.0
 30
0.0
 11
-693.878878
 21
-61.0
 31
0.0
  0
LINE
  5
81
  8
SIZE
  6
CONTINUOUS
 62
    30
 10
-663.878878
 20
-259.0
 30
0.0
 11
-663.878878
 21
-161.0
 31
0.0
  0
LINE
  5
82
  8
SIZE
  6
CONTINUOUS
 62
    30
 10
-663.878878
 20
-63.0
 30
0.0
 11
-663.878878
 21
-161.0
 31
0.0
  0
TEXT
  5
83
  8
SIZE
  6
CONTINUOUS
 62
    30
 10
-695.878878
 20
-235.057143
 30
0.0
 40
64.0
  1
200
 50
90.0
 41
0.9
  0
LINE
  5
84
  8
SIZE
  6
CONTINUOUS
 62
    30
 10
-472.5
 20
-286.0
 30
0.0
 11
-693.878878
 21
-286.0
 31
0.0
  0
LINE
  5
85
  8
SIZE
  6
CONTINUOUS
 62
    30
 10
-477.5
 20
-261.0
 30
0.0
 11
-693.878878
 21
-261.0
 31
0.0
  0
LINE
  5
86
  8
SIZE
  6
CONTINUOUS
 62
    30
 10
-663.878878
 20
-259.0
 30
0.0
 11
-663.878878
 21
-257.0
 31
0.0
  0
LINE
  5
87
  8
SIZE
  6
CONTINUOUS
 62
    30
 10
-663.878878
 20
-288.0
 30
0.0
 11
-663.878878
 21
-290.0
 31
0.0
  0
LINE
  5
88
  8
SIZE
  6
CONTINUOUS
 62
    30
 10
-663.878878
 20
-261.0
 30
0.0
 11
-663.878878
 21
-286.0
 31
0.0
  0
TEXT
  5
89
  8
SIZE
  6
CONTINUOUS
 62
    30
 10
-695.878878
 20
-495.765454
 30
0.0
 40
64.0
  1
25
 50
90.0
 41
0.9
  0
LINE
  5
8A
  8
SIZE
  6
CONTINUOUS
 62
    30
 10
-472.5
 20
-286.0
 30
0.0
 11
-814.891858
 21
-286.0
 31
0.0
  0
LINE
  5
8B
  8
SIZE
  6
CONTINUOUS
 62
    30
 10
-472.5
 20
-36.0
 30
0.0
 11
-814.891858
 21
-36.0
 31
0.0
  0
LINE
  5
8C
  8
SIZE
  6
CONTINUOUS
 62
    30
 10
-784.891858
 20
-284.0
 30
0.0
 11
-784.891858
 21
-161.0
 31
0.0
  0
LINE
  5
8D
  8
SIZE
  6
CONTINUOUS
 62
    30
 10
-784.891858
 20
-38.0
 30
0.0
 11
-784.891858
 21
-161.0
 31
0.0
  0
TEXT
  5
8E
  8
SIZE
  6
CONTINUOUS
 62
    30
 10
-816.891858
 20
-235.057143
 30
0.0
 40
64.0
  1
250
 50
90.0
 41
0.9
  0
LINE
  5
8F
  8
SIZE
  6
CONTINUOUS
 62
    30
 10
-443.5
 20
-380.0
 30
0.0
 11
-814.891858
 21
-380.0
 31
0.0
  0
LINE
  5
90
  8
SIZE
  6
CONTINUOUS
 62
    30
 10
-472.5
 20
-286.0
 30
0.0
 11
-814.891858
 21
-286.0
 31
0.0
  0
LINE
  5
91
  8
SIZE
  6
CONTINUOUS
 62
    30
 10
-784.891858
 20
-284.0
 30
0.0
 11
-784.891858
 21
-282.0
 31
0.0
  0
LINE
  5
92
  8
SIZE
  6
CONTINUOUS
 62
    30
 10
-784.891858
 20
-382.0
 30
0.0
 11
-784.891858
 21
-384.0
 31
0.0
  0
LINE
  5
93
  8
SIZE
  6
CONTINUOUS
 62
    30
 10
-784.891858
 20
-286.0
 30
0.0
 11
-784.891858
 21
-380.0
 31
0.0
  0
TEXT
  5
94
  8
SIZE
  6
CONTINUOUS
 62
    30
 10
-816.891858
 20
-499.075215
 30
0.0
 40
64.0
  1
94
 50
90.0
 41
0.9
  0
LINE
  5
95
  8
SIZE
  6
CONTINUOUS
 62
    30
 10
-443.5
 20
-380.0
 30
0.0
 11
-934.42907
 21
-380.0
 31
0.0
  0
LINE
  5
96
  8
SIZE
  6
CONTINUOUS
 62
    30
 10
-443.5
 20
0.0
 30
0.0
 11
-934.42907
 21
0.0
 31
0.0
  0
LINE
  5
97
  8
SIZE
  6
CONTINUOUS
 62
    30
 10
-904.42907
 20
-378.0
 30
0.0
 11
-904.42907
 21
-190.0
 31
0.0
  0
LINE
  5
98
  8
SIZE
  6
CONTINUOUS
 62
    30
 10
-904.42907
 20
-2.0
 30
0.0
 11
-904.42907
 21
-190.0
 31
0.0
  0
TEXT
  5
99
  8
SIZE
  6
CONTINUOUS
 62
    30
 10
-936.42907
 20
-264.057143
 30
0.0
 40
64.0
  1
380
 50
90.0
 41
0.9
  0
LINE
  5
9A
  8
SIZE
  6
CONTINUOUS
 62
    30
 10
477.5
 20
-318.0
 30
0.0
 11
650.822194
 21
-318.0
 31
0.0
  0
LINE
  5
9B
  8
SIZE
  6
CONTINUOUS
 62
    30
 10
477.5
 20
-268.0
 30
0.0
 11
650.822194
 21
-268.0
 31
0.0
  0
LINE
  5
9C
  8
SIZE
  6
CONTINUOUS
 62
    30
 10
620.822194
 20
-266.0
 30
0.0
 11
620.822194
 21
-264.0
 31
0.0
  0
LINE
  5
9D
  8
SIZE
  6
CONTINUOUS
 62
    30
 10
620.822194
 20
-320.0
 30
0.0
 11
620.822194
 21
-322.0
 31
0.0
  0
LINE
  5
9E
  8
SIZE
  6
CONTINUOUS
 62
    30
 10
620.822194
 20
-268.0
 30
0.0
 11
620.822194
 21
-318.0
 31
0.0
  0
TEXT
  5
9F
  8
SIZE
  6
CONTINUOUS
 62
    30
 10
588.822194
 20
-242.370162
 30
0.0
 40
64.0
  1
50
 50
90.0
 41
0.9
  0
LINE
  5
A0
  8
SIZE
  6
CONTINUOUS
 62
    30
 10
467.5
 20
-363.0
 30
0.0
 11
927.859806
 21
-363.0
 31
0.0
  0
LINE
  5
A1
  8
SIZE
  6
CONTINUOUS
 62
    30
 10
467.5
 20
-23.0
 30
0.0
 11
927.859806
 21
-23.0
 31
0.0
  0
LINE
  5
A2
  8
SIZE
  6
CONTINUOUS
 62
    30
 10
897.859806
 20
-361.0
 30
0.0
 11
897.859806
 21
-193.0
 31
0.0
  0
LINE
  5
A3
  8
SIZE
  6
CONTINUOUS
 62
    30
 10
897.859806
 20
-25.0
 30
0.0
 11
897.859806
 21
-193.0
 31
0.0
  0
TEXT
  5
A4
  8
SIZE
  6
CONTINUOUS
 62
    30
 10
865.859806
 20
-267.057143
 30
0.0
 40
64.0
  1
340
 50
90.0
 41
0.9
  0
LINE
  5
A5
  8
SIZE
  6
CONTINUOUS
 62
    30
 10
443.5
 20
-380.0
 30
0.0
 11
927.859806
 21
-380.0
 31
0.0
  0
LINE
  5
A6
  8
SIZE
  6
CONTINUOUS
 62
    30
 10
467.5
 20
-363.0
 30
0.0
 11
927.859806
 21
-363.0
 31
0.0
  0
LINE
  5
A7
  8
SIZE
  6
CONTINUOUS
 62
    30
 10
897.859806
 20
-361.0
 30
0.0
 11
897.859806
 21
-359.0
 31
0.0
  0
LINE
  5
A8
  8
SIZE
  6
CONTINUOUS
 62
    30
 10
897.859806
 20
-382.0
 30
0.0
 11
897.859806
 21
-384.0
 31
0.0
  0
LINE
  5
A9
  8
SIZE
  6
CONTINUOUS
 62
    30
 10
897.859806
 20
-363.0
 30
0.0
 11
897.859806
 21
-380.0
 31
0.0
  0
TEXT
  5
AA
  8
SIZE
  6
CONTINUOUS
 62
    30
 10
865.859806
 20
-482.759385
 30
0.0
 40
64.0
  1
17
 50
90.0
 41
0.9
  0
LINE
  5
AB
  8
SIZE
  6
CONTINUOUS
 62
    30
 10
477.5
 20
-318.0
 30
0.0
 11
793.29868
 21
-318.0
 31
0.0
  0
LINE
  5
AC
  8
SIZE
  6
CONTINUOUS
 62
    30
 10
477.5
 20
-68.0
 30
0.0
 11
793.29868
 21
-68.0
 31
0.0
  0
LINE
  5
AD
  8
SIZE
  6
CONTINUOUS
 62
    30
 10
763.29868
 20
-316.0
 30
0.0
 11
763.29868
 21
-193.0
 31
0.0
  0
LINE
  5
AE
  8
SIZE
  6
CONTINUOUS
 62
    30
 10
763.29868
 20
-70.0
 30
0.0
 11
763.29868
 21
-193.0
 31
0.0
  0
TEXT
  5
AF
  8
SIZE
  6
CONTINUOUS
 62
    30
 10
731.29868
 20
-267.057143
 30
0.0
 40
64.0
  1
250
 50
90.0
 41
0.9
  0
LINE
  5
B0
  8
SIZE
  6
CONTINUOUS
 62
    30
 10
467.5
 20
-363.0
 30
0.0
 11
793.29868
 21
-363.0
 31
0.0
  0
LINE
  5
B1
  8
SIZE
  6
CONTINUOUS
 62
    30
 10
477.5
 20
-318.0
 30
0.0
 11
793.29868
 21
-318.0
 31
0.0
  0
LINE
  5
B2
  8
SIZE
  6
CONTINUOUS
 62
    30
 10
763.29868
 20
-316.0
 30
0.0
 11
763.29868
 21
-314.0
 31
0.0
  0
LINE
  5
B3
  8
SIZE
  6
CONTINUOUS
 62
    30
 10
763.29868
 20
-365.0
 30
0.0
 11
763.29868
 21
-367.0
 31
0.0
  0
LINE
  5
B4
  8
SIZE
  6
CONTINUOUS
 62
    30
 10
763.29868
 20
-318.0
 30
0.0
 11
763.29868
 21
-363.0
 31
0.0
  0
TEXT
  5
B5
  8
SIZE
  6
CONTINUOUS
 62
    30
 10
731.29868
 20
-494.565186
 30
0.0
 40
64.0
  1
45
 50
90.0
 41
0.9
  0
LINE
  5
B6
  8
SIZE
  6
CONTINUOUS
 62
    30
 10
451.5
 20
-369.0
 30
0.0
 11
451.5
 21
-826.826182
 31
0.0
  0
LINE
  5
B7
  8
SIZE
  6
CONTINUOUS
 62
    30
 10
-452.5
 20
-306.0
 30
0.0
 11
-452.5
 21
-826.826182
 31
0.0
  0
LINE
  5
B8
  8
SIZE
  6
CONTINUOUS
 62
    30
 10
449.5
 20
-796.826182
 30
0.0
 11
-0.5
 21
-796.826182
 31
0.0
  0
LINE
  5
B9
  8
SIZE
  6
CONTINUOUS
 62
    30
 10
-450.5
 20
-796.826182
 30
0.0
 11
-0.5
 21
-796.826182
 31
0.0
  0
TEXT
  5
BA
  8
SIZE
  6
CONTINUOUS
 62
    30
 10
-75.928571
 20
-764.826182
 30
0.0
 40
64.0
  1
904
 41
0.9
  0
LINE
  5
BB
  8
SIZE
  6
CONTINUOUS
 62
    30
 10
-392.5
 20
-379.0
 30
0.0
 11
-392.5
 21
-704.37213
 31
0.0
  0
LINE
  5
BC
  8
SIZE
  6
CONTINUOUS
 62
    30
 10
-452.5
 20
-306.0
 30
0.0
 11
-452.5
 21
-704.37213
 31
0.0
  0
LINE
  5
BD
  8
SIZE
  6
CONTINUOUS
 62
    30
 10
-454.5
 20
-674.37213
 30
0.0
 11
-456.5
 21
-674.37213
 31
0.0
  0
LINE
  5
BE
  8
SIZE
  6
CONTINUOUS
 62
    30
 10
-390.5
 20
-674.37213
 30
0.0
 11
-388.5
 21
-674.37213
 31
0.0
  0
LINE
  5
BF
  8
SIZE
  6
CONTINUOUS
 62
    30
 10
-452.5
 20
-674.37213
 30
0.0
 11
-392.5
 21
-674.37213
 31
0.0
  0
TEXT
  5
C0
  8
SIZE
  6
CONTINUOUS
 62
    30
 10
-556.076099
 20
-642.37213
 30
0.0
 40
64.0
  1
60
 41
0.9
  0
LINE
  5
C1
  8
SIZE
  6
CONTINUOUS
 62
    30
 10
421.5
 20
-379.0
 30
0.0
 11
421.5
 21
-704.37213
 31
0.0
  0
LINE
  5
C2
  8
SIZE
  6
CONTINUOUS
 62
    30
 10
-392.5
 20
-379.0
 30
0.0
 11
-392.5
 21
-704.37213
 31
0.0
  0
LINE
  5
C3
  8
SIZE
  6
CONTINUOUS
 62
    30
 10
419.5
 20
-674.37213
 30
0.0
 11
14.5
 21
-674.37213
 31
0.0
  0
LINE
  5
C4
  8
SIZE
  6
CONTINUOUS
 62
    30
 10
-390.5
 20
-674.37213
 30
0.0
 11
14.5
 21
-674.37213
 31
0.0
  0
TEXT
  5
C5
  8
SIZE
  6
CONTINUOUS
 62
    30
 10
-55.442857
 20
-642.37213
 30
0.0
 40
64.0
  1
814
 41
0.9
  0
LINE
  5
C6
  8
SIZE
  6
CONTINUOUS
 62
    30
 10
437.5
 20
-28.0
 30
0.0
 11
437.5
 21
81.513461
 31
0.0
  0
LINE
  5
C7
  8
SIZE
  6
CONTINUOUS
 62
    30
 10
447.5
 20
-3.0
 30
0.0
 11
447.5
 21
81.513461
 31
0.0
  0
LINE
  5
C8
  8
SIZE
  6
CONTINUOUS
 62
    30
 10
449.5
 20
51.513461
 30
0.0
 11
451.5
 21
51.513461
 31
0.0
  0
LINE
  5
C9
  8
SIZE
  6
CONTINUOUS
 62
    30
 10
435.5
 20
51.513461
 30
0.0
 11
433.5
 21
51.513461
 31
0.0
  0
LINE
  5
CA
  8
SIZE
  6
CONTINUOUS
 62
    30
 10
447.5
 20
51.513461
 30
0.0
 11
437.5
 21
51.513461
 31
0.0
  0
TEXT
  5
CB
  8
SIZE
  6
CONTINUOUS
 62
    30
 10
468.203026
 20
83.513461
 30
0.0
 40
64.0
  1
10
 41
0.9
  0
LINE
  5
CC
  8
SIZE
  6
CONTINUOUS
 62
    30
 10
-452.5
 20
-16.0
 30
0.0
 11
-452.5
 21
81.513461
 31
0.0
  0
LINE
  5
CD
  8
SIZE
  6
CONTINUOUS
 62
    30
 10
-437.5
 20
-21.0
 30
0.0
 11
-437.5
 21
81.513461
 31
0.0
  0
LINE
  5
CE
  8
SIZE
  6
CONTINUOUS
 62
    30
 10
-435.5
 20
51.513461
 30
0.0
 11
-433.5
 21
51.513461
 31
0.0
  0
LINE
  5
CF
  8
SIZE
  6
CONTINUOUS
 62
    30
 10
-454.5
 20
51.513461
 30
0.0
 11
-456.5
 21
51.513461
 31
0.0
  0
LINE
  5
D0
  8
SIZE
  6
CONTINUOUS
 62
    30
 10
-437.5
 20
51.513461
 30
0.0
 11
-452.5
 21
51.513461
 31
0.0
  0
TEXT
  5
D1
  8
SIZE
  6
CONTINUOUS
 62
    30
 10
-554.659887
 20
83.513461
 30
0.0
 40
64.0
  1
15
 41
0.9
  0
LINE
  5
D2
  8
SIZE
  6
CONTINUOUS
 62
    30
 10
447.5
 20
-3.0
 30
0.0
 11
447.5
 21
343.466346
 31
0.0
  0
LINE
  5
D3
  8
SIZE
  6
CONTINUOUS
 62
    30
 10
-452.5
 20
-16.0
 30
0.0
 11
-452.5
 21
343.466346
 31
0.0
  0
LINE
  5
D4
  8
SIZE
  6
CONTINUOUS
 62
    30
 10
445.5
 20
313.466346
 30
0.0
 11
-2.5
 21
313.466346
 31
0.0
  0
LINE
  5
D5
  8
SIZE
  6
CONTINUOUS
 62
    30
 10
-450.5
 20
313.466346
 30
0.0
 11
-2.5
 21
313.466346
 31
0.0
  0
TEXT
  5
D6
  8
SIZE
  6
CONTINUOUS
 62
    30
 10
-76.557143
 20
345.466346
 30
0.0
 40
64.0
  1
900
 41
0.9
  0
LINE
  5
D7
  8
SIZE
  6
CONTINUOUS
 62
    30
 10
-423.5
 20
20.0
 30
0.0
 11
-423.5
 21
213.485106
 31
0.0
  0
LINE
  5
D8
  8
SIZE
  6
CONTINUOUS
 62
    30
 10
-452.5
 20
-16.0
 30
0.0
 11
-452.5
 21
213.485106
 31
0.0
  0
LINE
  5
D9
  8
SIZE
  6
CONTINUOUS
 62
    30
 10
-454.5
 20
183.485106
 30
0.0
 11
-456.5
 21
183.485106
 31
0.0
  0
LINE
  5
DA
  8
SIZE
  6
CONTINUOUS
 62
    30
 10
-421.5
 20
183.485106
 30
0.0
 11
-419.5
 21
183.485106
 31
0.0
  0
LINE
  5
DB
  8
SIZE
  6
CONTINUOUS
 62
    30
 10
-452.5
 20
183.485106
 30
0.0
 11
-423.5
 21
183.485106
 31
0.0
  0
TEXT
  5
DC
  8
SIZE
  6
CONTINUOUS
 62
    30
 10
-583.525967
 20
215.485106
 30
0.0
 40
64.0
  1
29
 41
0.9
  0
LINE
  5
DD
  8
SIZE
  6
CONTINUOUS
 62
    30
 10
423.5
 20
20.0
 30
0.0
 11
423.5
 21
213.485106
 31
0.0
  0
LINE
  5
DE
  8
SIZE
  6
CONTINUOUS
 62
    30
 10
447.5
 20
-3.0
 30
0.0
 11
447.5
 21
213.485106
 31
0.0
  0
LINE
  5
DF
  8
SIZE
  6
CONTINUOUS
 62
    30
 10
449.5
 20
183.485106
 30
0.0
 11
451.5
 21
183.485106
 31
0.0
  0
LINE
  5
E0
  8
SIZE
  6
CONTINUOUS
 62
    30
 10
421.5
 20
183.485106
 30
0.0
 11
419.5
 21
183.485106
 31
0.0
  0
LINE
  5
E1
  8
SIZE
  6
CONTINUOUS
 62
    30
 10
447.5
 20
183.485106
 30
0.0
 11
423.5
 21
183.485106
 31
0.0
  0
TEXT
  5
E2
  8
SIZE
  6
CONTINUOUS
 62
    30
 10
486.097678
 20
215.485106
 30
0.0
 40
64.0
  1
24
 41
0.9
  0
LINE
  5
E3
  8
SIZE
  6
CONTINUOUS
 62
    30
 10
423.5
 20
20.0
 30
0.0
 11
423.5
 21
213.485106
 31
0.0
  0
LINE
  5
E4
  8
SIZE
  6
CONTINUOUS
 62
    30
 10
-423.5
 20
20.0
 30
0.0
 11
-423.5
 21
213.485106
 31
0.0
  0
LINE
  5
E5
  8
SIZE
  6
CONTINUOUS
 62
    30
 10
421.5
 20
183.485106
 30
0.0
 11
0.0
 21
183.485106
 31
0.0
  0
LINE
  5
E6
  8
SIZE
  6
CONTINUOUS
 62
    30
 10
-421.5
 20
183.485106
 30
0.0
 11
0.0
 21
183.485106
 31
0.0
  0
TEXT
  5
E7
  8
SIZE
  6
CONTINUOUS
 62
    30
 10
-74.057143
 20
215.485106
 30
0.0
 40
64.0
  1
847
 41
0.9
  0
CIRCLE
  5
E8
  8
SIZE
  6
CONTINUOUS
 62
    30
 10
-423.5
 20
183.485106
 30
0.0
 40
6.0
  0
CIRCLE
  5
E9
  8
SIZE
  6
CONTINUOUS
 62
    30
 10
423.5
 20
183.485106
 30
0.0
 40
6.0
  0
CIRCLE
  5
EA
  8
SIZE
  6
CONTINUOUS
 62
    30
 10
423.5
 20
183.485106
 30
0.0
 40
6.0
  0
CIRCLE
  5
EB
  8
SIZE
  6
CONTINUOUS
 62
    30
 10
447.5
 20
183.485106
 30
0.0
 40
6.0
  0
CIRCLE
  5
EC
  8
SIZE
  6
CONTINUOUS
 62
    30
 10
-423.5
 20
183.485106
 30
0.0
 40
6.0
  0
CIRCLE
  5
ED
  8
SIZE
  6
CONTINUOUS
 62
    30
 10
-452.5
 20
183.485106
 30
0.0
 40
6.0
  0
CIRCLE
  5
EE
  8
SIZE
  6
CONTINUOUS
 62
    30
 10
-452.5
 20
313.466346
 30
0.0
 40
6.0
  0
CIRCLE
  5
EF
  8
SIZE
  6
CONTINUOUS
 62
    30
 10
447.5
 20
313.466346
 30
0.0
 40
6.0
  0
CIRCLE
  5
F0
  8
SIZE
  6
CONTINUOUS
 62
    30
 10
-452.5
 20
51.513461
 30
0.0
 40
6.0
  0
CIRCLE
  5
F1
  8
SIZE
  6
CONTINUOUS
 62
    30
 10
-437.5
 20
51.513461
 30
0.0
 40
6.0
  0
CIRCLE
  5
F2
  8
SIZE
  6
CONTINUOUS
 62
    30
 10
437.5
 20
51.513461
 30
0.0
 40
6.0
  0
CIRCLE
  5
F3
  8
SIZE
  6
CONTINUOUS
 62
    30
 10
447.5
 20
51.513461
 30
0.0
 40
6.0
  0
CIRCLE
  5
F4
  8
SIZE
  6
CONTINUOUS
 62
    30
 10
-392.5
 20
-674.37213
 30
0.0
 40
6.0
  0
CIRCLE
  5
F5
  8
SIZE
  6
CONTINUOUS
 62
    30
 10
421.5
 20
-674.37213
 30
0.0
 40
6.0
  0
CIRCLE
  5
F6
  8
SIZE
  6
CONTINUOUS
 62
    30
 10
-392.5
 20
-674.37213
 30
0.0
 40
6.0
  0
CIRCLE
  5
F7
  8
SIZE
  6
CONTINUOUS
 62
    30
 10
-452.5
 20
-674.37213
 30
0.0
 40
6.0
  0
CIRCLE
  5
F8
  8
SIZE
  6
CONTINUOUS
 62
    30
 10
-452.5
 20
-796.826182
 30
0.0
 40
6.0
  0
CIRCLE
  5
F9
  8
SIZE
  6
CONTINUOUS
 62
    30
 10
451.5
 20
-796.826182
 30
0.0
 40
6.0
  0
CIRCLE
  5
FA
  8
SIZE
  6
CONTINUOUS
 62
    30
 10
763.29868
 20
-363.0
 30
0.0
 40
6.0
  0
CIRCLE
  5
FB
  8
SIZE
  6
CONTINUOUS
 62
    30
 10
763.29868
 20
-318.0
 30
0.0
 40
6.0
  0
CIRCLE
  5
FC
  8
SIZE
  6
CONTINUOUS
 62
    30
 10
763.29868
 20
-68.0
 30
0.0
 40
6.0
  0
CIRCLE
  5
FD
  8
SIZE
  6
CONTINUOUS
 62
    30
 10
763.29868
 20
-318.0
 30
0.0
 40
6.0
  0
CIRCLE
  5
FE
  8
SIZE
  6
CONTINUOUS
 62
    30
 10
897.859806
 20
-380.0
 30
0.0
 40
6.0
  0
CIRCLE
  5
FF
  8
SIZE
  6
CONTINUOUS
 62
    30
 10
897.859806
 20
-363.0
 30
0.0
 40
6.0
  0
CIRCLE
  5
100
  8
SIZE
  6
CONTINUOUS
 62
    30
 10
897.859806
 20
-23.0
 30
0.0
 40
6.0
  0
CIRCLE
  5
101
  8
SIZE
  6
CONTINUOUS
 62
    30
 10
897.859806
 20
-363.0
 30
0.0
 40
6.0
  0
CIRCLE
  5
102
  8
SIZE
  6
CONTINUOUS
 62
    30
 10
620.822194
 20
-318.0
 30
0.0
 40
6.0
  0
CIRCLE
  5
103
  8
SIZE
  6
CONTINUOUS
 62
    30
 10
620.822194
 20
-268.0
 30
0.0
 40
6.0
  0
CIRCLE
  5
104
  8
SIZE
  6
CONTINUOUS
 62
    30
 10
-904.42907
 20
0.0
 30
0.0
 40
6.0
  0
CIRCLE
  5
105
  8
SIZE
  6
CONTINUOUS
 62
    30
 10
-904.42907
 20
-380.0
 30
0.0
 40
6.0
  0
CIRCLE
  5
106
  8
SIZE
  6
CONTINUOUS
 62
    30
 10
-784.891858
 20
-380.0
 30
0.0
 40
6.0
  0
CIRCLE
  5
107
  8
SIZE
  6
CONTINUOUS
 62
    30
 10
-784.891858
 20
-286.0
 30
0.0
 40
6.0
  0
CIRCLE
  5
108
  8
SIZE
  6
CONTINUOUS
 62
    30
 10
-784.891858
 20
-36.0
 30
0.0
 40
6.0
  0
CIRCLE
  5
109
  8
SIZE
  6
CONTINUOUS
 62
    30
 10
-784.891858
 20
-286.0
 30
0.0
 40
6.0
  0
CIRCLE
  5
10A
  8
SIZE
  6
CONTINUOUS
 62
    30
 10
-663.878878
 20
-286.0
 30
0.0
 40
6.0
  0
CIRCLE
  5
10B
  8
SIZE
  6
CONTINUOUS
 62
    30
 10
-663.878878
 20
-261.0
 30
0.0
 40
6.0
  0
CIRCLE
  5
10C
  8
SIZE
  6
CONTINUOUS
 62
    30
 10
-663.878878
 20
-61.0
 30
0.0
 40
6.0
  0
CIRCLE
  5
10D
  8
SIZE
  6
CONTINUOUS
 62
    30
 10
-663.878878
 20
-261.0
 30
0.0
 40
6.0
  0
CIRCLE
  5
10E
  8
SIZE
  6
CONTINUOUS
 62
    30
 10
-544.341666
 20
-261.0
 30
0.0
 40
6.0
  0
CIRCLE
  5
10F
  8
SIZE
  6
CONTINUOUS
 62
    30
 10
-544.341666
 20
-211.0
 30
0.0
 40
6.0
  0
CIRCLE
  5
110
  8
SIZE
  6
CONTINUOUS
 62
    30
 10
-545.817434
 20
-380.0
 30
0.0
 40
6.0
  0
CIRCLE
  5
111
  8
SIZE
  6
CONTINUOUS
 62
    30
 10
-545.817434
 20
-339.0
 30
0.0
 40
6.0
  0
POLYLINE
  5
112
  8
NOTE
  6
CONTINUOUS
 62
     4
 66
     1
 10
0.0
 20
0.0
 30
0.0
  0
VERTEX
  5
113
  8
NOTE
  6
CONTINUOUS
 62
     4
 10
474.968945
 20
-53.997209
 30
0.0
  0
VERTEX
  5
114
  8
NOTE
  6
CONTINUOUS
 62
     4
 10
437.5
 20
-68.0
 30
0.0
  0
VERTEX
  5
115
  8
NOTE
  6
CONTINUOUS
 62
     4
 10
462.947663
 20
-37.138755
 30
0.0
  0
SEQEND
  5
116
  8
NOTE
  6
CONTINUOUS
 62
     4
  0
POLYLINE
  5
117
  8
NOTE
  6
CONTINUOUS
 62
     4
 66
     1
 10
0.0
 20
0.0
 30
0.0
  0
VERTEX
  5
118
  8
NOTE
  6
CONTINUOUS
 62
     4
 10
-466.319001
 20
-33.260764
 30
0.0
  0
VERTEX
  5
119
  8
NOTE
  6
CONTINUOUS
 62
     4
 10
-437.5
 20
-61.0
 30
0.0
  0
VERTEX
  5
11A
  8
NOTE
  6
CONTINUOUS
 62
     4
 10
-476.327605
 20
-51.386618
 30
0.0
  0
SEQEND
  5
11B
  8
NOTE
  6
CONTINUOUS
 62
     4
  0
LINE
  5
11C
  8
NOTE
  6
CONTINUOUS
 62
     4
 10
437.5
 20
-88.0
 30
0.0
 11
437.5
 21
-48.0
 31
0.0
  0
LINE
  5
11D
  8
NOTE
  6
CONTINUOUS
 62
     4
 10
417.5
 20
-68.0
 30
0.0
 11
457.5
 21
-68.0
 31
0.0
  0
LINE
  5
11E
  8
NOTE
  6
CONTINUOUS
 62
     4
 10
437.5
 20
-138.0
 30
0.0
 11
437.5
 21
-98.0
 31
0.0
  0
LINE
  5
11F
  8
NOTE
  6
CONTINUOUS
 62
     4
 10
417.5
 20
-118.0
 30
0.0
 11
457.5
 21
-118.0
 31
0.0
  0
LINE
  5
120
  8
NOTE
  6
CONTINUOUS
 62
     4
 10
437.5
 20
-188.0
 30
0.0
 11
437.5
 21
-148.0
 31
0.0
  0
LINE
  5
121
  8
NOTE
  6
CONTINUOUS
 62
     4
 10
417.5
 20
-168.0
 30
0.0
 11
457.5
 21
-168.0
 31
0.0
  0
LINE
  5
122
  8
NOTE
  6
CONTINUOUS
 62
     4
 10
437.5
 20
-238.0
 30
0.0
 11
437.5
 21
-198.0
 31
0.0
  0
LINE
  5
123
  8
NOTE
  6
CONTINUOUS
 62
     4
 10
417.5
 20
-218.0
 30
0.0
 11
457.5
 21
-218.0
 31
0.0
  0
LINE
  5
124
  8
NOTE
  6
CONTINUOUS
 62
     4
 10
437.5
 20
-288.0
 30
0.0
 11
437.5
 21
-248.0
 31
0.0
  0
LINE
  5
125
  8
NOTE
  6
CONTINUOUS
 62
     4
 10
417.5
 20
-268.0
 30
0.0
 11
457.5
 21
-268.0
 31
0.0
  0
LINE
  5
126
  8
NOTE
  6
CONTINUOUS
 62
     4
 10
437.5
 20
-338.0
 30
0.0
 11
437.5
 21
-298.0
 31
0.0
  0
LINE
  5
127
  8
NOTE
  6
CONTINUOUS
 62
     4
 10
417.5
 20
-318.0
 30
0.0
 11
457.5
 21
-318.0
 31
0.0
  0
LINE
  5
128
  8
NOTE
  6
CONTINUOUS
 62
     4
 10
-437.5
 20
-81.0
 30
0.0
 11
-437.5
 21
-41.0
 31
0.0
  0
LINE
  5
129
  8
NOTE
  6
CONTINUOUS
 62
     4
 10
-417.5
 20
-61.0
 30
0.0
 11
-457.5
 21
-61.0
 31
0.0
  0
LINE
  5
12A
  8
NOTE
  6
CONTINUOUS
 62
     4
 10
-437.5
 20
-131.0
 30
0.0
 11
-437.5
 21
-91.0
 31
0.0
  0
LINE
  5
12B
  8
NOTE
  6
CONTINUOUS
 62
     4
 10
-417.5
 20
-111.0
 30
0.0
 11
-457.5
 21
-111.0
 31
0.0
  0
LINE
  5
12C
  8
NOTE
  6
CONTINUOUS
 62
     4
 10
-437.5
 20
-181.0
 30
0.0
 11
-437.5
 21
-141.0
 31
0.0
  0
LINE
  5
12D
  8
NOTE
  6
CONTINUOUS
 62
     4
 10
-417.5
 20
-161.0
 30
0.0
 11
-457.5
 21
-161.0
 31
0.0
  0
LINE
  5
12E
  8
NOTE
  6
CONTINUOUS
 62
     4
 10
-437.5
 20
-231.0
 30
0.0
 11
-437.5
 21
-191.0
 31
0.0
  0
LINE
  5
12F
  8
NOTE
  6
CONTINUOUS
 62
     4
 10
-417.5
 20
-211.0
 30
0.0
 11
-457.5
 21
-211.0
 31
0.0
  0
LINE
  5
130
  8
NOTE
  6
CONTINUOUS
 62
     4
 10
-437.5
 20
-281.0
 30
0.0
 11
-437.5
 21
-241.0
 31
0.0
  0
LINE
  5
131
  8
NOTE
  6
CONTINUOUS
 62
     4
 10
-417.5
 20
-261.0
 30
0.0
 11
-457.5
 21
-261.0
 31
0.0
  0
LINE
  5
132
  8
NOTE
  6
CONTINUOUS
 62
     4
 10
-412.5
 20
-339.0
 30
0.0
 11
-372.5
 21
-339.0
 31
0.0
  0
LINE
  5
133
  8
NOTE
  6
CONTINUOUS
 62
     4
 10
-392.5
 20
-359.0
 30
0.0
 11
-392.5
 21
-319.0
 31
0.0
  0
POLYLINE
  5
134
  8
NOTE
  6
CONTINUOUS
 62
     4
 66
     1
 10
0.0
 20
0.0
 30
0.0
  0
VERTEX
  5
135
  8
NOTE
  6
CONTINUOUS
 62
     4
 10
-421.730087
 20
-366.305714
 30
0.0
  0
VERTEX
  5
136
  8
NOTE
  6
CONTINUOUS
 62
     4
 10
-392.5
 20
-339.0
 30
0.0
  0
VERTEX
  5
137
  8
NOTE
  6
CONTINUOUS
 62
     4
 10
-404.161141
 20
-377.262485
 30
0.0
  0
SEQEND
  5
138
  8
NOTE
  6
CONTINUOUS
 62
     4
  0
POLYLINE
  5
139
  8
NOTE
  6
CONTINUOUS
 62
     4
 66
     1
 10
0.0
 20
0.0
 30
0.0
  0
VERTEX
  5
13A
  8
NOTE
  6
CONTINUOUS
 62
     4
 10
430.828385
 20
-377.897059
 30
0.0
  0
VERTEX
  5
13B
  8
NOTE
  6
CONTINUOUS
 62
     4
 10
421.5
 20
-339.0
 30
0.0
  0
VERTEX
  5
13C
  8
NOTE
  6
CONTINUOUS
 62
     4
 10
449.027148
 20
-368.021649
 30
0.0
  0
SEQEND
  5
13D
  8
NOTE
  6
CONTINUOUS
 62
     4
  0
LINE
  5
13E
  8
NOTE
  6
CONTINUOUS
 62
     4
 10
401.5
 20
-339.0
 30
0.0
 11
441.5
 21
-339.0
 31
0.0
  0
LINE
  5
13F
  8
NOTE
  6
CONTINUOUS
 62
     4
 10
421.5
 20
-359.0
 30
0.0
 11
421.5
 21
-319.0
 31
0.0
  0
TEXT
  5
140
  8
ETC
  6
CONTINUOUS
 62
    61
 10
707.490207
 20
212.833337
 30
0.0
 40
64.0
  1
PAC
 41
0.9
  0
ENDSEC
  0
EOF
