  0
SECTION
  2
HEADER
  9
$ACADVER
  1
AC1009
  9
$INSBASE
 10
0.0
 20
0.0
 30
0.0
  9
$EXTMIN
 10
-1181.030239887805
 20
-1315.6127683068769
 30
-0.0015258207003583
  9
$EXTMAX
 10
1089.477561285574
 20
724.41102730158309
 30
0.0000000349246037
  9
$LIMMIN
 10
-6000.0
 20
-4500.0
  9
$LIMMAX
 10
6000.0
 20
4500.0
  9
$ORTHOMODE
 70
     0
  9
$REGENMODE
 70
     1
  9
$FILLMODE
 70
     1
  9
$QTEXTMODE
 70
     0
  9
$MIRRTEXT
 70
     0
  9
$DRAGMODE
 70
     2
  9
$LTSCALE
 40
20.0
  9
$OSMODE
 70
   431
  9
$ATTMODE
 70
     1
  9
$TEXTSIZE
 40
64.0
  9
$TRACEWID
 40
0.05
  9
$TEXTSTYLE
  7
STANDARD
  9
$CLAYER
  8
SYMBOLLINE
  9
$CELTYPE
  6
CONTINUOUS
  9
$CECOLOR
 62
     7
  9
$DIMSCALE
 40
1.0
  9
$DIMASZ
 40
10.0
  9
$DIMEXO
 40
20.0
  9
$DIMDLI
 40
200.0
  9
$DIMRND
 40
0.0
  9
$DIMDLE
 40
0.0
  9
$DIMEXE
 40
30.0
  9
$DIMTP
 40
0.0
  9
$DIMTM
 40
0.0
  9
$DIMTXT
 40
55.0
  9
$DIMCEN
 40
0.0
  9
$DIMTSZ
 40
0.0
  9
$DIMTOL
 70
     0
  9
$DIMLIM
 70
     0
  9
$DIMTIH
 70
     0
  9
$DIMTOH
 70
     0
  9
$DIMSE1
 70
     0
  9
$DIMSE2
 70
     0
  9
$DIMTAD
 70
     1
  9
$DIMZIN
 70
     8
  9
$DIMBLK
  1

  9
$DIMASO
 70
     1
  9
$DIMSHO
 70
     0
  9
$DIMPOST
  1

  9
$DIMAPOST
  1

  9
$DIMALT
 70
     0
  9
$DIMALTD
 70
     2
  9
$DIMALTF
 40
25.399999999999999
  9
$DIMLFAC
 40
1.0
  9
$DIMTOFL
 70
     1
  9
$DIMTVP
 40
0.0
  9
$DIMTIX
 70
     1
  9
$DIMSOXD
 70
     0
  9
$DIMSAH
 70
     1
  9
$DIMBLK1
  1
DOTBLANK
  9
$DIMBLK2
  1
DOTBLANK
  9
$DIMSTYLE
  2
STANDARD
  9
$DIMCLRD
 70
     0
  9
$DIMCLRE
 70
     0
  9
$DIMCLRT
 70
     0
  9
$DIMTFAC
 40
1.0
  9
$DIMGAP
 40
0.09
  9
$LUNITS
 70
     2
  9
$LUPREC
 70
     4
  9
$SKETCHINC
 40
0.1
  9
$FILLETRAD
 40
19.039999999999999
  9
$AUNITS
 70
     1
  9
$AUPREC
 70
     3
  9
$MENU
  1
ACAD
  9
$ELEVATION
 40
0.0
  9
$PELEVATION
 40
0.0
  9
$THICKNESS
 40
0.0
  9
$LIMCHECK
 70
     0
  9
$BLIPMODE
 70
     0
  9
$CHAMFERA
 40
0.0
  9
$CHAMFERB
 40
0.0
  9
$SKPOLY
 70
     0
  9
$TDCREATE
 40
2450330.4399309959
  9
$TDUPDATE
 40
2457049.4128481019
  9
$TDINDWG
 40
1.3414982291999999
  9
$TDUSRTIMER
 40
1.341485625
  9
$USRTIMER
 70
     1
  9
$ANGBASE
 50
0.0
  9
$ANGDIR
 70
     0
  9
$PDMODE
 70
     3
  9
$PDSIZE
 40
-2.0
  9
$PLINEWID
 40
0.0
  9
$COORDS
 70
     1
  9
$SPLFRAME
 70
     0
  9
$SPLINETYPE
 70
     6
  9
$SPLINESEGS
 70
     8
  9
$ATTDIA
 70
     1
  9
$ATTREQ
 70
     1
  9
$HANDLING
 70
     1
  9
$HANDSEED
  5
EED
  9
$SURFTAB1
 70
     6
  9
$SURFTAB2
 70
     6
  9
$SURFTYPE
 70
     6
  9
$SURFU
 70
     6
  9
$SURFV
 70
     6
  9
$UCSNAME
  2

  9
$UCSORG
 10
0.0
 20
0.0
 30
0.0
  9
$UCSXDIR
 10
1.0
 20
0.0
 30
0.0
  9
$UCSYDIR
 10
0.0
 20
1.0
 30
0.0
  9
$PUCSNAME
  2

  9
$PUCSORG
 10
0.0
 20
0.0
 30
0.0
  9
$PUCSXDIR
 10
1.0
 20
0.0
 30
0.0
  9
$PUCSYDIR
 10
0.0
 20
1.0
 30
0.0
  9
$USERI1
 70
     0
  9
$USERI2
 70
     0
  9
$USERI3
 70
     0
  9
$USERI4
 70
     0
  9
$USERI5
 70
     0
  9
$USERR1
 40
20.0
  9
$USERR2
 40
0.0
  9
$USERR3
 40
0.0
  9
$USERR4
 40
0.0
  9
$USERR5
 40
0.0
  9
$WORLDVIEW
 70
     1
  9
$SHADEDGE
 70
     3
  9
$SHADEDIF
 70
    70
  9
$TILEMODE
 70
     1
  9
$MAXACTVP
 70
    48
  9
$PLIMCHECK
 70
     0
  9
$PEXTMIN
 10
1.0000000000000000E+020
 20
1.0000000000000000E+020
 30
1.0000000000000000E+020
  9
$PEXTMAX
 10
-1.0000000000000000E+020
 20
-1.0000000000000000E+020
 30
-1.0000000000000000E+020
  9
$PLIMMIN
 10
0.0
 20
0.0
  9
$PLIMMAX
 10
12.0
 20
9.0
  9
$UNITMODE
 70
     0
  9
$VISRETAIN
 70
     1
  9
$PLINEGEN
 70
     0
  9
$PSLTSCALE
 70
     1
  0
ENDSEC
  0
SECTION
  2
TABLES
  0
TABLE
  2
VPORT
 70
     1
  0
VPORT
  2
*ACTIVE
 70
     0
 10
0.0
 20
0.0
 11
1.0
 21
1.0
 12
-45.776339301115513
 22
-295.60087050264701
 13
0.0
 23
0.0
 14
50.0
 24
50.0
 15
100.0
 25
100.0
 16
0.0
 26
0.0
 36
1.0
 17
0.0
 27
0.0
 37
0.0
 40
2056.0449248933442
 41
1.6159895150720831
 42
50.0
 43
0.0
 44
0.0
 50
0.0
 51
0.0
 71
     0
 72
  1000
 73
     1
 74
     0
 75
     0
 76
     0
 77
     0
 78
     0
  0
ENDTAB
  0
TABLE
  2
LTYPE
 70
     3
  0
LTYPE
  2
CONTINUOUS
 70
     0
  3
実線
 72
    65
 73
     0
 40
0.0
  0
LTYPE
  2
DASHDOT
 70
     0
  3
____ _ ____ _ ____ _ ____ _ ____ _ ____ _ ____
 72
    65
 73
     4
 40
5.5
 49
4.0
 49
-0.6
 49
0.3
 49
-0.6
  0
ENDTAB
  0
TABLE
  2
LAYER
 70
    12
  0
LAYER
  2
0
 70
     0
 62
     7
  6
CONTINUOUS
  0
LAYER
  2
SYMBOLLINE
 70
     0
 62
    15
  6
CONTINUOUS
  0
LAYER
  2
OUTLINE
 70
     0
 62
     3
  6
CONTINUOUS
  0
LAYER
  2
DETAIL
 70
     0
 62
     5
  6
CONTINUOUS
  0
LAYER
  2
BASIS
 70
     0
 62
     6
  6
DASHDOT
  0
LAYER
  2
SIZE
 70
     0
 62
    30
  6
CONTINUOUS
  0
LAYER
  2
NOTE
 70
     0
 62
     4
  6
CONTINUOUS
  0
LAYER
  2
ARRANGE
 70
     0
 62
     1
  6
CONTINUOUS
  0
LAYER
  2
FIX
 70
     0
 62
    11
  6
CONTINUOUS
  0
LAYER
  2
SERVICESPACE
 70
     0
 62
     2
  6
DASHDOT
  0
LAYER
  2
ETC
 70
     0
 62
    61
  6
CONTINUOUS
  0
LAYER
  2
DEFPOINTS
 70
     0
 62
     7
  6
CONTINUOUS
  0
ENDTAB
  0
TABLE
  2
STYLE
 70
     3
  0
STYLE
  2
STANDARD
 70
     0
 40
0.0
 41
0.9
 50
0.0
 71
     0
 42
64.0
  3
SIMPLEX
  4
BIGFONT
  0
STYLE
  2
ANNOTATIVE
 70
     0
 40
0.0
 41
1.0
 50
0.0
 71
     0
 42
0.2
  3
txt
  4

  0
STYLE
  2
STANDARD1
 70
     0
 40
0.0
 41
1.0
 50
0.0
 71
     0
 42
64.0
  3
MONOTXT
  4
BIGFONT
  0
ENDTAB
  0
TABLE
  2
VIEW
 70
     1
  0
VIEW
  2
ALL
 70
     0
 40
9000.0
 10
241.50664699999999
 20
0.0
 41
12483.01
 11
0.0
 21
0.0
 31
1.0
 12
0.0
 22
0.0
 32
0.0
 42
50.0
 43
0.0
 44
0.0
 50
0.0
 71
     0
  0
ENDTAB
  0
TABLE
  2
UCS
 70
     0
  0
ENDTAB
  0
TABLE
  2
APPID
 70
     7
  0
APPID
  2
ACAD
 70
     0
  0
APPID
  2
ACADANNOTATIVE
 70
     0
  0
APPID
  2
ACAD_MLEADERVER
 70
     0
  0
APPID
  2
ACAD_EXEMPT_FROM_CAD_STANDARDS
 70
     0
  0
APPID
  2
ACAD_DSTYLE_DIMJAG
 70
     0
  0
APPID
  2
ACAD_DSTYLE_DIMTALN
 70
     0
  0
APPID
  2
ACAD_NAV_VCDISPLAY
 70
     0
  0
ENDTAB
  0
TABLE
  2
DIMSTYLE
 70
     2
  0
DIMSTYLE
  2
STANDARD
 70
     0
  3

  4

  5

  6

  7

 40
1.0
 41
0.18
 42
0.0625
 43
0.38
 44
0.18
 45
0.0
 46
0.0
 47
0.0
 48
0.0
140
0.18
141
0.09
142
0.0
143
25.399999999999999
144
1.0
145
0.0
146
1.0
147
0.09
 71
     0
 72
     0
 73
     1
 74
     1
 75
     0
 76
     0
 77
     0
 78
     0
170
     0
171
     2
172
     0
173
     0
174
     0
175
     0
176
     0
177
     0
178
     0
  0
DIMSTYLE
  2
ANNOTATIVE
 70
     0
  3

  4

  5

  6

  7

 40
1.0
 41
0.18
 42
0.0625
 43
0.38
 44
0.18
 45
0.0
 46
0.0
 47
0.0
 48
0.0
140
0.18
141
0.09
142
0.0
143
25.399999999999999
144
1.0
145
0.0
146
1.0
147
0.09
 71
     0
 72
     0
 73
     1
 74
     1
 75
     0
 76
     0
 77
     0
 78
     0
170
     0
171
     2
172
     0
173
     0
174
     0
175
     0
176
     0
177
     0
178
     0
  0
ENDTAB
  0
ENDSEC
  0
SECTION
  2
BLOCKS
  0
BLOCK
  8
0
  2
$MODEL_SPACE
 70
     0
 10
0.0
 20
0.0
 30
0.0
  3
$MODEL_SPACE
  1

  0
ENDBLK
  5
E29
  8
0
  0
BLOCK
 67
     1
  8
0
  2
$PAPER_SPACE
 70
     0
 10
0.0
 20
0.0
 30
0.0
  3
$PAPER_SPACE
  1

  0
ENDBLK
  5
E25
 67
     1
  8
0
  0
BLOCK
  8
0
  2
_DOTBLANK
 70
     0
 10
0.0
 20
0.0
 30
0.0
  3
_DOTBLANK
  1

  0
CIRCLE
  5
30
  8
0
  6
CONTINUOUS
 62
     7
 10
0.0
 20
0.0
 30
0.0
 40
0.5
  0
LINE
  5
31
  8
0
  6
CONTINUOUS
 62
     7
 10
-0.5
 20
0.0
 30
0.0
 11
-1.0
 21
0.0
 31
0.0
  0
ENDBLK
  5
32
  8
0
  0
BLOCK
  8
0
 62
     7
  2
A$C5B2B11A1
 70
     0
 10
0.0
 20
0.0
 30
0.0
  3
A$C5B2B11A1
  1

  0
LINE
  5
263
  8
NOTE
  6
CONTINUOUS
 62
     4
 10
150.0049158952896
 20
444.96485651643877
 30
0.0
 11
558.56359189528973
 21
444.96485651643877
 31
0.0
  0
TEXT
  5
264
  8
NOTE
  6
CONTINUOUS
 62
     4
 10
172.9732388952898
 20
467.80338451643888
 30
0.0
 40
55.0
  1
RL \U+03C66.35
 41
0.9
  0
TEXT
  5
265
  8
NOTE
  6
CONTINUOUS
 62
     4
 10
223.76754109292239
 20
22.83852141223468
 30
0.0
 40
55.0
  1
RG \U+03C612.7
 41
0.9
  0
LINE
  5
266
  8
NOTE
  6
CONTINUOUS
 62
     4
 10
186.4471981696766
 20
-0.0000065877653128
 30
0.0
 11
642.97121316967673
 21
-0.0000065877653128
 31
0.0
  0
LINE
  5
267
  8
NOTE
  6
CONTINUOUS
 62
     4
 10
20.000004169676689
 20
144.29176241223459
 30
0.0
 11
186.4471981696766
 21
-0.0000065877653128
 31
0.0
  0
LINE
  5
268
  8
NOTE
  6
CONTINUOUS
 62
     4
 10
36.000004169676693
 20
236.2917624122347
 30
0.0
 11
150.0049158952896
 21
444.96485651643877
 31
0.0
  0
LINE
  5
269
  8
NOTE
  6
CONTINUOUS
 62
     4
 10
0.0000041696766857
 20
144.29176241223459
 30
0.0
 11
40.000004169676679
 21
144.29176241223459
 31
0.0
  0
LINE
  5
26A
  8
NOTE
  6
CONTINUOUS
 62
     4
 10
20.000004169676689
 20
124.2917624122346
 30
0.0
 11
20.000004169676689
 21
164.2917624122347
 31
0.0
  0
LINE
  5
26B
  8
NOTE
  6
CONTINUOUS
 62
     4
 10
16.000004169676679
 20
236.2917624122347
 30
0.0
 11
56.000004169676679
 21
236.2917624122347
 31
0.0
  0
LINE
  5
26C
  8
NOTE
  6
CONTINUOUS
 62
     4
 10
36.000004169676693
 20
216.2917624122347
 30
0.0
 11
36.000004169676693
 21
256.29176241223468
 31
0.0
  0
LINE
  5
26D
  8
NOTE
  6
CONTINUOUS
 62
     4
 10
46.33891736051919
 20
274.9325040040934
 30
0.0
 11
36.000004169676693
 21
236.2917624122347
 31
0.0
  0
LINE
  5
26E
  8
NOTE
  6
CONTINUOUS
 62
     4
 10
36.000004169676693
 20
236.2917624122347
 30
0.0
 11
64.274135680840459
 21
264.58616887669859
 31
0.0
  0
LINE
  5
26F
  8
NOTE
  6
CONTINUOUS
 62
     4
 10
56.285810169676651
 20
127.4590474122346
 30
0.0
 11
20.000004169676689
 21
144.29176241223459
 31
0.0
  0
LINE
  5
270
  8
NOTE
  6
CONTINUOUS
 62
     4
 10
20.000004169676689
 20
144.29176241223459
 30
0.0
 11
43.008076169676713
 21
111.57130041223471
 31
0.0
  0
ENDBLK
  5
272
  8
0
 62
     7
  0
BLOCK
  8
0
 62
     7
  2
*D4
 70
     1
 10
0.0
 20
0.0
 30
0.0
  3
*D4
  1

  0
LINE
  5
2E1
  8
SIZE
  6
CONTINUOUS
 62
     0
 10
-423.5
 20
-400.0
 30
0.0
 11
-423.5
 21
-770.44981458266545
 31
0.0
  0
LINE
  5
2E2
  8
SIZE
  6
CONTINUOUS
 62
     0
 10
-233.5
 20
-740.44981458266545
 30
0.0
 11
-413.49999999999989
 21
-740.44981458266545
 31
0.0
  0
INSERT
  5
2E3
  8
SIZE
  6
CONTINUOUS
 62
     0
  2
_DOTBLANK
 10
-223.5
 20
-740.44981458266545
 30
0.0
 41
10.0
 42
10.0
 43
10.0
  0
INSERT
  5
2E4
  8
SIZE
  6
CONTINUOUS
 62
     0
  2
_DOTBLANK
 10
-423.5
 20
-740.44981458266545
 30
0.0
 41
10.0
 42
10.0
 43
10.0
 50
180.0
  0
INSERT
  5
2E5
  8
SYMBOLLINE
  6
CONTINUOUS
 62
     7
  2
*U5
 10
0.0
 20
0.0
 30
0.0
  0
POINT
  5
2E6
  8
DEFPOINTS
  6
CONTINUOUS
 62
     0
 10
-223.5
 20
-270.0
 30
0.0
  0
POINT
  5
2E7
  8
DEFPOINTS
  6
CONTINUOUS
 62
     0
 10
-423.5
 20
-380.0
 30
0.0
  0
POINT
  5
2E8
  8
DEFPOINTS
  6
CONTINUOUS
 62
     0
 10
-423.5
 20
-740.44981458266545
 30
0.0
  0
ENDBLK
  5
296
  8
0
 62
     7
  0
BLOCK
  8
0
 62
     7
  2
*U5
 70
     1
 10
0.0
 20
0.0
 30
0.0
  3
*U5
  1

  0
TEXT
  5
431
  8
SIZE
  6
CONTINUOUS
 62
     0
 10
-397.55714285714282
 20
-740.35981458266554
 30
0.0
 40
64.0
  1
200
 41
0.9
  0
ENDBLK
  5
433
  8
0
 62
     7
  0
BLOCK
  8
0
 62
     7
  2
*D6
 70
     1
 10
0.0
 20
0.0
 30
0.0
  3
*D6
  1

  0
LINE
  5
2E9
  8
SIZE
  6
CONTINUOUS
 62
     0
 10
-131.5
 20
-213.0
 30
0.0
 11
-131.5
 21
-770.44981458266545
 31
0.0
  0
LINE
  5
2EA
  8
SIZE
  6
CONTINUOUS
 62
     0
 10
-213.5
 20
-740.44981458266545
 30
0.0
 11
-141.5
 21
-740.44981458266545
 31
0.0
  0
LINE
  5
2EB
  8
SIZE
  6
CONTINUOUS
 62
     0
 10
-131.5
 20
-740.44981458266545
 30
0.0
 11
0.2825499554363802
 21
-740.44981458266545
 31
0.0
  0
INSERT
  5
2EC
  8
SIZE
  6
CONTINUOUS
 62
     0
  2
_DOTBLANK
 10
-223.5
 20
-740.44981458266545
 30
0.0
 41
10.0
 42
10.0
 43
10.0
 50
180.0
  0
INSERT
  5
2ED
  8
SIZE
  6
CONTINUOUS
 62
     0
  2
_DOTBLANK
 10
-131.5
 20
-740.44981458266545
 30
0.0
 41
10.0
 42
10.0
 43
10.0
  0
INSERT
  5
2EE
  8
SYMBOLLINE
  6
CONTINUOUS
 62
     7
  2
*U7
 10
0.0
 20
0.0
 30
0.0
  0
POINT
  5
2EF
  8
DEFPOINTS
  6
CONTINUOUS
 62
     0
 10
-223.5
 20
-270.0
 30
0.0
  0
POINT
  5
2F0
  8
DEFPOINTS
  6
CONTINUOUS
 62
     0
 10
-131.5
 20
-193.0
 30
0.0
  0
POINT
  5
2F1
  8
DEFPOINTS
  6
CONTINUOUS
 62
     0
 10
-131.5
 20
-740.44981458266545
 30
0.0
  0
ENDBLK
  5
2A2
  8
0
 62
     7
  0
BLOCK
  8
0
 62
     7
  2
*U7
 70
     1
 10
0.0
 20
0.0
 30
0.0
  3
*U7
  1

  0
TEXT
  5
435
  8
SIZE
  6
CONTINUOUS
 62
     0
 10
-93.064592901706433
 20
-740.35981458266554
 30
0.0
 40
64.0
  1
92
 41
0.9
  0
ENDBLK
  5
437
  8
0
 62
     7
  0
BLOCK
  8
0
 62
     7
  2
*D8
 70
     1
 10
0.0
 20
0.0
 30
0.0
  3
*D8
  1

  0
LINE
  5
31B
  8
0
  6
CONTINUOUS
 62
     0
 10
-443.5
 20
-380.0
 30
0.0
 11
-539.65871700000002
 21
-380.0
 31
0.0
  0
LINE
  5
31C
  8
0
  6
CONTINUOUS
 62
     0
 10
-509.65871699999991
 20
-239.99999999999989
 30
0.0
 11
-509.65871699999991
 21
-229.99999999999989
 31
0.0
  0
LINE
  5
31D
  8
0
  6
CONTINUOUS
 62
     0
 10
-509.65871700000002
 20
-390.0
 30
0.0
 11
-509.65871700000002
 21
-400.0
 31
0.0
  0
LINE
  5
31E
  8
0
  6
CONTINUOUS
 62
     0
 10
-509.65871699999991
 20
-249.99999999999989
 30
0.0
 11
-509.65871699999991
 21
-380.0
 31
0.0
  0
INSERT
  5
31F
  8
0
  6
CONTINUOUS
 62
     0
  2
_DOTBLANK
 10
-509.65871699999991
 20
-249.99999999999989
 30
0.0
 41
10.0
 42
10.0
 43
10.0
 50
270.0
  0
INSERT
  5
320
  8
0
  6
CONTINUOUS
 62
     0
  2
_DOTBLANK
 10
-509.65871699999991
 20
-380.0
 30
0.0
 41
10.0
 42
10.0
 43
10.0
 50
90.0
  0
INSERT
  5
321
  8
SYMBOLLINE
  6
CONTINUOUS
 62
     7
  2
*U9
 10
0.0
 20
0.0
 30
0.0
  0
POINT
  5
322
  8
DEFPOINTS
  6
CONTINUOUS
 62
     0
 10
-243.5
 20
-250.0
 30
0.0
  0
POINT
  5
323
  8
DEFPOINTS
  6
CONTINUOUS
 62
     0
 10
-423.5
 20
-380.0
 30
0.0
  0
POINT
  5
324
  8
DEFPOINTS
  6
CONTINUOUS
 62
     0
 10
-509.65871699999991
 20
-380.0
 30
0.0
  0
ENDBLK
  5
31A
  8
0
 62
     7
  0
BLOCK
  8
0
 62
     7
  2
*U9
 70
     1
 10
0.0
 20
0.0
 30
0.0
  3
*U9
  1

  0
TEXT
  5
439
  8
0
  6
CONTINUOUS
 62
     0
 10
-509.74871699999989
 20
-383.5714285714285
 30
0.0
 40
64.0
  1
130
 50
90.0
 41
0.9
  0
ENDBLK
  5
43B
  8
0
 62
     7
  0
BLOCK
  8
0
 62
     7
  2
*D10
 70
     1
 10
0.0
 20
0.0
 30
0.0
  3
*D10
  1

  0
LINE
  5
38A
  8
SIZE
  6
CONTINUOUS
 62
     0
 10
-403.5
 20
-380.0
 30
0.0
 11
177.5104036048796
 21
-380.00000000000023
 31
0.0
  0
LINE
  5
38B
  8
SIZE
  6
CONTINUOUS
 62
     0
 10
147.5104036048796
 20
-240.00000000000011
 30
0.0
 11
147.5104036048796
 21
-230.00000000000011
 31
0.0
  0
LINE
  5
38C
  8
SIZE
  6
CONTINUOUS
 62
     0
 10
147.5104036048796
 20
-390.00000000000028
 30
0.0
 11
147.5104036048796
 21
-400.0
 31
0.0
  0
LINE
  5
38D
  8
SIZE
  6
CONTINUOUS
 62
     0
 10
147.5104036048796
 20
-250.00000000000011
 30
0.0
 11
147.5104036048796
 21
-380.00000000000023
 31
0.0
  0
INSERT
  5
38E
  8
SIZE
  6
CONTINUOUS
 62
     0
  2
_DOTBLANK
 10
147.5104036048796
 20
-250.00000000000011
 30
0.0
 41
10.0
 42
10.0
 43
10.0
 50
270.0
  0
INSERT
  5
38F
  8
SIZE
  6
CONTINUOUS
 62
     0
  2
_DOTBLANK
 10
147.5104036048796
 20
-380.00000000000023
 30
0.0
 41
10.0
 42
10.0
 43
10.0
 50
90.0
  0
INSERT
  5
390
  8
SYMBOLLINE
  6
CONTINUOUS
 62
     7
  2
*U11
 10
0.0
 20
0.0
 30
0.0
  0
POINT
  5
391
  8
DEFPOINTS
  6
CONTINUOUS
 62
     0
 10
-203.5
 20
-250.0
 30
0.0
  0
POINT
  5
392
  8
DEFPOINTS
  6
CONTINUOUS
 62
     0
 10
-423.5
 20
-380.0
 30
0.0
  0
POINT
  5
393
  8
DEFPOINTS
  6
CONTINUOUS
 62
     0
 10
147.5104036048796
 20
-380.00000000000023
 30
0.0
  0
ENDBLK
  5
330
  8
0
 62
     7
  0
BLOCK
  8
0
 62
     7
  2
*U11
 70
     1
 10
0.0
 20
0.0
 30
0.0
  3
*U11
  1

  0
TEXT
  5
441
  8
SIZE
  6
CONTINUOUS
 62
     0
 10
147.42040360487971
 20
-383.57142857142878
 30
0.0
 40
64.0
  1
130
 50
90.0
 41
0.9
  0
ENDBLK
  5
443
  8
0
 62
     7
  0
BLOCK
  8
0
 62
     7
  2
*D12
 70
     1
 10
0.0
 20
0.0
 30
0.0
  3
*D12
  1

  0
LINE
  5
381
  8
SIZE
  6
CONTINUOUS
 62
     0
 10
-183.5
 20
-250.0
 30
0.0
 11
177.51040360487971
 21
-250.00000000000011
 31
0.0
  0
LINE
  5
382
  8
SIZE
  6
CONTINUOUS
 62
     0
 10
147.5104036048796
 20
-240.00000000000011
 30
0.0
 11
147.51040360487971
 21
-183.00000000000011
 31
0.0
  0
LINE
  5
383
  8
SIZE
  6
CONTINUOUS
 62
     0
 10
147.51040360487971
 20
-173.00000000000011
 30
0.0
 11
147.51040360487971
 21
-57.610757419783262
 31
0.0
  0
INSERT
  5
384
  8
SIZE
  6
CONTINUOUS
 62
     0
  2
_DOTBLANK
 10
147.5104036048796
 20
-250.00000000000011
 30
0.0
 41
10.0
 42
10.0
 43
10.0
 50
270.0
  0
INSERT
  5
385
  8
SIZE
  6
CONTINUOUS
 62
     0
  2
_DOTBLANK
 10
147.51040360487971
 20
-173.00000000000011
 30
0.0
 41
10.0
 42
10.0
 43
10.0
 50
90.0
  0
INSERT
  5
386
  8
SYMBOLLINE
  6
CONTINUOUS
 62
     7
  2
*U13
 10
0.0
 20
0.0
 30
0.0
  0
POINT
  5
387
  8
DEFPOINTS
  6
CONTINUOUS
 62
     0
 10
-111.5
 20
-173.0
 30
0.0
  0
POINT
  5
388
  8
DEFPOINTS
  6
CONTINUOUS
 62
     0
 10
-203.5
 20
-250.0
 30
0.0
  0
POINT
  5
389
  8
DEFPOINTS
  6
CONTINUOUS
 62
     0
 10
147.5104036048796
 20
-250.00000000000011
 30
0.0
  0
ENDBLK
  5
33E
  8
0
 62
     7
  0
BLOCK
  8
0
 62
     7
  2
*U13
 70
     1
 10
0.0
 20
0.0
 30
0.0
  3
*U13
  1

  0
TEXT
  5
43D
  8
SIZE
  6
CONTINUOUS
 62
     0
 10
147.42040360487971
 20
-150.9579002769261
 30
0.0
 40
64.0
  1
77
 50
90.0
 41
0.9
  0
ENDBLK
  5
43F
  8
0
 62
     7
  0
BLOCK
  8
0
 62
     7
  2
A$C70000DF2
 70
     0
 10
0.0
 20
0.0
 30
0.0
  3
A$C70000DF2
  1

  0
CIRCLE
  5
87B
  8
DETAIL
  6
CONTINUOUS
 62
     5
 10
15.999989871597791
 20
15.99999068825127
 30
0.0
 40
16.0
  0
ENDBLK
  5
87F
  8
0
 62
     7
  0
BLOCK
  8
0
 62
     7
  2
A$C58500946
 70
     0
 10
0.0
 20
0.0
 30
0.0
  3
A$C58500946
  1

  0
LINE
  5
899
  8
NOTE
  6
CONTINUOUS
 62
     4
 10
16.083657936069351
 20
0.0000064356136136
 30
0.0
 11
-0.0000085004649009
 21
321.16450961711962
 31
0.0
  0
LINE
  5
89A
  8
NOTE
  6
CONTINUOUS
 62
     4
 10
25.179474771165591
 20
38.952106859637517
 30
0.0
 11
16.083657936069351
 21
0.0000064356136136
 31
0.0
  0
LINE
  5
89B
  8
NOTE
  6
CONTINUOUS
 62
     4
 10
16.083657936069351
 20
0.0000064356136136
 30
0.0
 11
4.4848158371737554
 21
38.281423240840809
 31
0.0
  0
ENDBLK
  5
89F
  8
0
 62
     7
  0
BLOCK
  8
0
 62
     7
  2
*D16
 70
     1
 10
0.0
 20
0.0
 30
0.0
  3
*D16
  1

  0
LINE
  5
935
  8
SYMBOLLINE
  6
CONTINUOUS
 62
     0
 10
-443.5
 20
0.0000000000000057
 30
0.0
 11
-1075.4243029850329
 21
0.0000000000001847
 31
0.0
  0
LINE
  5
936
  8
SYMBOLLINE
  6
CONTINUOUS
 62
     0
 10
-471.49999999999989
 20
-380.0
 30
0.0
 11
-1075.4243029850329
 21
-379.99999999999977
 31
0.0
  0
LINE
  5
937
  8
SYMBOLLINE
  6
CONTINUOUS
 62
     0
 10
-1045.4243029850329
 20
-9.9999999999998224
 30
0.0
 11
-1045.4243029850329
 21
-369.99999999999977
 31
0.0
  0
INSERT
  5
938
  8
SYMBOLLINE
  6
CONTINUOUS
 62
     0
  2
_DOTBLANK
 10
-1045.4243029850329
 20
0.0000000000001762
 30
0.0
 41
10.0
 42
10.0
 43
10.0
 50
90.0
  0
INSERT
  5
939
  8
SYMBOLLINE
  6
CONTINUOUS
 62
     0
  2
_DOTBLANK
 10
-1045.4243029850329
 20
-379.99999999999977
 30
0.0
 41
10.0
 42
10.0
 43
10.0
 50
270.0
  0
INSERT
  5
93A
  8
SYMBOLLINE
  6
CONTINUOUS
 62
     7
  2
*U17
 10
0.0
 20
0.0
 30
0.0
  0
POINT
  5
93B
  8
DEFPOINTS
  6
CONTINUOUS
 62
     0
 10
-423.5
 20
0.0
 30
0.0
  0
POINT
  5
93C
  8
DEFPOINTS
  6
CONTINUOUS
 62
     0
 10
-451.49999999999989
 20
-380.0
 30
0.0
  0
POINT
  5
93D
  8
DEFPOINTS
  6
CONTINUOUS
 62
     0
 10
-1045.4243029850329
 20
-379.99999999999977
 30
0.0
  0
ENDBLK
  5
8C1
  8
0
 62
     7
  0
BLOCK
  8
0
 62
     7
  2
*U17
 70
     1
 10
0.0
 20
0.0
 30
0.0
  3
*U17
  1

  0
TEXT
  5
9C9
  8
SYMBOLLINE
  6
CONTINUOUS
 62
     0
 10
-1045.5143029850331
 20
-253.64285714285711
 30
0.0
 40
55.0
  1
380
 50
90.0
 41
0.9
  0
ENDBLK
  5
9CB
  8
0
 62
     7
  0
BLOCK
  8
0
 62
     7
  2
*D18
 70
     1
 10
0.0
 20
0.0
 30
0.0
  3
*D18
  1

  0
LINE
  5
8E6
  8
SYMBOLLINE
  6
CONTINUOUS
 62
     0
 10
80.5
 20
-390.0
 30
0.0
 11
80.499999999999972
 21
-924.8889297327222
 31
0.0
  0
LINE
  5
8E7
  8
SYMBOLLINE
  6
CONTINUOUS
 62
     0
 10
423.5
 20
-400.0
 30
0.0
 11
423.49999999999989
 21
-924.8889297327222
 31
0.0
  0
LINE
  5
8E8
  8
SYMBOLLINE
  6
CONTINUOUS
 62
     0
 10
90.499999999999943
 20
-894.88892973272232
 30
0.0
 11
413.49999999999989
 21
-894.88892973272232
 31
0.0
  0
INSERT
  5
8E9
  8
SYMBOLLINE
  6
CONTINUOUS
 62
     0
  2
_DOTBLANK
 10
80.499999999999972
 20
-894.88892973272232
 30
0.0
 41
10.0
 42
10.0
 43
10.0
 50
180.0
  0
INSERT
  5
8EA
  8
SYMBOLLINE
  6
CONTINUOUS
 62
     0
  2
_DOTBLANK
 10
423.49999999999989
 20
-894.88892973272232
 30
0.0
 41
10.0
 42
10.0
 43
10.0
  0
INSERT
  5
8EB
  8
SYMBOLLINE
  6
CONTINUOUS
 62
     7
  2
*U19
 10
0.0
 20
0.0
 30
0.0
  0
POINT
  5
8EC
  8
DEFPOINTS
  6
CONTINUOUS
 62
     0
 10
80.5
 20
-370.0
 30
0.0
  0
POINT
  5
8ED
  8
DEFPOINTS
  6
CONTINUOUS
 62
     0
 10
423.5
 20
-380.0
 30
0.0
  0
POINT
  5
8EE
  8
DEFPOINTS
  6
CONTINUOUS
 62
     0
 10
423.49999999999989
 20
-894.88892973272232
 30
0.0
  0
ENDBLK
  5
8E5
  8
0
 62
     7
  0
BLOCK
  8
0
 62
     7
  2
*U19
 70
     1
 10
0.0
 20
0.0
 30
0.0
  3
*U19
  1

  0
TEXT
  5
9BD
  8
SYMBOLLINE
  6
CONTINUOUS
 62
     0
 10
188.3571428571428
 20
-894.79892973272229
 30
0.0
 40
55.0
  1
343
 41
0.9
  0
ENDBLK
  5
9BF
  8
0
 62
     7
  0
BLOCK
  8
0
 62
     7
  2
*D20
 70
     1
 10
0.0
 20
0.0
 30
0.0
  3
*D20
  1

  0
LINE
  5
8F3
  8
SYMBOLLINE
  6
CONTINUOUS
 62
     0
 10
-6.4999999999999991
 20
-53.5
 30
0.0
 11
-6.4999999999999831
 21
189.67507405642019
 31
0.0
  0
LINE
  5
8F4
  8
SYMBOLLINE
  6
CONTINUOUS
 62
     0
 10
423.5
 20
20.0
 30
0.0
 11
423.5
 21
189.67507405642019
 31
0.0
  0
LINE
  5
8F5
  8
SYMBOLLINE
  6
CONTINUOUS
 62
     0
 10
3.5000000000000142
 20
159.67507405642019
 30
0.0
 11
413.49999999999989
 21
159.67507405642019
 31
0.0
  0
INSERT
  5
8F6
  8
SYMBOLLINE
  6
CONTINUOUS
 62
     0
  2
_DOTBLANK
 10
-6.4999999999999831
 20
159.67507405642019
 30
0.0
 41
10.0
 42
10.0
 43
10.0
 50
180.0
  0
INSERT
  5
8F7
  8
SYMBOLLINE
  6
CONTINUOUS
 62
     0
  2
_DOTBLANK
 10
423.5
 20
159.67507405642019
 30
0.0
 41
10.0
 42
10.0
 43
10.0
  0
INSERT
  5
8F8
  8
SYMBOLLINE
  6
CONTINUOUS
 62
     7
  2
*U21
 10
0.0
 20
0.0
 30
0.0
  0
POINT
  5
8F9
  8
DEFPOINTS
  6
CONTINUOUS
 62
     0
 10
-6.5
 20
-73.5
 30
0.0
  0
POINT
  5
8FA
  8
DEFPOINTS
  6
CONTINUOUS
 62
     0
 10
423.5
 20
0.0
 30
0.0
  0
POINT
  5
8FB
  8
DEFPOINTS
  6
CONTINUOUS
 62
     0
 10
423.5
 20
159.67507405642019
 30
0.0
  0
ENDBLK
  5
8F2
  8
0
 62
     7
  0
BLOCK
  8
0
 62
     7
  2
*U21
 70
     1
 10
0.0
 20
0.0
 30
0.0
  3
*U21
  1

  0
TEXT
  5
9C1
  8
SYMBOLLINE
  6
CONTINUOUS
 62
     0
 10
144.8571428571428
 20
159.76507405642019
 30
0.0
 40
55.0
  1
430
 41
0.9
  0
ENDBLK
  5
9C3
  8
0
 62
     7
  0
BLOCK
  8
0
 62
     7
  2
*D22
 70
     1
 10
0.0
 20
0.0
 30
0.0
  3
*D22
  1

  0
LINE
  5
950
  8
SYMBOLLINE
  6
CONTINUOUS
 62
     0
 10
-6.5
 20
-93.499999999999986
 30
0.0
 11
-6.500000000000056
 21
-1025.8116504733771
 31
0.0
  0
LINE
  5
951
  8
SYMBOLLINE
  6
CONTINUOUS
 62
     0
 10
423.5
 20
-400.0
 30
0.0
 11
423.49999999999989
 21
-1025.8116504733771
 31
0.0
  0
LINE
  5
952
  8
SYMBOLLINE
  6
CONTINUOUS
 62
     0
 10
3.4999999999999432
 20
-995.81165047337709
 30
0.0
 11
413.49999999999989
 21
-995.81165047337709
 31
0.0
  0
INSERT
  5
953
  8
SYMBOLLINE
  6
CONTINUOUS
 62
     0
  2
_DOTBLANK
 10
-6.500000000000056
 20
-995.81165047337709
 30
0.0
 41
10.0
 42
10.0
 43
10.0
 50
180.0
  0
INSERT
  5
954
  8
SYMBOLLINE
  6
CONTINUOUS
 62
     0
  2
_DOTBLANK
 10
423.49999999999989
 20
-995.81165047337709
 30
0.0
 41
10.0
 42
10.0
 43
10.0
  0
INSERT
  5
955
  8
SYMBOLLINE
  6
CONTINUOUS
 62
     7
  2
*U23
 10
0.0
 20
0.0
 30
0.0
  0
POINT
  5
956
  8
DEFPOINTS
  6
CONTINUOUS
 62
     0
 10
-6.5
 20
-73.5
 30
0.0
  0
POINT
  5
957
  8
DEFPOINTS
  6
CONTINUOUS
 62
     0
 10
423.5
 20
-380.0
 30
0.0
  0
POINT
  5
958
  8
DEFPOINTS
  6
CONTINUOUS
 62
     0
 10
423.49999999999989
 20
-995.81165047337709
 30
0.0
  0
ENDBLK
  5
8FF
  8
0
 62
     7
  0
BLOCK
  8
0
 62
     7
  2
*U23
 70
     1
 10
0.0
 20
0.0
 30
0.0
  3
*U23
  1

  0
TEXT
  5
9D5
  8
SYMBOLLINE
  6
CONTINUOUS
 62
     0
 10
144.8571428571428
 20
-995.72165047337705
 30
0.0
 40
55.0
  1
430
 41
0.9
  0
ENDBLK
  5
9D7
  8
0
 62
     7
  0
BLOCK
  8
0
 62
     7
  2
*D24
 70
     1
 10
0.0
 20
0.0
 30
0.0
  3
*D24
  1

  0
LINE
  5
947
  8
SYMBOLLINE
  6
CONTINUOUS
 62
     0
 10
79.0
 20
-390.0
 30
0.0
 11
78.999999999999972
 21
-921.76661741557132
 31
0.0
  0
LINE
  5
948
  8
SYMBOLLINE
  6
CONTINUOUS
 62
     0
 10
423.5
 20
-400.0
 30
0.0
 11
423.49999999999989
 21
-921.76661741557132
 31
0.0
  0
LINE
  5
949
  8
SYMBOLLINE
  6
CONTINUOUS
 62
     0
 10
88.999999999999957
 20
-891.76661741557086
 30
0.0
 11
413.49999999999989
 21
-891.76661741557086
 31
0.0
  0
INSERT
  5
94A
  8
SYMBOLLINE
  6
CONTINUOUS
 62
     0
  2
_DOTBLANK
 10
78.999999999999972
 20
-891.76661741557086
 30
0.0
 41
10.0
 42
10.0
 43
10.0
 50
180.0
  0
INSERT
  5
94B
  8
SYMBOLLINE
  6
CONTINUOUS
 62
     0
  2
_DOTBLANK
 10
423.49999999999989
 20
-891.76661741557086
 30
0.0
 41
10.0
 42
10.0
 43
10.0
  0
INSERT
  5
94C
  8
SYMBOLLINE
  6
CONTINUOUS
 62
     7
  2
*U25
 10
0.0
 20
0.0
 30
0.0
  0
POINT
  5
94D
  8
DEFPOINTS
  6
CONTINUOUS
 62
     0
 10
79.0
 20
-370.0
 30
0.0
  0
POINT
  5
94E
  8
DEFPOINTS
  6
CONTINUOUS
 62
     0
 10
423.5
 20
-380.0
 30
0.0
  0
POINT
  5
94F
  8
DEFPOINTS
  6
CONTINUOUS
 62
     0
 10
423.49999999999989
 20
-891.76661741557086
 30
0.0
  0
ENDBLK
  5
90C
  8
0
 62
     7
  0
BLOCK
  8
0
 62
     7
  2
*U25
 70
     1
 10
0.0
 20
0.0
 30
0.0
  3
*U25
  1

  0
TEXT
  5
9D1
  8
SYMBOLLINE
  6
CONTINUOUS
 62
     0
 10
152.2499999999998
 20
-891.67661741557095
 30
0.0
 40
55.0
  1
344.5
 41
0.9
  0
ENDBLK
  5
9D3
  8
0
 62
     7
  0
BLOCK
  8
0
 62
     7
  2
*D26
 70
     1
 10
0.0
 20
0.0
 30
0.0
  3
*D26
  1

  0
LINE
  5
91A
  8
SYMBOLLINE
  6
CONTINUOUS
 62
     0
 10
33.5
 20
-53.500000000000007
 30
0.0
 11
1009.211271012216
 21
-53.500000000000277
 31
0.0
  0
LINE
  5
91B
  8
SYMBOLLINE
  6
CONTINUOUS
 62
     0
 10
443.5
 20
-380.0
 30
0.0
 11
1009.211271012216
 21
-380.00000000000023
 31
0.0
  0
LINE
  5
91C
  8
SYMBOLLINE
  6
CONTINUOUS
 62
     0
 10
979.21127101221634
 20
-63.500000000000277
 30
0.0
 11
979.21127101221634
 21
-370.00000000000023
 31
0.0
  0
INSERT
  5
91D
  8
SYMBOLLINE
  6
CONTINUOUS
 62
     0
  2
_DOTBLANK
 10
979.21127101221634
 20
-53.500000000000277
 30
0.0
 41
10.0
 42
10.0
 43
10.0
 50
90.0
  0
INSERT
  5
91E
  8
SYMBOLLINE
  6
CONTINUOUS
 62
     0
  2
_DOTBLANK
 10
979.21127101221634
 20
-380.00000000000023
 30
0.0
 41
10.0
 42
10.0
 43
10.0
 50
270.0
  0
INSERT
  5
91F
  8
SYMBOLLINE
  6
CONTINUOUS
 62
     7
  2
*U27
 10
0.0
 20
0.0
 30
0.0
  0
POINT
  5
920
  8
DEFPOINTS
  6
CONTINUOUS
 62
     0
 10
13.5
 20
-53.5
 30
0.0
  0
POINT
  5
921
  8
DEFPOINTS
  6
CONTINUOUS
 62
     0
 10
423.5
 20
-380.0
 30
0.0
  0
POINT
  5
922
  8
DEFPOINTS
  6
CONTINUOUS
 62
     0
 10
979.21127101221634
 20
-380.00000000000023
 30
0.0
  0
ENDBLK
  5
919
  8
0
 62
     7
  0
BLOCK
  8
0
 62
     7
  2
*U27
 70
     1
 10
0.0
 20
0.0
 30
0.0
  3
*U27
  1

  0
TEXT
  5
9C5
  8
SYMBOLLINE
  6
CONTINUOUS
 62
     0
 10
979.12127101221631
 20
-315.75000000000011
 30
0.0
 40
55.0
  1
326.5
 50
90.0
 41
0.9
  0
ENDBLK
  5
9C7
  8
0
 62
     7
  0
BLOCK
  8
0
 62
     7
  2
*D28
 70
     1
 10
0.0
 20
0.0
 30
0.0
  3
*D28
  1

  0
LINE
  5
93E
  8
SYMBOLLINE
  6
CONTINUOUS
 62
     0
 10
-46.5
 20
-53.5
 30
0.0
 11
-272.3496544341541
 21
-53.499999999999943
 31
0.0
  0
LINE
  5
93F
  8
SYMBOLLINE
  6
CONTINUOUS
 62
     0
 10
403.5
 20
-380.0
 30
0.0
 11
-272.34965443415422
 21
-379.99999999999977
 31
0.0
  0
LINE
  5
940
  8
SYMBOLLINE
  6
CONTINUOUS
 62
     0
 10
-242.34965443415419
 20
-63.499999999999943
 30
0.0
 11
-242.3496544341543
 21
-369.99999999999977
 31
0.0
  0
INSERT
  5
941
  8
SYMBOLLINE
  6
CONTINUOUS
 62
     0
  2
_DOTBLANK
 10
-242.34965443415419
 20
-53.499999999999943
 30
0.0
 41
10.0
 42
10.0
 43
10.0
 50
90.0
  0
INSERT
  5
942
  8
SYMBOLLINE
  6
CONTINUOUS
 62
     0
  2
_DOTBLANK
 10
-242.3496544341543
 20
-379.99999999999977
 30
0.0
 41
10.0
 42
10.0
 43
10.0
 50
270.0
  0
INSERT
  5
943
  8
SYMBOLLINE
  6
CONTINUOUS
 62
     7
  2
*U29
 10
0.0
 20
0.0
 30
0.0
  0
POINT
  5
944
  8
DEFPOINTS
  6
CONTINUOUS
 62
     0
 10
-26.5
 20
-53.5
 30
0.0
  0
POINT
  5
945
  8
DEFPOINTS
  6
CONTINUOUS
 62
     0
 10
423.5
 20
-380.0
 30
0.0
  0
POINT
  5
946
  8
DEFPOINTS
  6
CONTINUOUS
 62
     0
 10
-242.3496544341543
 20
-379.99999999999977
 30
0.0
  0
ENDBLK
  5
926
  8
0
 62
     7
  0
BLOCK
  8
0
 62
     7
  2
*U29
 70
     1
 10
0.0
 20
0.0
 30
0.0
  3
*U29
  1

  0
TEXT
  5
9CD
  8
SYMBOLLINE
  6
CONTINUOUS
 62
     0
 10
-242.43965443415419
 20
-315.74999999999989
 30
0.0
 40
55.0
  1
326.5
 50
90.0
 41
0.9
  0
ENDBLK
  5
9CF
  8
0
 62
     7
  0
ENDSEC
  0
SECTION
  2
ENTITIES
  0
LINE
  5
34
  8
NOTE
  6
CONTINUOUS
 62
     4
 10
-421.49999999999989
 20
-359.0
 30
0.0
 11
-421.49999999999989
 21
-319.0
 31
0.0
  0
LINE
  5
35
  8
NOTE
  6
CONTINUOUS
 62
     4
 10
-401.49999999999989
 20
-339.0
 30
0.0
 11
-441.5
 21
-339.0
 31
0.0
  0
LINE
  5
40
  8
NOTE
  6
CONTINUOUS
 62
     4
 10
392.5
 20
-359.0
 30
0.0
 11
392.5
 21
-319.0
 31
0.0
  0
LINE
  5
41
  8
NOTE
  6
CONTINUOUS
 62
     4
 10
412.5
 20
-339.0
 30
0.0
 11
372.5
 21
-339.0
 31
0.0
  0
LINE
  5
42
  8
NOTE
  6
CONTINUOUS
 62
     4
 10
417.49999999999989
 20
-261.0
 30
0.0
 11
457.5
 21
-261.0
 31
0.0
  0
LINE
  5
43
  8
NOTE
  6
CONTINUOUS
 62
     4
 10
437.5
 20
-281.0
 30
0.0
 11
437.5
 21
-241.0
 31
0.0
  0
LINE
  5
44
  8
NOTE
  6
CONTINUOUS
 62
     4
 10
417.49999999999989
 20
-211.0
 30
0.0
 11
457.5
 21
-211.0
 31
0.0
  0
LINE
  5
45
  8
NOTE
  6
CONTINUOUS
 62
     4
 10
437.5
 20
-231.0
 30
0.0
 11
437.5
 21
-191.0
 31
0.0
  0
LINE
  5
46
  8
NOTE
  6
CONTINUOUS
 62
     4
 10
417.49999999999989
 20
-161.0
 30
0.0
 11
457.5
 21
-161.0
 31
0.0
  0
LINE
  5
47
  8
NOTE
  6
CONTINUOUS
 62
     4
 10
437.5
 20
-181.0
 30
0.0
 11
437.5
 21
-141.0
 31
0.0
  0
LINE
  5
48
  8
NOTE
  6
CONTINUOUS
 62
     4
 10
417.49999999999989
 20
-111.0
 30
0.0
 11
457.5
 21
-111.0
 31
0.0
  0
LINE
  5
49
  8
NOTE
  6
CONTINUOUS
 62
     4
 10
437.5
 20
-131.0
 30
0.0
 11
437.5
 21
-91.0
 31
0.0
  0
LINE
  5
4A
  8
NOTE
  6
CONTINUOUS
 62
     4
 10
417.49999999999989
 20
-61.0
 30
0.0
 11
457.5
 21
-61.0
 31
0.0
  0
LINE
  5
4B
  8
NOTE
  6
CONTINUOUS
 62
     4
 10
437.5
 20
-81.0
 30
0.0
 11
437.5
 21
-41.0
 31
0.0
  0
LINE
  5
4C
  8
NOTE
  6
CONTINUOUS
 62
     4
 10
-417.49999999999989
 20
-319.0
 30
0.0
 11
-457.5
 21
-319.0
 31
0.0
  0
LINE
  5
4D
  8
NOTE
  6
CONTINUOUS
 62
     4
 10
-437.5
 20
-339.0
 30
0.0
 11
-437.5
 21
-299.0
 31
0.0
  0
LINE
  5
4E
  8
NOTE
  6
CONTINUOUS
 62
     4
 10
-417.49999999999989
 20
-269.0
 30
0.0
 11
-457.5
 21
-269.0
 31
0.0
  0
LINE
  5
4F
  8
NOTE
  6
CONTINUOUS
 62
     4
 10
-437.5
 20
-289.0
 30
0.0
 11
-437.5
 21
-249.0
 31
0.0
  0
LINE
  5
50
  8
NOTE
  6
CONTINUOUS
 62
     4
 10
-417.49999999999989
 20
-219.0
 30
0.0
 11
-457.5
 21
-219.0
 31
0.0
  0
LINE
  5
51
  8
NOTE
  6
CONTINUOUS
 62
     4
 10
-437.5
 20
-239.0
 30
0.0
 11
-437.5
 21
-199.0
 31
0.0
  0
LINE
  5
52
  8
NOTE
  6
CONTINUOUS
 62
     4
 10
-417.49999999999989
 20
-169.0
 30
0.0
 11
-457.5
 21
-169.0
 31
0.0
  0
LINE
  5
53
  8
NOTE
  6
CONTINUOUS
 62
     4
 10
-437.5
 20
-189.0
 30
0.0
 11
-437.5
 21
-149.0
 31
0.0
  0
LINE
  5
54
  8
NOTE
  6
CONTINUOUS
 62
     4
 10
-417.49999999999989
 20
-119.0
 30
0.0
 11
-457.5
 21
-119.0
 31
0.0
  0
LINE
  5
55
  8
NOTE
  6
CONTINUOUS
 62
     4
 10
-437.5
 20
-139.0
 30
0.0
 11
-437.5
 21
-99.0
 31
0.0
  0
LINE
  5
56
  8
NOTE
  6
CONTINUOUS
 62
     4
 10
-417.49999999999989
 20
-69.0
 30
0.0
 11
-457.5
 21
-69.0
 31
0.0
  0
LINE
  5
57
  8
NOTE
  6
CONTINUOUS
 62
     4
 10
-437.5
 20
-89.0
 30
0.0
 11
-437.5
 21
-49.0
 31
0.0
  0
CIRCLE
  5
62
  8
SIZE
  6
CONTINUOUS
 62
    30
 10
657.61905473481011
 20
-339.0
 30
0.0
 40
6.0
  0
CIRCLE
  5
63
  8
SIZE
  6
CONTINUOUS
 62
    30
 10
657.61905473481011
 20
-380.0
 30
0.0
 40
6.0
  0
CIRCLE
  5
64
  8
SIZE
  6
CONTINUOUS
 62
    30
 10
656.14328673481043
 20
-211.0
 30
0.0
 40
6.0
  0
CIRCLE
  5
65
  8
SIZE
  6
CONTINUOUS
 62
    30
 10
656.14328673481043
 20
-261.0
 30
0.0
 40
6.0
  0
CIRCLE
  5
66
  8
SIZE
  6
CONTINUOUS
 62
    30
 10
775.68049873480959
 20
-261.0
 30
0.0
 40
6.0
  0
CIRCLE
  5
67
  8
SIZE
  6
CONTINUOUS
 62
    30
 10
775.68049873480959
 20
-61.0
 30
0.0
 40
6.0
  0
CIRCLE
  5
68
  8
SIZE
  6
CONTINUOUS
 62
    30
 10
775.68049873480959
 20
-261.0
 30
0.0
 40
6.0
  0
CIRCLE
  5
69
  8
SIZE
  6
CONTINUOUS
 62
    30
 10
775.68049873480959
 20
-286.0
 30
0.0
 40
6.0
  0
CIRCLE
  5
6A
  8
SIZE
  6
CONTINUOUS
 62
    30
 10
980.9335175388477
 20
-286.0
 30
0.0
 40
6.0
  0
CIRCLE
  5
6B
  8
SIZE
  6
CONTINUOUS
 62
    30
 10
980.9335175388477
 20
-36.0
 30
0.0
 40
6.0
  0
CIRCLE
  5
6C
  8
SIZE
  6
CONTINUOUS
 62
    30
 10
980.9335175388477
 20
-286.0
 30
0.0
 40
6.0
  0
CIRCLE
  5
6D
  8
SIZE
  6
CONTINUOUS
 62
    30
 10
980.9335175388477
 20
-380.0
 30
0.0
 40
6.0
  0
CIRCLE
  5
70
  8
SIZE
  6
CONTINUOUS
 62
    30
 10
-620.82219400000042
 20
-269.0
 30
0.0
 40
6.0
  0
CIRCLE
  5
71
  8
SIZE
  6
CONTINUOUS
 62
    30
 10
-620.82219400000042
 20
-319.0
 30
0.0
 40
6.0
  0
CIRCLE
  5
72
  8
SIZE
  6
CONTINUOUS
 62
    30
 10
-897.85980599999971
 20
-364.0
 30
0.0
 40
6.0
  0
CIRCLE
  5
73
  8
SIZE
  6
CONTINUOUS
 62
    30
 10
-897.85980599999971
 20
-24.0
 30
0.0
 40
6.0
  0
CIRCLE
  5
74
  8
SIZE
  6
CONTINUOUS
 62
    30
 10
-897.85980599999971
 20
-364.0
 30
0.0
 40
6.0
  0
CIRCLE
  5
75
  8
SIZE
  6
CONTINUOUS
 62
    30
 10
-897.85980599999971
 20
-380.0
 30
0.0
 40
6.0
  0
CIRCLE
  5
76
  8
SIZE
  6
CONTINUOUS
 62
    30
 10
-763.29867999999965
 20
-319.0
 30
0.0
 40
6.0
  0
CIRCLE
  5
77
  8
SIZE
  6
CONTINUOUS
 62
    30
 10
-763.29867999999965
 20
-69.0
 30
0.0
 40
6.0
  0
CIRCLE
  5
78
  8
SIZE
  6
CONTINUOUS
 62
    30
 10
-763.29867999999965
 20
-319.0
 30
0.0
 40
6.0
  0
CIRCLE
  5
79
  8
SIZE
  6
CONTINUOUS
 62
    30
 10
-763.29867999999965
 20
-364.0
 30
0.0
 40
6.0
  0
CIRCLE
  5
7A
  8
SIZE
  6
CONTINUOUS
 62
    30
 10
-451.49999999999989
 20
-1285.888909296255
 30
0.0
 40
6.0
  0
CIRCLE
  5
7B
  8
SIZE
  6
CONTINUOUS
 62
    30
 10
452.5
 20
-1285.888909296255
 30
0.0
 40
6.0
  0
CIRCLE
  5
7C
  8
SIZE
  6
CONTINUOUS
 62
    30
 10
452.5
 20
-1163.434857296254
 30
0.0
 40
6.0
  0
CIRCLE
  5
7D
  8
SIZE
  6
CONTINUOUS
 62
    30
 10
392.5
 20
-1163.434857296254
 30
0.0
 40
6.0
  0
CIRCLE
  5
7E
  8
SIZE
  6
CONTINUOUS
 62
    30
 10
-421.49999999999989
 20
-1163.434857296254
 30
0.0
 40
6.0
  0
CIRCLE
  5
7F
  8
SIZE
  6
CONTINUOUS
 62
    30
 10
392.5
 20
-1163.434857296254
 30
0.0
 40
6.0
  0
CIRCLE
  5
80
  8
SIZE
  6
CONTINUOUS
 62
    30
 10
-447.5
 20
51.513461
 30
0.0
 40
6.0
  0
CIRCLE
  5
81
  8
SIZE
  6
CONTINUOUS
 62
    30
 10
-437.5
 20
51.513461
 30
0.0
 40
6.0
  0
CIRCLE
  5
82
  8
SIZE
  6
CONTINUOUS
 62
    30
 10
437.5
 20
173.12867926116081
 30
0.0
 40
6.0
  0
CIRCLE
  5
83
  8
SIZE
  6
CONTINUOUS
 62
    30
 10
452.5
 20
173.12867926116081
 30
0.0
 40
6.0
  0
CIRCLE
  5
84
  8
SIZE
  6
CONTINUOUS
 62
    30
 10
-447.5
 20
398.63702254539999
 30
0.0
 40
6.0
  0
CIRCLE
  5
85
  8
SIZE
  6
CONTINUOUS
 62
    30
 10
452.5
 20
398.63702254539999
 30
0.0
 40
6.0
  0
CIRCLE
  5
86
  8
SIZE
  6
CONTINUOUS
 62
    30
 10
452.5
 20
268.65578254539997
 30
0.0
 40
6.0
  0
CIRCLE
  5
87
  8
SIZE
  6
CONTINUOUS
 62
    30
 10
423.5
 20
268.65578254539997
 30
0.0
 40
6.0
  0
CIRCLE
  5
88
  8
SIZE
  6
CONTINUOUS
 62
    30
 10
-447.5
 20
268.65578254539997
 30
0.0
 40
6.0
  0
CIRCLE
  5
89
  8
SIZE
  6
CONTINUOUS
 62
    30
 10
-423.5
 20
268.65578254539997
 30
0.0
 40
6.0
  0
CIRCLE
  5
8A
  8
SIZE
  6
CONTINUOUS
 62
    30
 10
-423.5
 20
268.65578254539997
 30
0.0
 40
6.0
  0
CIRCLE
  5
8B
  8
SIZE
  6
CONTINUOUS
 62
    30
 10
423.5
 20
268.65578254539997
 30
0.0
 40
6.0
  0
TEXT
  5
8C
  8
SIZE
  6
CONTINUOUS
 62
    30
 10
-63.64285714285667
 20
284.26141534178879
 30
0.0
 40
55.0
  1
847
 41
0.9
 72
     1
 11
0.0000000000004547
 21
284.26141534178879
 31
0.0
  0
LINE
  5
8D
  8
SIZE
  6
CONTINUOUS
 62
    30
 10
423.5
 20
268.65578254539997
 30
0.0
 11
-423.5
 21
268.65578254539997
 31
0.0
  0
LINE
  5
8F
  8
SIZE
  6
CONTINUOUS
 62
    30
 10
423.5
 20
20.0
 30
0.0
 11
423.5
 21
213.485106
 31
0.0
  0
TEXT
  5
91
  8
SIZE
  6
CONTINUOUS
 62
    30
 10
-576.22305672198115
 20
284.26141534178879
 30
0.0
 40
55.0
  1
24
 41
0.9
 72
     1
 11
-534.97305672198115
 21
284.26141534178879
 31
0.0
  0
LINE
  5
92
  8
SIZE
  6
CONTINUOUS
 62
    30
 10
-447.5
 20
268.65578254539997
 30
0.0
 11
-423.5
 21
268.65578254539997
 31
0.0
  0
LINE
  5
95
  8
SIZE
  6
CONTINUOUS
 62
    30
 10
-447.5
 20
-3.0
 30
0.0
 11
-447.5
 21
213.485106
 31
0.0
  0
LINE
  5
96
  8
SIZE
  6
CONTINUOUS
 62
    30
 10
-423.5
 20
20.0
 30
0.0
 11
-423.5
 21
299.35014811284049
 31
0.0
  0
TEXT
  5
97
  8
SIZE
  6
CONTINUOUS
 62
    30
 10
499.46062778801343
 20
284.26141534178879
 30
0.0
 40
55.0
  1
29
 41
0.9
 72
     1
 11
538.35348493087054
 21
284.26141534178879
 31
0.0
  0
LINE
  5
98
  8
SIZE
  6
CONTINUOUS
 62
    30
 10
452.5
 20
268.65578254539997
 30
0.0
 11
423.5
 21
268.65578254539997
 31
0.0
  0
LINE
  5
9B
  8
SIZE
  6
CONTINUOUS
 62
    30
 10
452.5
 20
-16.0
 30
0.0
 11
452.5
 21
213.485106
 31
0.0
  0
LINE
  5
9C
  8
SIZE
  6
CONTINUOUS
 62
    30
 10
423.5
 20
20.0
 30
0.0
 11
423.5
 21
299.35014811284049
 31
0.0
  0
TEXT
  5
9D
  8
SIZE
  6
CONTINUOUS
 62
    30
 10
-61.14285714285667
 20
414.24265534178869
 30
0.0
 40
55.0
  1
900
 41
0.9
 72
     1
 11
2.5000000000004521
 21
414.24265534178869
 31
0.0
  0
LINE
  5
9E
  8
SIZE
  6
CONTINUOUS
 62
    30
 10
452.5
 20
398.63702254539999
 30
0.0
 11
-447.5
 21
398.63702254539999
 31
0.0
  0
LINE
  5
A0
  8
SIZE
  6
CONTINUOUS
 62
    30
 10
452.5
 20
-16.0
 30
0.0
 11
452.5
 21
429.4346032472676
 31
0.0
  0
LINE
  5
A1
  8
SIZE
  6
CONTINUOUS
 62
    30
 10
-447.5
 20
-3.0
 30
0.0
 11
-447.5
 21
429.4346032472676
 31
0.0
  0
TEXT
  5
A2
  8
SIZE
  6
CONTINUOUS
 62
    30
 10
497.43505480794022
 20
188.73431205754969
 30
0.0
 40
55.0
  1
15
 41
0.9
 72
     1
 11
532.79219766508311
 21
188.73431205754969
 31
0.0
  0
LINE
  5
A3
  8
SIZE
  6
CONTINUOUS
 62
    30
 10
437.5
 20
173.12867926116081
 30
0.0
 11
452.5
 21
173.12867926116081
 31
0.0
  0
LINE
  5
A6
  8
SIZE
  6
CONTINUOUS
 62
    30
 10
437.5
 20
-21.0
 30
0.0
 11
437.5
 21
203.12867926116081
 31
0.0
  0
LINE
  5
A7
  8
SIZE
  6
CONTINUOUS
 62
    30
 10
452.5
 20
-16.0
 30
0.0
 11
452.5
 21
203.12867926116081
 31
0.0
  0
TEXT
  5
A8
  8
SIZE
  6
CONTINUOUS
 62
    30
 10
-549.93883478437624
 20
67.11909379638881
 30
0.0
 40
55.0
  1
10
 41
0.9
 72
     1
 11
-514.58169192723335
 21
67.11909379638881
 31
0.0
  0
LINE
  5
A9
  8
SIZE
  6
CONTINUOUS
 62
    30
 10
-447.5
 20
51.513461
 30
0.0
 11
-437.5
 21
51.513461
 31
0.0
  0
LINE
  5
AC
  8
SIZE
  6
CONTINUOUS
 62
    30
 10
-447.5
 20
-3.0
 30
0.0
 11
-447.5
 21
81.513460999999964
 31
0.0
  0
LINE
  5
AD
  8
SIZE
  6
CONTINUOUS
 62
    30
 10
-437.5
 20
-28.0
 30
0.0
 11
-437.5
 21
81.513460999999964
 31
0.0
  0
TEXT
  5
AE
  8
SIZE
  6
CONTINUOUS
 62
    30
 10
-74.607142857143273
 20
-1154.043483472301
 30
0.0
 40
55.0
  1
814
 41
0.9
 72
     1
 11
-14.500000000000449
 21
-1154.043483472301
 31
0.0
  0
LINE
  5
AF
  8
SIZE
  6
CONTINUOUS
 62
    30
 10
392.5
 20
-1163.434857296254
 30
0.0
 11
-421.49999999999989
 21
-1163.434857296254
 31
0.0
  0
LINE
  5
B1
  8
SIZE
  6
CONTINUOUS
 62
    30
 10
392.5
 20
-379.0
 30
0.0
 11
392.5
 21
-704.37212999999986
 31
0.0
  0
LINE
  5
B2
  8
SIZE
  6
CONTINUOUS
 62
    30
 10
-421.49999999999989
 20
-367.71932069000081
 30
0.0
 11
-421.49999999999989
 21
-1193.043279285986
 31
0.0
  0
TEXT
  5
B3
  8
SIZE
  6
CONTINUOUS
 62
    30
 10
475.73247741130518
 20
-1149.348699985017
 30
0.0
 40
55.0
  1
60
 41
0.9
 72
     1
 11
515.8039059827338
 21
-1149.348699985017
 31
0.0
  0
LINE
  5
B4
  8
SIZE
  6
CONTINUOUS
 62
    30
 10
452.5
 20
-1163.434857296254
 30
0.0
 11
392.5
 21
-1163.434857296254
 31
0.0
  0
LINE
  5
B7
  8
SIZE
  6
CONTINUOUS
 62
    30
 10
452.5
 20
-306.0
 30
0.0
 11
452.5
 21
-1192.102662111198
 31
0.0
  0
LINE
  5
B8
  8
SIZE
  6
CONTINUOUS
 62
    30
 10
392.5
 20
-366.69890779694458
 30
0.0
 11
392.5
 21
-1193.043279285986
 31
0.0
  0
TEXT
  5
B9
  8
SIZE
  6
CONTINUOUS
 62
    30
 10
-64.321428571429024
 20
-1274.444053451778
 30
0.0
 40
55.0
  1
904
 41
0.9
 72
     1
 11
0.4999999999995455
 21
-1274.444053451778
 31
0.0
  0
LINE
  5
BA
  8
SIZE
  6
CONTINUOUS
 62
    30
 10
452.5
 20
-1285.888909296255
 30
0.0
 11
-451.49999999999989
 21
-1285.888909296255
 31
0.0
  0
LINE
  5
BC
  8
SIZE
  6
CONTINUOUS
 62
    30
 10
452.5
 20
-306.0
 30
0.0
 11
452.5
 21
-1315.32510456979
 31
0.0
  0
LINE
  5
BD
  8
SIZE
  6
CONTINUOUS
 62
    30
 10
-451.49999999999989
 20
-392.22360938973719
 30
0.0
 11
-451.49999999999989
 21
-1314.3844873950029
 31
0.0
  0
TEXT
  5
BE
  8
SIZE
  6
CONTINUOUS
 62
    30
 10
-776.6720700714651
 20
-490.52707045240538
 30
0.0
 40
55.0
  1
45
 50
90.0
 41
0.9
 72
     1
 11
-776.6720700714651
 21
-450.45564188097688
 31
0.0
  0
LINE
  5
BF
  8
SIZE
  6
CONTINUOUS
 62
    30
 10
-763.29867999999965
 20
-319.0
 30
0.0
 11
-763.29867999999965
 21
-364.0
 31
0.0
  0
LINE
  5
C2
  8
SIZE
  6
CONTINUOUS
 62
    30
 10
-477.5
 20
-319.0
 30
0.0
 11
-793.29867999999999
 21
-319.0
 31
0.0
  0
LINE
  5
C3
  8
SIZE
  6
CONTINUOUS
 62
    30
 10
-467.49999999999989
 20
-364.0
 30
0.0
 11
-793.29867999999999
 21
-364.0
 31
0.0
  0
TEXT
  5
C4
  8
SIZE
  6
CONTINUOUS
 62
    30
 10
-776.6720700714651
 20
-257.64285714285711
 30
0.0
 40
55.0
  1
250
 50
90.0
 41
0.9
 72
     1
 11
-776.6720700714651
 21
-194.0
 31
0.0
  0
LINE
  5
C6
  8
SIZE
  6
CONTINUOUS
 62
    30
 10
-763.29867999999965
 20
-319.0
 30
0.0
 11
-763.29867999999965
 21
-69.0
 31
0.0
  0
LINE
  5
C7
  8
SIZE
  6
CONTINUOUS
 62
    30
 10
-477.5
 20
-69.0
 30
0.0
 11
-793.29867999999999
 21
-69.0
 31
0.0
  0
LINE
  5
C8
  8
SIZE
  6
CONTINUOUS
 62
    30
 10
-477.5
 20
-319.0
 30
0.0
 11
-793.29867999999999
 21
-319.0
 31
0.0
  0
TEXT
  5
C9
  8
SIZE
  6
CONTINUOUS
 62
    30
 10
-911.23319607146504
 20
-479.46704815880258
 30
0.0
 40
55.0
  1
16
 50
90.0
 41
0.9
 72
     1
 11
-911.23319607146504
 21
-445.2884767302312
 31
0.0
  0
LINE
  5
CA
  8
SIZE
  6
CONTINUOUS
 62
    30
 10
-897.85980599999971
 20
-364.0
 30
0.0
 11
-897.85980599999971
 21
-380.0
 31
0.0
  0
LINE
  5
CD
  8
SIZE
  6
CONTINUOUS
 62
    30
 10
-467.49999999999989
 20
-364.0
 30
0.0
 11
-927.85980600000005
 21
-364.0
 31
0.0
  0
LINE
  5
CE
  8
SIZE
  6
CONTINUOUS
 62
    30
 10
-471.49999999999989
 20
-380.0
 30
0.0
 11
-927.85980600000005
 21
-380.0
 31
0.0
  0
TEXT
  5
CF
  8
SIZE
  6
CONTINUOUS
 62
    30
 10
-911.23319607146504
 20
-257.64285714285711
 30
0.0
 40
55.0
  1
340
 50
90.0
 41
0.9
 72
     1
 11
-911.23319607146504
 21
-194.0
 31
0.0
  0
LINE
  5
D1
  8
SIZE
  6
CONTINUOUS
 62
    30
 10
-897.85980599999971
 20
-364.0
 30
0.0
 11
-897.85980599999971
 21
-24.0
 31
0.0
  0
LINE
  5
D2
  8
SIZE
  6
CONTINUOUS
 62
    30
 10
-467.49999999999989
 20
-24.0
 30
0.0
 11
-927.85980600000005
 21
-24.0
 31
0.0
  0
LINE
  5
D3
  8
SIZE
  6
CONTINUOUS
 62
    30
 10
-467.49999999999989
 20
-364.0
 30
0.0
 11
-927.85980600000005
 21
-364.0
 31
0.0
  0
TEXT
  5
D4
  8
SIZE
  6
CONTINUOUS
 62
    30
 10
-634.19558407146519
 20
-237.16368687922389
 30
0.0
 40
55.0
  1
50
 50
90.0
 41
0.9
 72
     1
 11
-634.19558407146519
 21
-197.0922583077953
 31
0.0
  0
LINE
  5
D5
  8
SIZE
  6
CONTINUOUS
 62
    30
 10
-620.82219400000042
 20
-269.0
 30
0.0
 11
-620.82219400000042
 21
-319.0
 31
0.0
  0
LINE
  5
D8
  8
SIZE
  6
CONTINUOUS
 62
    30
 10
-477.5
 20
-269.0
 30
0.0
 11
-650.8221940000002
 21
-269.0
 31
0.0
  0
LINE
  5
D9
  8
SIZE
  6
CONTINUOUS
 62
    30
 10
-477.5
 20
-319.0
 30
0.0
 11
-650.8221940000002
 21
-319.0
 31
0.0
  0
TEXT
  5
DF
  8
SIZE
  6
CONTINUOUS
 62
    30
 10
968.0616355890744
 20
-488.54619630938032
 30
0.0
 40
55.0
  1
94
 50
90.0
 41
0.9
 72
     1
 11
968.0616355890744
 21
-447.29619630938032
 31
0.0
  0
LINE
  5
E0
  8
SIZE
  6
CONTINUOUS
 62
    30
 10
980.9335175388477
 20
-286.0
 30
0.0
 11
980.9335175388477
 21
-380.0
 31
0.0
  0
LINE
  5
E3
  8
SIZE
  6
CONTINUOUS
 62
    30
 10
472.5
 20
-286.0
 30
0.0
 11
1010.933517538848
 21
-286.0
 31
0.0
  0
LINE
  5
E4
  8
SIZE
  6
CONTINUOUS
 62
    30
 10
443.5
 20
-380.0
 30
0.0
 11
1010.933517538848
 21
-380.0
 31
0.0
  0
TEXT
  5
E5
  8
SIZE
  6
CONTINUOUS
 62
    30
 10
968.0616355890744
 20
-224.64285714285711
 30
0.0
 40
55.0
  1
250
 50
90.0
 41
0.9
 72
     1
 11
968.0616355890744
 21
-161.0
 31
0.0
  0
LINE
  5
E7
  8
SIZE
  6
CONTINUOUS
 62
    30
 10
980.9335175388477
 20
-286.0
 30
0.0
 11
980.9335175388477
 21
-36.0
 31
0.0
  0
LINE
  5
E8
  8
SIZE
  6
CONTINUOUS
 62
    30
 10
472.5
 20
-36.0
 30
0.0
 11
1010.933517538848
 21
-36.0
 31
0.0
  0
LINE
  5
E9
  8
SIZE
  6
CONTINUOUS
 62
    30
 10
472.5
 20
-286.0
 30
0.0
 11
1010.933517538848
 21
-286.0
 31
0.0
  0
LINE
  5
EB
  8
SIZE
  6
CONTINUOUS
 62
    30
 10
775.68049873480959
 20
-261.0
 30
0.0
 11
775.68049873480959
 21
-286.0
 31
0.0
  0
LINE
  5
EE
  8
SIZE
  6
CONTINUOUS
 62
    30
 10
477.5
 20
-261.0
 30
0.0
 11
805.68049873480993
 21
-261.0
 31
0.0
  0
LINE
  5
EF
  8
SIZE
  6
CONTINUOUS
 62
    30
 10
472.5
 20
-286.0
 30
0.0
 11
805.68049873480993
 21
-286.0
 31
0.0
  0
TEXT
  5
F0
  8
SIZE
  6
CONTINUOUS
 62
    30
 10
762.80861678503652
 20
-224.64285714285711
 30
0.0
 40
55.0
  1
200
 50
90.0
 41
0.9
 72
     1
 11
762.80861678503652
 21
-161.0
 31
0.0
  0
LINE
  5
F2
  8
SIZE
  6
CONTINUOUS
 62
    30
 10
775.68049873480959
 20
-261.0
 30
0.0
 11
775.68049873480959
 21
-61.0
 31
0.0
  0
LINE
  5
F3
  8
SIZE
  6
CONTINUOUS
 62
    30
 10
477.5
 20
-61.0
 30
0.0
 11
805.68049873480993
 21
-61.0
 31
0.0
  0
LINE
  5
F4
  8
SIZE
  6
CONTINUOUS
 62
    30
 10
477.5
 20
-261.0
 30
0.0
 11
805.68049873480993
 21
-261.0
 31
0.0
  0
TEXT
  5
F5
  8
SIZE
  6
CONTINUOUS
 62
    30
 10
643.27140478503668
 20
-190.07038185657169
 30
0.0
 40
55.0
  1
50
 50
90.0
 41
0.9
 72
     1
 11
643.27140478503668
 21
-149.99895328514319
 31
0.0
  0
LINE
  5
F6
  8
SIZE
  6
CONTINUOUS
 62
    30
 10
656.14328673481043
 20
-211.0
 30
0.0
 11
656.14328673481043
 21
-261.0
 31
0.0
  0
LINE
  5
F9
  8
SIZE
  6
CONTINUOUS
 62
    30
 10
477.5
 20
-211.0
 30
0.0
 11
686.14328673481043
 21
-211.0
 31
0.0
  0
LINE
  5
FA
  8
SIZE
  6
CONTINUOUS
 62
    30
 10
477.5
 20
-261.0
 30
0.0
 11
686.14328673481043
 21
-261.0
 31
0.0
  0
TEXT
  5
FB
  8
SIZE
  6
CONTINUOUS
 62
    30
 10
644.74717278503613
 20
-477.48319688526618
 30
0.0
 40
55.0
  1
41
 50
90.0
 41
0.9
 72
     1
 11
644.74717278503613
 21
-448.01891117098052
 31
0.0
  0
LINE
  5
FC
  8
SIZE
  6
CONTINUOUS
 62
    30
 10
657.61905473481011
 20
-339.0
 30
0.0
 11
657.61905473481011
 21
-380.0
 31
0.0
  0
LINE
  5
FF
  8
SIZE
  6
CONTINUOUS
 62
    30
 10
432.5
 20
-339.0
 30
0.0
 11
687.61905473480954
 21
-339.0
 31
0.0
  0
LINE
  5
100
  8
SIZE
  6
CONTINUOUS
 62
    30
 10
443.5
 20
-380.0
 30
0.0
 11
687.61905473480954
 21
-380.0
 31
0.0
  0
POINT
  5
101
  8
ARRANGE
  6
CONTINUOUS
 62
     1
 10
0.0
 20
0.0
 30
0.0
 50
180.0
  0
LINE
  5
103
  8
SIZE
  6
CONTINUOUS
 62
    30
 10
-620.82219400000042
 20
-263.0
 30
0.0
 11
-620.82219400000042
 21
-144.59202300000001
 31
0.0
  0
LINE
  5
104
  8
SIZE
  6
CONTINUOUS
 62
    30
 10
-897.85980599999971
 20
-386.0
 30
0.0
 11
-897.85980599999971
 21
-503.84550999999999
 31
0.0
  0
LINE
  5
105
  8
NOTE
  6
CONTINUOUS
 62
     4
 10
-437.5
 20
-69.0
 30
0.0
 11
-601.44672100000025
 21
43.749491999999982
 31
0.0
  0
LINE
  5
106
  8
NOTE
  6
CONTINUOUS
 62
     4
 10
648.70454699999982
 20
55.585262999999998
 30
0.0
 11
940.43706399999985
 21
55.585262999999998
 31
0.0
  0
TEXT
  5
107
  8
NOTE
  6
CONTINUOUS
 62
     4
 10
681.75660042857135
 20
73.230584036988148
 30
0.0
 40
55.0
  1
48-\U+03C63
 41
0.9
  0
LINE
  5
108
  8
NOTE
  6
CONTINUOUS
 62
     4
 10
437.5
 20
-61.0
 30
0.0
 11
648.70454699999982
 21
55.585262999999998
 31
0.0
  0
LINE
  5
109
  8
SIZE
  6
CONTINUOUS
 62
    30
 10
-763.29867999999965
 20
-370.0
 30
0.0
 11
-763.29867999999965
 21
-506.48377900000003
 31
0.0
  0
LINE
  5
10A
  8
SIZE
  6
CONTINUOUS
 62
    30
 10
656.14328673481043
 20
-205.0
 30
0.0
 11
656.14328673481043
 21
-97.525772000000003
 31
0.0
  0
LINE
  5
10B
  8
SIZE
  6
CONTINUOUS
 62
    30
 10
980.9335175388477
 20
-386.0
 30
0.0
 11
980.9335175388477
 21
-506.7247039999998
 31
0.0
  0
LINE
  5
10C
  8
SIZE
  6
CONTINUOUS
 62
    30
 10
657.61905473481011
 20
-386.0
 30
0.0
 11
657.61905473481011
 21
-489.31313200000011
 31
0.0
  0
LINE
  5
10D
  8
SIZE
  6
CONTINUOUS
 62
    30
 10
458.49999999999989
 20
-1163.434857296254
 30
0.0
 11
566.25069499999961
 21
-1163.434857296254
 31
0.0
  0
LINE
  5
10E
  8
SIZE
  6
CONTINUOUS
 62
    30
 10
-453.5
 20
51.513461
 30
0.0
 11
-574.51376500000015
 21
51.513461
 31
0.0
  0
LINE
  5
10F
  8
SIZE
  6
CONTINUOUS
 62
    30
 10
452.5
 20
173.12867926116081
 30
0.0
 11
578.577718
 21
173.12867926116081
 31
0.0
  0
LINE
  5
110
  8
SIZE
  6
CONTINUOUS
 62
    30
 10
-453.5
 20
268.65578254539997
 30
0.0
 11
-606.26556000000016
 21
268.65578254539997
 31
0.0
  0
LINE
  5
111
  8
SIZE
  6
CONTINUOUS
 62
    30
 10
458.49999999999989
 20
268.65578254539997
 30
0.0
 11
608.65836500000012
 21
268.65578254539997
 31
0.0
  0
LINE
  5
112
  8
OUTLINE
  6
CONTINUOUS
 62
     3
 10
-423.5
 20
-380.0
 30
0.0
 11
423.5
 21
-380.0
 31
0.0
  0
LINE
  5
113
  8
OUTLINE
  6
CONTINUOUS
 62
     3
 10
-423.5
 20
0.0
 30
0.0
 11
-423.5
 21
-380.0
 31
0.0
  0
LINE
  5
114
  8
OUTLINE
  6
CONTINUOUS
 62
     3
 10
423.5
 20
0.0
 30
0.0
 11
423.5
 21
-380.0
 31
0.0
  0
LINE
  5
115
  8
OUTLINE
  6
CONTINUOUS
 62
     3
 10
-423.5
 20
0.0
 30
0.0
 11
423.5
 21
0.0
 31
0.0
  0
CIRCLE
  5
116
  8
DETAIL
  6
CONTINUOUS
 62
     5
 10
437.5
 20
-261.0
 30
0.0
 40
1.5
  0
CIRCLE
  5
117
  8
DETAIL
  6
CONTINUOUS
 62
     5
 10
437.5
 20
-211.0
 30
0.0
 40
1.5
  0
CIRCLE
  5
118
  8
DETAIL
  6
CONTINUOUS
 62
     5
 10
437.5
 20
-161.0
 30
0.0
 40
1.5
  0
CIRCLE
  5
119
  8
DETAIL
  6
CONTINUOUS
 62
     5
 10
437.5
 20
-111.0
 30
0.0
 40
1.5
  0
CIRCLE
  5
11A
  8
DETAIL
  6
CONTINUOUS
 62
     5
 10
437.5
 20
-61.0
 30
0.0
 40
1.5
  0
CIRCLE
  5
11B
  8
DETAIL
  6
CONTINUOUS
 62
     5
 10
-437.5
 20
-319.0
 30
0.0
 40
1.5
  0
CIRCLE
  5
11C
  8
DETAIL
  6
CONTINUOUS
 62
     5
 10
-437.5
 20
-269.0
 30
0.0
 40
1.5
  0
CIRCLE
  5
11D
  8
DETAIL
  6
CONTINUOUS
 62
     5
 10
-437.5
 20
-219.0
 30
0.0
 40
1.5
  0
CIRCLE
  5
11E
  8
DETAIL
  6
CONTINUOUS
 62
     5
 10
-437.5
 20
-169.0
 30
0.0
 40
1.5
  0
CIRCLE
  5
11F
  8
DETAIL
  6
CONTINUOUS
 62
     5
 10
-437.5
 20
-119.0
 30
0.0
 40
1.5
  0
CIRCLE
  5
120
  8
DETAIL
  6
CONTINUOUS
 62
     5
 10
-437.5
 20
-69.0
 30
0.0
 40
1.5
  0
LINE
  5
121
  8
DETAIL
  6
CONTINUOUS
 62
     5
 10
322.5
 20
-339.0
 30
0.0
 11
322.5
 21
-380.0
 31
0.0
  0
LINE
  5
123
  8
DETAIL
  6
CONTINUOUS
 62
     5
 10
-351.5
 20
-339.0
 30
0.0
 11
-351.5
 21
-380.0
 31
0.0
  0
CIRCLE
  5
125
  8
ARRANGE
  6
CONTINUOUS
 62
     1
 10
0.0
 20
0.0
 30
0.0
 40
40.0
  0
CIRCLE
  5
128
  8
FIX
  6
CONTINUOUS
 62
    11
 10
392.5
 20
-339.0
 30
0.0
 40
15.0
  0
CIRCLE
  5
12B
  8
FIX
  6
CONTINUOUS
 62
    11
 10
-421.49999999999989
 20
-339.0
 30
0.0
 40
15.0
  0
LINE
  5
12E
  8
DETAIL
  6
CONTINUOUS
 62
     5
 10
322.5
 20
-339.0
 30
0.0
 11
422.49999999999989
 21
-339.0
 31
0.0
  0
LINE
  5
12F
  8
DETAIL
  6
CONTINUOUS
 62
     5
 10
322.5
 20
-349.0
 30
0.0
 11
422.49999999999989
 21
-349.0
 31
0.0
  0
LINE
  5
130
  8
DETAIL
  6
CONTINUOUS
 62
     5
 10
-451.49999999999989
 20
-349.0
 30
0.0
 11
-351.5
 21
-349.0
 31
0.0
  0
LINE
  5
131
  8
DETAIL
  6
CONTINUOUS
 62
     5
 10
-451.49999999999989
 20
-339.0
 30
0.0
 11
-351.5
 21
-339.0
 31
0.0
  0
LINE
  5
132
  8
DETAIL
  6
CONTINUOUS
 62
     5
 10
422.49999999999989
 20
-339.0
 30
0.0
 11
422.49999999999989
 21
-380.0
 31
0.0
  0
LINE
  5
133
  8
DETAIL
  6
CONTINUOUS
 62
     5
 10
-451.49999999999989
 20
-339.0
 30
0.0
 11
-451.49999112520891
 21
-379.99999322744412
 31
0.0
  0
LINE
  5
136
  8
NOTE
  6
CONTINUOUS
 62
     4
 10
-901.19635999999991
 20
43.749491999999982
 30
0.0
 11
-601.44672100000025
 21
43.749491999999982
 31
0.0
  0
TEXT
  5
137
  8
NOTE
  6
CONTINUOUS
 62
     4
 10
-876.91233093875019
 20
63.322766936846151
 30
0.0
 40
55.0
  1
54-\U+03C63
 41
0.9
  0
LINE
  5
13A
  8
DETAIL
  6
CONTINUOUS
 62
     5
 10
423.5
 20
-36.0
 30
0.0
 11
452.5
 21
-36.0
 31
0.0
  0
LINE
  5
13B
  8
DETAIL
  6
CONTINUOUS
 62
     5
 10
-447.5
 20
-24.0
 30
0.0
 11
-423.5
 21
-24.0
 31
0.0
  0
LINE
  5
13C
  8
DETAIL
  6
CONTINUOUS
 62
     5
 10
423.5
 20
-286.0
 30
0.0
 11
452.5
 21
-286.0
 31
0.0
  0
LINE
  5
13E
  8
DETAIL
  6
CONTINUOUS
 62
     5
 10
452.5
 20
-36.0
 30
0.0
 11
452.5
 21
-286.0
 31
0.0
  0
LINE
  5
13F
  8
DETAIL
  6
CONTINUOUS
 62
     5
 10
-447.5
 20
-24.0
 30
0.0
 11
-447.5
 21
-339.0
 31
0.0
  0
LINE
  5
140
  8
DETAIL
  6
CONTINUOUS
 62
     5
 10
-423.5
 20
0.0
 30
0.0
 11
423.5
 21
0.0
 31
0.0
  0
LINE
  5
141
  8
DETAIL
  6
CONTINUOUS
 62
     5
 10
423.5
 20
0.0
 30
0.0
 11
423.5
 21
-380.0
 31
0.0
  0
LINE
  5
142
  8
DETAIL
  6
CONTINUOUS
 62
     5
 10
-423.5
 20
0.0
 30
0.0
 11
-423.5
 21
-339.0
 31
0.0
  0
LINE
  5
143
  8
DETAIL
  6
CONTINUOUS
 62
     5
 10
-423.5
 20
-380.0
 30
0.0
 11
423.5
 21
-380.0
 31
0.0
  0
LINE
  5
144
  8
BASIS
  6
DASHDOT
 62
     6
 10
0.0
 20
89.133783999999963
 30
0.0
 11
0.0
 21
-480.89146699999998
 31
0.0
  0
LINE
  5
285
  8
NOTE
  6
CONTINUOUS
 62
     4
 10
1021.643784729735
 20
169.74187414178959
 30
0.0
 11
657.31864691914234
 21
169.74187414178959
 31
0.0
  0
TEXT
  5
286
  8
NOTE
  6
CONTINUOUS
 62
     4
 10
669.14689030116335
 20
192.58040214178959
 30
0.0
 40
55.0
  1
RL \U+03C69.52
 41
0.9
  0
TEXT
  5
287
  8
NOTE
  6
CONTINUOUS
 62
     4
 10
559.17092128138665
 20
-593.87793605169645
 30
0.0
 40
55.0
  1
RG \U+03C615.88
 41
0.9
  0
LINE
  5
288
  8
NOTE
  6
CONTINUOUS
 62
     4
 10
959.65199116590952
 20
-616.71646405169645
 30
0.0
 11
545.77408198369085
 21
-616.71646405169645
 31
0.0
  0
LINE
  5
289
  8
NOTE
  6
CONTINUOUS
 62
     4
 10
236.5
 20
-237.0
 30
0.0
 11
545.77408198369085
 21
-616.71646405169645
 31
0.0
  0
LINE
  5
28A
  8
NOTE
  6
CONTINUOUS
 62
     4
 10
167.5
 20
-179.0
 30
0.0
 11
657.31864691914234
 21
169.74187414178959
 31
0.0
  0
LINE
  5
28B
  8
NOTE
  6
CONTINUOUS
 62
     4
 10
187.5
 20
-179.0
 30
0.0
 11
147.5
 21
-179.0
 31
0.0
  0
LINE
  5
28C
  8
NOTE
  6
CONTINUOUS
 62
     4
 10
167.5
 20
-199.0
 30
0.0
 11
167.5
 21
-159.0
 31
0.0
  0
LINE
  5
28D
  8
NOTE
  6
CONTINUOUS
 62
     4
 10
256.5
 20
-237.0
 30
0.0
 11
216.5
 21
-237.0
 31
0.0
  0
LINE
  5
28E
  8
NOTE
  6
CONTINUOUS
 62
     4
 10
236.5
 20
-257.0
 30
0.0
 11
236.5
 21
-217.0
 31
0.0
  0
LINE
  5
28F
  8
NOTE
  6
CONTINUOUS
 62
     4
 10
253.46427633615539
 20
-273.22448571238959
 30
0.0
 11
236.5
 21
-237.0
 31
0.0
  0
LINE
  5
290
  8
NOTE
  6
CONTINUOUS
 62
     4
 10
236.5
 20
-237.0
 30
0.0
 11
269.30373623937402
 21
-259.8891860629526
 31
0.0
  0
LINE
  5
291
  8
NOTE
  6
CONTINUOUS
 62
     4
 10
204.2950301078005
 20
-163.31160394728241
 30
0.0
 11
167.5
 21
-179.0
 31
0.0
  0
LINE
  5
292
  8
NOTE
  6
CONTINUOUS
 62
     4
 10
167.5
 20
-179.0
 30
0.0
 11
191.5212324934752
 21
-147.01593521540681
 31
0.0
  0
LINE
  5
2F2
  8
SIZE
  6
CONTINUOUS
 62
    30
 10
423.5
 20
-400.0
 30
0.0
 11
423.5
 21
-711.90343059390943
 31
0.0
  0
LINE
  5
2F3
  8
SIZE
  6
CONTINUOUS
 62
    30
 10
246.5
 20
-681.90343059390955
 30
0.0
 11
413.49999999999989
 21
-681.90343059390955
 31
0.0
  0
LINE
  5
2F9
  8
SIZE
  6
CONTINUOUS
 62
    30
 10
167.5
 20
-213.0
 30
0.0
 11
167.5
 21
-711.90343059390943
 31
0.0
  0
LINE
  5
2FA
  8
SIZE
  6
CONTINUOUS
 62
    30
 10
226.5
 20
-681.90343059390955
 30
0.0
 11
177.5
 21
-681.90343059390955
 31
0.0
  0
CIRCLE
  5
300
  8
SIZE
  6
CONTINUOUS
 62
    30
 10
167.5
 20
-681.90343059390955
 30
0.0
 40
5.0
  0
LINE
  5
301
  8
SIZE
  6
CONTINUOUS
 62
    30
 10
172.5
 20
-681.90343059390955
 30
0.0
 11
177.5
 21
-681.90343059390955
 31
0.0
  0
CIRCLE
  5
302
  8
SIZE
  6
CONTINUOUS
 62
    30
 10
236.5
 20
-681.90343059390955
 30
0.0
 40
5.0
  0
LINE
  5
303
  8
SIZE
  6
CONTINUOUS
 62
    30
 10
231.5
 20
-681.90343059390955
 30
0.0
 11
226.5
 21
-681.90343059390955
 31
0.0
  0
TEXT
  5
304
  8
SIZE
  6
CONTINUOUS
 62
    30
 10
264.57142857142912
 20
-670.56060442030855
 30
0.0
 40
55.0
  1
187
 41
0.9
 72
     1
 11
323.50000000000051
 21
-670.56060442030855
 31
0.0
  0
CIRCLE
  5
305
  8
SIZE
  6
CONTINUOUS
 62
    30
 10
423.5
 20
-681.90343059390955
 30
0.0
 40
5.0
  0
LINE
  5
306
  8
SIZE
  6
CONTINUOUS
 62
    30
 10
418.5
 20
-681.90343059390955
 30
0.0
 11
413.49999999999989
 21
-681.90343059390955
 31
0.0
  0
CIRCLE
  5
307
  8
SIZE
  6
CONTINUOUS
 62
    30
 10
236.5
 20
-681.90343059390955
 30
0.0
 40
5.0
  0
LINE
  5
308
  8
SIZE
  6
CONTINUOUS
 62
    30
 10
241.5
 20
-681.90343059390955
 30
0.0
 11
246.5
 21
-681.90343059390955
 31
0.0
  0
LINE
  5
310
  8
SIZE
  6
CONTINUOUS
 62
    30
 10
236.4999884643621
 20
-285.01089106780643
 30
0.0
 11
236.4999884643621
 21
-711.90342564858645
 31
0.0
  0
LINE
  5
394
  8
SIZE
  6
CONTINUOUS
 62
    30
 10
196.5
 20
-237.0
 30
0.0
 11
-164.51040360487971
 21
-237.00000000000011
 31
0.0
  0
LINE
  5
395
  8
SIZE
  6
CONTINUOUS
 62
    30
 10
-134.51040360487971
 20
-227.00000000000011
 30
0.0
 11
-134.51040360487971
 21
-186.50000000000011
 31
0.0
  0
LINE
  5
396
  8
SIZE
  6
CONTINUOUS
 62
    30
 10
-134.51040360487971
 20
-179.00000000000011
 30
0.0
 11
-134.51040360487971
 21
-63.610757419783262
 31
0.0
  0
LINE
  5
39A
  8
SIZE
  6
CONTINUOUS
 62
    30
 10
403.5
 20
-380.0
 30
0.0
 11
-177.51040360487971
 21
-380.00000000000023
 31
0.0
  0
LINE
  5
39B
  8
SIZE
  6
CONTINUOUS
 62
    30
 10
-134.51040360487971
 20
-227.00000000000011
 30
0.0
 11
-134.51040360487971
 21
-217.00000000000011
 31
0.0
  0
LINE
  5
39C
  8
SIZE
  6
CONTINUOUS
 62
    30
 10
-134.51040360487971
 20
-390.00000000000028
 30
0.0
 11
-134.51040360487971
 21
-540.53191029516518
 31
0.0
  0
LINE
  5
39D
  8
SIZE
  6
CONTINUOUS
 62
    30
 10
-134.51040360487971
 20
-237.00000000000011
 30
0.0
 11
-134.51040360487971
 21
-380.00000000000023
 31
0.0
  0
TEXT
  5
3A1
  8
SIZE
  6
CONTINUOUS
 62
    30
 10
-147.259037186348
 20
-154.4502276627255
 30
0.0
 40
55.0
  1
58
 50
90.0
 41
0.9
 72
     1
 11
-147.259037186348
 21
-114.378799091297
 31
0.0
  0
CIRCLE
  5
3A2
  8
SIZE
  6
CONTINUOUS
 62
    30
 10
-134.51040360487971
 20
-179.00000000000011
 30
0.0
 40
5.0
  0
LINE
  5
3A3
  8
SIZE
  6
CONTINUOUS
 62
    30
 10
-134.51040360487971
 20
-184.00000000000011
 30
0.0
 11
-134.51040360487971
 21
-189.0
 31
0.0
  0
CIRCLE
  5
3A4
  8
SIZE
  6
CONTINUOUS
 62
    30
 10
-134.51040360487971
 20
-237.00000000000011
 30
0.0
 40
5.0
  0
LINE
  5
3A5
  8
SIZE
  6
CONTINUOUS
 62
    30
 10
-134.51040360487971
 20
-232.00000000000011
 30
0.0
 11
-134.51040360487971
 21
-227.00000000000011
 31
0.0
  0
TEXT
  5
3A6
  8
SIZE
  6
CONTINUOUS
 62
    30
 10
-147.5059410968679
 20
-517.84730391666255
 30
0.0
 40
55.0
  1
143
 50
90.0
 41
0.9
 72
     1
 11
-147.5059410968679
 21
-458.91873248809128
 31
0.0
  0
CIRCLE
  5
3A7
  8
SIZE
  6
CONTINUOUS
 62
    30
 10
-134.51040360487971
 20
-380.00000000000023
 30
0.0
 40
5.0
  0
LINE
  5
3A8
  8
SIZE
  6
CONTINUOUS
 62
    30
 10
-134.51040360487971
 20
-385.00000000000023
 30
0.0
 11
-134.51040360487971
 21
-390.00000000000028
 31
0.0
  0
CIRCLE
  5
3A9
  8
SIZE
  6
CONTINUOUS
 62
    30
 10
-134.51040360487971
 20
-237.00000000000011
 30
0.0
 40
5.0
  0
LINE
  5
3AA
  8
SIZE
  6
CONTINUOUS
 62
    30
 10
-134.51040360487971
 20
-232.00000000000011
 30
0.0
 11
-134.51040360487971
 21
-227.00000000000011
 31
0.0
  0
LINE
  5
3B7
  8
SIZE
  6
CONTINUOUS
 62
    30
 10
123.5488229370676
 20
-179.0
 30
0.0
 11
-164.51040360487971
 21
-179.00000000000011
 31
0.0
  0
LINE
  5
5D9
  8
DETAIL
  6
CONTINUOUS
 62
     5
 10
-451.49999112520891
 20
-379.99999322744412
 30
0.0
 11
-351.49999112520891
 21
-379.99999322744412
 31
0.0
  0
LINE
  5
801
  8
NOTE
  6
CONTINUOUS
 62
     4
 10
-474.96894499999991
 20
-54.997208999999991
 30
0.0
 11
-437.5
 21
-69.0
 31
0.0
  0
LINE
  5
802
  8
NOTE
  6
CONTINUOUS
 62
     4
 10
-437.5
 20
-69.0
 30
0.0
 11
-462.94766299999992
 21
-38.138755000000003
 31
0.0
  0
LINE
  5
803
  8
NOTE
  6
CONTINUOUS
 62
     4
 10
466.31900099999979
 20
-33.260764000000002
 30
0.0
 11
437.5
 21
-61.0
 31
0.0
  0
LINE
  5
804
  8
NOTE
  6
CONTINUOUS
 62
     4
 10
437.5
 20
-61.0
 30
0.0
 11
476.32760499999989
 21
-51.386617999999999
 31
0.0
  0
LINE
  5
855
  8
NOTE
  6
CONTINUOUS
 62
     4
 10
59.0
 20
-350.0
 30
0.0
 11
99.0
 21
-350.0
 31
0.0
  0
LINE
  5
856
  8
NOTE
  6
CONTINUOUS
 62
     4
 10
79.0
 20
-370.0
 30
0.0
 11
79.0
 21
-330.0
 31
0.0
  0
CIRCLE
  5
858
  8
DETAIL
  6
CONTINUOUS
 62
     5
 10
79.0
 20
-350.0
 30
0.0
 40
16.0
  0
LINE
  5
859
  8
DETAIL
  6
CONTINUOUS
 62
     5
 10
-381.5
 20
-250.0
 30
0.0
 11
-81.5
 21
-250.0
 31
0.0
  0
LINE
  5
85A
  8
DETAIL
  6
CONTINUOUS
 62
     5
 10
-81.5
 20
-0.0700345936347731
 30
0.0
 11
-81.5
 21
-250.0
 31
0.0
  0
LINE
  5
85B
  8
DETAIL
  6
CONTINUOUS
 62
     5
 10
-381.5
 20
0.0
 30
0.0
 11
-381.5
 21
-250.0
 31
0.0
  0
LINE
  5
85C
  8
DETAIL
  6
CONTINUOUS
 62
     5
 10
-320.0
 20
-334.0
 30
0.0
 11
-84.0
 21
-334.0
 31
0.0
  0
LINE
  5
85D
  8
DETAIL
  6
CONTINUOUS
 62
     5
 10
-84.0
 20
-250.0
 30
0.0
 11
-84.0
 21
-334.0
 31
0.0
  0
LINE
  5
85E
  8
DETAIL
  6
CONTINUOUS
 62
     5
 10
-320.0
 20
-250.0
 30
0.0
 11
-320.0
 21
-334.0
 31
0.0
  0
TEXT
  5
868
  8
NOTE
  6
CONTINUOUS
 62
     4
 10
580.76095808593959
 20
-715.75632841988431
 30
0.0
 40
55.0
  1
D2 (O.D.\U+03C632)
 41
0.9
  0
LINE
  5
869
  8
NOTE
  6
CONTINUOUS
 62
     4
 10
571.7769170859392
 20
-738.59485741988465
 30
0.0
 11
1088.914094788852
 21
-738.59485741988465
 31
0.0
  0
TEXT
  5
86A
  8
NOTE
  6
CONTINUOUS
 62
     4
 10
-1171.7725954027071
 20
237.73041054835929
 30
0.0
 40
55.0
  1
D1 (O.D.\U+03C632)
 41
0.9
  0
LINE
  5
86B
  8
NOTE
  6
CONTINUOUS
 62
     4
 10
-1180.756636402707
 20
214.89188154835941
 30
0.0
 11
-663.61945869979525
 21
214.89188154835941
 31
0.0
  0
TEXT
  5
86C
  8
NOTE
  6
CONTINUOUS
 62
     4
 10
607.25788278063226
 20
-816.78081916938754
 30
0.0
 40
55.0
  1
(自然排水用)
 41
0.9
  0
CIRCLE
  5
873
  8
DETAIL
  6
CONTINUOUS
 62
     5
 10
236.5
 20
-237.0
 30
0.0
 40
7.9400000000000004
  0
CIRCLE
  5
874
  8
DETAIL
  6
CONTINUOUS
 62
     5
 10
167.5
 20
-179.0
 30
0.0
 40
4.759999999999998
  0
LINE
  5
889
  8
NOTE
  6
CONTINUOUS
 62
     4
 10
-26.5
 20
-53.5
 30
0.0
 11
13.5
 21
-53.5
 31
0.0
  0
LINE
  5
88A
  8
NOTE
  6
CONTINUOUS
 62
     4
 10
-6.5
 20
-73.5
 30
0.0
 11
-6.5
 21
-33.5
 31
0.0
  0
CIRCLE
  5
88B
  8
DETAIL
  6
CONTINUOUS
 62
     5
 10
-6.5
 20
-53.5
 30
0.0
 40
16.0
  0
LINE
  5
895
  8
NOTE
  6
CONTINUOUS
 62
     4
 10
-6.5
 20
-53.5
 30
0.0
 11
-663.61945869979525
 21
214.89188154835941
 31
0.0
  0
LINE
  5
896
  8
NOTE
  6
CONTINUOUS
 62
     4
 10
-37.470119628625511
 20
-28.184951085777289
 30
0.0
 11
-6.5
 21
-53.5
 31
0.0
  0
LINE
  5
897
  8
NOTE
  6
CONTINUOUS
 62
     4
 10
-6.5
 20
-53.5
 30
0.0
 11
-45.978434861865487
 21
-47.061584705217641
 31
0.0
  0
LINE
  5
8A9
  8
NOTE
  6
CONTINUOUS
 62
     4
 10
79.0
 20
-350.0
 30
0.0
 11
571.7769170859392
 21
-738.59485741988465
 31
0.0
  0
LINE
  5
8AA
  8
NOTE
  6
CONTINUOUS
 62
     4
 10
102.11933781593331
 20
-382.64194013365812
 30
0.0
 11
79.0
 21
-350.0
 31
0.0
  0
LINE
  5
8AB
  8
NOTE
  6
CONTINUOUS
 62
     4
 10
79.0
 20
-350.0
 30
0.0
 11
115.3429029547149
 21
-366.70908000791962
 31
0.0
  0
TEXT
  5
8B4
  8
SIZE
  6
CONTINUOUS
 62
    30
 10
860.68048366991877
 20
-244.2586254047101
 30
0.0
 40
55.0
  1
25
 50
90.0
 41
0.9
 72
     1
 11
860.68048366991877
 21
-204.1871968332816
 31
0.0
  0
LINE
  5
8B5
  8
SIZE
  6
CONTINUOUS
 62
    30
 10
873.55236561969264
 20
-157.68687314691479
 30
0.0
 11
873.55236561969264
 21
-261.00000514691487
 31
0.0
  0
LINE
  5
8BD
  8
SIZE
  6
CONTINUOUS
 62
    30
 10
873.55236561969264
 20
-261.00000514691487
 30
0.0
 11
775.68049873480959
 21
-273.5
 31
0.0
  0
LINE
  5
8D8
  8
SIZE
  6
CONTINUOUS
 62
    30
 10
359.38109046817408
 20
-793.89176064119602
 30
0.0
 11
227.5985405127376
 21
-793.89176064119602
 31
0.0
  0
TEXT
  5
8D9
  8
SIZE
  6
CONTINUOUS
 62
    30
 10
242.57215106239721
 20
-782.70900786356231
 30
0.0
 40
55.0
  1
69
 41
0.9
 72
     1
 11
281.46500820525438
 21
-782.70900786356231
 31
0.0
  0
LINE
  5
8E1
  8
SIZE
  6
CONTINUOUS
 62
    30
 10
227.5985405127376
 20
-793.89176064119602
 30
0.0
 11
202.0
 21
-681.90343059390955
 31
0.0
  0
LINE
  5
959
  8
SIZE
  6
CONTINUOUS
 62
    30
 10
-443.5
 20
0.0000000000000057
 30
0.0
 11
-1075.4243029850329
 21
0.0000000000001847
 31
0.0
  0
LINE
  5
95A
  8
SIZE
  6
CONTINUOUS
 62
    30
 10
-471.49999999999989
 20
-380.0
 30
0.0
 11
-1075.4243029850329
 21
-379.99999999999977
 31
0.0
  0
LINE
  5
95B
  8
SIZE
  6
CONTINUOUS
 62
    30
 10
-1045.4243029850329
 20
-9.9999999999998224
 30
0.0
 11
-1045.4243029850329
 21
-369.99999999999977
 31
0.0
  0
LINE
  5
95F
  8
SIZE
  6
CONTINUOUS
 62
    30
 10
-46.5
 20
-53.5
 30
0.0
 11
-272.3496544341541
 21
-53.499999999999943
 31
0.0
  0
LINE
  5
960
  8
SIZE
  6
CONTINUOUS
 62
    30
 10
403.5
 20
-380.0
 30
0.0
 11
-272.34965443415422
 21
-379.99999999999977
 31
0.0
  0
LINE
  5
961
  8
SIZE
  6
CONTINUOUS
 62
    30
 10
-242.34965443415419
 20
-63.499999999999943
 30
0.0
 11
-242.3496544341543
 21
-369.99999999999977
 31
0.0
  0
LINE
  5
965
  8
SIZE
  6
CONTINUOUS
 62
    30
 10
79.0
 20
-390.0
 30
0.0
 11
78.999999999999972
 21
-921.76661741557132
 31
0.0
  0
LINE
  5
966
  8
SIZE
  6
CONTINUOUS
 62
    30
 10
423.5
 20
-400.0
 30
0.0
 11
423.49999999999989
 21
-921.76661741557132
 31
0.0
  0
LINE
  5
967
  8
SIZE
  6
CONTINUOUS
 62
    30
 10
88.999999999999957
 20
-891.76661741557086
 30
0.0
 11
413.49999999999989
 21
-891.76661741557086
 31
0.0
  0
LINE
  5
96B
  8
SIZE
  6
CONTINUOUS
 62
    30
 10
-6.5
 20
-93.499999999999986
 30
0.0
 11
-6.500000000000056
 21
-1025.8116504733771
 31
0.0
  0
LINE
  5
96C
  8
SIZE
  6
CONTINUOUS
 62
    30
 10
423.5
 20
-400.0
 30
0.0
 11
423.49999999999989
 21
-1025.8116504733771
 31
0.0
  0
LINE
  5
96D
  8
SIZE
  6
CONTINUOUS
 62
    30
 10
3.4999999999999432
 20
-995.81165047337709
 30
0.0
 11
413.49999999999989
 21
-995.81165047337709
 31
0.0
  0
TEXT
  5
971
  8
SIZE
  6
CONTINUOUS
 62
    30
 10
-1059.517454570406
 20
-253.64285714285691
 30
0.0
 40
55.0
  1
380
 50
90.0
 41
0.9
 72
     1
 11
-1059.517454570406
 21
-189.9999999999998
 31
0.0
  0
CIRCLE
  5
972
  8
SIZE
  6
CONTINUOUS
 62
    30
 10
-1045.4243029850329
 20
-379.99999999999977
 30
0.0
 40
5.0
  0
LINE
  5
973
  8
SIZE
  6
CONTINUOUS
 62
    30
 10
-1045.4243029850329
 20
-374.99999999999977
 30
0.0
 11
-1045.4243029850329
 21
-369.99999999999977
 31
0.0
  0
CIRCLE
  5
974
  8
SIZE
  6
CONTINUOUS
 62
    30
 10
-1045.4243029850329
 20
0.0000000000001762
 30
0.0
 40
5.0
  0
LINE
  5
975
  8
SIZE
  6
CONTINUOUS
 62
    30
 10
-1045.4243029850329
 20
-4.9999999999998241
 30
0.0
 11
-1045.4243029850329
 21
-9.9999999999998241
 31
0.0
  0
TEXT
  5
976
  8
SIZE
  6
CONTINUOUS
 62
    30
 10
-254.05562867107801
 20
-315.74999999999989
 30
0.0
 40
55.0
  1
326.5
 50
90.0
 41
0.9
 72
     1
 11
-254.05562867107801
 21
-216.74999999999989
 31
0.0
  0
CIRCLE
  5
977
  8
SIZE
  6
CONTINUOUS
 62
    30
 10
-242.3496544341543
 20
-379.99999999999977
 30
0.0
 40
5.0
  0
LINE
  5
978
  8
SIZE
  6
CONTINUOUS
 62
    30
 10
-242.3496544341543
 20
-374.99999999999977
 30
0.0
 11
-242.3496544341543
 21
-369.99999999999977
 31
0.0
  0
CIRCLE
  5
979
  8
SIZE
  6
CONTINUOUS
 62
    30
 10
-242.34965443415419
 20
-53.499999999999943
 30
0.0
 40
5.0
  0
LINE
  5
97A
  8
SIZE
  6
CONTINUOUS
 62
    30
 10
-242.34965443415419
 20
-58.499999999999943
 30
0.0
 11
-242.34965443415419
 21
-63.499999999999943
 31
0.0
  0
TEXT
  5
97B
  8
SIZE
  6
CONTINUOUS
 62
    30
 10
152.2499999999998
 20
-879.91724069176746
 30
0.0
 40
55.0
  1
344.5
 41
0.9
 72
     1
 11
251.24999999999989
 21
-879.91724069176746
 31
0.0
  0
CIRCLE
  5
97C
  8
SIZE
  6
CONTINUOUS
 62
    30
 10
423.49999999999989
 20
-891.76661741557086
 30
0.0
 40
5.0
  0
LINE
  5
97D
  8
SIZE
  6
CONTINUOUS
 62
    30
 10
418.49999999999989
 20
-891.76661741557086
 30
0.0
 11
413.49999999999989
 21
-891.76661741557086
 31
0.0
  0
CIRCLE
  5
97E
  8
SIZE
  6
CONTINUOUS
 62
    30
 10
78.999999999999972
 20
-891.76661741557086
 30
0.0
 40
5.0
  0
LINE
  5
97F
  8
SIZE
  6
CONTINUOUS
 62
    30
 10
83.999999999999957
 20
-891.76661741557086
 30
0.0
 11
88.999999999999957
 21
-891.76661741557086
 31
0.0
  0
TEXT
  5
980
  8
SIZE
  6
CONTINUOUS
 62
    30
 10
144.85714285714269
 20
-983.96227374957414
 30
0.0
 40
55.0
  1
430
 41
0.9
 72
     1
 11
208.49999999999989
 21
-983.96227374957414
 31
0.0
  0
CIRCLE
  5
981
  8
SIZE
  6
CONTINUOUS
 62
    30
 10
423.49999999999989
 20
-995.81165047337709
 30
0.0
 40
5.0
  0
LINE
  5
982
  8
SIZE
  6
CONTINUOUS
 62
    30
 10
418.49999999999989
 20
-995.81165047337709
 30
0.0
 11
413.49999999999989
 21
-995.81165047337709
 31
0.0
  0
CIRCLE
  5
983
  8
SIZE
  6
CONTINUOUS
 62
    30
 10
-6.500000000000056
 20
-995.81165047337709
 30
0.0
 40
5.0
  0
LINE
  5
984
  8
SIZE
  6
CONTINUOUS
 62
    30
 10
-1.5000000000000551
 20
-995.81165047337709
 30
0.0
 11
3.4999999999999432
 21
-995.81165047337709
 31
0.0
  0
TEXT
  5
E86
  8
ETC
  6
CONTINUOUS
 62
    61
 10
66.857501812803662
 20
559.43690117880215
 30
0.0
 40
64.0
  1
PEFY-P112_160MG3_5
 41
0.9
  0
TEXT
  5
E87
  8
ETC
  6
CONTINUOUS
 62
    61
 10
66.857501812803662
 20
659.79221754083017
 30
0.0
 40
64.0
  1
PEFY-P112_160MG2_5
 41
0.9
  0
ENDSEC
  0
EOF
