  0
SECTION
  2
HEADER
  9
$ACADVER
  1
AC1009
  9
$INSBASE
 10
0.0
 20
0.0
 30
0.0
  9
$EXTMIN
 10
-1330.403
 20
-711.946236
 30
0.0
  9
$EXTMAX
 10
1776.835043
 20
495.625536
 30
0.0
  9
$LIMMIN
 10
-2970.0
 20
-2100.0
  9
$LIMMAX
 10
2970.0
 20
2100.0
  9
$ORTHOMODE
 70
     0
  9
$REGENMODE
 70
     0
  9
$FILLMODE
 70
     1
  9
$QTEXTMODE
 70
     0
  9
$MIRRTEXT
 70
     0
  9
$DRAGMODE
 70
     2
  9
$LTSCALE
 40
20.0
  9
$OSMODE
 70
     0
  9
$ATTMODE
 70
     1
  9
$TEXTSIZE
 40
64.0
  9
$TRACEWID
 40
0.05
  9
$TEXTSTYLE
  7
STANDARD
  9
$CLAYER
  8
0
  9
$CELTYPE
  6
CONTINUOUS
  9
$CECOLOR
 62
     7
  9
$DIMSCALE
 40
1.0
  9
$DIMASZ
 40
2.0
  9
$DIMEXO
 40
20.0
  9
$DIMDLI
 40
200.0
  9
$DIMRND
 40
0.0
  9
$DIMDLE
 40
0.0
  9
$DIMEXE
 40
30.0
  9
$DIMTP
 40
0.0
  9
$DIMTM
 40
0.0
  9
$DIMTXT
 40
64.0
  9
$DIMCEN
 40
0.09
  9
$DIMTSZ
 40
0.0
  9
$DIMTOL
 70
     0
  9
$DIMLIM
 70
     0
  9
$DIMTIH
 70
     0
  9
$DIMTOH
 70
     0
  9
$DIMSE1
 70
     0
  9
$DIMSE2
 70
     0
  9
$DIMTAD
 70
     1
  9
$DIMZIN
 70
     8
  9
$DIMBLK
  1

  9
$DIMASO
 70
     1
  9
$DIMSHO
 70
     0
  9
$DIMPOST
  1

  9
$DIMAPOST
  1

  9
$DIMALT
 70
     0
  9
$DIMALTD
 70
     2
  9
$DIMALTF
 40
25.4
  9
$DIMLFAC
 40
1.0
  9
$DIMTOFL
 70
     1
  9
$DIMTVP
 40
0.0
  9
$DIMTIX
 70
     1
  9
$DIMSOXD
 70
     0
  9
$DIMSAH
 70
     0
  9
$DIMBLK1
  1

  9
$DIMBLK2
  1

  9
$DIMSTYLE
  2
STANDARD
  9
$DIMCLRD
 70
     0
  9
$DIMCLRE
 70
     0
  9
$DIMCLRT
 70
     0
  9
$DIMTFAC
 40
1.0
  9
$DIMGAP
 40
0.09
  9
$LUNITS
 70
     2
  9
$LUPREC
 70
     4
  9
$SKETCHINC
 40
0.1
  9
$FILLETRAD
 40
5.0
  9
$AUNITS
 70
     1
  9
$AUPREC
 70
     3
  9
$MENU
  1
ACAD
  9
$ELEVATION
 40
0.0
  9
$PELEVATION
 40
0.0
  9
$THICKNESS
 40
0.0
  9
$LIMCHECK
 70
     1
  9
$BLIPMODE
 70
     0
  9
$CHAMFERA
 40
0.0
  9
$CHAMFERB
 40
0.0
  9
$SKPOLY
 70
     0
  9
$TDCREATE
 40
2450956.69022
  9
$TDUPDATE
 40
2451261.657361
  9
$TDINDWG
 40
0.0111
  9
$TDUSRTIMER
 40
0.0111
  9
$USRTIMER
 70
     1
  9
$ANGBASE
 50
0.0
  9
$ANGDIR
 70
     0
  9
$PDMODE
 70
     3
  9
$PDSIZE
 40
-2.0
  9
$PLINEWID
 40
0.0
  9
$COORDS
 70
     2
  9
$SPLFRAME
 70
     0
  9
$SPLINETYPE
 70
     6
  9
$SPLINESEGS
 70
     8
  9
$ATTDIA
 70
     0
  9
$ATTREQ
 70
     1
  9
$HANDLING
 70
     1
  9
$HANDSEED
  5
1B9
  9
$SURFTAB1
 70
     6
  9
$SURFTAB2
 70
     6
  9
$SURFTYPE
 70
     6
  9
$SURFU
 70
     6
  9
$SURFV
 70
     6
  9
$UCSNAME
  2

  9
$UCSORG
 10
0.0
 20
0.0
 30
0.0
  9
$UCSXDIR
 10
1.0
 20
0.0
 30
0.0
  9
$UCSYDIR
 10
0.0
 20
1.0
 30
0.0
  9
$PUCSNAME
  2

  9
$PUCSORG
 10
0.0
 20
0.0
 30
0.0
  9
$PUCSXDIR
 10
1.0
 20
0.0
 30
0.0
  9
$PUCSYDIR
 10
0.0
 20
1.0
 30
0.0
  9
$USERI1
 70
     0
  9
$USERI2
 70
     0
  9
$USERI3
 70
     0
  9
$USERI4
 70
     0
  9
$USERI5
 70
     0
  9
$USERR1
 40
20.0
  9
$USERR2
 40
0.0
  9
$USERR3
 40
0.0
  9
$USERR4
 40
0.0
  9
$USERR5
 40
0.0
  9
$WORLDVIEW
 70
     1
  9
$SHADEDGE
 70
     3
  9
$SHADEDIF
 70
    70
  9
$TILEMODE
 70
     1
  9
$MAXACTVP
 70
    48
  9
$PLIMCHECK
 70
     0
  9
$PEXTMIN
 10
1.000000E+020
 20
1.000000E+020
 30
1.000000E+020
  9
$PEXTMAX
 10
-1.000000E+020
 20
-1.000000E+020
 30
-1.000000E+020
  9
$PLIMMIN
 10
0.0
 20
0.0
  9
$PLIMMAX
 10
12.0
 20
9.0
  9
$UNITMODE
 70
     0
  9
$VISRETAIN
 70
     1
  9
$PLINEGEN
 70
     0
  9
$PSLTSCALE
 70
     1
  0
ENDSEC
  0
SECTION
  2
TABLES
  0
TABLE
  2
VPORT
 70
     2
  0
VPORT
  2
*ACTIVE
 70
     0
 10
0.0
 20
0.0
 11
1.0
 21
1.0
 12
784.545455
 22
0.0
 13
0.0
 23
0.0
 14
400.0
 24
400.0
 15
400.0
 25
400.0
 16
0.0
 26
0.0
 36
1.0
 17
0.0
 27
0.0
 37
0.0
 40
4200.0
 41
1.787879
 42
50.0
 43
0.0
 44
0.0
 50
0.0
 51
0.0
 71
     0
 72
  1000
 73
     1
 74
     0
 75
     0
 76
     0
 77
     0
 78
     0
  0
ENDTAB
  0
TABLE
  2
LTYPE
 70
     2
  0
LTYPE
  2
CONTINUOUS
 70
     0
  3
Ä└É³
 72
    65
 73
     0
 40
0.0
  0
LTYPE
  2
DASHDOT
 70
     0
  3
____ _ ____ _ ____ _ ____ _ ____ _ ____ _ ____
 72
    65
 73
     4
 40
5.5
 49
4.0
 49
-0.6
 49
0.3
 49
-0.6
  0
ENDTAB
  0
TABLE
  2
LAYER
 70
    12
  0
LAYER
  2
0
 70
     0
 62
     7
  6
CONTINUOUS
  0
LAYER
  2
OUTLINE
 70
     0
 62
     3
  6
CONTINUOUS
  0
LAYER
  2
DETAIL
 70
     0
 62
     5
  6
CONTINUOUS
  0
LAYER
  2
BASIS
 70
     0
 62
     6
  6
DASHDOT
  0
LAYER
  2
SIZE
 70
     0
 62
    30
  6
CONTINUOUS
  0
LAYER
  2
NOTE
 70
     0
 62
     4
  6
CONTINUOUS
  0
LAYER
  2
ARRANGE
 70
     0
 62
     1
  6
CONTINUOUS
  0
LAYER
  2
FIX
 70
     0
 62
    11
  6
CONTINUOUS
  0
LAYER
  2
SERVICESPACE
 70
     0
 62
     2
  6
DASHDOT
  0
LAYER
  2
ETC
 70
     0
 62
    61
  6
CONTINUOUS
  0
LAYER
  2
SYMBOLLINE
 70
     0
 62
    15
  6
CONTINUOUS
  0
LAYER
  2
DEFPOINTS
 70
     0
 62
     7
  6
CONTINUOUS
  0
ENDTAB
  0
TABLE
  2
STYLE
 70
     1
  0
STYLE
  2
STANDARD
 70
     0
 40
0.0
 41
0.9
 50
0.0
 71
     0
 42
64.0
  3
SIMPLEX
  4
BIGFONT
  0
ENDTAB
  0
TABLE
  2
VIEW
 70
     1
  0
VIEW
  2
ALL
 70
     0
 40
4508.021
 10
0.0
 20
41.309904
 41
6252.632
 11
0.0
 21
0.0
 31
1.0
 12
0.0
 22
0.0
 32
0.0
 42
50.0
 43
0.0
 44
0.0
 50
0.0
 71
     0
  0
ENDTAB
  0
TABLE
  2
UCS
 70
     0
  0
ENDTAB
  0
TABLE
  2
APPID
 70
     1
  0
APPID
  2
ACAD
 70
     0
  0
ENDTAB
  0
TABLE
  2
DIMSTYLE
 70
     1
  0
DIMSTYLE
  2
STANDARD
 70
     0
  3

  4

  5

  6

  7

 40
1.0
 41
0.18
 42
0.0625
 43
0.38
 44
0.18
 45
0.0
 46
0.0
 47
0.0
 48
0.0
140
0.18
141
0.09
142
0.0
143
25.4
144
1.0
145
0.0
146
1.0
147
0.09
 71
     0
 72
     0
 73
     1
 74
     1
 75
     0
 76
     0
 77
     0
 78
     0
170
     0
171
     2
172
     0
173
     0
174
     0
175
     0
176
     0
177
     0
178
     0
  0
ENDTAB
  0
ENDSEC
  0
SECTION
  2
BLOCKS
  0
BLOCK
  8
0
  2
$MODEL_SPACE
 70
     0
 10
0.0
 20
0.0
 30
0.0
  3
$MODEL_SPACE
  1

  0
ENDBLK
  5
19F
  8
0
  0
BLOCK
 67
     1
  8
0
  2
$PAPER_SPACE
 70
     0
 10
0.0
 20
0.0
 30
0.0
  3
$PAPER_SPACE
  1

  0
ENDBLK
  5
19C
 67
     1
  8
0
  0
ENDSEC
  0
SECTION
  2
ENTITIES
  0
TEXT
  5
2E
  8
ETC
  6
CONTINUOUS
 62
    61
 10
778.435043
 20
427.526033
 30
0.0
 40
64.0
  1
PEFY-P112_160M-E_2
 41
0.9
  0
LINE
  5
2F
  8
BASIS
  6
DASHDOT
 62
     6
 10
0.0
 20
126.645665
 30
0.0
 11
0.0
 21
-507.414387
 31
0.0
  0
LINE
  5
30
  8
DETAIL
  6
CONTINUOUS
 62
     5
 10
565.0
 20
0.0
 30
0.0
 11
565.0
 21
-380.0
 31
0.0
  0
LINE
  5
31
  8
DETAIL
  6
CONTINUOUS
 62
     5
 10
-565.0
 20
0.0
 30
0.0
 11
-565.0
 21
-380.0
 31
0.0
  0
LINE
  5
32
  8
DETAIL
  6
CONTINUOUS
 62
     5
 10
625.0
 20
-339.0
 30
0.0
 11
625.0
 21
-349.0
 31
0.0
  0
LINE
  5
33
  8
DETAIL
  6
CONTINUOUS
 62
     5
 10
515.0
 20
-36.0
 30
0.0
 11
515.0
 21
-286.0
 31
0.0
  0
LINE
  5
34
  8
DETAIL
  6
CONTINUOUS
 62
     5
 10
-485.0
 20
-36.0
 30
0.0
 11
-485.0
 21
-286.0
 31
0.0
  0
LINE
  5
35
  8
DETAIL
  6
CONTINUOUS
 62
     5
 10
-565.0
 20
0.0
 30
0.0
 11
565.0
 21
0.0
 31
0.0
  0
LINE
  5
36
  8
DETAIL
  6
CONTINUOUS
 62
     5
 10
-565.0
 20
-380.0
 30
0.0
 11
565.0
 21
-380.0
 31
0.0
  0
LINE
  5
37
  8
DETAIL
  6
CONTINUOUS
 62
     5
 10
-485.0
 20
-286.0
 30
0.0
 11
515.0
 21
-286.0
 31
0.0
  0
LINE
  5
38
  8
DETAIL
  6
CONTINUOUS
 62
     5
 10
-485.0
 20
-36.0
 30
0.0
 11
515.0
 21
-36.0
 31
0.0
  0
LINE
  5
39
  8
DETAIL
  6
CONTINUOUS
 62
     5
 10
-635.0
 20
0.0
 30
0.0
 11
-635.0
 21
-240.475
 31
0.0
  0
LINE
  5
3A
  8
DETAIL
  6
CONTINUOUS
 62
     5
 10
-565.0
 20
0.0
 30
0.0
 11
-635.0
 21
0.0
 31
0.0
  0
LINE
  5
3B
  8
DETAIL
  6
CONTINUOUS
 62
     5
 10
-565.0
 20
-320.0
 30
0.0
 11
-635.0
 21
-320.0
 31
0.0
  0
LINE
  5
3C
  8
DETAIL
  6
CONTINUOUS
 62
     5
 10
565.0
 20
-339.0
 30
0.0
 11
625.0
 21
-339.0
 31
0.0
  0
LINE
  5
3D
  8
DETAIL
  6
CONTINUOUS
 62
     5
 10
565.0
 20
-349.0
 30
0.0
 11
625.0
 21
-349.0
 31
0.0
  0
TEXT
  5
3E
  8
NOTE
  6
CONTINUOUS
 62
     4
 10
-1317.219
 20
4.164306
 30
0.0
 40
64.0
  1
RG âË15.88
 41
0.9
  0
LINE
  5
3F
  8
NOTE
  6
CONTINUOUS
 62
     4
 10
-1330.403
 20
-18.674222
 30
0.0
 11
-884.741258
 21
-18.674222
 31
0.0
  0
LINE
  5
40
  8
NOTE
  6
CONTINUOUS
 62
     4
 10
-650.0
 20
-250.0
 30
0.0
 11
-884.741258
 21
-18.674222
 31
0.0
  0
LINE
  5
41
  8
DETAIL
  6
CONTINUOUS
 62
     5
 10
-650.0
 20
-242.06
 30
0.0
 11
-565.0
 21
-242.06
 31
0.0
  0
LINE
  5
42
  8
DETAIL
  6
CONTINUOUS
 62
     5
 10
-650.0
 20
-257.94
 30
0.0
 11
-565.0
 21
-257.94
 31
0.0
  0
LINE
  5
43
  8
DETAIL
  6
CONTINUOUS
 62
     5
 10
-650.0
 20
-242.06
 30
0.0
 11
-650.0
 21
-257.94
 31
0.0
  0
LINE
  5
44
  8
DETAIL
  6
CONTINUOUS
 62
     5
 10
-685.0
 20
-366.0
 30
0.0
 11
-565.0
 21
-366.0
 31
0.0
  0
LINE
  5
45
  8
DETAIL
  6
CONTINUOUS
 62
     5
 10
-685.0
 20
-334.0
 30
0.0
 11
-565.0
 21
-334.0
 31
0.0
  0
LINE
  5
46
  8
DETAIL
  6
CONTINUOUS
 62
     5
 10
-685.0
 20
-366.0
 30
0.0
 11
-685.0
 21
-334.0
 31
0.0
  0
LINE
  5
47
  8
NOTE
  6
CONTINUOUS
 62
     4
 10
-685.0
 20
-350.0
 30
0.0
 11
-863.015692
 21
-611.627122
 31
0.0
  0
TEXT
  5
48
  8
NOTE
  6
CONTINUOUS
 62
     4
 10
-1087.384
 20
-588.788594
 30
0.0
 40
64.0
  1
DâË32
 41
0.9
  0
LINE
  5
49
  8
NOTE
  6
CONTINUOUS
 62
     4
 10
-1100.819
 20
-611.627122
 30
0.0
 11
-863.015692
 21
-611.627122
 31
0.0
  0
LINE
  5
4A
  8
DETAIL
  6
CONTINUOUS
 62
     5
 10
-630.0
 20
-177.76
 30
0.0
 11
-565.0
 21
-177.76
 31
0.0
  0
LINE
  5
4B
  8
DETAIL
  6
CONTINUOUS
 62
     5
 10
-630.0
 20
-168.24
 30
0.0
 11
-565.0
 21
-168.24
 31
0.0
  0
LINE
  5
4C
  8
DETAIL
  6
CONTINUOUS
 62
     5
 10
-630.0
 20
-177.76
 30
0.0
 11
-630.0
 21
-168.24
 31
0.0
  0
LINE
  5
4D
  8
NOTE
  6
CONTINUOUS
 62
     4
 10
-630.0
 20
-173.0
 30
0.0
 11
-886.403588
 21
95.190103
 31
0.0
  0
TEXT
  5
4E
  8
NOTE
  6
CONTINUOUS
 62
     4
 10
-1263.924
 20
118.028631
 30
0.0
 40
64.0
  1
RL âË9.52
 41
0.9
  0
LINE
  5
4F
  8
NOTE
  6
CONTINUOUS
 62
     4
 10
-1286.893
 20
95.190103
 30
0.0
 11
-886.403588
 21
95.190103
 31
0.0
  0
LINE
  5
50
  8
DETAIL
  6
CONTINUOUS
 62
     5
 10
-635.0
 20
-259.525
 30
0.0
 11
-635.0
 21
-320.0
 31
0.0
  0
CIRCLE
  5
51
  8
ARRANGE
  6
CONTINUOUS
 62
     1
 10
0.0
 20
0.0
 30
0.0
 40
40.0
  0
CIRCLE
  5
52
  8
FIX
  6
CONTINUOUS
 62
    11
 10
602.0
 20
-339.0
 30
0.0
 40
5.0
  0
CIRCLE
  5
53
  8
FIX
  6
CONTINUOUS
 62
    11
 10
-602.0
 20
-339.0
 30
0.0
 40
5.0
  0
TEXT
  5
54
  8
NOTE
  6
CONTINUOUS
 62
     4
 10
731.874971
 20
-629.004655
 30
0.0
 40
64.0
  1
AHâË10
 41
0.9
  0
LINE
  5
55
  8
NOTE
  6
CONTINUOUS
 62
     4
 10
1006.107
 20
-648.875243
 30
0.0
 11
726.575798
 21
-648.875243
 31
0.0
  0
TEXT
  5
56
  8
NOTE
  6
CONTINUOUS
 62
     4
 10
-1104.554
 20
-692.075648
 30
0.0
 40
64.0
  1
AHâË10
 41
0.9
  0
LINE
  5
57
  8
NOTE
  6
CONTINUOUS
 62
     4
 10
-830.322182
 20
-711.946236
 30
0.0
 11
-1109.854
 21
-711.946236
 31
0.0
  0
TEXT
  5
58
  8
NOTE
  6
CONTINUOUS
 62
     4
 10
-984.172376
 20
221.620811
 30
0.0
 40
64.0
  1
CL
 41
0.9
  0
LINE
  5
59
  8
NOTE
  6
CONTINUOUS
 62
     4
 10
-866.624477
 20
203.15068
 30
0.0
 11
-1018.243
 21
203.15068
 31
0.0
  0
TEXT
  5
5A
  8
NOTE
  6
CONTINUOUS
 62
     4
 10
698.004206
 20
135.056854
 30
0.0
 40
64.0
  1
48-âË3
 41
0.9
  0
LINE
  5
5B
  8
NOTE
  6
CONTINUOUS
 62
     4
 10
698.004206
 20
106.437426
 30
0.0
 11
965.134441
 21
106.437426
 31
0.0
  0
LINE
  5
5C
  8
SIZE
  6
CONTINUOUS
 62
    30
 10
-567.0
 20
169.850757
 30
0.0
 11
-677.598743
 21
169.850757
 31
0.0
  0
LINE
  5
5D
  8
SIZE
  6
CONTINUOUS
 62
    30
 10
-385.0
 20
45.910438
 30
0.0
 11
-282.403918
 21
45.910438
 31
0.0
  0
LINE
  5
5E
  8
SIZE
  6
CONTINUOUS
 62
    30
 10
-823.201842
 20
-384.0
 30
0.0
 11
-823.201842
 21
-491.164089
 31
0.0
  0
LINE
  5
5F
  8
SIZE
  6
CONTINUOUS
 62
    30
 10
-901.392064
 20
-173.0
 30
0.0
 11
-901.392064
 21
-70.837127
 31
0.0
  0
LINE
  5
60
  8
SIZE
  6
CONTINUOUS
 62
    30
 10
904.242273
 20
-286.0
 30
0.0
 11
904.242273
 21
-372.835572
 31
0.0
  0
LINE
  5
61
  8
SIZE
  6
CONTINUOUS
 62
    30
 10
904.242273
 20
-211.0
 30
0.0
 11
904.242273
 21
-100.317894
 31
0.0
  0
LINE
  5
62
  8
SIZE
  6
CONTINUOUS
 62
    30
 10
758.822685
 20
-382.0
 30
0.0
 11
758.822685
 21
-502.855976
 31
0.0
  0
LINE
  5
63
  8
NOTE
  6
CONTINUOUS
 62
     4
 10
-602.0
 20
-339.0
 30
0.0
 11
-830.322182
 21
-711.946236
 31
0.0
  0
LINE
  5
64
  8
NOTE
  6
CONTINUOUS
 62
     4
 10
602.0
 20
-339.0
 30
0.0
 11
726.575798
 21
-648.875243
 31
0.0
  0
LINE
  5
65
  8
NOTE
  6
CONTINUOUS
 62
     4
 10
515.0
 20
-61.0
 30
0.0
 11
698.004206
 21
106.437426
 31
0.0
  0
LINE
  5
66
  8
NOTE
  6
CONTINUOUS
 62
     4
 10
-635.0
 20
-46.221699
 30
0.0
 11
-866.624477
 21
203.15068
 31
0.0
  0
LINE
  5
67
  8
OUTLINE
  6
CONTINUOUS
 62
     3
 10
-565.0
 20
-380.0
 30
0.0
 11
565.0
 21
-380.0
 31
0.0
  0
LINE
  5
68
  8
OUTLINE
  6
CONTINUOUS
 62
     3
 10
-565.0
 20
0.0
 30
0.0
 11
565.0
 21
0.0
 31
0.0
  0
LINE
  5
69
  8
OUTLINE
  6
CONTINUOUS
 62
     3
 10
-565.0
 20
0.0
 30
0.0
 11
-565.0
 21
-380.0
 31
0.0
  0
LINE
  5
6A
  8
OUTLINE
  6
CONTINUOUS
 62
     3
 10
565.0
 20
0.0
 30
0.0
 11
565.0
 21
-380.0
 31
0.0
  0
POINT
  5
6B
  8
ARRANGE
  6
CONTINUOUS
 62
     1
 10
0.0
 20
0.0
 30
0.0
  0
LINE
  5
6C
  8
SIZE
  6
CONTINUOUS
 62
    30
 10
602.0
 20
-379.0
 30
0.0
 11
602.0
 21
-666.831719
 31
0.0
  0
LINE
  5
6D
  8
SIZE
  6
CONTINUOUS
 62
    30
 10
-602.0
 20
-379.0
 30
0.0
 11
-602.0
 21
-666.831719
 31
0.0
  0
LINE
  5
6E
  8
SIZE
  6
CONTINUOUS
 62
    30
 10
600.0
 20
-636.831719
 30
0.0
 11
0.0
 21
-636.831719
 31
0.0
  0
LINE
  5
6F
  8
SIZE
  6
CONTINUOUS
 62
    30
 10
-600.0
 20
-636.831719
 30
0.0
 11
0.0
 21
-636.831719
 31
0.0
  0
TEXT
  5
70
  8
SIZE
  6
CONTINUOUS
 62
    30
 10
-90.105032
 20
-604.831719
 30
0.0
 40
64.0
  1
1204
 41
0.9
  0
LINE
  5
71
  8
SIZE
  6
CONTINUOUS
 62
    30
 10
625.0
 20
-369.0
 30
0.0
 11
625.0
 21
-666.831719
 31
0.0
  0
LINE
  5
72
  8
SIZE
  6
CONTINUOUS
 62
    30
 10
602.0
 20
-379.0
 30
0.0
 11
602.0
 21
-666.831719
 31
0.0
  0
LINE
  5
73
  8
SIZE
  6
CONTINUOUS
 62
    30
 10
600.0
 20
-636.831719
 30
0.0
 11
598.0
 21
-636.831719
 31
0.0
  0
LINE
  5
74
  8
SIZE
  6
CONTINUOUS
 62
    30
 10
627.0
 20
-636.831719
 30
0.0
 11
629.0
 21
-636.831719
 31
0.0
  0
LINE
  5
75
  8
SIZE
  6
CONTINUOUS
 62
    30
 10
602.0
 20
-636.831719
 30
0.0
 11
625.0
 21
-636.831719
 31
0.0
  0
TEXT
  5
76
  8
SIZE
  6
CONTINUOUS
 62
    30
 10
551.233384
 20
-604.831719
 30
0.0
 40
64.0
  1
23
 41
0.9
  0
LINE
  5
77
  8
SIZE
  6
CONTINUOUS
 62
    30
 10
585.0
 20
-380.0
 30
0.0
 11
788.822685
 21
-380.0
 31
0.0
  0
LINE
  5
78
  8
SIZE
  6
CONTINUOUS
 62
    30
 10
642.0
 20
-339.0
 30
0.0
 11
788.822685
 21
-339.0
 31
0.0
  0
LINE
  5
79
  8
SIZE
  6
CONTINUOUS
 62
    30
 10
758.822685
 20
-337.0
 30
0.0
 11
758.822685
 21
-335.0
 31
0.0
  0
LINE
  5
7A
  8
SIZE
  6
CONTINUOUS
 62
    30
 10
758.822685
 20
-382.0
 30
0.0
 11
758.822685
 21
-384.0
 31
0.0
  0
LINE
  5
7B
  8
SIZE
  6
CONTINUOUS
 62
    30
 10
758.822685
 20
-339.0
 30
0.0
 11
758.822685
 21
-380.0
 31
0.0
  0
TEXT
  5
7C
  8
SIZE
  6
CONTINUOUS
 62
    30
 10
726.822685
 20
-477.488539
 30
0.0
 40
64.0
  1
41
 50
90.0
 41
0.9
  0
LINE
  5
7D
  8
SIZE
  6
CONTINUOUS
 62
    30
 10
555.0
 20
-261.0
 30
0.0
 11
934.242273
 21
-261.0
 31
0.0
  0
LINE
  5
7E
  8
SIZE
  6
CONTINUOUS
 62
    30
 10
555.0
 20
-211.0
 30
0.0
 11
934.242273
 21
-211.0
 31
0.0
  0
LINE
  5
7F
  8
SIZE
  6
CONTINUOUS
 62
    30
 10
904.242273
 20
-209.0
 30
0.0
 11
904.242273
 21
-207.0
 31
0.0
  0
LINE
  5
80
  8
SIZE
  6
CONTINUOUS
 62
    30
 10
904.242273
 20
-263.0
 30
0.0
 11
904.242273
 21
-265.0
 31
0.0
  0
LINE
  5
81
  8
SIZE
  6
CONTINUOUS
 62
    30
 10
904.242273
 20
-211.0
 30
0.0
 11
904.242273
 21
-261.0
 31
0.0
  0
TEXT
  5
82
  8
SIZE
  6
CONTINUOUS
 62
    30
 10
872.242273
 20
-199.737778
 30
0.0
 40
64.0
  1
50
 50
90.0
 41
0.9
  0
LINE
  5
83
  8
SIZE
  6
CONTINUOUS
 62
    30
 10
535.0
 20
-286.0
 30
0.0
 11
934.242273
 21
-286.0
 31
0.0
  0
LINE
  5
84
  8
SIZE
  6
CONTINUOUS
 62
    30
 10
555.0
 20
-261.0
 30
0.0
 11
934.242273
 21
-261.0
 31
0.0
  0
LINE
  5
85
  8
SIZE
  6
CONTINUOUS
 62
    30
 10
904.242273
 20
-259.0
 30
0.0
 11
904.242273
 21
-257.0
 31
0.0
  0
LINE
  5
86
  8
SIZE
  6
CONTINUOUS
 62
    30
 10
904.242273
 20
-288.0
 30
0.0
 11
904.242273
 21
-290.0
 31
0.0
  0
LINE
  5
87
  8
SIZE
  6
CONTINUOUS
 62
    30
 10
904.242273
 20
-261.0
 30
0.0
 11
904.242273
 21
-286.0
 31
0.0
  0
TEXT
  5
88
  8
SIZE
  6
CONTINUOUS
 62
    30
 10
872.242273
 20
-374.632107
 30
0.0
 40
64.0
  1
25
 50
90.0
 41
0.9
  0
LINE
  5
89
  8
SIZE
  6
CONTINUOUS
 62
    30
 10
535.0
 20
-286.0
 30
0.0
 11
1077.278
 21
-286.0
 31
0.0
  0
LINE
  5
8A
  8
SIZE
  6
CONTINUOUS
 62
    30
 10
535.0
 20
-36.0
 30
0.0
 11
1077.278
 21
-36.0
 31
0.0
  0
LINE
  5
8B
  8
SIZE
  6
CONTINUOUS
 62
    30
 10
1047.278
 20
-284.0
 30
0.0
 11
1047.278
 21
-161.0
 31
0.0
  0
LINE
  5
8C
  8
SIZE
  6
CONTINUOUS
 62
    30
 10
1047.278
 20
-38.0
 30
0.0
 11
1047.278
 21
-161.0
 31
0.0
  0
TEXT
  5
8D
  8
SIZE
  6
CONTINUOUS
 62
    30
 10
1015.278
 20
-235.057143
 30
0.0
 40
64.0
  1
250
 50
90.0
 41
0.9
  0
LINE
  5
8E
  8
SIZE
  6
CONTINUOUS
 62
    30
 10
585.0
 20
-380.0
 30
0.0
 11
1077.278
 21
-380.0
 31
0.0
  0
LINE
  5
8F
  8
SIZE
  6
CONTINUOUS
 62
    30
 10
535.0
 20
-286.0
 30
0.0
 11
1077.278
 21
-286.0
 31
0.0
  0
LINE
  5
90
  8
SIZE
  6
CONTINUOUS
 62
    30
 10
1047.278
 20
-284.0
 30
0.0
 11
1047.278
 21
-282.0
 31
0.0
  0
LINE
  5
91
  8
SIZE
  6
CONTINUOUS
 62
    30
 10
1047.278
 20
-382.0
 30
0.0
 11
1047.278
 21
-384.0
 31
0.0
  0
LINE
  5
92
  8
SIZE
  6
CONTINUOUS
 62
    30
 10
1047.278
 20
-286.0
 30
0.0
 11
1047.278
 21
-380.0
 31
0.0
  0
TEXT
  5
93
  8
SIZE
  6
CONTINUOUS
 62
    30
 10
1015.278
 20
-381.0
 30
0.0
 40
64.0
  1
94
 50
90.0
 41
0.9
  0
LINE
  5
94
  8
SIZE
  6
CONTINUOUS
 62
    30
 10
-690.0
 20
-250.0
 30
0.0
 11
-931.392064
 21
-250.0
 31
0.0
  0
LINE
  5
95
  8
SIZE
  6
CONTINUOUS
 62
    30
 10
-670.0
 20
-173.0
 30
0.0
 11
-931.392064
 21
-173.0
 31
0.0
  0
LINE
  5
96
  8
SIZE
  6
CONTINUOUS
 62
    30
 10
-901.392064
 20
-171.0
 30
0.0
 11
-901.392064
 21
-169.0
 31
0.0
  0
LINE
  5
97
  8
SIZE
  6
CONTINUOUS
 62
    30
 10
-901.392064
 20
-252.0
 30
0.0
 11
-901.392064
 21
-254.0
 31
0.0
  0
LINE
  5
98
  8
SIZE
  6
CONTINUOUS
 62
    30
 10
-901.392064
 20
-173.0
 30
0.0
 11
-901.392064
 21
-250.0
 31
0.0
  0
TEXT
  5
99
  8
SIZE
  6
CONTINUOUS
 62
    30
 10
-933.392064
 20
-169.992545
 30
0.0
 40
64.0
  1
77
 50
90.0
 41
0.9
  0
LINE
  5
9A
  8
SIZE
  6
CONTINUOUS
 62
    30
 10
-585.0
 20
-380.0
 30
0.0
 11
-931.392064
 21
-380.0
 31
0.0
  0
LINE
  5
9B
  8
SIZE
  6
CONTINUOUS
 62
    30
 10
-690.0
 20
-250.0
 30
0.0
 11
-931.392064
 21
-250.0
 31
0.0
  0
LINE
  5
9C
  8
SIZE
  6
CONTINUOUS
 62
    30
 10
-901.392064
 20
-248.0
 30
0.0
 11
-901.392064
 21
-246.0
 31
0.0
  0
LINE
  5
9D
  8
SIZE
  6
CONTINUOUS
 62
    30
 10
-901.392064
 20
-382.0
 30
0.0
 11
-901.392064
 21
-384.0
 31
0.0
  0
LINE
  5
9E
  8
SIZE
  6
CONTINUOUS
 62
    30
 10
-901.392064
 20
-250.0
 30
0.0
 11
-901.392064
 21
-380.0
 31
0.0
  0
TEXT
  5
9F
  8
SIZE
  6
CONTINUOUS
 62
    30
 10
-933.392064
 20
-383.571429
 30
0.0
 40
64.0
  1
130
 50
90.0
 41
0.9
  0
LINE
  5
A0
  8
SIZE
  6
CONTINUOUS
 62
    30
 10
-585.0
 20
-380.0
 30
0.0
 11
-853.201842
 21
-380.0
 31
0.0
  0
LINE
  5
A1
  8
SIZE
  6
CONTINUOUS
 62
    30
 10
-725.0
 20
-350.0
 30
0.0
 11
-853.201842
 21
-350.0
 31
0.0
  0
LINE
  5
A2
  8
SIZE
  6
CONTINUOUS
 62
    30
 10
-823.201842
 20
-348.0
 30
0.0
 11
-823.201842
 21
-346.0
 31
0.0
  0
LINE
  5
A3
  8
SIZE
  6
CONTINUOUS
 62
    30
 10
-823.201842
 20
-382.0
 30
0.0
 11
-823.201842
 21
-384.0
 31
0.0
  0
LINE
  5
A4
  8
SIZE
  6
CONTINUOUS
 62
    30
 10
-823.201842
 20
-350.0
 30
0.0
 11
-823.201842
 21
-380.0
 31
0.0
  0
TEXT
  5
A5
  8
SIZE
  6
CONTINUOUS
 62
    30
 10
-855.201842
 20
-487.889567
 30
0.0
 40
64.0
  1
30
 50
90.0
 41
0.9
  0
LINE
  5
A6
  8
SIZE
  6
CONTINUOUS
 62
    30
 10
585.0
 20
0.0
 30
0.0
 11
1204.965
 21
0.0
 31
0.0
  0
LINE
  5
A7
  8
SIZE
  6
CONTINUOUS
 62
    30
 10
585.0
 20
-380.0
 30
0.0
 11
1204.965
 21
-380.0
 31
0.0
  0
LINE
  5
A8
  8
SIZE
  6
CONTINUOUS
 62
    30
 10
1174.965
 20
-2.0
 30
0.0
 11
1174.965
 21
-190.0
 31
0.0
  0
LINE
  5
A9
  8
SIZE
  6
CONTINUOUS
 62
    30
 10
1174.965
 20
-378.0
 30
0.0
 11
1174.965
 21
-190.0
 31
0.0
  0
TEXT
  5
AA
  8
SIZE
  6
CONTINUOUS
 62
    30
 10
1142.965
 20
-264.057143
 30
0.0
 40
64.0
  1
380
 50
90.0
 41
0.9
  0
LINE
  5
AB
  8
SIZE
  6
CONTINUOUS
 62
    30
 10
-565.0
 20
20.0
 30
0.0
 11
-565.0
 21
68.674293
 31
0.0
  0
LINE
  5
AC
  8
SIZE
  6
CONTINUOUS
 62
    30
 10
-635.0
 20
20.0
 30
0.0
 11
-635.0
 21
68.674293
 31
0.0
  0
LINE
  5
AD
  8
SIZE
  6
CONTINUOUS
 62
    30
 10
-637.0
 20
38.674293
 30
0.0
 11
-639.0
 21
38.674293
 31
0.0
  0
LINE
  5
AE
  8
SIZE
  6
CONTINUOUS
 62
    30
 10
-563.0
 20
38.674293
 30
0.0
 11
-561.0
 21
38.674293
 31
0.0
  0
LINE
  5
AF
  8
SIZE
  6
CONTINUOUS
 62
    30
 10
-635.0
 20
38.674293
 30
0.0
 11
-565.0
 21
38.674293
 31
0.0
  0
TEXT
  5
B0
  8
SIZE
  6
CONTINUOUS
 62
    30
 10
-646.628571
 20
70.674293
 30
0.0
 40
64.0
  1
70
 41
0.9
  0
LINE
  5
B1
  8
SIZE
  6
CONTINUOUS
 62
    30
 10
565.0
 20
20.0
 30
0.0
 11
565.0
 21
429.625536
 31
0.0
  0
LINE
  5
B2
  8
SIZE
  6
CONTINUOUS
 62
    30
 10
-565.0
 20
20.0
 30
0.0
 11
-565.0
 21
429.625536
 31
0.0
  0
LINE
  5
B3
  8
SIZE
  6
CONTINUOUS
 62
    30
 10
563.0
 20
399.625536
 30
0.0
 11
0.0
 21
399.625536
 31
0.0
  0
LINE
  5
B4
  8
SIZE
  6
CONTINUOUS
 62
    30
 10
-563.0
 20
399.625536
 30
0.0
 11
0.0
 21
399.625536
 31
0.0
  0
TEXT
  5
B5
  8
SIZE
  6
CONTINUOUS
 62
    30
 10
-92.549303
 20
431.625536
 30
0.0
 40
64.0
  1
1130
 41
0.9
  0
LINE
  5
B6
  8
SIZE
  6
CONTINUOUS
 62
    30
 10
515.0
 20
-21.0
 30
0.0
 11
515.0
 21
314.738146
 31
0.0
  0
LINE
  5
B7
  8
SIZE
  6
CONTINUOUS
 62
    30
 10
-485.0
 20
-16.0
 30
0.0
 11
-485.0
 21
314.738146
 31
0.0
  0
LINE
  5
B8
  8
SIZE
  6
CONTINUOUS
 62
    30
 10
513.0
 20
284.738146
 30
0.0
 11
15.0
 21
284.738146
 31
0.0
  0
LINE
  5
B9
  8
SIZE
  6
CONTINUOUS
 62
    30
 10
-483.0
 20
284.738146
 30
0.0
 11
15.0
 21
284.738146
 31
0.0
  0
TEXT
  5
BA
  8
SIZE
  6
CONTINUOUS
 62
    30
 10
-88.514939
 20
316.738146
 30
0.0
 40
64.0
  1
1000
 41
0.9
  0
LINE
  5
BB
  8
SIZE
  6
CONTINUOUS
 62
    30
 10
-435.0
 20
4.0
 30
0.0
 11
-435.0
 21
75.910438
 31
0.0
  0
LINE
  5
BC
  8
SIZE
  6
CONTINUOUS
 62
    30
 10
-385.0
 20
4.0
 30
0.0
 11
-385.0
 21
75.910438
 31
0.0
  0
LINE
  5
BD
  8
SIZE
  6
CONTINUOUS
 62
    30
 10
-383.0
 20
45.910438
 30
0.0
 11
-381.0
 21
45.910438
 31
0.0
  0
LINE
  5
BE
  8
SIZE
  6
CONTINUOUS
 62
    30
 10
-437.0
 20
45.910438
 30
0.0
 11
-439.0
 21
45.910438
 31
0.0
  0
LINE
  5
BF
  8
SIZE
  6
CONTINUOUS
 62
    30
 10
-385.0
 20
45.910438
 30
0.0
 11
-435.0
 21
45.910438
 31
0.0
  0
TEXT
  5
C0
  8
SIZE
  6
CONTINUOUS
 62
    30
 10
-371.615731
 20
77.910438
 30
0.0
 40
64.0
  1
50
 41
0.9
  0
LINE
  5
C1
  8
SIZE
  6
CONTINUOUS
 62
    30
 10
-435.0
 20
4.0
 30
0.0
 11
-435.0
 21
199.850757
 31
0.0
  0
LINE
  5
C2
  8
SIZE
  6
CONTINUOUS
 62
    30
 10
465.0
 20
4.0
 30
0.0
 11
465.0
 21
199.850757
 31
0.0
  0
LINE
  5
C3
  8
SIZE
  6
CONTINUOUS
 62
    30
 10
-433.0
 20
169.850757
 30
0.0
 11
15.0
 21
169.850757
 31
0.0
  0
LINE
  5
C4
  8
SIZE
  6
CONTINUOUS
 62
    30
 10
463.0
 20
169.850757
 30
0.0
 11
15.0
 21
169.850757
 31
0.0
  0
TEXT
  5
C5
  8
SIZE
  6
CONTINUOUS
 62
    30
 10
-74.354524
 20
201.850757
 30
0.0
 40
64.0
  1
900
 41
0.9
  0
LINE
  5
C6
  8
SIZE
  6
CONTINUOUS
 62
    30
 10
-485.0
 20
149.850757
 30
0.0
 11
-485.0
 21
139.850757
 31
0.0
  0
LINE
  5
C7
  8
SIZE
  6
CONTINUOUS
 62
    30
 10
-435.0
 20
4.0
 30
0.0
 11
-435.0
 21
199.850757
 31
0.0
  0
LINE
  5
C8
  8
SIZE
  6
CONTINUOUS
 62
    30
 10
-433.0
 20
169.850757
 30
0.0
 11
-431.0
 21
169.850757
 31
0.0
  0
LINE
  5
C9
  8
SIZE
  6
CONTINUOUS
 62
    30
 10
-487.0
 20
169.850757
 30
0.0
 11
-489.0
 21
169.850757
 31
0.0
  0
LINE
  5
CA
  8
SIZE
  6
CONTINUOUS
 62
    30
 10
-435.0
 20
169.850757
 30
0.0
 11
-485.0
 21
169.850757
 31
0.0
  0
TEXT
  5
CB
  8
SIZE
  6
CONTINUOUS
 62
    30
 10
-506.628571
 20
201.850757
 30
0.0
 40
64.0
  1
50
 41
0.9
  0
LINE
  5
CC
  8
SIZE
  6
CONTINUOUS
 62
    30
 10
-565.0
 20
20.0
 30
0.0
 11
-565.0
 21
199.850757
 31
0.0
  0
LINE
  5
CD
  8
SIZE
  6
CONTINUOUS
 62
    30
 10
-485.0
 20
-16.0
 30
0.0
 11
-485.0
 21
199.850757
 31
0.0
  0
LINE
  5
CE
  8
SIZE
  6
CONTINUOUS
 62
    30
 10
-483.0
 20
169.850757
 30
0.0
 11
-481.0
 21
169.850757
 31
0.0
  0
LINE
  5
CF
  8
SIZE
  6
CONTINUOUS
 62
    30
 10
-567.0
 20
169.850757
 30
0.0
 11
-569.0
 21
169.850757
 31
0.0
  0
LINE
  5
D0
  8
SIZE
  6
CONTINUOUS
 62
    30
 10
-485.0
 20
169.850757
 30
0.0
 11
-565.0
 21
169.850757
 31
0.0
  0
TEXT
  5
D1
  8
SIZE
  6
CONTINUOUS
 62
    30
 10
-670.427278
 20
201.850757
 30
0.0
 40
64.0
  1
80
 41
0.9
  0
CIRCLE
  5
D2
  8
SIZE
  6
CONTINUOUS
 62
    30
 10
-565.0
 20
169.850757
 30
0.0
 40
6.0
  0
CIRCLE
  5
D3
  8
SIZE
  6
CONTINUOUS
 62
    30
 10
-485.0
 20
169.850757
 30
0.0
 40
6.0
  0
CIRCLE
  5
D4
  8
SIZE
  6
CONTINUOUS
 62
    30
 10
-485.0
 20
169.850757
 30
0.0
 40
6.0
  0
CIRCLE
  5
D5
  8
SIZE
  6
CONTINUOUS
 62
    30
 10
-435.0
 20
169.850757
 30
0.0
 40
6.0
  0
CIRCLE
  5
D6
  8
SIZE
  6
CONTINUOUS
 62
    30
 10
465.0
 20
169.850757
 30
0.0
 40
6.0
  0
CIRCLE
  5
D7
  8
SIZE
  6
CONTINUOUS
 62
    30
 10
-435.0
 20
169.850757
 30
0.0
 40
6.0
  0
CIRCLE
  5
D8
  8
SIZE
  6
CONTINUOUS
 62
    30
 10
-435.0
 20
45.910438
 30
0.0
 40
6.0
  0
CIRCLE
  5
D9
  8
SIZE
  6
CONTINUOUS
 62
    30
 10
-385.0
 20
45.910438
 30
0.0
 40
6.0
  0
CIRCLE
  5
DA
  8
SIZE
  6
CONTINUOUS
 62
    30
 10
-485.0
 20
284.738146
 30
0.0
 40
6.0
  0
CIRCLE
  5
DB
  8
SIZE
  6
CONTINUOUS
 62
    30
 10
515.0
 20
284.738146
 30
0.0
 40
6.0
  0
CIRCLE
  5
DC
  8
SIZE
  6
CONTINUOUS
 62
    30
 10
-565.0
 20
399.625536
 30
0.0
 40
6.0
  0
CIRCLE
  5
DD
  8
SIZE
  6
CONTINUOUS
 62
    30
 10
565.0
 20
399.625536
 30
0.0
 40
6.0
  0
CIRCLE
  5
DE
  8
SIZE
  6
CONTINUOUS
 62
    30
 10
-565.0
 20
38.674293
 30
0.0
 40
6.0
  0
CIRCLE
  5
DF
  8
SIZE
  6
CONTINUOUS
 62
    30
 10
-635.0
 20
38.674293
 30
0.0
 40
6.0
  0
CIRCLE
  5
E0
  8
SIZE
  6
CONTINUOUS
 62
    30
 10
1174.965
 20
-380.0
 30
0.0
 40
6.0
  0
CIRCLE
  5
E1
  8
SIZE
  6
CONTINUOUS
 62
    30
 10
1174.965
 20
0.0
 30
0.0
 40
6.0
  0
CIRCLE
  5
E2
  8
SIZE
  6
CONTINUOUS
 62
    30
 10
-823.201842
 20
-380.0
 30
0.0
 40
6.0
  0
CIRCLE
  5
E3
  8
SIZE
  6
CONTINUOUS
 62
    30
 10
-823.201842
 20
-350.0
 30
0.0
 40
6.0
  0
CIRCLE
  5
E4
  8
SIZE
  6
CONTINUOUS
 62
    30
 10
-901.392064
 20
-380.0
 30
0.0
 40
6.0
  0
CIRCLE
  5
E5
  8
SIZE
  6
CONTINUOUS
 62
    30
 10
-901.392064
 20
-250.0
 30
0.0
 40
6.0
  0
CIRCLE
  5
E6
  8
SIZE
  6
CONTINUOUS
 62
    30
 10
-901.392064
 20
-250.0
 30
0.0
 40
6.0
  0
CIRCLE
  5
E7
  8
SIZE
  6
CONTINUOUS
 62
    30
 10
-901.392064
 20
-173.0
 30
0.0
 40
6.0
  0
CIRCLE
  5
E8
  8
SIZE
  6
CONTINUOUS
 62
    30
 10
1047.278
 20
-380.0
 30
0.0
 40
6.0
  0
CIRCLE
  5
E9
  8
SIZE
  6
CONTINUOUS
 62
    30
 10
1047.278
 20
-286.0
 30
0.0
 40
6.0
  0
CIRCLE
  5
EA
  8
SIZE
  6
CONTINUOUS
 62
    30
 10
1047.278
 20
-36.0
 30
0.0
 40
6.0
  0
CIRCLE
  5
EB
  8
SIZE
  6
CONTINUOUS
 62
    30
 10
1047.278
 20
-286.0
 30
0.0
 40
6.0
  0
CIRCLE
  5
EC
  8
SIZE
  6
CONTINUOUS
 62
    30
 10
904.242273
 20
-286.0
 30
0.0
 40
6.0
  0
CIRCLE
  5
ED
  8
SIZE
  6
CONTINUOUS
 62
    30
 10
904.242273
 20
-261.0
 30
0.0
 40
6.0
  0
CIRCLE
  5
EE
  8
SIZE
  6
CONTINUOUS
 62
    30
 10
904.242273
 20
-261.0
 30
0.0
 40
6.0
  0
CIRCLE
  5
EF
  8
SIZE
  6
CONTINUOUS
 62
    30
 10
904.242273
 20
-211.0
 30
0.0
 40
6.0
  0
CIRCLE
  5
F0
  8
SIZE
  6
CONTINUOUS
 62
    30
 10
758.822685
 20
-380.0
 30
0.0
 40
6.0
  0
CIRCLE
  5
F1
  8
SIZE
  6
CONTINUOUS
 62
    30
 10
758.822685
 20
-339.0
 30
0.0
 40
6.0
  0
CIRCLE
  5
F2
  8
SIZE
  6
CONTINUOUS
 62
    30
 10
625.0
 20
-636.831719
 30
0.0
 40
6.0
  0
CIRCLE
  5
F3
  8
SIZE
  6
CONTINUOUS
 62
    30
 10
602.0
 20
-636.831719
 30
0.0
 40
6.0
  0
CIRCLE
  5
F4
  8
SIZE
  6
CONTINUOUS
 62
    30
 10
-602.0
 20
-636.831719
 30
0.0
 40
6.0
  0
CIRCLE
  5
F5
  8
SIZE
  6
CONTINUOUS
 62
    30
 10
602.0
 20
-636.831719
 30
0.0
 40
6.0
  0
LINE
  5
F6
  8
NOTE
  6
CONTINUOUS
 62
     4
 10
115.0
 20
-306.0
 30
0.0
 11
115.0
 21
-266.0
 31
0.0
  0
LINE
  5
F7
  8
NOTE
  6
CONTINUOUS
 62
     4
 10
95.0
 20
-286.0
 30
0.0
 11
135.0
 21
-286.0
 31
0.0
  0
LINE
  5
F8
  8
NOTE
  6
CONTINUOUS
 62
     4
 10
65.0
 20
-306.0
 30
0.0
 11
65.0
 21
-266.0
 31
0.0
  0
LINE
  5
F9
  8
NOTE
  6
CONTINUOUS
 62
     4
 10
45.0
 20
-286.0
 30
0.0
 11
85.0
 21
-286.0
 31
0.0
  0
LINE
  5
FA
  8
NOTE
  6
CONTINUOUS
 62
     4
 10
-35.0
 20
-306.0
 30
0.0
 11
-35.0
 21
-266.0
 31
0.0
  0
LINE
  5
FB
  8
NOTE
  6
CONTINUOUS
 62
     4
 10
-55.0
 20
-286.0
 30
0.0
 11
-15.0
 21
-286.0
 31
0.0
  0
LINE
  5
FC
  8
NOTE
  6
CONTINUOUS
 62
     4
 10
-85.0
 20
-306.0
 30
0.0
 11
-85.0
 21
-266.0
 31
0.0
  0
LINE
  5
FD
  8
NOTE
  6
CONTINUOUS
 62
     4
 10
-105.0
 20
-286.0
 30
0.0
 11
-65.0
 21
-286.0
 31
0.0
  0
LINE
  5
FE
  8
NOTE
  6
CONTINUOUS
 62
     4
 10
-85.0
 20
-56.0
 30
0.0
 11
-85.0
 21
-16.0
 31
0.0
  0
LINE
  5
FF
  8
NOTE
  6
CONTINUOUS
 62
     4
 10
-105.0
 20
-36.0
 30
0.0
 11
-65.0
 21
-36.0
 31
0.0
  0
LINE
  5
100
  8
NOTE
  6
CONTINUOUS
 62
     4
 10
-35.0
 20
-56.0
 30
0.0
 11
-35.0
 21
-16.0
 31
0.0
  0
LINE
  5
101
  8
NOTE
  6
CONTINUOUS
 62
     4
 10
-55.0
 20
-36.0
 30
0.0
 11
-15.0
 21
-36.0
 31
0.0
  0
LINE
  5
102
  8
NOTE
  6
CONTINUOUS
 62
     4
 10
65.0
 20
-56.0
 30
0.0
 11
65.0
 21
-16.0
 31
0.0
  0
LINE
  5
103
  8
NOTE
  6
CONTINUOUS
 62
     4
 10
45.0
 20
-36.0
 30
0.0
 11
85.0
 21
-36.0
 31
0.0
  0
LINE
  5
104
  8
NOTE
  6
CONTINUOUS
 62
     4
 10
115.0
 20
-56.0
 30
0.0
 11
115.0
 21
-16.0
 31
0.0
  0
LINE
  5
105
  8
NOTE
  6
CONTINUOUS
 62
     4
 10
95.0
 20
-36.0
 30
0.0
 11
135.0
 21
-36.0
 31
0.0
  0
LINE
  5
106
  8
NOTE
  6
CONTINUOUS
 62
     4
 10
215.0
 20
-306.0
 30
0.0
 11
215.0
 21
-266.0
 31
0.0
  0
LINE
  5
107
  8
NOTE
  6
CONTINUOUS
 62
     4
 10
195.0
 20
-286.0
 30
0.0
 11
235.0
 21
-286.0
 31
0.0
  0
LINE
  5
108
  8
NOTE
  6
CONTINUOUS
 62
     4
 10
165.0
 20
-306.0
 30
0.0
 11
165.0
 21
-266.0
 31
0.0
  0
LINE
  5
109
  8
NOTE
  6
CONTINUOUS
 62
     4
 10
145.0
 20
-286.0
 30
0.0
 11
185.0
 21
-286.0
 31
0.0
  0
LINE
  5
10A
  8
NOTE
  6
CONTINUOUS
 62
     4
 10
-135.0
 20
-306.0
 30
0.0
 11
-135.0
 21
-266.0
 31
0.0
  0
LINE
  5
10B
  8
NOTE
  6
CONTINUOUS
 62
     4
 10
-155.0
 20
-286.0
 30
0.0
 11
-115.0
 21
-286.0
 31
0.0
  0
LINE
  5
10C
  8
NOTE
  6
CONTINUOUS
 62
     4
 10
-185.0
 20
-306.0
 30
0.0
 11
-185.0
 21
-266.0
 31
0.0
  0
LINE
  5
10D
  8
NOTE
  6
CONTINUOUS
 62
     4
 10
-205.0
 20
-286.0
 30
0.0
 11
-165.0
 21
-286.0
 31
0.0
  0
LINE
  5
10E
  8
NOTE
  6
CONTINUOUS
 62
     4
 10
-235.0
 20
-306.0
 30
0.0
 11
-235.0
 21
-266.0
 31
0.0
  0
LINE
  5
10F
  8
NOTE
  6
CONTINUOUS
 62
     4
 10
-255.0
 20
-286.0
 30
0.0
 11
-215.0
 21
-286.0
 31
0.0
  0
LINE
  5
110
  8
NOTE
  6
CONTINUOUS
 62
     4
 10
215.0
 20
-56.0
 30
0.0
 11
215.0
 21
-16.0
 31
0.0
  0
LINE
  5
111
  8
NOTE
  6
CONTINUOUS
 62
     4
 10
195.0
 20
-36.0
 30
0.0
 11
235.0
 21
-36.0
 31
0.0
  0
LINE
  5
112
  8
NOTE
  6
CONTINUOUS
 62
     4
 10
165.0
 20
-56.0
 30
0.0
 11
165.0
 21
-16.0
 31
0.0
  0
LINE
  5
113
  8
NOTE
  6
CONTINUOUS
 62
     4
 10
145.0
 20
-36.0
 30
0.0
 11
185.0
 21
-36.0
 31
0.0
  0
LINE
  5
114
  8
NOTE
  6
CONTINUOUS
 62
     4
 10
-135.0
 20
-56.0
 30
0.0
 11
-135.0
 21
-16.0
 31
0.0
  0
LINE
  5
115
  8
NOTE
  6
CONTINUOUS
 62
     4
 10
-155.0
 20
-36.0
 30
0.0
 11
-115.0
 21
-36.0
 31
0.0
  0
LINE
  5
116
  8
NOTE
  6
CONTINUOUS
 62
     4
 10
-185.0
 20
-56.0
 30
0.0
 11
-185.0
 21
-16.0
 31
0.0
  0
LINE
  5
117
  8
NOTE
  6
CONTINUOUS
 62
     4
 10
-205.0
 20
-36.0
 30
0.0
 11
-165.0
 21
-36.0
 31
0.0
  0
LINE
  5
118
  8
NOTE
  6
CONTINUOUS
 62
     4
 10
-235.0
 20
-56.0
 30
0.0
 11
-235.0
 21
-16.0
 31
0.0
  0
LINE
  5
119
  8
NOTE
  6
CONTINUOUS
 62
     4
 10
-255.0
 20
-36.0
 30
0.0
 11
-215.0
 21
-36.0
 31
0.0
  0
POLYLINE
  5
11A
  8
NOTE
  6
CONTINUOUS
 62
     4
 66
     1
 10
0.0
 20
0.0
 30
0.0
  0
VERTEX
  5
11B
  8
NOTE
  6
CONTINUOUS
 62
     4
 10
-668.129124
 20
-23.806054
 30
0.0
 50
310.91715
  0
VERTEX
  5
11C
  8
NOTE
  6
CONTINUOUS
 62
     4
 10
-635.0
 20
-46.221699
 30
0.0
 50
310.91715
  0
VERTEX
  5
11D
  8
NOTE
  6
CONTINUOUS
 62
     4
 10
-652.482841
 20
-10.244619
 30
0.0
 50
310.91715
  0
SEQEND
  5
11E
  8
NOTE
  6
CONTINUOUS
 62
     4
  0
POLYLINE
  5
11F
  8
NOTE
  6
CONTINUOUS
 62
     4
 66
     1
 10
0.0
 20
0.0
 30
0.0
  0
VERTEX
  5
120
  8
NOTE
  6
CONTINUOUS
 62
     4
 10
-614.03483
 20
-377.146597
 30
0.0
 50
57.49009
  0
VERTEX
  5
121
  8
NOTE
  6
CONTINUOUS
 62
     4
 10
-602.0
 20
-339.0
 30
0.0
 50
57.49009
  0
VERTEX
  5
122
  8
NOTE
  6
CONTINUOUS
 62
     4
 10
-631.495767
 20
-366.018507
 30
0.0
 50
57.49009
  0
SEQEND
  5
123
  8
NOTE
  6
CONTINUOUS
 62
     4
  0
POLYLINE
  5
124
  8
NOTE
  6
CONTINUOUS
 62
     4
 66
     1
 10
0.0
 20
0.0
 30
0.0
  0
VERTEX
  5
125
  8
NOTE
  6
CONTINUOUS
 62
     4
 10
625.859841
 20
-371.104641
 30
0.0
 50
111.619355
  0
VERTEX
  5
126
  8
NOTE
  6
CONTINUOUS
 62
     4
 10
602.0
 20
-339.0
 30
0.0
 50
111.619355
  0
VERTEX
  5
127
  8
NOTE
  6
CONTINUOUS
 62
     4
 10
606.610908
 20
-378.733355
 30
0.0
 50
111.619355
  0
SEQEND
  5
128
  8
NOTE
  6
CONTINUOUS
 62
     4
  0
POLYLINE
  5
129
  8
NOTE
  6
CONTINUOUS
 62
     4
 66
     1
 10
0.0
 20
0.0
 30
0.0
  0
VERTEX
  5
12A
  8
NOTE
  6
CONTINUOUS
 62
     4
 10
536.644749
 20
-27.362152
 30
0.0
 50
222.240172
  0
VERTEX
  5
12B
  8
NOTE
  6
CONTINUOUS
 62
     4
 10
515.0
 20
-61.0
 30
0.0
 50
222.240172
  0
VERTEX
  5
12C
  8
NOTE
  6
CONTINUOUS
 62
     4
 10
550.563827
 20
-42.691143
 30
0.0
 50
222.240172
  0
SEQEND
  5
12D
  8
NOTE
  6
CONTINUOUS
 62
     4
  0
LINE
  5
12E
  8
NOTE
  6
CONTINUOUS
 62
     4
 10
-435.0
 20
-306.0
 30
0.0
 11
-435.0
 21
-266.0
 31
0.0
  0
LINE
  5
12F
  8
NOTE
  6
CONTINUOUS
 62
     4
 10
-455.0
 20
-286.0
 30
0.0
 11
-415.0
 21
-286.0
 31
0.0
  0
LINE
  5
130
  8
NOTE
  6
CONTINUOUS
 62
     4
 10
-385.0
 20
-306.0
 30
0.0
 11
-385.0
 21
-266.0
 31
0.0
  0
LINE
  5
131
  8
NOTE
  6
CONTINUOUS
 62
     4
 10
-405.0
 20
-286.0
 30
0.0
 11
-365.0
 21
-286.0
 31
0.0
  0
LINE
  5
132
  8
NOTE
  6
CONTINUOUS
 62
     4
 10
-335.0
 20
-306.0
 30
0.0
 11
-335.0
 21
-266.0
 31
0.0
  0
LINE
  5
133
  8
NOTE
  6
CONTINUOUS
 62
     4
 10
-355.0
 20
-286.0
 30
0.0
 11
-315.0
 21
-286.0
 31
0.0
  0
LINE
  5
134
  8
NOTE
  6
CONTINUOUS
 62
     4
 10
-285.0
 20
-306.0
 30
0.0
 11
-285.0
 21
-266.0
 31
0.0
  0
LINE
  5
135
  8
NOTE
  6
CONTINUOUS
 62
     4
 10
-305.0
 20
-286.0
 30
0.0
 11
-265.0
 21
-286.0
 31
0.0
  0
LINE
  5
136
  8
NOTE
  6
CONTINUOUS
 62
     4
 10
15.0
 20
-306.0
 30
0.0
 11
15.0
 21
-266.0
 31
0.0
  0
LINE
  5
137
  8
NOTE
  6
CONTINUOUS
 62
     4
 10
-5.0
 20
-286.0
 30
0.0
 11
35.0
 21
-286.0
 31
0.0
  0
LINE
  5
138
  8
NOTE
  6
CONTINUOUS
 62
     4
 10
265.0
 20
-306.0
 30
0.0
 11
265.0
 21
-266.0
 31
0.0
  0
LINE
  5
139
  8
NOTE
  6
CONTINUOUS
 62
     4
 10
245.0
 20
-286.0
 30
0.0
 11
285.0
 21
-286.0
 31
0.0
  0
LINE
  5
13A
  8
NOTE
  6
CONTINUOUS
 62
     4
 10
315.0
 20
-306.0
 30
0.0
 11
315.0
 21
-266.0
 31
0.0
  0
LINE
  5
13B
  8
NOTE
  6
CONTINUOUS
 62
     4
 10
295.0
 20
-286.0
 30
0.0
 11
335.0
 21
-286.0
 31
0.0
  0
LINE
  5
13C
  8
NOTE
  6
CONTINUOUS
 62
     4
 10
365.0
 20
-306.0
 30
0.0
 11
365.0
 21
-266.0
 31
0.0
  0
LINE
  5
13D
  8
NOTE
  6
CONTINUOUS
 62
     4
 10
345.0
 20
-286.0
 30
0.0
 11
385.0
 21
-286.0
 31
0.0
  0
LINE
  5
13E
  8
NOTE
  6
CONTINUOUS
 62
     4
 10
415.0
 20
-306.0
 30
0.0
 11
415.0
 21
-266.0
 31
0.0
  0
LINE
  5
13F
  8
NOTE
  6
CONTINUOUS
 62
     4
 10
395.0
 20
-286.0
 30
0.0
 11
435.0
 21
-286.0
 31
0.0
  0
LINE
  5
140
  8
NOTE
  6
CONTINUOUS
 62
     4
 10
465.0
 20
-306.0
 30
0.0
 11
465.0
 21
-266.0
 31
0.0
  0
LINE
  5
141
  8
NOTE
  6
CONTINUOUS
 62
     4
 10
445.0
 20
-286.0
 30
0.0
 11
485.0
 21
-286.0
 31
0.0
  0
LINE
  5
142
  8
NOTE
  6
CONTINUOUS
 62
     4
 10
465.0
 20
-56.0
 30
0.0
 11
465.0
 21
-16.0
 31
0.0
  0
LINE
  5
143
  8
NOTE
  6
CONTINUOUS
 62
     4
 10
445.0
 20
-36.0
 30
0.0
 11
485.0
 21
-36.0
 31
0.0
  0
LINE
  5
144
  8
NOTE
  6
CONTINUOUS
 62
     4
 10
415.0
 20
-56.0
 30
0.0
 11
415.0
 21
-16.0
 31
0.0
  0
LINE
  5
145
  8
NOTE
  6
CONTINUOUS
 62
     4
 10
395.0
 20
-36.0
 30
0.0
 11
435.0
 21
-36.0
 31
0.0
  0
LINE
  5
146
  8
NOTE
  6
CONTINUOUS
 62
     4
 10
365.0
 20
-56.0
 30
0.0
 11
365.0
 21
-16.0
 31
0.0
  0
LINE
  5
147
  8
NOTE
  6
CONTINUOUS
 62
     4
 10
345.0
 20
-36.0
 30
0.0
 11
385.0
 21
-36.0
 31
0.0
  0
LINE
  5
148
  8
NOTE
  6
CONTINUOUS
 62
     4
 10
315.0
 20
-56.0
 30
0.0
 11
315.0
 21
-16.0
 31
0.0
  0
LINE
  5
149
  8
NOTE
  6
CONTINUOUS
 62
     4
 10
295.0
 20
-36.0
 30
0.0
 11
335.0
 21
-36.0
 31
0.0
  0
LINE
  5
14A
  8
NOTE
  6
CONTINUOUS
 62
     4
 10
265.0
 20
-56.0
 30
0.0
 11
265.0
 21
-16.0
 31
0.0
  0
LINE
  5
14B
  8
NOTE
  6
CONTINUOUS
 62
     4
 10
245.0
 20
-36.0
 30
0.0
 11
285.0
 21
-36.0
 31
0.0
  0
LINE
  5
14C
  8
NOTE
  6
CONTINUOUS
 62
     4
 10
15.0
 20
-56.0
 30
0.0
 11
15.0
 21
-16.0
 31
0.0
  0
LINE
  5
14D
  8
NOTE
  6
CONTINUOUS
 62
     4
 10
-5.0
 20
-36.0
 30
0.0
 11
35.0
 21
-36.0
 31
0.0
  0
LINE
  5
14E
  8
NOTE
  6
CONTINUOUS
 62
     4
 10
-285.0
 20
-56.0
 30
0.0
 11
-285.0
 21
-16.0
 31
0.0
  0
LINE
  5
14F
  8
NOTE
  6
CONTINUOUS
 62
     4
 10
-305.0
 20
-36.0
 30
0.0
 11
-265.0
 21
-36.0
 31
0.0
  0
LINE
  5
150
  8
NOTE
  6
CONTINUOUS
 62
     4
 10
-335.0
 20
-56.0
 30
0.0
 11
-335.0
 21
-16.0
 31
0.0
  0
LINE
  5
151
  8
NOTE
  6
CONTINUOUS
 62
     4
 10
-355.0
 20
-36.0
 30
0.0
 11
-315.0
 21
-36.0
 31
0.0
  0
LINE
  5
152
  8
NOTE
  6
CONTINUOUS
 62
     4
 10
-385.0
 20
-56.0
 30
0.0
 11
-385.0
 21
-16.0
 31
0.0
  0
LINE
  5
153
  8
NOTE
  6
CONTINUOUS
 62
     4
 10
-405.0
 20
-36.0
 30
0.0
 11
-365.0
 21
-36.0
 31
0.0
  0
LINE
  5
154
  8
NOTE
  6
CONTINUOUS
 62
     4
 10
-435.0
 20
-56.0
 30
0.0
 11
-435.0
 21
-16.0
 31
0.0
  0
LINE
  5
155
  8
NOTE
  6
CONTINUOUS
 62
     4
 10
-455.0
 20
-36.0
 30
0.0
 11
-415.0
 21
-36.0
 31
0.0
  0
LINE
  5
156
  8
NOTE
  6
CONTINUOUS
 62
     4
 10
-485.0
 20
-281.0
 30
0.0
 11
-485.0
 21
-241.0
 31
0.0
  0
LINE
  5
157
  8
NOTE
  6
CONTINUOUS
 62
     4
 10
-505.0
 20
-261.0
 30
0.0
 11
-465.0
 21
-261.0
 31
0.0
  0
LINE
  5
158
  8
NOTE
  6
CONTINUOUS
 62
     4
 10
-485.0
 20
-231.0
 30
0.0
 11
-485.0
 21
-191.0
 31
0.0
  0
LINE
  5
159
  8
NOTE
  6
CONTINUOUS
 62
     4
 10
-505.0
 20
-211.0
 30
0.0
 11
-465.0
 21
-211.0
 31
0.0
  0
LINE
  5
15A
  8
NOTE
  6
CONTINUOUS
 62
     4
 10
-485.0
 20
-181.0
 30
0.0
 11
-485.0
 21
-141.0
 31
0.0
  0
LINE
  5
15B
  8
NOTE
  6
CONTINUOUS
 62
     4
 10
-505.0
 20
-161.0
 30
0.0
 11
-465.0
 21
-161.0
 31
0.0
  0
LINE
  5
15C
  8
NOTE
  6
CONTINUOUS
 62
     4
 10
-485.0
 20
-131.0
 30
0.0
 11
-485.0
 21
-91.0
 31
0.0
  0
LINE
  5
15D
  8
NOTE
  6
CONTINUOUS
 62
     4
 10
-505.0
 20
-111.0
 30
0.0
 11
-465.0
 21
-111.0
 31
0.0
  0
LINE
  5
15E
  8
NOTE
  6
CONTINUOUS
 62
     4
 10
-485.0
 20
-81.0
 30
0.0
 11
-485.0
 21
-41.0
 31
0.0
  0
LINE
  5
15F
  8
NOTE
  6
CONTINUOUS
 62
     4
 10
-505.0
 20
-61.0
 30
0.0
 11
-465.0
 21
-61.0
 31
0.0
  0
LINE
  5
160
  8
NOTE
  6
CONTINUOUS
 62
     4
 10
515.0
 20
-81.0
 30
0.0
 11
515.0
 21
-41.0
 31
0.0
  0
LINE
  5
161
  8
NOTE
  6
CONTINUOUS
 62
     4
 10
495.0
 20
-61.0
 30
0.0
 11
535.0
 21
-61.0
 31
0.0
  0
LINE
  5
162
  8
NOTE
  6
CONTINUOUS
 62
     4
 10
515.0
 20
-131.0
 30
0.0
 11
515.0
 21
-91.0
 31
0.0
  0
LINE
  5
163
  8
NOTE
  6
CONTINUOUS
 62
     4
 10
495.0
 20
-111.0
 30
0.0
 11
535.0
 21
-111.0
 31
0.0
  0
LINE
  5
164
  8
NOTE
  6
CONTINUOUS
 62
     4
 10
515.0
 20
-181.0
 30
0.0
 11
515.0
 21
-141.0
 31
0.0
  0
LINE
  5
165
  8
NOTE
  6
CONTINUOUS
 62
     4
 10
495.0
 20
-161.0
 30
0.0
 11
535.0
 21
-161.0
 31
0.0
  0
LINE
  5
166
  8
NOTE
  6
CONTINUOUS
 62
     4
 10
515.0
 20
-231.0
 30
0.0
 11
515.0
 21
-191.0
 31
0.0
  0
LINE
  5
167
  8
NOTE
  6
CONTINUOUS
 62
     4
 10
495.0
 20
-211.0
 30
0.0
 11
535.0
 21
-211.0
 31
0.0
  0
LINE
  5
168
  8
NOTE
  6
CONTINUOUS
 62
     4
 10
515.0
 20
-281.0
 30
0.0
 11
515.0
 21
-241.0
 31
0.0
  0
LINE
  5
169
  8
NOTE
  6
CONTINUOUS
 62
     4
 10
495.0
 20
-261.0
 30
0.0
 11
535.0
 21
-261.0
 31
0.0
  0
LINE
  5
16A
  8
NOTE
  6
CONTINUOUS
 62
     4
 10
-630.0
 20
-193.0
 30
0.0
 11
-630.0
 21
-153.0
 31
0.0
  0
LINE
  5
16B
  8
NOTE
  6
CONTINUOUS
 62
     4
 10
-650.0
 20
-173.0
 30
0.0
 11
-610.0
 21
-173.0
 31
0.0
  0
POLYLINE
  5
16C
  8
NOTE
  6
CONTINUOUS
 62
     4
 66
     1
 10
0.0
 20
0.0
 30
0.0
  0
VERTEX
  5
16D
  8
NOTE
  6
CONTINUOUS
 62
     4
 10
-664.77881
 20
-153.240587
 30
0.0
 50
315.397136
  0
VERTEX
  5
16E
  8
NOTE
  6
CONTINUOUS
 62
     4
 10
-630.0
 20
-173.0
 30
0.0
 50
315.397136
  0
VERTEX
  5
16F
  8
NOTE
  6
CONTINUOUS
 62
     4
 10
-650.239626
 20
-138.498441
 30
0.0
 50
315.397136
  0
SEQEND
  5
170
  8
NOTE
  6
CONTINUOUS
 62
     4
  0
POLYLINE
  5
171
  8
NOTE
  6
CONTINUOUS
 62
     4
 66
     1
 10
0.0
 20
0.0
 30
0.0
  0
VERTEX
  5
172
  8
NOTE
  6
CONTINUOUS
 62
     4
 10
-699.150877
 20
-387.413269
 30
0.0
 50
54.281802
  0
VERTEX
  5
173
  8
NOTE
  6
CONTINUOUS
 62
     4
 10
-685.0
 20
-350.0
 30
0.0
 50
54.281802
  0
VERTEX
  5
174
  8
NOTE
  6
CONTINUOUS
 62
     4
 10
-715.961654
 20
-375.325402
 30
0.0
 50
54.281802
  0
SEQEND
  5
175
  8
NOTE
  6
CONTINUOUS
 62
     4
  0
LINE
  5
176
  8
NOTE
  6
CONTINUOUS
 62
     4
 10
-685.0
 20
-370.0
 30
0.0
 11
-685.0
 21
-330.0
 31
0.0
  0
LINE
  5
177
  8
NOTE
  6
CONTINUOUS
 62
     4
 10
-705.0
 20
-350.0
 30
0.0
 11
-665.0
 21
-350.0
 31
0.0
  0
LINE
  5
178
  8
NOTE
  6
CONTINUOUS
 62
     4
 10
-650.0
 20
-270.0
 30
0.0
 11
-650.0
 21
-230.0
 31
0.0
  0
LINE
  5
179
  8
NOTE
  6
CONTINUOUS
 62
     4
 10
-670.0
 20
-250.0
 30
0.0
 11
-630.0
 21
-250.0
 31
0.0
  0
POLYLINE
  5
17A
  8
NOTE
  6
CONTINUOUS
 62
     4
 66
     1
 10
0.0
 20
0.0
 30
0.0
  0
VERTEX
  5
17B
  8
NOTE
  6
CONTINUOUS
 62
     4
 10
-684.742117
 20
-230.176144
 30
0.0
 50
315.290914
  0
VERTEX
  5
17C
  8
NOTE
  6
CONTINUOUS
 62
     4
 10
-650.0
 20
-250.0
 30
0.0
 50
315.290914
  0
VERTEX
  5
17D
  8
NOTE
  6
CONTINUOUS
 62
     4
 10
-670.175628
 20
-215.460978
 30
0.0
 50
315.290914
  0
SEQEND
  5
17E
  8
NOTE
  6
CONTINUOUS
 62
     4
  0
LINE
  5
17F
  8
NOTE
  6
CONTINUOUS
 62
     4
 10
-602.0
 20
-359.0
 30
0.0
 11
-602.0
 21
-319.0
 31
0.0
  0
LINE
  5
180
  8
NOTE
  6
CONTINUOUS
 62
     4
 10
-622.0
 20
-339.0
 30
0.0
 11
-582.0
 21
-339.0
 31
0.0
  0
LINE
  5
181
  8
NOTE
  6
CONTINUOUS
 62
     4
 10
602.0
 20
-359.0
 30
0.0
 11
602.0
 21
-319.0
 31
0.0
  0
LINE
  5
182
  8
NOTE
  6
CONTINUOUS
 62
     4
 10
582.0
 20
-339.0
 30
0.0
 11
622.0
 21
-339.0
 31
0.0
  0
TEXT
  5
183
  8
ETC
  6
CONTINUOUS
 62
    61
 10
773.516974
 20
319.337529
 30
0.0
 40
64.0
  1
PAC
 41
0.9
  0
ENDSEC
  0
EOF
