  0
SECTION
  2
HEADER
  9
$ACADVER
  1
AC1015
  9
$ACADMAINTVER
 70
    20
  9
$DWGCODEPAGE
  3
ANSI_932
  9
$INSBASE
 10
0.0
 20
0.0
 30
0.0
  9
$EXTMIN
 10
-2083.63353992882
 20
-1451.410885605146
 30
0.0
  9
$EXTMAX
 10
1841.017973113741
 20
1371.926308622838
 30
0.0
  9
$LIMMIN
 10
-4267.152221060483
 20
-2696.083210198413
  9
$LIMMAX
 10
7190.717422586465
 20
5141.155363923066
  9
$ORTHOMODE
 70
     1
  9
$REGENMODE
 70
     1
  9
$FILLMODE
 70
     1
  9
$QTEXTMODE
 70
     0
  9
$MIRRTEXT
 70
     0
  9
$LTSCALE
 40
20.0
  9
$ATTMODE
 70
     1
  9
$TEXTSIZE
 40
53.0
  9
$TRACEWID
 40
0.05
  9
$TEXTSTYLE
  7
KAIGAI_STANDARD_1
  9
$CLAYER
  8
NOTE
  9
$CELTYPE
  6
CONTINUOUS
  9
$CECOLOR
 62
     7
  9
$CELTSCALE
 40
1.0
  9
$DISPSILH
 70
     0
  9
$DIMSCALE
 40
1.0
  9
$DIMASZ
 40
30.0
  9
$DIMEXO
 40
20.0
  9
$DIMDLI
 40
80.0
  9
$DIMRND
 40
0.0
  9
$DIMDLE
 40
0.0
  9
$DIMEXE
 40
20.0
  9
$DIMTP
 40
0.0
  9
$DIMTM
 40
0.0
  9
$DIMTXT
 40
40.0
  9
$DIMCEN
 40
0.09
  9
$DIMTSZ
 40
0.0
  9
$DIMTOL
 70
     0
  9
$DIMLIM
 70
     0
  9
$DIMTIH
 70
     0
  9
$DIMTOH
 70
     0
  9
$DIMSE1
 70
     0
  9
$DIMSE2
 70
     0
  9
$DIMTAD
 70
     1
  9
$DIMZIN
 70
     8
  9
$DIMBLK
  1

  9
$DIMASO
 70
     1
  9
$DIMSHO
 70
     0
  9
$DIMPOST
  1

  9
$DIMAPOST
  1

  9
$DIMALT
 70
     0
  9
$DIMALTD
 70
     2
  9
$DIMALTF
 40
25.4
  9
$DIMLFAC
 40
1.0
  9
$DIMTOFL
 70
     1
  9
$DIMTVP
 40
0.0
  9
$DIMTIX
 70
     0
  9
$DIMSOXD
 70
     0
  9
$DIMSAH
 70
     0
  9
$DIMBLK1
  1

  9
$DIMBLK2
  1

  9
$DIMSTYLE
  2
Standard
  9
$DIMCLRD
 70
     0
  9
$DIMCLRE
 70
     0
  9
$DIMCLRT
 70
     0
  9
$DIMTFAC
 40
1.0
  9
$DIMGAP
 40
0.09
  9
$DIMJUST
 70
     0
  9
$DIMSD1
 70
     0
  9
$DIMSD2
 70
     0
  9
$DIMTOLJ
 70
     1
  9
$DIMTZIN
 70
     0
  9
$DIMALTZ
 70
     0
  9
$DIMALTTZ
 70
     0
  9
$DIMUPT
 70
     0
  9
$DIMDEC
 70
     4
  9
$DIMTDEC
 70
     4
  9
$DIMALTU
 70
     2
  9
$DIMALTTD
 70
     2
  9
$DIMTXSTY
  7
STANDARD
  9
$DIMAUNIT
 70
     0
  9
$DIMADEC
 70
     0
  9
$DIMALTRND
 40
0.0
  9
$DIMAZIN
 70
     0
  9
$DIMDSEP
 70
    46
  9
$DIMATFIT
 70
     3
  9
$DIMFRAC
 70
     0
  9
$DIMLDRBLK
  1

  9
$DIMLUNIT
 70
     2
  9
$DIMLWD
 70
    -2
  9
$DIMLWE
 70
    -2
  9
$DIMTMOVE
 70
     0
  9
$LUNITS
 70
     2
  9
$LUPREC
 70
     4
  9
$SKETCHINC
 40
0.1
  9
$FILLETRAD
 40
0.0
  9
$AUNITS
 70
     1
  9
$AUPREC
 70
     3
  9
$MENU
  1
ACAD
  9
$ELEVATION
 40
0.0
  9
$PELEVATION
 40
0.0
  9
$THICKNESS
 40
0.0
  9
$LIMCHECK
 70
     0
  9
$CHAMFERA
 40
0.0
  9
$CHAMFERB
 40
0.0
  9
$CHAMFERC
 40
0.0
  9
$CHAMFERD
 40
0.0
  9
$SKPOLY
 70
     0
  9
$TDCREATE
 40
2455902.607164352
  9
$TDUCREATE
 40
2455902.232164352
  9
$TDUPDATE
 40
2459034.414386574
  9
$TDUUPDATE
 40
2459034.039386574
  9
$TDINDWG
 40
1.6636995255
  9
$TDUSRTIMER
 40
1.6636957292
  9
$USRTIMER
 70
     1
  9
$ANGBASE
 50
0.0
  9
$ANGDIR
 70
     0
  9
$PDMODE
 70
     3
  9
$PDSIZE
 40
-2.0
  9
$PLINEWID
 40
0.0
  9
$SPLFRAME
 70
     0
  9
$SPLINETYPE
 70
     6
  9
$SPLINESEGS
 70
     8
  9
$HANDSEED
  5
A66
  9
$SURFTAB1
 70
     6
  9
$SURFTAB2
 70
     6
  9
$SURFTYPE
 70
     6
  9
$SURFU
 70
     6
  9
$SURFV
 70
     6
  9
$UCSBASE
  2

  9
$UCSNAME
  2

  9
$UCSORG
 10
0.0
 20
0.0
 30
0.0
  9
$UCSXDIR
 10
1.0
 20
0.0
 30
0.0
  9
$UCSYDIR
 10
0.0
 20
1.0
 30
0.0
  9
$UCSORTHOREF
  2

  9
$UCSORTHOVIEW
 70
     0
  9
$UCSORGTOP
 10
0.0
 20
0.0
 30
0.0
  9
$UCSORGBOTTOM
 10
0.0
 20
0.0
 30
0.0
  9
$UCSORGLEFT
 10
0.0
 20
0.0
 30
0.0
  9
$UCSORGRIGHT
 10
0.0
 20
0.0
 30
0.0
  9
$UCSORGFRONT
 10
0.0
 20
0.0
 30
0.0
  9
$UCSORGBACK
 10
0.0
 20
0.0
 30
0.0
  9
$PUCSBASE
  2

  9
$PUCSNAME
  2

  9
$PUCSORG
 10
0.0
 20
0.0
 30
0.0
  9
$PUCSXDIR
 10
1.0
 20
0.0
 30
0.0
  9
$PUCSYDIR
 10
0.0
 20
1.0
 30
0.0
  9
$PUCSORTHOREF
  2

  9
$PUCSORTHOVIEW
 70
     0
  9
$PUCSORGTOP
 10
0.0
 20
0.0
 30
0.0
  9
$PUCSORGBOTTOM
 10
0.0
 20
0.0
 30
0.0
  9
$PUCSORGLEFT
 10
0.0
 20
0.0
 30
0.0
  9
$PUCSORGRIGHT
 10
0.0
 20
0.0
 30
0.0
  9
$PUCSORGFRONT
 10
0.0
 20
0.0
 30
0.0
  9
$PUCSORGBACK
 10
0.0
 20
0.0
 30
0.0
  9
$USERI1
 70
     0
  9
$USERI2
 70
     0
  9
$USERI3
 70
     0
  9
$USERI4
 70
     0
  9
$USERI5
 70
     0
  9
$USERR1
 40
20.0
  9
$USERR2
 40
0.0
  9
$USERR3
 40
0.0
  9
$USERR4
 40
0.0
  9
$USERR5
 40
0.0
  9
$WORLDVIEW
 70
     1
  9
$SHADEDGE
 70
     3
  9
$SHADEDIF
 70
    70
  9
$TILEMODE
 70
     1
  9
$MAXACTVP
 70
    64
  9
$PINSBASE
 10
0.0
 20
0.0
 30
0.0
  9
$PLIMCHECK
 70
     0
  9
$PEXTMIN
 10
1.000000000000000E+20
 20
1.000000000000000E+20
 30
1.000000000000000E+20
  9
$PEXTMAX
 10
-1.000000000000000E+20
 20
-1.000000000000000E+20
 30
-1.000000000000000E+20
  9
$PLIMMIN
 10
0.0
 20
0.0
  9
$PLIMMAX
 10
12.0
 20
9.0
  9
$UNITMODE
 70
     0
  9
$VISRETAIN
 70
     1
  9
$PLINEGEN
 70
     0
  9
$PSLTSCALE
 70
     1
  9
$TREEDEPTH
 70
  3020
  9
$CMLSTYLE
  2
Standard
  9
$CMLJUST
 70
     0
  9
$CMLSCALE
 40
1.0
  9
$PROXYGRAPHICS
 70
     1
  9
$MEASUREMENT
 70
     0
  9
$CELWEIGHT
370
    -1
  9
$ENDCAPS
280
     0
  9
$JOINSTYLE
280
     0
  9
$LWDISPLAY
290
     0
  9
$INSUNITS
 70
     0
  9
$HYPERLINKBASE
  1

  9
$STYLESHEET
  1

  9
$XEDIT
290
     1
  9
$CEPSNTYPE
380
     0
  9
$PSTYLEMODE
290
     1
  9
$FINGERPRINTGUID
  2
{1CD3DF68-BBFF-7C46-8BD5-9EAA7439B4F6}
  9
$VERSIONGUID
  2
{74D0FF1D-8E5F-824E-907D-767181EB001C}
  9
$EXTNAMES
290
     1
  9
$PSVPSCALE
 40
0.0
  9
$OLESTARTUP
290
     0
  0
ENDSEC
  0
SECTION
  2
CLASSES
  0
CLASS
  1
ACDBDICTIONARYWDFLT
  2
AcDbDictionaryWithDefault
  3
ObjectDBX Classes
 90
        0
280
     0
281
     0
  0
CLASS
  1
MATERIAL
  2
AcDbMaterial
  3
ObjectDBX Classes
 90
     1153
280
     0
281
     0
  0
CLASS
  1
VISUALSTYLE
  2
AcDbVisualStyle
  3
ObjectDBX Classes
 90
     4095
280
     0
281
     0
  0
CLASS
  1
SCALE
  2
AcDbScale
  3
ObjectDBX Classes
 90
     1153
280
     0
281
     0
  0
CLASS
  1
TABLESTYLE
  2
AcDbTableStyle
  3
ObjectDBX Classes
 90
     4095
280
     0
281
     0
  0
CLASS
  1
MLEADERSTYLE
  2
AcDbMLeaderStyle
  3
ACDB_MLEADERSTYLE_CLASS
 90
     4095
280
     0
281
     0
  0
CLASS
  1
ACDBSECTIONVIEWSTYLE
  2
AcDbSectionViewStyle
  3
ObjectDBX Classes
 90
     1025
280
     0
281
     0
  0
CLASS
  1
ACDBDETAILVIEWSTYLE
  2
AcDbDetailViewStyle
  3
ObjectDBX Classes
 90
     1025
280
     0
281
     0
  0
CLASS
  1
DICTIONARYVAR
  2
AcDbDictionaryVar
  3
ObjectDBX Classes
 90
        0
280
     0
281
     0
  0
CLASS
  1
CELLSTYLEMAP
  2
AcDbCellStyleMap
  3
ObjectDBX Classes
 90
     1152
280
     0
281
     0
  0
CLASS
  1
ACDBPLACEHOLDER
  2
AcDbPlaceHolder
  3
ObjectDBX Classes
 90
        0
280
     0
281
     0
  0
CLASS
  1
LAYOUT
  2
AcDbLayout
  3
ObjectDBX Classes
 90
        0
280
     0
281
     0
  0
CLASS
  1
SORTENTSTABLE
  2
AcDbSortentsTable
  3
ObjectDBX Classes
 90
        0
280
     0
281
     0
  0
ENDSEC
  0
SECTION
  2
TABLES
  0
TABLE
  2
VPORT
  5
8
330
0
100
AcDbSymbolTable
 70
     1
  0
VPORT
  5
81
330
8
100
AcDbSymbolTableRecord
100
AcDbViewportTableRecord
  2
*ACTIVE
 70
     0
 10
0.0
 20
0.0
 11
1.0
 21
1.0
 12
781.8899507242069
 22
-360.1291239150669
 13
0.0
 23
0.0
 14
50.0
 24
50.0
 15
100.0
 25
100.0
 16
0.0
 26
0.0
 36
1.0
 17
0.0
 27
0.0
 37
0.0
 40
1255.693080400784
 41
1.926430517711171
 42
50.0
 43
0.0
 44
0.0
 50
0.0
 51
0.0
 71
     0
 72
  1000
 73
     1
 74
     0
 75
     0
 76
     0
 77
     0
 78
     0
281
     0
 65
     1
110
0.0
120
0.0
130
0.0
111
1.0
121
0.0
131
0.0
112
0.0
122
1.0
132
0.0
 79
     0
146
0.0
1001
ACAD_NAV_VCDISPLAY
1070
     3
  0
ENDTAB
  0
TABLE
  2
LTYPE
  5
5
330
0
100
AcDbSymbolTable
 70
     2
  0
LTYPE
  5
5A
330
5
100
AcDbSymbolTableRecord
100
AcDbLinetypeTableRecord
  2
ByBlock
 70
     0
  3

 72
    65
 73
     0
 40
0.0
  0
LTYPE
  5
5B
330
5
100
AcDbSymbolTableRecord
100
AcDbLinetypeTableRecord
  2
ByLayer
 70
     0
  3

 72
    65
 73
     0
 40
0.0
  0
LTYPE
  5
5C
330
5
100
AcDbSymbolTableRecord
100
AcDbLinetypeTableRecord
  2
CONTINUOUS
 70
     0
  3
実線
 72
    65
 73
     0
 40
0.0
  0
LTYPE
  5
75
330
5
100
AcDbSymbolTableRecord
100
AcDbLinetypeTableRecord
  2
DASHDOT
 70
     0
  3
____ _ ____ _ ____ _ ____ _ ____ _ ____ _ ____
 72
    65
 73
     4
 40
5.5
 49
4.0
 74
     0
 49
-0.6
 74
     0
 49
0.3
 74
     0
 49
-0.6
 74
     0
  0
ENDTAB
  0
TABLE
  2
LAYER
  5
2
102
{ACAD_XDICTIONARY
360
5FD
102
}
330
0
100
AcDbSymbolTable
 70
    12
  0
LAYER
  5
54
102
{ACAD_XDICTIONARY
360
3D5
102
}
330
2
100
AcDbSymbolTableRecord
100
AcDbLayerTableRecord
  2
0
 70
     0
 62
     7
  6
CONTINUOUS
370
    -3
390
F
  0
LAYER
  5
73
102
{ACAD_XDICTIONARY
360
3D7
102
}
330
2
100
AcDbSymbolTableRecord
100
AcDbLayerTableRecord
  2
NOTE
 70
     0
 62
     4
  6
CONTINUOUS
370
    -3
390
F
  0
LAYER
  5
76
102
{ACAD_XDICTIONARY
360
3D9
102
}
330
2
100
AcDbSymbolTableRecord
100
AcDbLayerTableRecord
  2
OUTLINE
 70
     0
 62
     3
  6
CONTINUOUS
370
    -3
390
F
  0
LAYER
  5
77
102
{ACAD_XDICTIONARY
360
3DB
102
}
330
2
100
AcDbSymbolTableRecord
100
AcDbLayerTableRecord
  2
DETAIL
 70
     0
 62
     5
  6
CONTINUOUS
370
    -3
390
F
  0
LAYER
  5
78
102
{ACAD_XDICTIONARY
360
3DD
102
}
330
2
100
AcDbSymbolTableRecord
100
AcDbLayerTableRecord
  2
BASIS
 70
     0
 62
     6
  6
DASHDOT
370
    -3
390
F
  0
LAYER
  5
79
102
{ACAD_XDICTIONARY
360
3DF
102
}
330
2
100
AcDbSymbolTableRecord
100
AcDbLayerTableRecord
  2
SIZE
 70
     0
 62
    30
  6
CONTINUOUS
370
    -3
390
F
  0
LAYER
  5
7A
102
{ACAD_XDICTIONARY
360
3E1
102
}
330
2
100
AcDbSymbolTableRecord
100
AcDbLayerTableRecord
  2
ARRANGE
 70
     0
 62
     1
  6
CONTINUOUS
370
    -3
390
F
  0
LAYER
  5
7B
102
{ACAD_XDICTIONARY
360
3E3
102
}
330
2
100
AcDbSymbolTableRecord
100
AcDbLayerTableRecord
  2
FIX
 70
     0
 62
    11
  6
CONTINUOUS
370
    -3
390
F
  0
LAYER
  5
7C
102
{ACAD_XDICTIONARY
360
3E5
102
}
330
2
100
AcDbSymbolTableRecord
100
AcDbLayerTableRecord
  2
SERVICESPACE
 70
     0
 62
     2
  6
DASHDOT
370
    -3
390
F
  0
LAYER
  5
7D
102
{ACAD_XDICTIONARY
360
3E7
102
}
330
2
100
AcDbSymbolTableRecord
100
AcDbLayerTableRecord
  2
ETC
 70
     0
 62
    61
  6
CONTINUOUS
370
    -3
390
F
  0
LAYER
  5
7E
102
{ACAD_XDICTIONARY
360
3E9
102
}
330
2
100
AcDbSymbolTableRecord
100
AcDbLayerTableRecord
  2
SYMBOLLINE
 70
     0
 62
    15
  6
CONTINUOUS
370
    -3
390
F
  0
LAYER
  5
7F
330
2
100
AcDbSymbolTableRecord
100
AcDbLayerTableRecord
  2
DEFPOINTS
 70
     0
 62
     7
  6
CONTINUOUS
290
     0
370
    -3
390
F
  0
ENDTAB
  0
TABLE
  2
STYLE
  5
3
330
0
100
AcDbSymbolTable
 70
     5
  0
STYLE
  5
55
330
3
100
AcDbSymbolTableRecord
100
AcDbTextStyleTableRecord
  2
STANDARD
 70
     0
 40
0.0
 41
0.9
 50
0.0
 71
     0
 42
64.0
  3
SIMPLEX
  4
BIGFONT
  0
STYLE
  5
59
330
3
100
AcDbSymbolTableRecord
100
AcDbTextStyleTableRecord
  2
Annotative
 70
     0
 40
0.0
 41
1.0
 50
0.0
 71
     0
 42
0.2
  3
txt
  4

1001
AcadAnnotative
1000
AnnotativeData
1002
{
1070
     1
1070
     1
1002
}
  0
STYLE
  5
74
330
3
100
AcDbSymbolTableRecord
100
AcDbTextStyleTableRecord
  2
KAIGAI_STANDARD_1
 70
     0
 40
53.0
 41
0.51
 50
0.0
 71
     0
 42
53.0
  3
MONOTXT.shx
  4
BIGFONT.shx
  0
STYLE
  5
5F3
330
3
100
AcDbSymbolTableRecord
100
AcDbTextStyleTableRecord
  2
STANDARD1
 70
     0
 40
60.0
 41
0.7
 50
0.0
 71
     0
 42
60.0
  3
MONOTXT.shx
  4
BIGFONT.shx
  0
STYLE
  5
5F4
330
3
100
AcDbSymbolTableRecord
100
AcDbTextStyleTableRecord
  2
スタイル1
 70
     0
 40
0.0
 41
1.0
 50
0.0
 71
     0
 42
3.0
  3
exthalf2.shx
  4
extfont2.shx
  0
ENDTAB
  0
TABLE
  2
VIEW
  5
6
330
0
100
AcDbSymbolTable
 70
     1
  0
VIEW
  5
80
330
6
100
AcDbSymbolTableRecord
100
AcDbViewTableRecord
  2
ALL
 70
     0
 40
9000.0
 10
241.506647
 20
0.0
 41
12483.01
 11
0.0
 21
0.0
 31
1.0
 12
0.0
 22
0.0
 32
0.0
 42
50.0
 43
0.0
 44
0.0
 50
0.0
 71
     0
281
     0
 72
     0
  0
ENDTAB
  0
TABLE
  2
UCS
  5
7
330
0
100
AcDbSymbolTable
 70
     0
  0
ENDTAB
  0
TABLE
  2
APPID
  5
9
330
0
100
AcDbSymbolTable
 70
    14
  0
APPID
  5
56
330
9
100
AcDbSymbolTableRecord
100
AcDbRegAppTableRecord
  2
ACAD
 70
     0
  0
APPID
  5
5D
330
9
100
AcDbSymbolTableRecord
100
AcDbRegAppTableRecord
  2
AcadAnnotative
 70
     0
  0
APPID
  5
3F5
330
9
100
AcDbSymbolTableRecord
100
AcDbRegAppTableRecord
  2
ACAD_NAV_VCDISPLAY
 70
     0
  0
APPID
  5
42E
330
9
100
AcDbSymbolTableRecord
100
AcDbRegAppTableRecord
  2
ACAD_MLEADERVER
 70
     0
  0
APPID
  5
5F8
330
9
100
AcDbSymbolTableRecord
100
AcDbRegAppTableRecord
  2
ACAD_PSEXT
 70
     0
  0
APPID
  5
5F9
330
9
100
AcDbSymbolTableRecord
100
AcDbRegAppTableRecord
  2
ACAD_DSTYLE_DIMJAG
 70
     0
  0
APPID
  5
5FA
330
9
100
AcDbSymbolTableRecord
100
AcDbRegAppTableRecord
  2
ACAD_DSTYLE_DIMTALN
 70
     0
  0
APPID
  5
5FB
330
9
100
AcDbSymbolTableRecord
100
AcDbRegAppTableRecord
  2
ACAD_DSTYLE_DIMBREAK
 70
     0
  0
APPID
  5
5FC
330
9
100
AcDbSymbolTableRecord
100
AcDbRegAppTableRecord
  2
AcDbDynamicBlockGUID
 70
     0
  0
APPID
  5
9AB
330
9
100
AcDbSymbolTableRecord
100
AcDbRegAppTableRecord
  2
ACAD_EXEMPT_FROM_CAD_STANDARDS
 70
     0
  0
APPID
  5
9EA
330
9
100
AcDbSymbolTableRecord
100
AcDbRegAppTableRecord
  2
ACAD_DSTYLE_DIM_LINETYPE
 70
     0
  0
APPID
  5
9EB
330
9
100
AcDbSymbolTableRecord
100
AcDbRegAppTableRecord
  2
ACAD_DSTYLE_DIM_EXT1_LINETYPE
 70
     0
  0
APPID
  5
9EC
330
9
100
AcDbSymbolTableRecord
100
AcDbRegAppTableRecord
  2
ACAD_DSTYLE_DIM_EXT2_LINETYPE
 70
     0
  0
APPID
  5
9F8
330
9
100
AcDbSymbolTableRecord
100
AcDbRegAppTableRecord
  2
AcLayerTools
 70
     0
  0
ENDTAB
  0
TABLE
  2
DIMSTYLE
  5
A
330
0
100
AcDbSymbolTable
 70
     5
100
AcDbDimStyleTable
 71
     0
  0
DIMSTYLE
105
57
330
A
100
AcDbSymbolTableRecord
100
AcDbDimStyleTableRecord
  2
Standard
 70
     0
340
55
  0
DIMSTYLE
105
58
330
A
100
AcDbSymbolTableRecord
100
AcDbDimStyleTableRecord
  2
Annotative
 70
     0
340
55
1001
AcadAnnotative
1000
AnnotativeData
1002
{
1070
     1
1070
     1
1002
}
  0
DIMSTYLE
105
5F5
330
A
100
AcDbSymbolTableRecord
100
AcDbDimStyleTableRecord
  2
kaigai_CADSYMBOL
 70
     0
 41
30.0
 42
20.0
 43
80.0
 44
20.0
 73
     0
 74
     0
 77
     1
 78
     8
 79
     2
140
40.0
147
20.0
172
     1
271
     1
272
     1
340
55
341
5EC
342
5E7
1001
ACAD_DSTYLE_DIMBREAK
1070
   391
1040
0.125
1001
ACAD_DSTYLE_DIMJAG
1070
   388
1040
1.5
1001
ACAD_DSTYLE_DIMTALN
1070
   392
1070
     0
  0
DIMSTYLE
105
5F6
330
A
100
AcDbSymbolTableRecord
100
AcDbDimStyleTableRecord
  2
CADSYMBOL
 70
     0
 41
30.0
 42
20.0
 43
80.0
 44
20.0
 73
     0
 74
     0
 77
     1
 78
     8
 79
     2
140
60.0
147
20.0
172
     1
271
     1
272
     1
340
55
341
5EC
342
5E7
1001
ACAD_DSTYLE_DIMJAG
1070
   388
1040
1.5
1001
ACAD_DSTYLE_DIMTALN
1070
   392
1070
     0
  0
DIMSTYLE
105
5F7
330
A
100
AcDbSymbolTableRecord
100
AcDbDimStyleTableRecord
  2
AM_スタイル1
 70
     0
 41
2.0
 42
0.7
 43
6.0
 44
0.7
 73
     0
 74
     0
 77
     3
 78
     8
140
3.2
141
-3.0
147
1.0
172
     1
174
     1
176
   256
177
   256
178
   256
271
     1
272
     1
284
     8
289
     0
340
5F4
341
5EC
342
5EC
371
    13
372
    13
1001
ACAD_DSTYLE_DIMBREAK
1070
   391
1040
3.75
1001
ACAD_DSTYLE_DIMJAG
1070
   388
1040
1.5
1001
ACAD_DSTYLE_DIMTALN
1070
   392
1070
     0
1001
ACAD_DSTYLE_DIM_LINETYPE
1070
   380
1005
5B
1001
ACAD_DSTYLE_DIM_EXT1_LINETYPE
1070
   381
1005
5B
1001
ACAD_DSTYLE_DIM_EXT2_LINETYPE
1070
   382
1005
5B
  0
ENDTAB
  0
TABLE
  2
BLOCK_RECORD
  5
1
330
0
100
AcDbSymbolTable
 70
     4
  0
BLOCK_RECORD
  5
6F
102
{ACAD_XDICTIONARY
360
9FB
102
}
330
1
100
AcDbSymbolTableRecord
100
AcDbBlockTableRecord
  2
*Model_Space
340
72
  0
BLOCK_RECORD
  5
6B
330
1
100
AcDbSymbolTableRecord
100
AcDbBlockTableRecord
  2
*Paper_Space
340
6E
  0
BLOCK_RECORD
  5
449
330
1
100
AcDbSymbolTableRecord
100
AcDbBlockTableRecord
  2
*D0
340
0
  0
BLOCK_RECORD
  5
458
330
1
100
AcDbSymbolTableRecord
100
AcDbBlockTableRecord
  2
*D1
340
0
  0
BLOCK_RECORD
  5
5E7
102
{ACAD_XDICTIONARY
360
5E8
102
}
330
1
100
AcDbSymbolTableRecord
100
AcDbBlockTableRecord
  2
_Small
340
0
1001
AcDbDynamicBlockGUID
1000
{CDC5F1B3-A93F-E844-95F1-76E8A9ED8A46}
  0
BLOCK_RECORD
  5
5EC
102
{ACAD_XDICTIONARY
360
5ED
102
}
330
1
100
AcDbSymbolTableRecord
100
AcDbBlockTableRecord
  2
_Open30
340
0
1001
AcDbDynamicBlockGUID
1000
{CF3FF556-EE00-416E-9104-4A9DDFC40C99}
  0
ENDTAB
  0
ENDSEC
  0
SECTION
  2
BLOCKS
  0
BLOCK
  5
70
330
6F
100
AcDbEntity
  8
0
100
AcDbBlockBegin
  2
*Model_Space
 70
     0
 10
0.0
 20
0.0
 30
0.0
  3
*Model_Space
  1

  0
ENDBLK
  5
71
330
6F
100
AcDbEntity
  8
0
100
AcDbBlockEnd
  0
BLOCK
  5
6C
330
6B
100
AcDbEntity
 67
     1
  8
0
100
AcDbBlockBegin
  2
*Paper_Space
 70
     0
 10
0.0
 20
0.0
 30
0.0
  3
*Paper_Space
  1

  0
ENDBLK
  5
6D
330
6B
100
AcDbEntity
 67
     1
  8
0
100
AcDbBlockEnd
  0
BLOCK
  5
44A
330
449
100
AcDbEntity
  8
0
 62
     7
100
AcDbBlockBegin
  2
*D0
 70
     1
 10
0.0
 20
0.0
 30
0.0
  3
*D0
  1

  0
LINE
  5
48D
330
449
100
AcDbEntity
  8
NOTE
  6
Continuous
 62
     0
370
    -2
100
AcDbLine
 10
0.8303246398512541
 20
1114.147441160048
 30
0.0
 11
0.8303246398512284
 21
690.2288377279822
 31
0.0
  0
LINE
  5
48E
330
449
100
AcDbEntity
  8
NOTE
  6
Continuous
 62
     0
370
    -2
100
AcDbLine
 10
0.8303246398512296
 20
710.228837727982
 30
0.0
 11
0.8303246398512309
 21
730.228837727982
 31
0.0
  0
LINE
  5
48F
330
449
100
AcDbEntity
  8
NOTE
  6
Continuous
 62
     0
370
    -2
100
AcDbLine
 10
-29.16967536014877
 20
710.228837727982
 30
0.0
 11
-59.16967536014877
 21
710.228837727982
 31
0.0
  0
LINE
  5
490
330
449
100
AcDbEntity
  8
NOTE
  6
Continuous
 62
     0
370
    -2
100
AcDbLine
 10
30.83032463985123
 20
710.228837727982
 30
0.0
 11
85.01032463985124
 21
710.228837727982
 31
0.0
  0
SOLID
  5
491
330
449
100
AcDbEntity
  8
NOTE
  6
Continuous
 62
     0
100
AcDbTrace
 10
-29.16967536014877
 20
715.2288377279822
 30
0.0
 11
-29.16967536014877
 21
705.228837727982
 31
0.0
 12
0.8303246398512296
 22
710.228837727982
 32
0.0
 13
0.8303246398512296
 23
710.228837727982
 33
0.0
  0
SOLID
  5
492
330
449
100
AcDbEntity
  8
NOTE
  6
Continuous
 62
     0
100
AcDbTrace
 10
30.83032463985123
 20
715.2288377279822
 30
0.0
 11
30.83032463985123
 21
705.228837727982
 31
0.0
 12
0.8303246398512296
 22
710.228837727982
 32
0.0
 13
0.8303246398512296
 23
710.228837727982
 33
0.0
  0
MTEXT
  5
493
330
449
100
AcDbEntity
  8
NOTE
  6
Continuous
 62
     0
100
AcDbMText
 10
72.92032463985123
 20
730.318837727982
 30
0.0
 40
40.0
 41
0.0
 71
     5
 72
     1
  1
\A1;0
 73
     1
 44
1.0
1001
ACAD
1000
MTEXTBEGIN
1070
    73
1070
     1
1070
    44
1040
1.0
1070
    74
1070
     0
1000
MTEXTEND
  0
POINT
  5
494
330
449
100
AcDbEntity
  8
DEFPOINTS
  6
Continuous
 62
     0
100
AcDbPoint
 10
0.8303246398512554
 20
1134.147441160048
 30
0.0
  0
POINT
  5
495
330
449
100
AcDbEntity
  8
DEFPOINTS
  6
Continuous
 62
     0
100
AcDbPoint
 10
0.8303246398512284
 20
690.2288377279822
 30
0.0
  0
POINT
  5
496
330
449
100
AcDbEntity
  8
DEFPOINTS
  6
Continuous
 62
     0
100
AcDbPoint
 10
0.8303246398512296
 20
710.228837727982
 30
0.0
  0
ENDBLK
  5
44B
330
449
100
AcDbEntity
  8
0
 62
     7
100
AcDbBlockEnd
  0
BLOCK
  5
459
330
458
100
AcDbEntity
  8
0
 62
     7
100
AcDbBlockBegin
  2
*D1
 70
     1
 10
0.0
 20
0.0
 30
0.0
  3
*D1
  1

  0
LINE
  5
46F
330
458
100
AcDbEntity
  8
NOTE
  6
Continuous
 62
     0
370
    -2
100
AcDbLine
 10
1106.537143978762
 20
0.4000000000212424
 30
0.0
 11
868.2140294917335
 21
0.4000000000213099
 31
0.0
  0
LINE
  5
470
330
458
100
AcDbEntity
  8
NOTE
  6
Continuous
 62
     0
370
    -2
100
AcDbLine
 10
666.4807272922351
 20
0.4000000000213671
 30
0.0
 11
908.2140294917335
 21
0.4000000000212986
 31
0.0
  0
LINE
  5
471
330
458
100
AcDbEntity
  8
NOTE
  6
Continuous
 62
     0
370
    -2
100
AcDbLine
 10
888.2140294917334
 20
-29.5999999999787
 30
0.0
 11
888.2140294917334
 21
-59.59999999997871
 31
0.0
  0
LINE
  5
472
330
458
100
AcDbEntity
  8
NOTE
  6
Continuous
 62
     0
370
    -2
100
AcDbLine
 10
888.2140294917334
 20
30.40000000002131
 30
0.0
 11
888.2140294917334
 21
84.58000000002131
 31
0.0
  0
SOLID
  5
473
330
458
100
AcDbEntity
  8
NOTE
  6
Continuous
 62
     0
100
AcDbTrace
 10
883.2140294917335
 20
-29.59999999997869
 30
0.0
 11
893.2140294917335
 21
-29.5999999999787
 31
0.0
 12
888.2140294917334
 22
0.4000000000213042
 32
0.0
 13
888.2140294917334
 23
0.4000000000213042
 33
0.0
  0
SOLID
  5
474
330
458
100
AcDbEntity
  8
NOTE
  6
Continuous
 62
     0
100
AcDbTrace
 10
883.2140294917335
 20
30.40000000002131
 30
0.0
 11
893.2140294917335
 21
30.40000000002131
 31
0.0
 12
888.2140294917334
 22
0.4000000000213042
 32
0.0
 13
888.2140294917334
 23
0.4000000000213042
 33
0.0
  0
MTEXT
  5
475
330
458
100
AcDbEntity
  8
NOTE
  6
Continuous
 62
     0
100
AcDbMText
 10
868.1240294917335
 20
72.49000000002145
 30
0.0
 40
40.0
 41
0.0
 71
     5
 72
     1
  1
\A1;0
 11
0.0000000000000001
 21
1.0
 31
0.0
 73
     1
 44
1.0
1001
ACAD
1000
MTEXTBEGIN
1070
    73
1070
     1
1070
    44
1040
1.0
1070
    74
1070
     0
1000
MTEXTEND
  0
POINT
  5
476
330
458
100
AcDbEntity
  8
DEFPOINTS
  6
Continuous
 62
     0
100
AcDbPoint
 10
1126.537143978762
 20
0.4000000000212367
 30
0.0
  0
POINT
  5
477
330
458
100
AcDbEntity
  8
DEFPOINTS
  6
Continuous
 62
     0
100
AcDbPoint
 10
646.480727292235
 20
0.4000000000213727
 30
0.0
  0
POINT
  5
478
330
458
100
AcDbEntity
  8
DEFPOINTS
  6
Continuous
 62
     0
100
AcDbPoint
 10
888.2140294917334
 20
0.4000000000213042
 30
0.0
  0
ENDBLK
  5
45A
330
458
100
AcDbEntity
  8
0
 62
     7
100
AcDbBlockEnd
  0
BLOCK
  5
5E9
330
5E7
100
AcDbEntity
  8
0
100
AcDbBlockBegin
  2
_Small
 70
     0
 10
0.0
 20
0.0
 30
0.0
  3
_Small
  1

  0
CIRCLE
  5
5EA
330
5E7
100
AcDbEntity
  8
SIZE
100
AcDbCircle
 10
0.0
 20
0.0
 30
0.0
 40
0.25
  0
ENDBLK
  5
5EB
330
5E7
100
AcDbEntity
  8
0
100
AcDbBlockEnd
  0
BLOCK
  5
5EE
330
5EC
100
AcDbEntity
  8
0
100
AcDbBlockBegin
  2
_Open30
 70
     0
 10
0.0
 20
0.0
 30
0.0
  3
_Open30
  1

  0
LINE
  5
5EF
330
5EC
100
AcDbEntity
  8
NOTE
100
AcDbLine
 10
-1.0
 20
0.26794919
 30
0.0
 11
0.0
 21
0.0
 31
0.0
  0
LINE
  5
5F0
330
5EC
100
AcDbEntity
  8
NOTE
100
AcDbLine
 10
0.0
 20
0.0
 30
0.0
 11
-1.0
 21
-0.26794919
 31
0.0
  0
LINE
  5
5F1
330
5EC
100
AcDbEntity
  8
NOTE
100
AcDbLine
 10
0.0
 20
0.0
 30
0.0
 11
-1.0
 21
0.0
 31
0.0
  0
ENDBLK
  5
5F2
330
5EC
100
AcDbEntity
  8
0
100
AcDbBlockEnd
  0
ENDSEC
  0
SECTION
  2
ENTITIES
  0
LINE
  5
9A
330
6F
100
AcDbEntity
  8
DETAIL
  6
Continuous
 62
     5
100
AcDbLine
 10
625.3696753601511
 20
-532.7000000000007
 30
0.0
 11
625.3696753601511
 21
-533.4999999999999
 31
0.0
  0
LINE
  5
9B
330
6F
100
AcDbEntity
  8
DETAIL
  6
Continuous
 62
     5
100
AcDbLine
 10
625.3696753601511
 20
-532.7000000000007
 30
0.0
 11
626.1696753601505
 21
-532.7000000000007
 31
0.0
  0
LINE
  5
9C
330
6F
100
AcDbEntity
  8
DETAIL
  6
Continuous
 62
     5
100
AcDbLine
 10
-625.0303246398482
 20
-532.7000000000006
 30
0.0
 11
-625.0303246398482
 21
-533.4999999999999
 31
0.0
  0
LINE
  5
9D
330
6F
100
AcDbEntity
  8
DETAIL
  6
Continuous
 62
     5
100
AcDbLine
 10
-625.8303246398494
 20
-532.7000000000006
 30
0.0
 11
-625.0303246398482
 21
-532.7000000000006
 31
0.0
  0
LINE
  5
9E
330
6F
100
AcDbEntity
  8
DETAIL
  6
Continuous
 62
     5
100
AcDbLine
 10
-523.3303246398492
 20
-562.4999999999999
 30
0.0
 11
574.6696753601502
 21
-562.5
 31
0.0
  0
LINE
  5
9F
330
6F
100
AcDbEntity
  8
DETAIL
  6
Continuous
 62
     5
100
AcDbLine
 10
-625.0303246398482
 20
-533.4999999999999
 30
0.0
 11
625.3696753601511
 21
-533.4999999999999
 31
0.0
  0
LINE
  5
A0
330
6F
100
AcDbEntity
  8
DETAIL
  6
Continuous
 62
     5
100
AcDbLine
 10
-625.8303246398488
 20
527.8072473472708
 30
0.0
 11
-625.8303246398494
 21
122.0
 31
0.0
  0
LINE
  5
A1
330
6F
100
AcDbEntity
  8
DETAIL
  6
Continuous
 62
     5
100
AcDbLine
 10
626.1696753601508
 20
531.4999999999998
 30
0.0
 11
626.1696753601505
 21
121.9999999999998
 31
0.0
  0
LINE
  5
A2
330
6F
100
AcDbEntity
  8
DETAIL
  6
Continuous
 62
     5
100
AcDbLine
 10
626.1696753601505
 20
64.99999999999984
 30
0.0
 11
626.1696753601505
 21
-532.7000000000007
 31
0.0
  0
LINE
  5
A3
330
6F
100
AcDbEntity
  8
DETAIL
  6
Continuous
 62
     5
100
AcDbLine
 10
-625.8303246398494
 20
65.0000000000001
 30
0.0
 11
-625.8303246398494
 21
-532.7000000000006
 31
0.0
  0
LINE
  5
A5
330
6F
100
AcDbEntity
  8
DETAIL
  6
Continuous
 62
     5
100
AcDbLine
 10
-650.8303246398472
 20
-95.78690649300908
 30
0.0
 11
-645.8303246398473
 21
-95.28690649300907
 31
0.0
  0
LINE
  5
A6
330
6F
100
AcDbEntity
  8
DETAIL
  6
Continuous
 62
     5
100
AcDbLine
 10
-650.8303246398472
 20
-127.286906493009
 30
0.0
 11
-645.8303246398473
 21
-127.786906493009
 31
0.0
  0
LINE
  5
A7
330
6F
100
AcDbEntity
  8
DETAIL
  6
Continuous
 62
     5
100
AcDbLine
 10
-655.3800764993585
 20
-127.3319313070568
 30
0.0
 11
-650.8303246398472
 21
-127.786906493009
 31
0.0
  0
LINE
  5
A8
330
6F
100
AcDbEntity
  8
DETAIL
  6
Continuous
 62
     5
100
AcDbLine
 10
-655.3800764993585
 20
-95.74188167896128
 30
0.0
 11
-650.8303246398472
 21
-95.28690649300907
 31
0.0
  0
LINE
  5
A9
330
6F
100
AcDbEntity
  8
DETAIL
  6
Continuous
 62
     5
100
AcDbLine
 10
-645.8303246398473
 20
-127.786906493009
 30
0.0
 11
-645.8303246398473
 21
-95.28690649300907
 31
0.0
  0
LINE
  5
AA
330
6F
100
AcDbEntity
  8
DETAIL
  6
Continuous
 62
     5
100
AcDbLine
 10
-650.8303246398472
 20
-127.786906493009
 30
0.0
 11
-650.8303246398472
 21
-95.28690649300907
 31
0.0
  0
LINE
  5
AB
330
6F
100
AcDbEntity
  8
DETAIL
  6
Continuous
 62
     5
100
AcDbLine
 10
-655.8303246398472
 20
-126.8344127119524
 30
0.0
 11
-655.8303246398472
 21
-96.23940027406565
 31
0.0
  0
LINE
  5
AC
330
6F
100
AcDbEntity
  8
DETAIL
  6
Continuous
 62
     5
100
AcDbLine
 10
-655.8303246398472
 20
-126.8344127119524
 30
0.0
 11
-655.8303246398472
 21
-96.23940027406565
 31
0.0
  0
ARC
  5
AD
330
6F
100
AcDbEntity
  8
DETAIL
  6
Continuous
 62
     5
100
AcDbCircle
 10
-655.3303246398472
 20
-96.23940027406565
 30
0.0
 40
0.5000000000002276
100
AcDbArc
 50
95.71059313748163
 51
180.0
  0
ARC
  5
AE
330
6F
100
AcDbEntity
  8
DETAIL
  6
Continuous
 62
     5
100
AcDbCircle
 10
-655.3303246398472
 20
-126.8344127119524
 30
0.0
 40
0.5
100
AcDbArc
 50
180.0
 51
264.2894068625158
  0
LINE
  5
AF
330
6F
100
AcDbEntity
  8
DETAIL
  6
Continuous
 62
     5
100
AcDbLine
 10
-645.8303246398473
 20
-127.286906493009
 30
0.0
 11
-625.8303246398494
 21
-127.286906493009
 31
0.0
  0
LINE
  5
B0
330
6F
100
AcDbEntity
  8
DETAIL
  6
Continuous
 62
     5
100
AcDbLine
 10
-645.8303246398473
 20
-95.78690649300908
 30
0.0
 11
-625.8303246398494
 21
-95.78690649300908
 31
0.0
  0
ARC
  5
B1
330
6F
100
AcDbEntity
  8
DETAIL
  6
Continuous
 62
     5
100
AcDbCircle
 10
-663.8303246398472
 20
-510.4963848373989
 30
0.0
 40
7.0
100
AcDbArc
 50
180.0
 51
0.0
  0
ARC
  5
B2
330
6F
100
AcDbEntity
  8
DETAIL
  6
Continuous
 62
     5
100
AcDbCircle
 10
-663.8303246398472
 20
-494.4963848373988
 30
0.0
 40
7.0
100
AcDbArc
 50
0.0
 51
180.0
  0
LINE
  5
B3
330
6F
100
AcDbEntity
  8
DETAIL
  6
Continuous
 62
     5
100
AcDbLine
 10
-686.8303246398474
 20
-427.4963848373988
 30
0.0
 11
-625.8303246398494
 21
-427.4963848373988
 31
0.0
  0
LINE
  5
B4
330
6F
100
AcDbEntity
  8
DETAIL
  6
Continuous
 62
     5
100
AcDbLine
 10
-656.8303246398475
 20
-494.4963848373988
 30
0.0
 11
-656.8303246398475
 21
-510.4963848373989
 31
0.0
  0
LINE
  5
B5
330
6F
100
AcDbEntity
  8
DETAIL
  6
Continuous
 62
     5
100
AcDbLine
 10
-670.8303246398473
 20
-496.4963848373989
 30
0.0
 11
-670.8303246398473
 21
-494.4963848373988
 31
0.0
  0
LINE
  5
B6
330
6F
100
AcDbEntity
  8
DETAIL
  6
Continuous
 62
     5
100
AcDbLine
 10
-670.8303246398473
 20
-510.4963848373989
 30
0.0
 11
-670.8303246398473
 21
-508.4963848373988
 31
0.0
  0
LINE
  5
B7
330
6F
100
AcDbEntity
  8
DETAIL
  6
Continuous
 62
     5
100
AcDbLine
 10
-686.8303246398474
 20
-496.4963848373989
 30
0.0
 11
-670.8303246398473
 21
-496.4963848373989
 31
0.0
  0
LINE
  5
B8
330
6F
100
AcDbEntity
  8
DETAIL
  6
Continuous
 62
     5
100
AcDbLine
 10
-684.3303246398472
 20
-532.496384837399
 30
0.0
 11
-684.3303246398472
 21
-529.9963848373988
 31
0.0
  0
LINE
  5
B9
330
6F
100
AcDbEntity
  8
DETAIL
  6
Continuous
 62
     5
100
AcDbLine
 10
-686.8303246398474
 20
-508.4963848373988
 30
0.0
 11
-686.8303246398474
 21
-529.9963848373988
 31
0.0
  0
LINE
  5
BA
330
6F
100
AcDbEntity
  8
DETAIL
  6
Continuous
 62
     5
100
AcDbLine
 10
-686.8303246398474
 20
-427.4963848373988
 30
0.0
 11
-686.8303246398474
 21
-496.4963848373989
 31
0.0
  0
LINE
  5
BB
330
6F
100
AcDbEntity
  8
DETAIL
  6
Continuous
 62
     5
100
AcDbLine
 10
-686.8303246398474
 20
-508.4963848373988
 30
0.0
 11
-670.8303246398473
 21
-508.4963848373988
 31
0.0
  0
LINE
  5
BC
330
6F
100
AcDbEntity
  8
DETAIL
  6
Continuous
 62
     5
100
AcDbLine
 10
-686.8303246398474
 20
-529.9963848373988
 30
0.0
 11
-684.3303246398472
 21
-529.9963848373988
 31
0.0
  0
LINE
  5
BD
330
6F
100
AcDbEntity
  8
DETAIL
  6
Continuous
 62
     5
100
AcDbLine
 10
-684.3303246398472
 20
-532.496384837399
 30
0.0
 11
-628.3303246398474
 21
-532.496384837399
 31
0.0
  0
ARC
  5
BE
330
6F
100
AcDbEntity
  8
DETAIL
  6
Continuous
 62
     5
100
AcDbCircle
 10
-663.8303246398492
 20
539.6999999999608
 30
0.0
 40
7.0
100
AcDbArc
 50
0.0
 51
180.0
  0
ARC
  5
BF
330
6F
100
AcDbEntity
  8
DETAIL
  6
Continuous
 62
     5
100
AcDbCircle
 10
-663.8303246398492
 20
523.6999999999607
 30
0.0
 40
7.0
100
AcDbArc
 50
180.0
 51
0.0
  0
LINE
  5
C0
330
6F
100
AcDbEntity
  8
DETAIL
  6
Continuous
 62
     5
100
AcDbLine
 10
-686.830324639849
 20
456.6999999999607
 30
0.0
 11
-631.0303246398498
 21
456.6999999999607
 31
0.0
  0
LINE
  5
C1
330
6F
100
AcDbEntity
  8
DETAIL
  6
Continuous
 62
     5
100
AcDbLine
 10
-625.8303246398488
 20
561.6999999999603
 30
0.0
 11
-625.8303246398488
 21
521.5000000000001
 31
0.0
  0
LINE
  5
C2
330
6F
100
AcDbEntity
  8
DETAIL
  6
Continuous
 62
     5
100
AcDbLine
 10
-656.8303246398491
 20
523.6999999999607
 30
0.0
 11
-656.8303246398491
 21
539.6999999999608
 31
0.0
  0
LINE
  5
C3
330
6F
100
AcDbEntity
  8
DETAIL
  6
Continuous
 62
     5
100
AcDbLine
 10
-670.8303246398489
 20
525.6999999999607
 30
0.0
 11
-670.8303246398489
 21
523.6999999999607
 31
0.0
  0
LINE
  5
C4
330
6F
100
AcDbEntity
  8
DETAIL
  6
Continuous
 62
     5
100
AcDbLine
 10
-670.8303246398489
 20
539.6999999999608
 30
0.0
 11
-670.8303246398489
 21
537.6999999999606
 31
0.0
  0
LINE
  5
C5
330
6F
100
AcDbEntity
  8
DETAIL
  6
Continuous
 62
     5
100
AcDbLine
 10
-686.830324639849
 20
525.6999999999607
 30
0.0
 11
-670.8303246398489
 21
525.6999999999607
 31
0.0
  0
LINE
  5
C6
330
6F
100
AcDbEntity
  8
DETAIL
  6
Continuous
 62
     5
100
AcDbLine
 10
-684.3303246398487
 20
561.6999999999603
 30
0.0
 11
-684.3303246398487
 21
559.1999999999607
 31
0.0
  0
LINE
  5
C7
330
6F
100
AcDbEntity
  8
DETAIL
  6
Continuous
 62
     5
100
AcDbLine
 10
-686.830324639849
 20
537.6999999999606
 30
0.0
 11
-686.830324639849
 21
559.1999999999607
 31
0.0
  0
LINE
  5
C8
330
6F
100
AcDbEntity
  8
DETAIL
  6
Continuous
 62
     5
100
AcDbLine
 10
-686.830324639849
 20
456.6999999999607
 30
0.0
 11
-686.830324639849
 21
525.6999999999607
 31
0.0
  0
LINE
  5
C9
330
6F
100
AcDbEntity
  8
DETAIL
  6
Continuous
 62
     5
100
AcDbLine
 10
-686.830324639849
 20
537.6999999999606
 30
0.0
 11
-670.8303246398489
 21
537.6999999999606
 31
0.0
  0
LINE
  5
CA
330
6F
100
AcDbEntity
  8
DETAIL
  6
Continuous
 62
     5
100
AcDbLine
 10
-686.830324639849
 20
559.1999999999607
 30
0.0
 11
-684.3303246398487
 21
559.1999999999607
 31
0.0
  0
LINE
  5
CB
330
6F
100
AcDbEntity
  8
DETAIL
  6
Continuous
 62
     5
100
AcDbLine
 10
-684.3303246398487
 20
561.6999999999603
 30
0.0
 11
-625.8303246398488
 21
561.6999999999603
 31
0.0
  0
LINE
  5
CC
330
6F
100
AcDbEntity
  8
DETAIL
  6
Continuous
 62
     5
100
AcDbLine
 10
685.1696753601506
 20
-427.4963848373992
 30
0.0
 11
626.1696753601505
 21
-427.4963848373992
 31
0.0
  0
LINE
  5
CD
330
6F
100
AcDbEntity
  8
DETAIL
  6
Continuous
 62
     5
100
AcDbLine
 10
626.1696753601505
 20
-527.6963848373998
 30
0.0
 11
627.6696753601505
 21
-527.6963848373998
 31
0.0
  0
ARC
  5
CE
330
6F
100
AcDbEntity
  8
DETAIL
  6
Continuous
 62
     5
100
AcDbCircle
 10
662.1696753601502
 20
-510.4963848373991
 30
0.0
 40
7.0
100
AcDbArc
 50
180.0
 51
0.0
  0
ARC
  5
CF
330
6F
100
AcDbEntity
  8
DETAIL
  6
Continuous
 62
     5
100
AcDbCircle
 10
662.1696753601502
 20
-494.4963848373991
 30
0.0
 40
7.0
100
AcDbArc
 50
0.0
 51
180.0
  0
LINE
  5
D0
330
6F
100
AcDbEntity
  8
DETAIL
  6
Continuous
 62
     5
100
AcDbLine
 10
627.6696753601505
 20
-532.496384837399
 30
0.0
 11
627.6696753601505
 21
-527.6963848373998
 31
0.0
  0
LINE
  5
D1
330
6F
100
AcDbEntity
  8
DETAIL
  6
Continuous
 62
     5
100
AcDbLine
 10
655.1696753601505
 20
-494.4963848373991
 30
0.0
 11
655.1696753601505
 21
-510.4963848373991
 31
0.0
  0
LINE
  5
D2
330
6F
100
AcDbEntity
  8
DETAIL
  6
Continuous
 62
     5
100
AcDbLine
 10
669.1696753601505
 20
-496.4963848373991
 30
0.0
 11
669.1696753601505
 21
-494.4963848373991
 31
0.0
  0
LINE
  5
D3
330
6F
100
AcDbEntity
  8
DETAIL
  6
Continuous
 62
     5
100
AcDbLine
 10
669.1696753601505
 20
-510.4963848373991
 30
0.0
 11
669.1696753601505
 21
-508.4963848373991
 31
0.0
  0
LINE
  5
D4
330
6F
100
AcDbEntity
  8
DETAIL
  6
Continuous
 62
     5
100
AcDbLine
 10
685.1696753601506
 20
-496.4963848373991
 30
0.0
 11
669.1696753601505
 21
-496.4963848373991
 31
0.0
  0
LINE
  5
D5
330
6F
100
AcDbEntity
  8
DETAIL
  6
Continuous
 62
     5
100
AcDbLine
 10
682.6696753601502
 20
-532.496384837399
 30
0.0
 11
682.6696753601502
 21
-529.9963848373992
 31
0.0
  0
LINE
  5
D6
330
6F
100
AcDbEntity
  8
DETAIL
  6
Continuous
 62
     5
100
AcDbLine
 10
685.1696753601506
 20
-508.4963848373991
 30
0.0
 11
685.1696753601506
 21
-529.9963848373992
 31
0.0
  0
LINE
  5
D7
330
6F
100
AcDbEntity
  8
DETAIL
  6
Continuous
 62
     5
100
AcDbLine
 10
685.1696753601506
 20
-427.4963848373992
 30
0.0
 11
685.1696753601506
 21
-496.4963848373991
 31
0.0
  0
LINE
  5
D8
330
6F
100
AcDbEntity
  8
DETAIL
  6
Continuous
 62
     5
100
AcDbLine
 10
685.1696753601506
 20
-508.4963848373991
 30
0.0
 11
669.1696753601505
 21
-508.4963848373991
 31
0.0
  0
LINE
  5
D9
330
6F
100
AcDbEntity
  8
DETAIL
  6
Continuous
 62
     5
100
AcDbLine
 10
685.1696753601506
 20
-529.9963848373992
 30
0.0
 11
682.6696753601502
 21
-529.9963848373992
 31
0.0
  0
LINE
  5
DA
330
6F
100
AcDbEntity
  8
DETAIL
  6
Continuous
 62
     5
100
AcDbLine
 10
682.6696753601502
 20
-532.496384837399
 30
0.0
 11
627.6696753601505
 21
-532.496384837399
 31
0.0
  0
LINE
  5
DB
330
6F
100
AcDbEntity
  8
DETAIL
  6
Continuous
 62
     5
100
AcDbLine
 10
685.1696753601507
 20
456.6999999999604
 30
0.0
 11
627.3696753601532
 21
456.6999999999604
 31
0.0
  0
ARC
  5
DC
330
6F
100
AcDbEntity
  8
DETAIL
  6
Continuous
 62
     5
100
AcDbCircle
 10
662.1696753601508
 20
539.6999999999605
 30
0.0
 40
7.0
100
AcDbArc
 50
0.0
 51
180.0
  0
ARC
  5
DD
330
6F
100
AcDbEntity
  8
DETAIL
  6
Continuous
 62
     5
100
AcDbCircle
 10
662.1696753601508
 20
523.6999999999607
 30
0.0
 40
7.0
100
AcDbArc
 50
180.0
 51
0.0
  0
LINE
  5
DE
330
6F
100
AcDbEntity
  8
DETAIL
  6
Continuous
 62
     5
100
AcDbLine
 10
626.1696753601508
 20
561.6999999999603
 30
0.0
 11
626.1696753601508
 21
532.1365459325241
 31
0.0
  0
LINE
  5
DF
330
6F
100
AcDbEntity
  8
DETAIL
  6
Continuous
 62
     5
100
AcDbLine
 10
655.1696753601508
 20
523.6999999999607
 30
0.0
 11
655.1696753601508
 21
539.6999999999605
 31
0.0
  0
LINE
  5
E0
330
6F
100
AcDbEntity
  8
DETAIL
  6
Continuous
 62
     5
100
AcDbLine
 10
669.1696753601507
 20
525.6999999999605
 30
0.0
 11
669.1696753601507
 21
523.6999999999607
 31
0.0
  0
LINE
  5
E1
330
6F
100
AcDbEntity
  8
DETAIL
  6
Continuous
 62
     5
100
AcDbLine
 10
669.1696753601507
 20
539.6999999999605
 30
0.0
 11
669.1696753601507
 21
537.6999999999603
 31
0.0
  0
LINE
  5
E2
330
6F
100
AcDbEntity
  8
DETAIL
  6
Continuous
 62
     5
100
AcDbLine
 10
685.1696753601507
 20
525.6999999999605
 30
0.0
 11
669.1696753601507
 21
525.6999999999605
 31
0.0
  0
LINE
  5
E3
330
6F
100
AcDbEntity
  8
DETAIL
  6
Continuous
 62
     5
100
AcDbLine
 10
682.6696753601502
 20
561.6999999999603
 30
0.0
 11
682.6696753601502
 21
559.1999999999605
 31
0.0
  0
LINE
  5
E4
330
6F
100
AcDbEntity
  8
DETAIL
  6
Continuous
 62
     5
100
AcDbLine
 10
685.1696753601507
 20
537.6999999999603
 30
0.0
 11
685.1696753601507
 21
559.1999999999605
 31
0.0
  0
LINE
  5
E5
330
6F
100
AcDbEntity
  8
DETAIL
  6
Continuous
 62
     5
100
AcDbLine
 10
685.1696753601507
 20
456.6999999999604
 30
0.0
 11
685.1696753601507
 21
525.6999999999605
 31
0.0
  0
LINE
  5
E6
330
6F
100
AcDbEntity
  8
DETAIL
  6
Continuous
 62
     5
100
AcDbLine
 10
685.1696753601507
 20
537.6999999999603
 30
0.0
 11
669.1696753601507
 21
537.6999999999603
 31
0.0
  0
LINE
  5
E7
330
6F
100
AcDbEntity
  8
DETAIL
  6
Continuous
 62
     5
100
AcDbLine
 10
685.1696753601507
 20
559.1999999999605
 30
0.0
 11
682.6696753601502
 21
559.1999999999605
 31
0.0
  0
LINE
  5
E8
330
6F
100
AcDbEntity
  8
DETAIL
  6
Continuous
 62
     5
100
AcDbLine
 10
682.6696753601502
 20
561.6999999999603
 30
0.0
 11
626.1696753601508
 21
561.6999999999603
 31
0.0
  0
LINE
  5
E9
330
6F
100
AcDbEntity
  8
DETAIL
  6
Continuous
 62
     5
100
AcDbLine
 10
-625.8303246398494
 20
-308.9763073420908
 30
0.0
 11
-646.8303246398494
 21
-308.9763073420908
 31
0.0
  0
LINE
  5
EA
330
6F
100
AcDbEntity
  8
DETAIL
  6
Continuous
 62
     5
100
AcDbLine
 10
-625.8303246398494
 20
-259.9763073420906
 30
0.0
 11
-646.8303246398494
 21
-259.9763073420906
 31
0.0
  0
LINE
  5
EB
330
6F
100
AcDbEntity
  8
DETAIL
  6
Continuous
 62
     5
100
AcDbLine
 10
-625.8303246398494
 20
-207.4763073420907
 30
0.0
 11
-646.8303246398494
 21
-207.4763073420907
 31
0.0
  0
LINE
  5
EC
330
6F
100
AcDbEntity
  8
DETAIL
  6
Continuous
 62
     5
100
AcDbLine
 10
-625.8303246398494
 20
-171.4763073420906
 30
0.0
 11
-646.8303246398494
 21
-171.4763073420906
 31
0.0
  0
LINE
  5
ED
330
6F
100
AcDbEntity
  8
DETAIL
  6
Continuous
 62
     5
100
AcDbLine
 10
-646.8303246398494
 20
-207.4763073420907
 30
0.0
 11
-646.8303246398494
 21
-171.4763073420906
 31
0.0
  0
LINE
  5
EE
330
6F
100
AcDbEntity
  8
DETAIL
  6
Continuous
 62
     5
100
AcDbLine
 10
-646.8303246398494
 20
-308.9763073420908
 30
0.0
 11
-646.8303246398494
 21
-259.9763073420906
 31
0.0
  0
LINE
  5
EF
330
6F
100
AcDbEntity
  8
DETAIL
  6
Continuous
 62
     5
100
AcDbLine
 10
-705.4161110774485
 20
-272.2763073420936
 30
0.0
 11
-704.3161110774499
 21
-273.3763073420921
 31
0.0
  0
LINE
  5
F0
330
6F
100
AcDbEntity
  8
DETAIL
  6
Continuous
 62
     5
100
AcDbLine
 10
-715.5403751462483
 20
-183.9663073420923
 30
0.0
 11
-714.7903751462482
 21
-184.7163073420923
 31
0.0
  0
LINE
  5
F1
330
6F
100
AcDbEntity
  8
DETAIL
  6
Continuous
 62
     5
100
AcDbLine
 10
-725.0303246398495
 20
-296.6763073420914
 30
0.0
 11
-705.4161110774485
 21
-296.6763073420914
 31
0.0
  0
LINE
  5
F2
330
6F
100
AcDbEntity
  8
DETAIL
  6
Continuous
 62
     5
100
AcDbLine
 10
-646.8303246398494
 20
-295.5763073420929
 30
0.0
 11
-704.3161110774499
 21
-295.5763073420929
 31
0.0
  0
LINE
  5
F3
330
6F
100
AcDbEntity
  8
DETAIL
  6
Continuous
 62
     5
100
AcDbLine
 10
-646.8303246398494
 20
-273.3763073420921
 30
0.0
 11
-704.3161110774499
 21
-273.3763073420921
 31
0.0
  0
LINE
  5
F4
330
6F
100
AcDbEntity
  8
DETAIL
  6
Continuous
 62
     5
100
AcDbLine
 10
-725.0303246398495
 20
-272.2763073420936
 30
0.0
 11
-705.4161110774485
 21
-272.2763073420936
 31
0.0
  0
LINE
  5
F5
330
6F
100
AcDbEntity
  8
DETAIL
  6
Continuous
 62
     5
100
AcDbLine
 10
-725.0303246398495
 20
-194.9863073420927
 30
0.0
 11
-715.5403751462483
 21
-194.9863073420927
 31
0.0
  0
LINE
  5
F6
330
6F
100
AcDbEntity
  8
DETAIL
  6
Continuous
 62
     5
100
AcDbLine
 10
-714.7903751462482
 20
-194.2363073420927
 30
0.0
 11
-646.8303246398494
 21
-194.2363073420927
 31
0.0
  0
LINE
  5
F7
330
6F
100
AcDbEntity
  8
DETAIL
  6
Continuous
 62
     5
100
AcDbLine
 10
-714.7903751462482
 20
-184.7163073420923
 30
0.0
 11
-646.8303246398494
 21
-184.7163073420924
 31
0.0
  0
LINE
  5
F8
330
6F
100
AcDbEntity
  8
DETAIL
  6
Continuous
 62
     5
100
AcDbLine
 10
-725.0303246398495
 20
-183.9663073420923
 30
0.0
 11
-715.5403751462483
 21
-183.9663073420923
 31
0.0
  0
LINE
  5
F9
330
6F
100
AcDbEntity
  8
DETAIL
  6
Continuous
 62
     5
100
AcDbLine
 10
-705.4161110774485
 20
-296.6763073420914
 30
0.0
 11
-704.3161110774499
 21
-295.5763073420929
 31
0.0
  0
LINE
  5
FA
330
6F
100
AcDbEntity
  8
DETAIL
  6
Continuous
 62
     5
100
AcDbLine
 10
-715.5403751462483
 20
-194.9863073420927
 30
0.0
 11
-714.7903751462482
 21
-194.2363073420927
 31
0.0
  0
LINE
  5
FB
330
6F
100
AcDbEntity
  8
DETAIL
  6
Continuous
 62
     5
100
AcDbLine
 10
-704.3161110774499
 20
-273.3763073420921
 30
0.0
 11
-704.3161110774499
 21
-295.5763073420929
 31
0.0
  0
LINE
  5
FC
330
6F
100
AcDbEntity
  8
DETAIL
  6
Continuous
 62
     5
100
AcDbLine
 10
-714.7903751462482
 20
-184.7163073420923
 30
0.0
 11
-714.7903751462482
 21
-194.2363073420927
 31
0.0
  0
LINE
  5
FD
330
6F
100
AcDbEntity
  8
DETAIL
  6
Continuous
 62
     5
100
AcDbLine
 10
-705.4161110774485
 20
-272.2763073420936
 30
0.0
 11
-705.4161110774485
 21
-296.6763073420914
 31
0.0
  0
LINE
  5
FE
330
6F
100
AcDbEntity
  8
DETAIL
  6
Continuous
 62
     5
100
AcDbLine
 10
-715.5403751462483
 20
-183.9663073420923
 30
0.0
 11
-715.5403751462483
 21
-194.9863073420927
 31
0.0
  0
LINE
  5
FF
330
6F
100
AcDbEntity
  8
DETAIL
  6
Continuous
 62
     5
100
AcDbLine
 10
-725.0303246398495
 20
-183.9663073420923
 30
0.0
 11
-725.0303246398495
 21
-194.9863073420927
 31
0.0
  0
LINE
  5
100
330
6F
100
AcDbEntity
  8
DETAIL
  6
Continuous
 62
     5
100
AcDbLine
 10
-725.0303246398495
 20
-272.2763073420936
 30
0.0
 11
-725.0303246398495
 21
-296.6763073420914
 31
0.0
  0
LINE
  5
101
330
6F
100
AcDbEntity
  8
DETAIL
  6
Continuous
 62
     5
100
AcDbLine
 10
575.6696753601523
 20
-533.4999999999999
 30
0.0
 11
575.6696753601523
 21
-562.5
 31
0.0
  0
LINE
  5
102
330
6F
100
AcDbEntity
  8
DETAIL
  6
Continuous
 62
     5
100
AcDbLine
 10
625.1696753601524
 20
121.9999999999998
 30
0.0
 11
625.1696753601524
 21
64.99999999999984
 31
0.0
  0
LINE
  5
103
330
6F
100
AcDbEntity
  8
DETAIL
  6
Continuous
 62
     5
100
AcDbLine
 10
-524.3303246398494
 20
-533.4999999999999
 30
0.0
 11
-524.3303246398494
 21
-562.4999999999999
 31
0.0
  0
LINE
  5
104
330
6F
100
AcDbEntity
  8
DETAIL
  6
Continuous
 62
     5
100
AcDbLine
 10
-523.3303246398492
 20
-562.4999999999999
 30
0.0
 11
-524.3303246398494
 21
-562.4999999999999
 31
0.0
  0
LINE
  5
105
330
6F
100
AcDbEntity
  8
DETAIL
  6
Continuous
 62
     5
100
AcDbLine
 10
-624.8303246398489
 20
122.0
 30
0.0
 11
-624.8303246398489
 21
65.0000000000001
 31
0.0
  0
LINE
  5
10D
330
6F
100
AcDbEntity
  8
DETAIL
  6
Continuous
 62
     5
100
AcDbLine
 10
-626.0303246398498
 20
520.4999999999999
 30
0.0
 11
-626.0303246398498
 21
509.5000000000001
 31
0.0
  0
ARC
  5
10E
330
6F
100
AcDbEntity
  8
DETAIL
  6
Continuous
 62
     5
100
AcDbCircle
 10
-627.0303246398498
 20
69.89361516264404
 30
0.0
 40
1.0
100
AcDbArc
 50
270.0
 51
0.0
  0
LINE
  5
10F
330
6F
100
AcDbEntity
  8
DETAIL
  6
Continuous
 62
     5
100
AcDbLine
 10
-631.0303246398498
 20
456.6999999999607
 30
0.0
 11
-631.0303246398498
 21
68.89361516264407
 31
0.0
  0
LINE
  5
110
330
6F
100
AcDbEntity
  8
DETAIL
  6
Continuous
 62
     5
100
AcDbLine
 10
-626.0303246398498
 20
520.4999999999999
 30
0.0
 11
-626.03032463985
 21
69.89361516264404
 31
0.0
  0
LINE
  5
111
330
6F
100
AcDbEntity
  8
DETAIL
  6
Continuous
 62
     5
100
AcDbLine
 10
-631.0303246398498
 20
68.89361516264407
 30
0.0
 11
-627.0303246398498
 21
68.89361516264407
 31
0.0
  0
LINE
  5
112
330
6F
100
AcDbEntity
  8
DETAIL
  6
Continuous
 62
     5
100
AcDbLine
 10
576.3696753601529
 20
533.4999999999999
 30
0.0
 11
576.3696753601529
 21
557.4999999999999
 31
0.0
  0
LINE
  5
113
330
6F
100
AcDbEntity
  8
DETAIL
  6
Continuous
 62
     5
100
AcDbLine
 10
576.3696753601529
 20
557.4999999999999
 30
0.0
 11
-523.6303246398501
 21
557.4999999999999
 31
0.0
  0
LINE
  5
114
330
6F
100
AcDbEntity
  8
DETAIL
  6
Continuous
 62
     5
100
AcDbLine
 10
625.3696753601495
 20
532.2000000000444
 30
0.0
 11
-522.4303246398493
 21
532.2000000000444
 31
0.0
  0
LINE
  5
115
330
6F
100
AcDbEntity
  8
DETAIL
  6
Continuous
 62
     5
100
AcDbLine
 10
-522.4303246398493
 20
532.2000000000444
 30
0.0
 11
-625.8303246398488
 21
532.2000000000444
 31
0.0
  0
LINE
  5
116
330
6F
100
AcDbEntity
  8
DETAIL
  6
Continuous
 62
     5
100
AcDbLine
 10
-523.6303246398501
 20
532.3000000000428
 30
0.0
 11
-523.6303246398501
 21
557.4999999999999
 31
0.0
  0
LINE
  5
117
330
6F
100
AcDbEntity
  8
DETAIL
  6
Continuous
 62
     5
100
AcDbLine
 10
626.1696753601508
 20
512.6999999999603
 30
0.0
 11
626.1696753601508
 21
531.5459340771046
 31
0.0
  0
ARC
  5
118
330
6F
100
AcDbEntity
  8
DETAIL
  6
Continuous
 62
     5
100
AcDbCircle
 10
625.3696753601515
 20
531.5459340771046
 30
0.0
 40
0.7999999999992724
100
AcDbArc
 50
0.0
 51
21.80140948643346
  0
LINE
  5
145
330
6F
100
AcDbEntity
  8
OUTLINE
  6
Continuous
 62
     3
100
AcDbLine
 10
-624.8303246398489
 20
65.0000000000001
 30
0.0
 11
-625.8303246398494
 21
65.0000000000001
 31
0.0
  0
LINE
  5
146
330
6F
100
AcDbEntity
  8
OUTLINE
  6
Continuous
 62
     3
100
AcDbLine
 10
-624.8303246398489
 20
122.0
 30
0.0
 11
-625.8303246398494
 21
122.0
 31
0.0
  0
LINE
  5
147
330
6F
100
AcDbEntity
  8
OUTLINE
  6
Continuous
 62
     3
100
AcDbLine
 10
625.3696753601511
 20
-532.7000000000007
 30
0.0
 11
625.3696753601511
 21
-533.4999999999999
 31
0.0
  0
LINE
  5
148
330
6F
100
AcDbEntity
  8
OUTLINE
  6
Continuous
 62
     3
100
AcDbLine
 10
625.3696753601511
 20
-532.7000000000007
 30
0.0
 11
626.1696753601505
 21
-532.7000000000007
 31
0.0
  0
LINE
  5
149
330
6F
100
AcDbEntity
  8
OUTLINE
  6
Continuous
 62
     3
100
AcDbLine
 10
-625.0303246398482
 20
-532.7000000000006
 30
0.0
 11
-625.0303246398482
 21
-533.4999999999999
 31
0.0
  0
LINE
  5
14A
330
6F
100
AcDbEntity
  8
OUTLINE
  6
Continuous
 62
     3
100
AcDbLine
 10
-625.8303246398494
 20
-532.7000000000006
 30
0.0
 11
-625.0303246398482
 21
-532.7000000000006
 31
0.0
  0
LINE
  5
14B
330
6F
100
AcDbEntity
  8
OUTLINE
  6
Continuous
 62
     3
100
AcDbLine
 10
-523.3303246398492
 20
-562.4999999999999
 30
0.0
 11
575.6696753601523
 21
-562.5
 31
0.0
  0
LINE
  5
14C
330
6F
100
AcDbEntity
  8
OUTLINE
  6
Continuous
 62
     3
100
AcDbLine
 10
-625.0303246398482
 20
-533.4999999999999
 30
0.0
 11
625.3696753601511
 21
-533.4999999999999
 31
0.0
  0
LINE
  5
14D
330
6F
100
AcDbEntity
  8
OUTLINE
  6
Continuous
 62
     3
100
AcDbLine
 10
-625.8303246398488
 20
527.8072473472708
 30
0.0
 11
-625.8303246398494
 21
122.0
 31
0.0
  0
LINE
  5
14E
330
6F
100
AcDbEntity
  8
OUTLINE
  6
Continuous
 62
     3
100
AcDbLine
 10
626.1696753601508
 20
531.4999999999998
 30
0.0
 11
626.1696753601505
 21
121.9999999999998
 31
0.0
  0
LINE
  5
14F
330
6F
100
AcDbEntity
  8
OUTLINE
  6
Continuous
 62
     3
100
AcDbLine
 10
626.1696753601505
 20
64.99999999999984
 30
0.0
 11
626.1696753601505
 21
-532.7000000000007
 31
0.0
  0
LINE
  5
150
330
6F
100
AcDbEntity
  8
OUTLINE
  6
Continuous
 62
     3
100
AcDbLine
 10
-625.8303246398494
 20
65.0000000000001
 30
0.0
 11
-625.8303246398494
 21
-532.7000000000006
 31
0.0
  0
LINE
  5
151
330
6F
100
AcDbEntity
  8
OUTLINE
  6
Continuous
 62
     3
100
AcDbLine
 10
-650.8303246398472
 20
-95.78690649300908
 30
0.0
 11
-645.8303246398473
 21
-95.28690649300907
 31
0.0
  0
LINE
  5
152
330
6F
100
AcDbEntity
  8
OUTLINE
  6
Continuous
 62
     3
100
AcDbLine
 10
-650.8303246398472
 20
-127.286906493009
 30
0.0
 11
-645.8303246398473
 21
-127.786906493009
 31
0.0
  0
LINE
  5
153
330
6F
100
AcDbEntity
  8
OUTLINE
  6
Continuous
 62
     3
100
AcDbLine
 10
-655.3800764993585
 20
-127.3319313070568
 30
0.0
 11
-650.8303246398472
 21
-127.786906493009
 31
0.0
  0
LINE
  5
154
330
6F
100
AcDbEntity
  8
OUTLINE
  6
Continuous
 62
     3
100
AcDbLine
 10
-655.3800764993585
 20
-95.74188167896128
 30
0.0
 11
-650.8303246398472
 21
-95.28690649300907
 31
0.0
  0
LINE
  5
155
330
6F
100
AcDbEntity
  8
OUTLINE
  6
Continuous
 62
     3
100
AcDbLine
 10
-645.8303246398473
 20
-127.786906493009
 30
0.0
 11
-645.8303246398473
 21
-127.286906493009
 31
0.0
  0
LINE
  5
156
330
6F
100
AcDbEntity
  8
OUTLINE
  6
Continuous
 62
     3
100
AcDbLine
 10
-645.8303246398473
 20
-95.78690649300908
 30
0.0
 11
-645.8303246398473
 21
-95.28690649300907
 31
0.0
  0
LINE
  5
157
330
6F
100
AcDbEntity
  8
OUTLINE
  6
Continuous
 62
     3
100
AcDbLine
 10
-650.8303246398472
 20
-127.786906493009
 30
0.0
 11
-650.8303246398472
 21
-127.286906493009
 31
0.0
  0
LINE
  5
158
330
6F
100
AcDbEntity
  8
OUTLINE
  6
Continuous
 62
     3
100
AcDbLine
 10
-650.8303246398472
 20
-95.78690649300908
 30
0.0
 11
-650.8303246398472
 21
-95.28690649300907
 31
0.0
  0
LINE
  5
159
330
6F
100
AcDbEntity
  8
OUTLINE
  6
Continuous
 62
     3
100
AcDbLine
 10
-655.8303246398472
 20
-126.8344127119524
 30
0.0
 11
-655.8303246398472
 21
-96.23940027406565
 31
0.0
  0
LINE
  5
15A
330
6F
100
AcDbEntity
  8
OUTLINE
  6
Continuous
 62
     3
100
AcDbLine
 10
-655.8303246398472
 20
-126.8344127119524
 30
0.0
 11
-655.8303246398472
 21
-96.23940027406565
 31
0.0
  0
ARC
  5
15B
330
6F
100
AcDbEntity
  8
OUTLINE
  6
Continuous
 62
     3
100
AcDbCircle
 10
-655.3303246398472
 20
-96.23940027406565
 30
0.0
 40
0.5000000000002276
100
AcDbArc
 50
95.71059313748163
 51
180.0
  0
ARC
  5
15C
330
6F
100
AcDbEntity
  8
OUTLINE
  6
Continuous
 62
     3
100
AcDbCircle
 10
-655.3303246398472
 20
-126.8344127119524
 30
0.0
 40
0.5
100
AcDbArc
 50
180.0
 51
264.2894068625158
  0
LINE
  5
15D
330
6F
100
AcDbEntity
  8
OUTLINE
  6
Continuous
 62
     3
100
AcDbLine
 10
-645.8303246398473
 20
-127.286906493009
 30
0.0
 11
-625.8303246398494
 21
-127.286906493009
 31
0.0
  0
LINE
  5
15E
330
6F
100
AcDbEntity
  8
OUTLINE
  6
Continuous
 62
     3
100
AcDbLine
 10
-645.8303246398473
 20
-95.78690649300908
 30
0.0
 11
-625.8303246398494
 21
-95.78690649300908
 31
0.0
  0
ARC
  5
15F
330
6F
100
AcDbEntity
  8
OUTLINE
  6
Continuous
 62
     3
100
AcDbCircle
 10
-663.8303246398472
 20
-510.4963848373989
 30
0.0
 40
7.0
100
AcDbArc
 50
180.0
 51
0.0
  0
ARC
  5
160
330
6F
100
AcDbEntity
  8
OUTLINE
  6
Continuous
 62
     3
100
AcDbCircle
 10
-663.8303246398472
 20
-494.4963848373988
 30
0.0
 40
7.0
100
AcDbArc
 50
0.0
 51
180.0
  0
LINE
  5
161
330
6F
100
AcDbEntity
  8
OUTLINE
  6
Continuous
 62
     3
100
AcDbLine
 10
-686.8303246398474
 20
-427.4963848373988
 30
0.0
 11
-625.8303246398494
 21
-427.4963848373988
 31
0.0
  0
LINE
  5
162
330
6F
100
AcDbEntity
  8
OUTLINE
  6
Continuous
 62
     3
100
AcDbLine
 10
-656.8303246398475
 20
-494.4963848373988
 30
0.0
 11
-656.8303246398475
 21
-510.4963848373989
 31
0.0
  0
LINE
  5
163
330
6F
100
AcDbEntity
  8
OUTLINE
  6
Continuous
 62
     3
100
AcDbLine
 10
-670.8303246398473
 20
-496.4963848373989
 30
0.0
 11
-670.8303246398473
 21
-494.4963848373988
 31
0.0
  0
LINE
  5
164
330
6F
100
AcDbEntity
  8
OUTLINE
  6
Continuous
 62
     3
100
AcDbLine
 10
-670.8303246398473
 20
-510.4963848373989
 30
0.0
 11
-670.8303246398473
 21
-508.4963848373988
 31
0.0
  0
LINE
  5
165
330
6F
100
AcDbEntity
  8
OUTLINE
  6
Continuous
 62
     3
100
AcDbLine
 10
-686.8303246398474
 20
-496.4963848373989
 30
0.0
 11
-670.8303246398473
 21
-496.4963848373989
 31
0.0
  0
LINE
  5
166
330
6F
100
AcDbEntity
  8
OUTLINE
  6
Continuous
 62
     3
100
AcDbLine
 10
-684.3303246398472
 20
-532.496384837399
 30
0.0
 11
-684.3303246398472
 21
-529.9963848373988
 31
0.0
  0
LINE
  5
167
330
6F
100
AcDbEntity
  8
OUTLINE
  6
Continuous
 62
     3
100
AcDbLine
 10
-686.8303246398474
 20
-508.4963848373988
 30
0.0
 11
-686.8303246398474
 21
-529.9963848373988
 31
0.0
  0
LINE
  5
168
330
6F
100
AcDbEntity
  8
OUTLINE
  6
Continuous
 62
     3
100
AcDbLine
 10
-686.8303246398474
 20
-427.4963848373988
 30
0.0
 11
-686.8303246398474
 21
-496.4963848373989
 31
0.0
  0
LINE
  5
169
330
6F
100
AcDbEntity
  8
OUTLINE
  6
Continuous
 62
     3
100
AcDbLine
 10
-686.8303246398474
 20
-508.4963848373988
 30
0.0
 11
-670.8303246398473
 21
-508.4963848373988
 31
0.0
  0
LINE
  5
16A
330
6F
100
AcDbEntity
  8
OUTLINE
  6
Continuous
 62
     3
100
AcDbLine
 10
-686.8303246398474
 20
-529.9963848373988
 30
0.0
 11
-684.3303246398472
 21
-529.9963848373988
 31
0.0
  0
LINE
  5
16B
330
6F
100
AcDbEntity
  8
OUTLINE
  6
Continuous
 62
     3
100
AcDbLine
 10
-684.3303246398472
 20
-532.496384837399
 30
0.0
 11
-625.8303246398494
 21
-532.496384837399
 31
0.0
  0
ARC
  5
16C
330
6F
100
AcDbEntity
  8
OUTLINE
  6
Continuous
 62
     3
100
AcDbCircle
 10
-663.8303246398492
 20
539.6999999999608
 30
0.0
 40
7.0
100
AcDbArc
 50
0.0
 51
180.0
  0
ARC
  5
16D
330
6F
100
AcDbEntity
  8
OUTLINE
  6
Continuous
 62
     3
100
AcDbCircle
 10
-663.8303246398492
 20
523.6999999999607
 30
0.0
 40
7.0
100
AcDbArc
 50
180.0
 51
0.0
  0
LINE
  5
16E
330
6F
100
AcDbEntity
  8
OUTLINE
  6
Continuous
 62
     3
100
AcDbLine
 10
-686.830324639849
 20
456.6999999999607
 30
0.0
 11
-631.0303246398498
 21
456.6999999999607
 31
0.0
  0
LINE
  5
16F
330
6F
100
AcDbEntity
  8
OUTLINE
  6
Continuous
 62
     3
100
AcDbLine
 10
-625.8303246398488
 20
561.6999999999603
 30
0.0
 11
-625.8303246398488
 21
521.5000000000001
 31
0.0
  0
LINE
  5
170
330
6F
100
AcDbEntity
  8
OUTLINE
  6
Continuous
 62
     3
100
AcDbLine
 10
-656.8303246398491
 20
523.6999999999607
 30
0.0
 11
-656.8303246398491
 21
539.6999999999608
 31
0.0
  0
LINE
  5
171
330
6F
100
AcDbEntity
  8
OUTLINE
  6
Continuous
 62
     3
100
AcDbLine
 10
-670.8303246398489
 20
525.6999999999607
 30
0.0
 11
-670.8303246398489
 21
523.6999999999607
 31
0.0
  0
LINE
  5
172
330
6F
100
AcDbEntity
  8
OUTLINE
  6
Continuous
 62
     3
100
AcDbLine
 10
-670.8303246398489
 20
539.6999999999608
 30
0.0
 11
-670.8303246398489
 21
537.6999999999606
 31
0.0
  0
LINE
  5
173
330
6F
100
AcDbEntity
  8
OUTLINE
  6
Continuous
 62
     3
100
AcDbLine
 10
-686.830324639849
 20
525.6999999999607
 30
0.0
 11
-670.8303246398489
 21
525.6999999999607
 31
0.0
  0
LINE
  5
174
330
6F
100
AcDbEntity
  8
OUTLINE
  6
Continuous
 62
     3
100
AcDbLine
 10
-684.3303246398487
 20
561.6999999999603
 30
0.0
 11
-684.3303246398487
 21
559.1999999999607
 31
0.0
  0
LINE
  5
175
330
6F
100
AcDbEntity
  8
OUTLINE
  6
Continuous
 62
     3
100
AcDbLine
 10
-686.830324639849
 20
537.6999999999606
 30
0.0
 11
-686.830324639849
 21
559.1999999999607
 31
0.0
  0
LINE
  5
176
330
6F
100
AcDbEntity
  8
OUTLINE
  6
Continuous
 62
     3
100
AcDbLine
 10
-686.830324639849
 20
456.6999999999607
 30
0.0
 11
-686.830324639849
 21
525.6999999999607
 31
0.0
  0
LINE
  5
177
330
6F
100
AcDbEntity
  8
OUTLINE
  6
Continuous
 62
     3
100
AcDbLine
 10
-686.830324639849
 20
537.6999999999606
 30
0.0
 11
-670.8303246398489
 21
537.6999999999606
 31
0.0
  0
LINE
  5
178
330
6F
100
AcDbEntity
  8
OUTLINE
  6
Continuous
 62
     3
100
AcDbLine
 10
-686.830324639849
 20
559.1999999999607
 30
0.0
 11
-684.3303246398487
 21
559.1999999999607
 31
0.0
  0
LINE
  5
179
330
6F
100
AcDbEntity
  8
OUTLINE
  6
Continuous
 62
     3
100
AcDbLine
 10
-684.3303246398487
 20
561.6999999999603
 30
0.0
 11
-625.8303246398488
 21
561.6999999999603
 31
0.0
  0
LINE
  5
17A
330
6F
100
AcDbEntity
  8
OUTLINE
  6
Continuous
 62
     3
100
AcDbLine
 10
685.1696753601506
 20
-427.4963848373992
 30
0.0
 11
626.1696753601505
 21
-427.4963848373992
 31
0.0
  0
LINE
  5
17B
330
6F
100
AcDbEntity
  8
OUTLINE
  6
Continuous
 62
     3
100
AcDbLine
 10
626.1696753601505
 20
-527.6963848373998
 30
0.0
 11
627.6696753601505
 21
-527.6963848373998
 31
0.0
  0
ARC
  5
17C
330
6F
100
AcDbEntity
  8
OUTLINE
  6
Continuous
 62
     3
100
AcDbCircle
 10
662.1696753601502
 20
-510.4963848373991
 30
0.0
 40
7.0
100
AcDbArc
 50
180.0
 51
0.0
  0
ARC
  5
17D
330
6F
100
AcDbEntity
  8
OUTLINE
  6
Continuous
 62
     3
100
AcDbCircle
 10
662.1696753601502
 20
-494.4963848373991
 30
0.0
 40
7.0
100
AcDbArc
 50
0.0
 51
180.0
  0
LINE
  5
17E
330
6F
100
AcDbEntity
  8
OUTLINE
  6
Continuous
 62
     3
100
AcDbLine
 10
627.6696753601505
 20
-532.496384837399
 30
0.0
 11
627.6696753601505
 21
-527.6963848373998
 31
0.0
  0
LINE
  5
17F
330
6F
100
AcDbEntity
  8
OUTLINE
  6
Continuous
 62
     3
100
AcDbLine
 10
655.1696753601505
 20
-494.4963848373991
 30
0.0
 11
655.1696753601505
 21
-510.4963848373991
 31
0.0
  0
LINE
  5
180
330
6F
100
AcDbEntity
  8
OUTLINE
  6
Continuous
 62
     3
100
AcDbLine
 10
669.1696753601505
 20
-496.4963848373991
 30
0.0
 11
669.1696753601505
 21
-494.4963848373991
 31
0.0
  0
LINE
  5
181
330
6F
100
AcDbEntity
  8
OUTLINE
  6
Continuous
 62
     3
100
AcDbLine
 10
669.1696753601505
 20
-510.4963848373991
 30
0.0
 11
669.1696753601505
 21
-508.4963848373991
 31
0.0
  0
LINE
  5
182
330
6F
100
AcDbEntity
  8
OUTLINE
  6
Continuous
 62
     3
100
AcDbLine
 10
685.1696753601506
 20
-496.4963848373991
 30
0.0
 11
669.1696753601505
 21
-496.4963848373991
 31
0.0
  0
LINE
  5
183
330
6F
100
AcDbEntity
  8
OUTLINE
  6
Continuous
 62
     3
100
AcDbLine
 10
682.6696753601502
 20
-532.496384837399
 30
0.0
 11
682.6696753601502
 21
-529.9963848373992
 31
0.0
  0
LINE
  5
184
330
6F
100
AcDbEntity
  8
OUTLINE
  6
Continuous
 62
     3
100
AcDbLine
 10
685.1696753601506
 20
-508.4963848373991
 30
0.0
 11
685.1696753601506
 21
-529.9963848373992
 31
0.0
  0
LINE
  5
185
330
6F
100
AcDbEntity
  8
OUTLINE
  6
Continuous
 62
     3
100
AcDbLine
 10
685.1696753601506
 20
-427.4963848373992
 30
0.0
 11
685.1696753601506
 21
-496.4963848373991
 31
0.0
  0
LINE
  5
186
330
6F
100
AcDbEntity
  8
OUTLINE
  6
Continuous
 62
     3
100
AcDbLine
 10
685.1696753601506
 20
-508.4963848373991
 30
0.0
 11
669.1696753601505
 21
-508.4963848373991
 31
0.0
  0
LINE
  5
187
330
6F
100
AcDbEntity
  8
OUTLINE
  6
Continuous
 62
     3
100
AcDbLine
 10
685.1696753601506
 20
-529.9963848373992
 30
0.0
 11
682.6696753601502
 21
-529.9963848373992
 31
0.0
  0
LINE
  5
188
330
6F
100
AcDbEntity
  8
OUTLINE
  6
Continuous
 62
     3
100
AcDbLine
 10
682.6696753601502
 20
-532.496384837399
 30
0.0
 11
627.6696753601505
 21
-532.496384837399
 31
0.0
  0
LINE
  5
189
330
6F
100
AcDbEntity
  8
OUTLINE
  6
Continuous
 62
     3
100
AcDbLine
 10
685.1696753601507
 20
456.6999999999604
 30
0.0
 11
626.1696753601508
 21
456.6999999999604
 31
0.0
  0
ARC
  5
18A
330
6F
100
AcDbEntity
  8
OUTLINE
  6
Continuous
 62
     3
100
AcDbCircle
 10
662.1696753601508
 20
539.6999999999605
 30
0.0
 40
7.0
100
AcDbArc
 50
0.0
 51
180.0
  0
ARC
  5
18B
330
6F
100
AcDbEntity
  8
OUTLINE
  6
Continuous
 62
     3
100
AcDbCircle
 10
662.1696753601508
 20
523.6999999999607
 30
0.0
 40
7.0
100
AcDbArc
 50
180.0
 51
0.0
  0
LINE
  5
18C
330
6F
100
AcDbEntity
  8
OUTLINE
  6
Continuous
 62
     3
100
AcDbLine
 10
626.1696753601487
 20
561.6999999999603
 30
0.0
 11
626.1696753601508
 21
531.4999999999998
 31
0.0
  0
LINE
  5
18D
330
6F
100
AcDbEntity
  8
OUTLINE
  6
Continuous
 62
     3
100
AcDbLine
 10
655.1696753601508
 20
523.6999999999607
 30
0.0
 11
655.1696753601508
 21
539.6999999999605
 31
0.0
  0
LINE
  5
18E
330
6F
100
AcDbEntity
  8
OUTLINE
  6
Continuous
 62
     3
100
AcDbLine
 10
669.1696753601507
 20
525.6999999999605
 30
0.0
 11
669.1696753601507
 21
523.6999999999607
 31
0.0
  0
LINE
  5
18F
330
6F
100
AcDbEntity
  8
OUTLINE
  6
Continuous
 62
     3
100
AcDbLine
 10
669.1696753601507
 20
539.6999999999605
 30
0.0
 11
669.1696753601507
 21
537.6999999999603
 31
0.0
  0
LINE
  5
190
330
6F
100
AcDbEntity
  8
OUTLINE
  6
Continuous
 62
     3
100
AcDbLine
 10
685.1696753601507
 20
525.6999999999605
 30
0.0
 11
669.1696753601507
 21
525.6999999999605
 31
0.0
  0
LINE
  5
191
330
6F
100
AcDbEntity
  8
OUTLINE
  6
Continuous
 62
     3
100
AcDbLine
 10
682.6696753601502
 20
561.6999999999603
 30
0.0
 11
682.6696753601502
 21
559.1999999999605
 31
0.0
  0
LINE
  5
192
330
6F
100
AcDbEntity
  8
OUTLINE
  6
Continuous
 62
     3
100
AcDbLine
 10
685.1696753601507
 20
537.6999999999603
 30
0.0
 11
685.1696753601507
 21
559.1999999999605
 31
0.0
  0
LINE
  5
193
330
6F
100
AcDbEntity
  8
OUTLINE
  6
Continuous
 62
     3
100
AcDbLine
 10
685.1696753601507
 20
456.6999999999604
 30
0.0
 11
685.1696753601507
 21
525.6999999999605
 31
0.0
  0
LINE
  5
194
330
6F
100
AcDbEntity
  8
OUTLINE
  6
Continuous
 62
     3
100
AcDbLine
 10
685.1696753601507
 20
537.6999999999603
 30
0.0
 11
669.1696753601507
 21
537.6999999999603
 31
0.0
  0
LINE
  5
195
330
6F
100
AcDbEntity
  8
OUTLINE
  6
Continuous
 62
     3
100
AcDbLine
 10
685.1696753601507
 20
559.1999999999605
 30
0.0
 11
682.6696753601502
 21
559.1999999999605
 31
0.0
  0
LINE
  5
196
330
6F
100
AcDbEntity
  8
OUTLINE
  6
Continuous
 62
     3
100
AcDbLine
 10
682.6696753601502
 20
561.6999999999603
 30
0.0
 11
626.1696753601487
 21
561.6999999999603
 31
0.0
  0
LINE
  5
197
330
6F
100
AcDbEntity
  8
OUTLINE
  6
Continuous
 62
     3
100
AcDbLine
 10
-625.8303246398494
 20
-308.9763073420908
 30
0.0
 11
-646.8303246398494
 21
-308.9763073420908
 31
0.0
  0
LINE
  5
198
330
6F
100
AcDbEntity
  8
OUTLINE
  6
Continuous
 62
     3
100
AcDbLine
 10
-625.8303246398494
 20
-259.9763073420906
 30
0.0
 11
-646.8303246398494
 21
-259.9763073420906
 31
0.0
  0
LINE
  5
199
330
6F
100
AcDbEntity
  8
OUTLINE
  6
Continuous
 62
     3
100
AcDbLine
 10
-625.8303246398494
 20
-207.4763073420907
 30
0.0
 11
-646.8303246398494
 21
-207.4763073420907
 31
0.0
  0
LINE
  5
19A
330
6F
100
AcDbEntity
  8
OUTLINE
  6
Continuous
 62
     3
100
AcDbLine
 10
-625.8303246398494
 20
-171.4763073420906
 30
0.0
 11
-646.8303246398494
 21
-171.4763073420906
 31
0.0
  0
LINE
  5
19B
330
6F
100
AcDbEntity
  8
OUTLINE
  6
Continuous
 62
     3
100
AcDbLine
 10
-646.8303246398494
 20
-207.4763073420907
 30
0.0
 11
-646.8303246398494
 21
-194.2363073420927
 31
0.0
  0
LINE
  5
19C
330
6F
100
AcDbEntity
  8
OUTLINE
  6
Continuous
 62
     3
100
AcDbLine
 10
-646.8303246398494
 20
-184.7163073420924
 30
0.0
 11
-646.8303246398494
 21
-171.4763073420906
 31
0.0
  0
LINE
  5
19D
330
6F
100
AcDbEntity
  8
OUTLINE
  6
Continuous
 62
     3
100
AcDbLine
 10
-646.8303246398494
 20
-308.9763073420908
 30
0.0
 11
-646.8303246398494
 21
-295.5763073420966
 31
0.0
  0
LINE
  5
19E
330
6F
100
AcDbEntity
  8
OUTLINE
  6
Continuous
 62
     3
100
AcDbLine
 10
-646.8303246398494
 20
-273.3763073420921
 30
0.0
 11
-646.8303246398494
 21
-259.9763073420906
 31
0.0
  0
LINE
  5
19F
330
6F
100
AcDbEntity
  8
OUTLINE
  6
Continuous
 62
     3
100
AcDbLine
 10
-705.4161110774485
 20
-272.2763073420936
 30
0.0
 11
-704.3161110774499
 21
-273.3763073420921
 31
0.0
  0
LINE
  5
1A0
330
6F
100
AcDbEntity
  8
OUTLINE
  6
Continuous
 62
     3
100
AcDbLine
 10
-715.5403751462483
 20
-183.9663073420923
 30
0.0
 11
-714.7903751462482
 21
-184.7163073420923
 31
0.0
  0
LINE
  5
1A1
330
6F
100
AcDbEntity
  8
OUTLINE
  6
Continuous
 62
     3
100
AcDbLine
 10
-725.0303246398495
 20
-296.6763073420914
 30
0.0
 11
-705.4161110774485
 21
-296.6763073420914
 31
0.0
  0
LINE
  5
1A2
330
6F
100
AcDbEntity
  8
OUTLINE
  6
Continuous
 62
     3
100
AcDbLine
 10
-646.8303246398494
 20
-295.5763073420929
 30
0.0
 11
-704.3161110774499
 21
-295.5763073420929
 31
0.0
  0
LINE
  5
1A3
330
6F
100
AcDbEntity
  8
OUTLINE
  6
Continuous
 62
     3
100
AcDbLine
 10
-646.8303246398494
 20
-273.3763073420921
 30
0.0
 11
-704.3161110774499
 21
-273.3763073420921
 31
0.0
  0
LINE
  5
1A4
330
6F
100
AcDbEntity
  8
OUTLINE
  6
Continuous
 62
     3
100
AcDbLine
 10
-725.0303246398495
 20
-272.2763073420936
 30
0.0
 11
-705.4161110774485
 21
-272.2763073420936
 31
0.0
  0
LINE
  5
1A5
330
6F
100
AcDbEntity
  8
OUTLINE
  6
Continuous
 62
     3
100
AcDbLine
 10
-725.0303246398495
 20
-194.9863073420927
 30
0.0
 11
-715.5403751462483
 21
-194.9863073420927
 31
0.0
  0
LINE
  5
1A6
330
6F
100
AcDbEntity
  8
OUTLINE
  6
Continuous
 62
     3
100
AcDbLine
 10
-714.7903751462482
 20
-194.2363073420927
 30
0.0
 11
-646.8303246398494
 21
-194.2363073420927
 31
0.0
  0
LINE
  5
1A7
330
6F
100
AcDbEntity
  8
OUTLINE
  6
Continuous
 62
     3
100
AcDbLine
 10
-714.7903751462482
 20
-184.7163073420923
 30
0.0
 11
-646.8303246398494
 21
-184.7163073420924
 31
0.0
  0
LINE
  5
1A8
330
6F
100
AcDbEntity
  8
OUTLINE
  6
Continuous
 62
     3
100
AcDbLine
 10
-725.0303246398495
 20
-183.9663073420923
 30
0.0
 11
-715.5403751462483
 21
-183.9663073420923
 31
0.0
  0
LINE
  5
1A9
330
6F
100
AcDbEntity
  8
OUTLINE
  6
Continuous
 62
     3
100
AcDbLine
 10
-705.4161110774485
 20
-296.6763073420914
 30
0.0
 11
-704.3161110774499
 21
-295.5763073420929
 31
0.0
  0
LINE
  5
1AA
330
6F
100
AcDbEntity
  8
OUTLINE
  6
Continuous
 62
     3
100
AcDbLine
 10
-715.5403751462483
 20
-194.9863073420927
 30
0.0
 11
-714.7903751462482
 21
-194.2363073420927
 31
0.0
  0
LINE
  5
1AB
330
6F
100
AcDbEntity
  8
OUTLINE
  6
Continuous
 62
     3
100
AcDbLine
 10
-725.0303246398495
 20
-183.9663073420923
 30
0.0
 11
-725.0303246398495
 21
-194.9863073420927
 31
0.0
  0
LINE
  5
1AC
330
6F
100
AcDbEntity
  8
OUTLINE
  6
Continuous
 62
     3
100
AcDbLine
 10
-725.0303246398495
 20
-272.2763073420936
 30
0.0
 11
-725.0303246398495
 21
-296.6763073420914
 31
0.0
  0
LINE
  5
1AD
330
6F
100
AcDbEntity
  8
OUTLINE
  6
Continuous
 62
     3
100
AcDbLine
 10
575.6696753601523
 20
-533.4999999999999
 30
0.0
 11
575.6696753601523
 21
-562.5
 31
0.0
  0
LINE
  5
1AE
330
6F
100
AcDbEntity
  8
OUTLINE
  6
Continuous
 62
     3
100
AcDbLine
 10
625.1696753601524
 20
121.9999999999998
 30
0.0
 11
625.1696753601524
 21
64.99999999999984
 31
0.0
  0
LINE
  5
1AF
330
6F
100
AcDbEntity
  8
OUTLINE
  6
Continuous
 62
     3
100
AcDbLine
 10
-524.3303246398494
 20
-533.4999999999999
 30
0.0
 11
-524.3303246398494
 21
-562.4999999999999
 31
0.0
  0
LINE
  5
1B0
330
6F
100
AcDbEntity
  8
OUTLINE
  6
Continuous
 62
     3
100
AcDbLine
 10
-523.3303246398492
 20
-562.4999999999999
 30
0.0
 11
-524.3303246398494
 21
-562.4999999999999
 31
0.0
  0
LINE
  5
1B1
330
6F
100
AcDbEntity
  8
OUTLINE
  6
Continuous
 62
     3
100
AcDbLine
 10
-624.8303246398489
 20
122.0
 30
0.0
 11
-624.8303246398489
 21
65.0000000000001
 31
0.0
  0
LINE
  5
1B2
330
6F
100
AcDbEntity
  8
OUTLINE
  6
Continuous
 62
     3
100
AcDbLine
 10
-626.0303246398498
 20
520.4999999999999
 30
0.0
 11
-626.0303246398498
 21
509.5000000000001
 31
0.0
  0
ARC
  5
1B3
330
6F
100
AcDbEntity
  8
OUTLINE
  6
Continuous
 62
     3
100
AcDbCircle
 10
-627.0303246398498
 20
69.89361516264404
 30
0.0
 40
1.0
100
AcDbArc
 50
270.0
 51
0.0
  0
LINE
  5
1B4
330
6F
100
AcDbEntity
  8
OUTLINE
  6
Continuous
 62
     3
100
AcDbLine
 10
-631.0303246398498
 20
456.6999999999607
 30
0.0
 11
-631.0303246398498
 21
68.89361516264407
 31
0.0
  0
LINE
  5
1B5
330
6F
100
AcDbEntity
  8
OUTLINE
  6
Continuous
 62
     3
100
AcDbLine
 10
-626.0303246398498
 20
520.4999999999999
 30
0.0
 11
-626.03032463985
 21
69.89361516264404
 31
0.0
  0
LINE
  5
1B6
330
6F
100
AcDbEntity
  8
OUTLINE
  6
Continuous
 62
     3
100
AcDbLine
 10
-631.0303246398498
 20
68.89361516264407
 30
0.0
 11
-627.0303246398498
 21
68.89361516264407
 31
0.0
  0
LINE
  5
1B7
330
6F
100
AcDbEntity
  8
OUTLINE
  6
Continuous
 62
     3
100
AcDbLine
 10
616.8696753601495
 20
533.4999999999999
 30
0.0
 11
-522.4303246398493
 21
533.4999999999999
 31
0.0
  0
LINE
  5
1B8
330
6F
100
AcDbEntity
  8
OUTLINE
  6
Continuous
 62
     3
100
AcDbLine
 10
576.3696753601529
 20
533.4999999999999
 30
0.0
 11
576.3696753601529
 21
557.4999999999999
 31
0.0
  0
LINE
  5
1B9
330
6F
100
AcDbEntity
  8
OUTLINE
  6
Continuous
 62
     3
100
AcDbLine
 10
616.8696753601495
 20
532.2000000000444
 30
0.0
 11
616.8696753601495
 21
533.4999999999999
 31
0.0
  0
LINE
  5
1BA
330
6F
100
AcDbEntity
  8
OUTLINE
  6
Continuous
 62
     3
100
AcDbLine
 10
576.3696753601529
 20
557.4999999999999
 30
0.0
 11
-523.6303246398501
 21
557.4999999999999
 31
0.0
  0
LINE
  5
1BB
330
6F
100
AcDbEntity
  8
OUTLINE
  6
Continuous
 62
     3
100
AcDbLine
 10
625.830324634701
 20
532.2000000000444
 30
0.0
 11
616.8696753601495
 21
532.2000000000444
 31
0.0
  0
LINE
  5
1BC
330
6F
100
AcDbEntity
  8
OUTLINE
  6
Continuous
 62
     3
100
AcDbLine
 10
-522.4303246398493
 20
532.2000000000444
 30
0.0
 11
-625.8303246398488
 21
532.2000000000444
 31
0.0
  0
LINE
  5
1BD
330
6F
100
AcDbEntity
  8
OUTLINE
  6
Continuous
 62
     3
100
AcDbLine
 10
-522.4303246398493
 20
532.2000000000444
 30
0.0
 11
-522.4303246398493
 21
533.4999999999999
 31
0.0
  0
LINE
  5
1BE
330
6F
100
AcDbEntity
  8
OUTLINE
  6
Continuous
 62
     3
100
AcDbLine
 10
-523.6303246398501
 20
532.3000000000428
 30
0.0
 11
-523.6303246398501
 21
557.4999999999999
 31
0.0
  0
LINE
  5
1BF
330
6F
100
AcDbEntity
  8
OUTLINE
  6
Continuous
 62
     3
100
AcDbLine
 10
626.1696753601508
 20
512.6999999999603
 30
0.0
 11
626.1696753601508
 21
531.5459340771046
 31
0.0
  0
ARC
  5
1C0
330
6F
100
AcDbEntity
  8
OUTLINE
  6
Continuous
 62
     3
100
AcDbCircle
 10
625.3696753601515
 20
531.5459340771046
 30
0.0
 40
0.7999999999992724
100
AcDbArc
 50
0.0
 51
54.84351115497098
  0
LINE
  5
1C1
330
6F
100
AcDbEntity
  8
OUTLINE
  6
Continuous
 62
     3
100
AcDbLine
 10
625.1696753601524
 20
64.99999999999984
 30
0.0
 11
626.1696753601505
 21
64.99999999999984
 31
0.0
  0
LINE
  5
1C2
330
6F
100
AcDbEntity
  8
OUTLINE
  6
Continuous
 62
     3
100
AcDbLine
 10
625.1696753601524
 20
121.9999999999998
 30
0.0
 11
626.1696753601505
 21
121.9999999999998
 31
0.0
  0
LINE
  5
2A2
330
6F
100
AcDbEntity
  8
BASIS
  6
DASHDOT
 62
     6
100
AcDbLine
 10
-0.0000000000001349
 20
-733.6655904482467
 30
0.0
 11
0.0000000000001328
 21
723.2315009394293
 31
0.0
  0
CIRCLE
  5
2A3
330
6F
100
AcDbEntity
  8
ARRANGE
  6
Continuous
 62
     1
100
AcDbCircle
 10
0.0
 20
0.0
 30
0.0
 40
40.0
  0
LINE
  5
2A4
330
6F
100
AcDbEntity
  8
ARRANGE
  6
Continuous
 62
     1
100
AcDbLine
 10
-36.84543740734989
 20
36.84543740734808
 30
0.0
 11
36.84543740734989
 21
-36.84543740735172
 31
0.0
  0
LINE
  5
2A5
330
6F
100
AcDbEntity
  8
ARRANGE
  6
Continuous
 62
     1
100
AcDbLine
 10
36.8454374073499
 20
36.84543740734808
 30
0.0
 11
-36.8454374073499
 21
-36.84543740735171
 31
0.0
  0
LINE
  5
2AC
330
6F
100
AcDbEntity
  8
OUTLINE
  6
Continuous
 62
     3
100
AcDbLine
 10
-625.8303246398488
 20
520.4999999999999
 30
0.0
 11
-625.8303246398488
 21
520.4999999999999
 31
0.0
  0
LINE
  5
2C3
330
6F
100
AcDbEntity
  8
BASIS
  6
DASHDOT
 62
     6
100
AcDbLine
 10
-646.4807272922334
 20
0.0000000000001186
 30
0.0
 11
646.4807272922333
 21
-0.0000000000001189
 31
0.0
  0
LINE
  5
2CF
330
6F
100
AcDbEntity
  8
DETAIL
  6
Continuous
 62
     5
100
AcDbLine
 10
625.1696753601524
 20
64.99999999999984
 30
0.0
 11
626.1696753601505
 21
64.99999999999984
 31
0.0
  0
LINE
  5
2D0
330
6F
100
AcDbEntity
  8
DETAIL
  6
Continuous
 62
     5
100
AcDbLine
 10
625.1696753601524
 20
121.9999999999998
 30
0.0
 11
626.1696753601505
 21
121.9999999999998
 31
0.0
  0
LINE
  5
2D1
330
6F
100
AcDbEntity
  8
DETAIL
  6
Continuous
 62
     5
100
AcDbLine
 10
-625.8303246398494
 20
65.0000000000001
 30
0.0
 11
-624.8303246398489
 21
65.0000000000001
 31
0.0
  0
LINE
  5
2D2
330
6F
100
AcDbEntity
  8
DETAIL
  6
Continuous
 62
     5
100
AcDbLine
 10
-625.8303246398494
 20
122.0
 30
0.0
 11
-624.8303246398489
 21
122.0
 31
0.0
  0
LINE
  5
2D3
330
6F
100
AcDbEntity
  8
OUTLINE
  6
Continuous
 62
     3
100
AcDbLine
 10
-624.8303246398489
 20
122.0
 30
0.0
 11
-625.8303246398494
 21
122.0
 31
0.0
  0
LINE
  5
2D4
330
6F
100
AcDbEntity
  8
OUTLINE
  6
Continuous
 62
     3
100
AcDbLine
 10
-624.8303246398489
 20
65.0000000000001
 30
0.0
 11
-625.8303246398494
 21
65.0000000000001
 31
0.0
  0
TEXT
  5
7D9
330
6F
100
AcDbEntity
  8
NOTE
  6
Continuous
 62
     4
100
AcDbText
 10
745.0313305636021
 20
803.8858446549893
 30
0.0
 40
64.0
  1
 2x11-%%C3
 41
0.9
100
AcDbText
  0
TEXT
  5
7DA
330
6F
100
AcDbEntity
  8
NOTE
  6
Continuous
 62
     4
100
AcDbText
 10
970.5087015433036
 20
-1001.33499181097
 30
0.0
 40
64.0
  1
 2x11-%%C3
 41
0.9
100
AcDbText
  0
LINE
  5
7DB
330
6F
100
AcDbEntity
  8
NOTE
  6
Continuous
 62
     4
100
AcDbLine
 10
36.21362049826667
 20
-747.2226022141653
 30
0.0
 11
-0.8303246398486406
 21
-783.0792414183963
 31
0.0
  0
LINE
  5
7DC
330
6F
100
AcDbEntity
  8
NOTE
  6
Continuous
 62
     4
100
AcDbLine
 10
-37.87426977796214
 20
-747.2226022141653
 30
0.0
 11
-0.8303246398486406
 21
-783.0792414183963
 31
0.0
  0
LINE
  5
7DD
330
6F
100
AcDbEntity
  8
NOTE
  6
Continuous
 62
     4
100
AcDbLine
 10
-17.63106314314564
 20
-747.2226022141653
 30
0.0
 11
-37.87426977796214
 21
-747.2226022141653
 31
0.0
  0
LINE
  5
7DE
330
6F
100
AcDbEntity
  8
NOTE
  6
Continuous
 62
     4
100
AcDbLine
 10
36.21362049826667
 20
-747.2226022141653
 30
0.0
 11
15.97041386345017
 21
-747.2226022141653
 31
0.0
  0
LINE
  5
7DF
330
6F
100
AcDbEntity
  8
NOTE
  6
Continuous
 62
     4
100
AcDbLine
 10
-17.63106314314564
 20
-747.2226022141653
 30
0.0
 11
-17.63106314314564
 21
-711.5046674435325
 31
0.0
  0
LINE
  5
7E0
330
6F
100
AcDbEntity
  8
NOTE
  6
Continuous
 62
     4
100
AcDbLine
 10
15.97041386345017
 20
-711.5046674435325
 30
0.0
 11
-17.63106314314564
 21
-711.5046674435325
 31
0.0
  0
LINE
  5
7E1
330
6F
100
AcDbEntity
  8
NOTE
  6
Continuous
 62
     4
100
AcDbLine
 10
15.97041386345017
 20
-747.2226022141653
 30
0.0
 11
15.97041386345017
 21
-711.5046674435325
 31
0.0
  0
LINE
  5
7E2
330
6F
100
AcDbEntity
  8
NOTE
  6
Continuous
 62
     4
100
AcDbLine
 10
-650.7844162052357
 20
-502.4963848373986
 30
0.0
 11
-676.876233074455
 21
-502.4963848373986
 31
0.0
  0
LINE
  5
7E3
330
6F
100
AcDbEntity
  8
NOTE
  6
Continuous
 62
     4
100
AcDbLine
 10
15.97041386344926
 20
762.0222733975041
 30
0.0
 11
-17.63106314314654
 21
762.0222733975041
 31
0.0
  0
LINE
  5
7E4
330
6F
100
AcDbEntity
  8
NOTE
  6
Continuous
 62
     4
100
AcDbLine
 10
15.97041386344926
 20
726.3043386268689
 30
0.0
 11
15.97041386344926
 21
762.0222733975041
 31
0.0
  0
LINE
  5
7E5
330
6F
100
AcDbEntity
  8
NOTE
  6
Continuous
 62
     4
100
AcDbLine
 10
-17.63106314314654
 20
726.3043386268689
 30
0.0
 11
-17.63106314314654
 21
762.0222733975041
 31
0.0
  0
LINE
  5
7E6
330
6F
100
AcDbEntity
  8
NOTE
  6
Continuous
 62
     4
100
AcDbLine
 10
36.21362049826576
 20
726.3043386268689
 30
0.0
 11
-0.8303246398486406
 21
690.4476994226387
 31
0.0
  0
LINE
  5
7E7
330
6F
100
AcDbEntity
  8
NOTE
  6
Continuous
 62
     4
100
AcDbLine
 10
-37.87426977796395
 20
726.3043386268689
 30
0.0
 11
-0.8303246398486406
 21
690.4476994226387
 31
0.0
  0
LINE
  5
7E8
330
6F
100
AcDbEntity
  8
NOTE
  6
Continuous
 62
     4
100
AcDbLine
 10
36.21362049826576
 20
726.3043386268689
 30
0.0
 11
15.97041386344926
 21
726.3043386268689
 31
0.0
  0
LINE
  5
7E9
330
6F
100
AcDbEntity
  8
NOTE
  6
Continuous
 62
     4
100
AcDbLine
 10
-17.63106314314654
 20
726.3043386268689
 30
0.0
 11
-37.87426977796395
 21
726.3043386268689
 31
0.0
  0
LINE
  5
7EA
330
6F
100
AcDbEntity
  8
NOTE
  6
Continuous
 62
     4
100
AcDbLine
 10
-473.6303246398477
 20
558.9999999999998
 30
0.0
 11
-473.6303246398477
 21
535.9999999999998
 31
0.0
  0
LINE
  5
7EB
330
6F
100
AcDbEntity
  8
NOTE
  6
Continuous
 62
     4
100
AcDbLine
 10
-462.1303246398468
 20
547.4999999999998
 30
0.0
 11
-485.1303246398471
 21
547.4999999999998
 31
0.0
  0
LINE
  5
7EC
330
6F
100
AcDbEntity
  8
NOTE
  6
Continuous
 62
     4
100
AcDbLine
 10
-373.6303246398478
 20
558.9999999999998
 30
0.0
 11
-373.6303246398478
 21
535.9999999999998
 31
0.0
  0
LINE
  5
7ED
330
6F
100
AcDbEntity
  8
NOTE
  6
Continuous
 62
     4
100
AcDbLine
 10
-362.130324639847
 20
547.4999999999998
 30
0.0
 11
-385.130324639847
 21
547.4999999999998
 31
0.0
  0
LINE
  5
7EE
330
6F
100
AcDbEntity
  8
NOTE
  6
Continuous
 62
     4
100
AcDbLine
 10
-273.6303246398479
 20
558.9999999999998
 30
0.0
 11
-273.6303246398479
 21
535.9999999999998
 31
0.0
  0
LINE
  5
7EF
330
6F
100
AcDbEntity
  8
NOTE
  6
Continuous
 62
     4
100
AcDbLine
 10
-262.130324639847
 20
547.4999999999998
 30
0.0
 11
-285.130324639847
 21
547.4999999999998
 31
0.0
  0
LINE
  5
7F0
330
6F
100
AcDbEntity
  8
NOTE
  6
Continuous
 62
     4
100
AcDbLine
 10
-173.6303246398479
 20
558.9999999999998
 30
0.0
 11
-173.6303246398479
 21
535.9999999999998
 31
0.0
  0
LINE
  5
7F1
330
6F
100
AcDbEntity
  8
NOTE
  6
Continuous
 62
     4
100
AcDbLine
 10
-162.130324639847
 20
547.4999999999998
 30
0.0
 11
-185.130324639847
 21
547.4999999999998
 31
0.0
  0
LINE
  5
7F2
330
6F
100
AcDbEntity
  8
NOTE
  6
Continuous
 62
     4
100
AcDbLine
 10
-73.63032463984791
 20
558.9999999999998
 30
0.0
 11
-73.63032463984791
 21
535.9999999999998
 31
0.0
  0
LINE
  5
7F3
330
6F
100
AcDbEntity
  8
NOTE
  6
Continuous
 62
     4
100
AcDbLine
 10
-62.130324639847
 20
547.4999999999998
 30
0.0
 11
-85.130324639847
 21
547.4999999999998
 31
0.0
  0
LINE
  5
7F4
330
6F
100
AcDbEntity
  8
NOTE
  6
Continuous
 62
     4
100
AcDbLine
 10
26.36967536015209
 20
558.9999999999998
 30
0.0
 11
26.36967536015209
 21
535.9999999999998
 31
0.0
  0
LINE
  5
7F5
330
6F
100
AcDbEntity
  8
NOTE
  6
Continuous
 62
     4
100
AcDbLine
 10
37.869675360153
 20
547.4999999999998
 30
0.0
 11
14.86967536015299
 21
547.4999999999998
 31
0.0
  0
LINE
  5
7F6
330
6F
100
AcDbEntity
  8
NOTE
  6
Continuous
 62
     4
100
AcDbLine
 10
126.3696753601521
 20
558.9999999999998
 30
0.0
 11
126.3696753601521
 21
535.9999999999998
 31
0.0
  0
LINE
  5
7F7
330
6F
100
AcDbEntity
  8
NOTE
  6
Continuous
 62
     4
100
AcDbLine
 10
137.869675360153
 20
547.4999999999998
 30
0.0
 11
114.869675360153
 21
547.4999999999998
 31
0.0
  0
LINE
  5
7F8
330
6F
100
AcDbEntity
  8
NOTE
  6
Continuous
 62
     4
100
AcDbLine
 10
226.3696753601521
 20
558.9999999999998
 30
0.0
 11
226.3696753601521
 21
535.9999999999998
 31
0.0
  0
LINE
  5
7F9
330
6F
100
AcDbEntity
  8
NOTE
  6
Continuous
 62
     4
100
AcDbLine
 10
237.869675360153
 20
547.4999999999998
 30
0.0
 11
214.869675360153
 21
547.4999999999998
 31
0.0
  0
LINE
  5
7FA
330
6F
100
AcDbEntity
  8
NOTE
  6
Continuous
 62
     4
100
AcDbLine
 10
326.3696753601522
 20
558.9999999999998
 30
0.0
 11
326.3696753601522
 21
535.9999999999998
 31
0.0
  0
LINE
  5
7FB
330
6F
100
AcDbEntity
  8
NOTE
  6
Continuous
 62
     4
100
AcDbLine
 10
337.869675360153
 20
547.4999999999998
 30
0.0
 11
314.869675360153
 21
547.4999999999998
 31
0.0
  0
LINE
  5
7FC
330
6F
100
AcDbEntity
  8
NOTE
  6
Continuous
 62
     4
100
AcDbLine
 10
426.3696753601521
 20
558.9999999999998
 30
0.0
 11
426.3696753601521
 21
535.9999999999998
 31
0.0
  0
LINE
  5
7FD
330
6F
100
AcDbEntity
  8
NOTE
  6
Continuous
 62
     4
100
AcDbLine
 10
437.869675360153
 20
547.4999999999998
 30
0.0
 11
414.8696753601528
 21
547.4999999999998
 31
0.0
  0
LINE
  5
7FE
330
6F
100
AcDbEntity
  8
NOTE
  6
Continuous
 62
     4
100
AcDbLine
 10
526.3696753601521
 20
558.9999999999998
 30
0.0
 11
526.3696753601521
 21
535.9999999999998
 31
0.0
  0
LINE
  5
7FF
330
6F
100
AcDbEntity
  8
NOTE
  6
Continuous
 62
     4
100
AcDbLine
 10
537.869675360153
 20
547.4999999999998
 30
0.0
 11
514.8696753601528
 21
547.4999999999998
 31
0.0
  0
LINE
  5
800
330
6F
100
AcDbEntity
  8
NOTE
  6
Continuous
 62
     4
100
AcDbLine
 10
-474.3303246398459
 20
-536.050000000003
 30
0.0
 11
-474.3303246398459
 21
-558.9500000000002
 31
0.0
  0
LINE
  5
801
330
6F
100
AcDbEntity
  8
NOTE
  6
Continuous
 62
     4
100
AcDbLine
 10
-462.8803246398462
 20
-547.5000000000001
 30
0.0
 11
-485.7803246398467
 21
-547.5000000000001
 31
0.0
  0
LINE
  5
802
330
6F
100
AcDbEntity
  8
NOTE
  6
Continuous
 62
     4
100
AcDbLine
 10
-374.330324639846
 20
-536.050000000003
 30
0.0
 11
-374.330324639846
 21
-558.9500000000002
 31
0.0
  0
LINE
  5
803
330
6F
100
AcDbEntity
  8
NOTE
  6
Continuous
 62
     4
100
AcDbLine
 10
-362.8803246398461
 20
-547.5000000000001
 30
0.0
 11
-385.7803246398466
 21
-547.5000000000001
 31
0.0
  0
LINE
  5
804
330
6F
100
AcDbEntity
  8
NOTE
  6
Continuous
 62
     4
100
AcDbLine
 10
-274.3303246398459
 20
-536.050000000003
 30
0.0
 11
-274.3303246398459
 21
-558.9500000000008
 31
0.0
  0
LINE
  5
805
330
6F
100
AcDbEntity
  8
NOTE
  6
Continuous
 62
     4
100
AcDbLine
 10
-262.8803246398462
 20
-547.5000000000001
 30
0.0
 11
-285.7803246398466
 21
-547.5000000000001
 31
0.0
  0
LINE
  5
806
330
6F
100
AcDbEntity
  8
NOTE
  6
Continuous
 62
     4
100
AcDbLine
 10
-174.3303246398459
 20
-536.050000000003
 30
0.0
 11
-174.3303246398459
 21
-558.9500000000008
 31
0.0
  0
LINE
  5
807
330
6F
100
AcDbEntity
  8
NOTE
  6
Continuous
 62
     4
100
AcDbLine
 10
-162.8803246398461
 20
-547.5000000000001
 30
0.0
 11
-185.7803246398466
 21
-547.5000000000001
 31
0.0
  0
LINE
  5
808
330
6F
100
AcDbEntity
  8
NOTE
  6
Continuous
 62
     4
100
AcDbLine
 10
-74.3303246398468
 20
-536.050000000003
 30
0.0
 11
-74.3303246398468
 21
-558.9500000000008
 31
0.0
  0
LINE
  5
809
330
6F
100
AcDbEntity
  8
NOTE
  6
Continuous
 62
     4
100
AcDbLine
 10
-62.88032463984611
 20
-547.5000000000001
 30
0.0
 11
-85.78032463984754
 21
-547.5000000000001
 31
0.0
  0
LINE
  5
80A
330
6F
100
AcDbEntity
  8
NOTE
  6
Continuous
 62
     4
100
AcDbLine
 10
25.66967536015318
 20
-536.050000000003
 30
0.0
 11
25.66967536015318
 21
-558.9500000000008
 31
0.0
  0
LINE
  5
80B
330
6F
100
AcDbEntity
  8
NOTE
  6
Continuous
 62
     4
100
AcDbLine
 10
37.11967536015391
 20
-547.5000000000001
 30
0.0
 11
14.21967536015245
 21
-547.5000000000001
 31
0.0
  0
LINE
  5
80C
330
6F
100
AcDbEntity
  8
NOTE
  6
Continuous
 62
     4
100
AcDbLine
 10
125.6696753601532
 20
-536.050000000003
 30
0.0
 11
125.6696753601532
 21
-558.9500000000008
 31
0.0
  0
LINE
  5
80D
330
6F
100
AcDbEntity
  8
NOTE
  6
Continuous
 62
     4
100
AcDbLine
 10
137.1196753601539
 20
-547.5000000000001
 30
0.0
 11
114.2196753601524
 21
-547.5000000000001
 31
0.0
  0
LINE
  5
80E
330
6F
100
AcDbEntity
  8
NOTE
  6
Continuous
 62
     4
100
AcDbLine
 10
225.6696753601532
 20
-536.050000000003
 30
0.0
 11
225.6696753601532
 21
-558.9500000000008
 31
0.0
  0
LINE
  5
80F
330
6F
100
AcDbEntity
  8
NOTE
  6
Continuous
 62
     4
100
AcDbLine
 10
237.1196753601538
 20
-547.5000000000001
 30
0.0
 11
214.2196753601524
 21
-547.5000000000001
 31
0.0
  0
LINE
  5
810
330
6F
100
AcDbEntity
  8
NOTE
  6
Continuous
 62
     4
100
AcDbLine
 10
325.6696753601532
 20
-536.050000000003
 30
0.0
 11
325.6696753601532
 21
-558.9500000000008
 31
0.0
  0
LINE
  5
811
330
6F
100
AcDbEntity
  8
NOTE
  6
Continuous
 62
     4
100
AcDbLine
 10
337.1196753601538
 20
-547.5000000000001
 30
0.0
 11
314.2196753601525
 21
-547.5000000000001
 31
0.0
  0
LINE
  5
812
330
6F
100
AcDbEntity
  8
NOTE
  6
Continuous
 62
     4
100
AcDbLine
 10
425.6696753601529
 20
-536.050000000003
 30
0.0
 11
425.6696753601529
 21
-558.9500000000008
 31
0.0
  0
LINE
  5
813
330
6F
100
AcDbEntity
  8
NOTE
  6
Continuous
 62
     4
100
AcDbLine
 10
437.1196753601537
 20
-547.5000000000001
 30
0.0
 11
414.2196753601515
 21
-547.5000000000001
 31
0.0
  0
LINE
  5
814
330
6F
100
AcDbEntity
  8
NOTE
  6
Continuous
 62
     4
100
AcDbLine
 10
525.6696753601529
 20
-536.050000000003
 30
0.0
 11
525.6696753601529
 21
-558.9500000000008
 31
0.0
  0
LINE
  5
815
330
6F
100
AcDbEntity
  8
NOTE
  6
Continuous
 62
     4
100
AcDbLine
 10
537.1196753601537
 20
-547.5000000000001
 30
0.0
 11
514.2196753601515
 21
-547.5000000000001
 31
0.0
  0
LINE
  5
816
330
6F
100
AcDbEntity
  8
SERVICESPACE
  6
DASHDOT
 62
     2
100
AcDbLine
 10
-675.8303246398485
 20
-583.4999999999999
 30
0.0
 11
674.1696753601512
 21
-583.4999999999999
 31
0.0
  0
LINE
  5
817
330
6F
100
AcDbEntity
  8
SERVICESPACE
  6
DASHDOT
 62
     2
100
AcDbLine
 10
-675.8303246398485
 20
146.4999999999999
 30
0.0
 11
674.1696753601512
 21
146.4999999999999
 31
0.0
  0
CIRCLE
  5
818
330
6F
100
AcDbEntity
  8
FIX
  6
Continuous
 62
    11
100
AcDbCircle
 10
-663.8303246398468
 20
-502.4963848373986
 30
0.0
 40
5.0
  0
LINE
  5
819
330
6F
100
AcDbEntity
  8
NOTE
  6
Continuous
 62
     4
100
AcDbLine
 10
-663.8303246398456
 20
-515.5422932720104
 30
0.0
 11
-663.8303246398456
 21
-489.4504764027876
 31
0.0
  0
CIRCLE
  5
81A
330
6F
100
AcDbEntity
  8
FIX
  6
Continuous
 62
    11
100
AcDbCircle
 10
-663.8303246398468
 20
531.4999999999998
 30
0.0
 40
5.0
  0
CIRCLE
  5
81B
330
6F
100
AcDbEntity
  8
FIX
  6
Continuous
 62
    11
100
AcDbCircle
 10
662.1696753601503
 20
531.4999999999998
 30
0.0
 40
5.0
  0
CIRCLE
  5
81C
330
6F
100
AcDbEntity
  8
FIX
  6
Continuous
 62
    11
100
AcDbCircle
 10
662.1696753601503
 20
-502.7000000000008
 30
0.0
 40
5.0
  0
LINE
  5
81D
330
6F
100
AcDbEntity
  8
NOTE
  6
Continuous
 62
     4
100
AcDbLine
 10
-650.7844162052363
 20
531.4999999999998
 30
0.0
 11
-676.8762330744563
 21
531.4999999999998
 31
0.0
  0
LINE
  5
81E
330
6F
100
AcDbEntity
  8
NOTE
  6
Continuous
 62
     4
100
AcDbLine
 10
-663.8303246398468
 20
518.4540915653887
 30
0.0
 11
-663.8303246398468
 21
544.545908434611
 31
0.0
  0
LINE
  5
81F
330
6F
100
AcDbEntity
  8
NOTE
  6
Continuous
 62
     4
100
AcDbLine
 10
675.2155837947606
 20
531.4999999999998
 30
0.0
 11
649.123766925541
 21
531.4999999999998
 31
0.0
  0
LINE
  5
820
330
6F
100
AcDbEntity
  8
NOTE
  6
Continuous
 62
     4
100
AcDbLine
 10
662.1696753601503
 20
518.4540915653887
 30
0.0
 11
662.1696753601503
 21
544.545908434611
 31
0.0
  0
LINE
  5
821
330
6F
100
AcDbEntity
  8
NOTE
  6
Continuous
 62
     4
100
AcDbLine
 10
675.2155837947606
 20
-502.7000000000008
 30
0.0
 11
649.123766925541
 21
-502.7000000000008
 31
0.0
  0
LINE
  5
822
330
6F
100
AcDbEntity
  8
NOTE
  6
Continuous
 62
     4
100
AcDbLine
 10
662.1696753601503
 20
-515.7459084346119
 30
0.0
 11
662.1696753601503
 21
-489.6540915653896
 31
0.0
  0
TEXT
  5
823
330
6F
100
AcDbEntity
  8
NOTE
  6
Continuous
 62
     4
100
AcDbText
 10
-1942.802249382991
 20
-812.1827218308935
 30
0.0
 40
64.0
  1
 RL %%C9.52
 41
0.9
100
AcDbText
  0
TEXT
  5
824
330
6F
100
AcDbEntity
  8
NOTE
  6
Continuous
 62
     4
100
AcDbText
 10
-1979.322522630084
 20
-953.5548117730778
 30
0.0
 40
64.0
  1
 RG %%C22.2
 41
0.9
100
AcDbText
  0
LINE
  5
825
330
6F
100
AcDbEntity
  8
SIZE
  6
Continuous
 62
    30
100
AcDbLine
 10
-543.6303246398495
 20
557.4999999999999
 30
0.0
 11
-1913.978785974968
 21
557.4999999999999
 31
0.0
  0
LINE
  5
826
330
6F
100
AcDbEntity
  8
SIZE
  6
Continuous
 62
    30
100
AcDbLine
 10
-544.3303246398484
 20
-562.5
 30
0.0
 11
-1913.978785974968
 21
-562.4999999999996
 31
0.0
  0
LINE
  5
827
330
6F
100
AcDbEntity
  8
SIZE
  6
Continuous
 62
    30
100
AcDbLine
 10
-1893.978785974968
 20
557.4999999999999
 30
0.0
 11
-1893.978785974968
 21
-562.4999999999996
 31
0.0
  0
CIRCLE
  5
828
330
6F
100
AcDbEntity
  8
SIZE
  6
Continuous
 62
    30
100
AcDbCircle
 10
-1893.978785974968
 20
557.4999999999999
 30
0.0
 40
7.5
  0
CIRCLE
  5
829
330
6F
100
AcDbEntity
  8
SIZE
  6
Continuous
 62
    30
100
AcDbCircle
 10
-1893.978785974968
 20
-562.4999999999996
 30
0.0
 40
7.5
  0
TEXT
  5
82A
330
6F
100
AcDbEntity
  8
SIZE
  6
Continuous
 62
    30
100
AcDbText
 10
-1917.784078275426
 20
-59.07142857142822
 30
0.0
 40
40.0
  1
1120
 50
90.0
 41
0.9
 72
     1
 11
-1917.784078275426
 21
-2.499999999999658
 31
0.0
100
AcDbText
  0
POINT
  5
82B
330
6F
100
AcDbEntity
  8
DEFPOINTS
  6
Continuous
 62
    30
100
AcDbPoint
 10
-523.6303246398497
 20
557.4999999999999
 30
0.0
 50
270.0
  0
POINT
  5
82C
330
6F
100
AcDbEntity
  8
DEFPOINTS
  6
Continuous
 62
    30
100
AcDbPoint
 10
-524.3303246398487
 20
-562.5
 30
0.0
 50
270.0
  0
POINT
  5
82D
330
6F
100
AcDbEntity
  8
DEFPOINTS
  6
Continuous
 62
    30
100
AcDbPoint
 10
-1893.978785974968
 20
-562.4999999999996
 30
0.0
 50
270.0
  0
LINE
  5
82E
330
6F
100
AcDbEntity
  8
SIZE
  6
Continuous
 62
    30
100
AcDbLine
 10
-704.3303246398485
 20
561.6999999999604
 30
0.0
 11
-2039.828247628363
 21
561.6999999999604
 31
0.0
  0
LINE
  5
82F
330
6F
100
AcDbEntity
  8
SIZE
  6
Continuous
 62
    30
100
AcDbLine
 10
-544.3303246398484
 20
-562.5
 30
0.0
 11
-2039.828247628363
 21
-562.4999999999996
 31
0.0
  0
LINE
  5
830
330
6F
100
AcDbEntity
  8
SIZE
  6
Continuous
 62
    30
100
AcDbLine
 10
-2019.828247628363
 20
561.6999999999604
 30
0.0
 11
-2019.828247628363
 21
-562.4999999999996
 31
0.0
  0
CIRCLE
  5
831
330
6F
100
AcDbEntity
  8
SIZE
  6
Continuous
 62
    30
100
AcDbCircle
 10
-2019.828247628363
 20
561.6999999999604
 30
0.0
 40
7.5
  0
CIRCLE
  5
832
330
6F
100
AcDbEntity
  8
SIZE
  6
Continuous
 62
    30
100
AcDbCircle
 10
-2019.828247628363
 20
-562.4999999999996
 30
0.0
 40
7.5
  0
TEXT
  5
833
330
6F
100
AcDbEntity
  8
SIZE
  6
Continuous
 62
    30
100
AcDbText
 10
-2043.63353992882
 20
-57.82857142859072
 30
0.0
 40
40.0
  1
1124
 50
90.0
 41
0.9
 72
     1
 11
-2043.63353992882
 21
-0.4000000000193042
 31
0.0
100
AcDbText
  0
POINT
  5
834
330
6F
100
AcDbEntity
  8
DEFPOINTS
  6
Continuous
 62
    30
100
AcDbPoint
 10
-684.3303246398485
 20
561.6999999999604
 30
0.0
 50
270.0
  0
POINT
  5
835
330
6F
100
AcDbEntity
  8
DEFPOINTS
  6
Continuous
 62
    30
100
AcDbPoint
 10
-524.3303246398487
 20
-562.5
 30
0.0
 50
270.0
  0
POINT
  5
836
330
6F
100
AcDbEntity
  8
DEFPOINTS
  6
Continuous
 62
    30
100
AcDbPoint
 10
-2019.828247628363
 20
-562.4999999999996
 30
0.0
 50
270.0
  0
LINE
  5
837
330
6F
100
AcDbEntity
  8
SIZE
  6
Continuous
 62
    30
100
AcDbLine
 10
-696.8762330744559
 20
531.4999999999998
 30
0.0
 11
-1781.02199575129
 21
531.4999999999998
 31
0.0
  0
LINE
  5
838
330
6F
100
AcDbEntity
  8
SIZE
  6
Continuous
 62
    30
100
AcDbLine
 10
-696.876233074455
 20
-502.4963848373986
 30
0.0
 11
-1781.02199575129
 21
-502.4963848373986
 31
0.0
  0
LINE
  5
839
330
6F
100
AcDbEntity
  8
SIZE
  6
Continuous
 62
    30
100
AcDbLine
 10
-1761.02199575129
 20
531.4999999999998
 30
0.0
 11
-1761.02199575129
 21
-502.4963848373986
 31
0.0
  0
CIRCLE
  5
83A
330
6F
100
AcDbEntity
  8
SIZE
  6
Continuous
 62
    30
100
AcDbCircle
 10
-1761.02199575129
 20
531.4999999999998
 30
0.0
 40
7.5
  0
CIRCLE
  5
83B
330
6F
100
AcDbEntity
  8
SIZE
  6
Continuous
 62
    30
100
AcDbCircle
 10
-1761.02199575129
 20
-502.4963848373986
 30
0.0
 40
7.5
  0
TEXT
  5
83C
330
6F
100
AcDbEntity
  8
SIZE
  6
Continuous
 62
    30
100
AcDbText
 10
-1774.351097575557
 20
-241.4410495615582
 30
0.0
 40
40.0
  1
1034(吊りボルトピッチ)
 50
90.0
 41
0.9
 72
     1
 11
-1774.351097575557
 21
14.50180758129897
 31
0.0
100
AcDbText
  0
POINT
  5
83D
330
6F
100
AcDbEntity
  8
DEFPOINTS
  6
Continuous
 62
    30
100
AcDbPoint
 10
-676.8762330744563
 20
531.4999999999998
 30
0.0
 50
270.0
  0
POINT
  5
83E
330
6F
100
AcDbEntity
  8
DEFPOINTS
  6
Continuous
 62
    30
100
AcDbPoint
 10
-676.876233074455
 20
-502.4963848373986
 30
0.0
 50
270.0
  0
POINT
  5
83F
330
6F
100
AcDbEntity
  8
DEFPOINTS
  6
Continuous
 62
    30
100
AcDbPoint
 10
-1761.02199575129
 20
-502.4963848373986
 30
0.0
 50
270.0
  0
LINE
  5
840
330
6F
100
AcDbEntity
  8
SIZE
  6
Continuous
 62
    30
100
AcDbLine
 10
-696.876233074455
 20
-502.4963848373986
 30
0.0
 11
-1781.02199575129
 21
-502.4963848373986
 31
0.0
  0
LINE
  5
841
330
6F
100
AcDbEntity
  8
SIZE
  6
Continuous
 62
    30
100
AcDbLine
 10
-544.3303246398484
 20
-562.5
 30
0.0
 11
-1781.02199575129
 21
-562.4999999999996
 31
0.0
  0
LINE
  5
842
330
6F
100
AcDbEntity
  8
SIZE
  6
Continuous
 62
    30
100
AcDbLine
 10
-1761.02199575129
 20
-502.4963848373986
 30
0.0
 11
-1761.02199575129
 21
-562.4999999999996
 31
0.0
  0
LINE
  5
843
330
6F
100
AcDbEntity
  8
SIZE
  6
Continuous
 62
    30
100
AcDbLine
 10
-1761.02199575129
 20
-562.4999999999996
 30
0.0
 11
-1761.021995751291
 21
-690.7857142857137
 31
0.0
  0
CIRCLE
  5
844
330
6F
100
AcDbEntity
  8
SIZE
  6
Continuous
 62
    30
100
AcDbCircle
 10
-1761.02199575129
 20
-502.4963848373986
 30
0.0
 40
7.5
  0
CIRCLE
  5
845
330
6F
100
AcDbEntity
  8
SIZE
  6
Continuous
 62
    30
100
AcDbCircle
 10
-1761.02199575129
 20
-562.4999999999996
 30
0.0
 40
7.5
  0
TEXT
  5
846
330
6F
100
AcDbEntity
  8
SIZE
  6
Continuous
 62
    30
100
AcDbText
 10
-1784.827288051749
 20
-670.7857142857136
 30
0.0
 40
40.0
  1
60
 50
90.0
 41
0.9
 72
     1
 11
-1784.827288051749
 21
-641.6428571428565
 31
0.0
100
AcDbText
  0
POINT
  5
847
330
6F
100
AcDbEntity
  8
DEFPOINTS
  6
Continuous
 62
    30
100
AcDbPoint
 10
-676.876233074455
 20
-502.4963848373986
 30
0.0
 50
270.0
  0
POINT
  5
848
330
6F
100
AcDbEntity
  8
DEFPOINTS
  6
Continuous
 62
    30
100
AcDbPoint
 10
-524.3303246398487
 20
-562.5
 30
0.0
 50
270.0
  0
POINT
  5
849
330
6F
100
AcDbEntity
  8
DEFPOINTS
  6
Continuous
 62
    30
100
AcDbPoint
 10
-1761.02199575129
 20
-562.4999999999996
 30
0.0
 50
270.0
  0
LINE
  5
84A
330
6F
100
AcDbEntity
  8
NOTE
  6
Continuous
 62
     4
100
AcDbLine
 10
-725.8303246398485
 20
-273.0263073420934
 30
0.0
 11
-725.8303246398485
 21
-295.9263073420917
 31
0.0
  0
LINE
  5
84B
330
6F
100
AcDbEntity
  8
NOTE
  6
Continuous
 62
     4
100
AcDbLine
 10
-714.3803246398489
 20
-284.4763073420905
 30
0.0
 11
-737.2803246398493
 21
-284.4763073420905
 31
0.0
  0
LINE
  5
84C
330
6F
100
AcDbEntity
  8
NOTE
  6
Continuous
 62
     4
100
AcDbLine
 10
-725.8303246398485
 20
-178.0263073420934
 30
0.0
 11
-725.8303246398485
 21
-200.9263073420913
 31
0.0
  0
LINE
  5
84D
330
6F
100
AcDbEntity
  8
NOTE
  6
Continuous
 62
     4
100
AcDbLine
 10
-714.3803246398489
 20
-189.4763073420905
 30
0.0
 11
-737.2803246398493
 21
-189.4763073420905
 31
0.0
  0
LINE
  5
84E
330
6F
100
AcDbEntity
  8
NOTE
  6
Continuous
 62
     4
100
AcDbLine
 10
-655.8303246398468
 20
-100.086906493012
 30
0.0
 11
-655.8303246398468
 21
-122.9869064930095
 31
0.0
  0
LINE
  5
84F
330
6F
100
AcDbEntity
  8
NOTE
  6
Continuous
 62
     4
100
AcDbLine
 10
-644.3803246398467
 20
-111.5369064930088
 30
0.0
 11
-662.7803246398476
 21
-111.5369064930088
 31
0.0
  0
LINE
  5
850
330
6F
100
AcDbEntity
  8
SIZE
  6
Continuous
 62
    30
100
AcDbLine
 10
-505.1303246398467
 20
547.4999999999998
 30
0.0
 11
-854.6543754166075
 21
547.4999999999998
 31
0.0
  0
LINE
  5
851
330
6F
100
AcDbEntity
  8
SIZE
  6
Continuous
 62
    30
100
AcDbLine
 10
-543.6303246398495
 20
557.4999999999999
 30
0.0
 11
-854.6543754166075
 21
557.4999999999999
 31
0.0
  0
LINE
  5
852
330
6F
100
AcDbEntity
  8
SIZE
  6
Continuous
 62
    30
100
AcDbLine
 10
-834.654375416607
 20
547.4999999999998
 30
0.0
 11
-834.654375416607
 21
517.4999999999998
 31
0.0
  0
LINE
  5
853
330
6F
100
AcDbEntity
  8
SIZE
  6
Continuous
 62
    30
100
AcDbLine
 10
-834.654375416607
 20
557.4999999999999
 30
0.0
 11
-834.654375416607
 21
708.9285714285713
 31
0.0
  0
LINE
  5
854
330
6F
100
AcDbEntity
  8
SIZE
  6
Continuous
 62
    30
100
AcDbLine
 10
-834.654375416607
 20
547.4999999999998
 30
0.0
 11
-834.654375416607
 21
557.4999999999999
 31
0.0
  0
CIRCLE
  5
855
330
6F
100
AcDbEntity
  8
SIZE
  6
Continuous
 62
    30
100
AcDbCircle
 10
-834.654375416607
 20
547.4999999999998
 30
0.0
 40
7.5
  0
CIRCLE
  5
856
330
6F
100
AcDbEntity
  8
SIZE
  6
Continuous
 62
    30
100
AcDbCircle
 10
-834.654375416607
 20
557.4999999999999
 30
0.0
 40
7.5
  0
TEXT
  5
857
330
6F
100
AcDbEntity
  8
SIZE
  6
Continuous
 62
    30
100
AcDbText
 10
-854.5858825719243
 20
637.5000000000002
 30
0.0
 40
40.0
  1
10
 50
90.0
 41
0.9
 72
     1
 11
-854.5858825719243
 21
663.2142857142858
 31
0.0
100
AcDbText
  0
POINT
  5
858
330
6F
100
AcDbEntity
  8
DEFPOINTS
  6
Continuous
 62
    30
100
AcDbPoint
 10
-485.1303246398471
 20
547.4999999999998
 30
0.0
 50
270.0
  0
POINT
  5
859
330
6F
100
AcDbEntity
  8
DEFPOINTS
  6
Continuous
 62
    30
100
AcDbPoint
 10
-523.6303246398497
 20
557.4999999999999
 30
0.0
 50
270.0
  0
POINT
  5
85A
330
6F
100
AcDbEntity
  8
DEFPOINTS
  6
Continuous
 62
    30
100
AcDbPoint
 10
-834.654375416607
 20
557.4999999999999
 30
0.0
 50
270.0
  0
LINE
  5
85B
330
6F
100
AcDbEntity
  8
SIZE
  6
Continuous
 62
    30
100
AcDbLine
 10
-523.6303246398497
 20
577.4999999999997
 30
0.0
 11
-523.6303246398497
 21
1008.347896671893
 31
0.0
  0
LINE
  5
85C
330
6F
100
AcDbEntity
  8
SIZE
  6
Continuous
 62
    30
100
AcDbLine
 10
-625.2034590648747
 20
572.200000000044
 30
0.0
 11
-625.2034590648747
 21
1008.347896671893
 31
0.0
  0
LINE
  5
85D
330
6F
100
AcDbEntity
  8
SIZE
  6
Continuous
 62
    30
100
AcDbLine
 10
-523.6303246398497
 20
988.3478966718941
 30
0.0
 11
-625.2034590648747
 21
988.3478966718941
 31
0.0
  0
LINE
  5
85E
330
6F
100
AcDbEntity
  8
SIZE
  6
Continuous
 62
    30
100
AcDbLine
 10
-625.2034590648747
 20
988.3478966718941
 30
0.0
 11
-780.9177447791603
 21
988.3478966718941
 31
0.0
  0
CIRCLE
  5
85F
330
6F
100
AcDbEntity
  8
SIZE
  6
Continuous
 62
    30
100
AcDbCircle
 10
-523.6303246398497
 20
988.3478966718941
 30
0.0
 40
7.5
  0
CIRCLE
  5
860
330
6F
100
AcDbEntity
  8
SIZE
  6
Continuous
 62
    30
100
AcDbCircle
 10
-625.2034590648747
 20
988.3478966718941
 30
0.0
 40
7.5
  0
TEXT
  5
861
330
6F
100
AcDbEntity
  8
SIZE
  6
Continuous
 62
    30
100
AcDbText
 10
-760.9177447791608
 20
1008.347896671892
 30
0.0
 40
40.0
  1
102
 41
0.9
 72
     1
 11
-718.060601922018
 21
1008.347896671892
 31
0.0
100
AcDbText
  0
POINT
  5
862
330
6F
100
AcDbEntity
  8
DEFPOINTS
  6
Continuous
 62
    30
100
AcDbPoint
 10
-523.6303246398497
 20
557.4999999999999
 30
0.0
 50
270.0
  0
POINT
  5
863
330
6F
100
AcDbEntity
  8
DEFPOINTS
  6
Continuous
 62
    30
100
AcDbPoint
 10
-625.2034590648747
 20
552.200000000044
 30
0.0
 50
270.0
  0
POINT
  5
864
330
6F
100
AcDbEntity
  8
DEFPOINTS
  6
Continuous
 62
    30
100
AcDbPoint
 10
-625.2034590648747
 20
988.3478966718941
 30
0.0
 50
270.0
  0
LINE
  5
865
330
6F
100
AcDbEntity
  8
SIZE
  6
Continuous
 62
    30
100
AcDbLine
 10
-473.6303246398477
 20
578.9999999999999
 30
0.0
 11
-473.6303246398477
 21
808.3478966718901
 31
0.0
  0
LINE
  5
866
330
6F
100
AcDbEntity
  8
SIZE
  6
Continuous
 62
    30
100
AcDbLine
 10
-523.6303246398497
 20
577.4999999999997
 30
0.0
 11
-523.6303246398497
 21
808.3478966718901
 31
0.0
  0
LINE
  5
867
330
6F
100
AcDbEntity
  8
SIZE
  6
Continuous
 62
    30
100
AcDbLine
 10
-473.6303246398477
 20
788.3478966718902
 30
0.0
 11
-523.6303246398497
 21
788.3478966718902
 31
0.0
  0
LINE
  5
868
330
6F
100
AcDbEntity
  8
SIZE
  6
Continuous
 62
    30
100
AcDbLine
 10
-523.6303246398497
 20
788.3478966718902
 30
0.0
 11
-651.9160389255645
 21
788.3478966718902
 31
0.0
  0
CIRCLE
  5
869
330
6F
100
AcDbEntity
  8
SIZE
  6
Continuous
 62
    30
100
AcDbCircle
 10
-473.6303246398477
 20
788.3478966718902
 30
0.0
 40
7.5
  0
CIRCLE
  5
86A
330
6F
100
AcDbEntity
  8
SIZE
  6
Continuous
 62
    30
100
AcDbCircle
 10
-523.6303246398497
 20
788.3478966718902
 30
0.0
 40
7.5
  0
TEXT
  5
86B
330
6F
100
AcDbEntity
  8
SIZE
  6
Continuous
 62
    30
100
AcDbText
 10
-631.9160389255638
 20
808.3478966718901
 30
0.0
 40
40.0
  1
50
 41
0.9
 72
     1
 11
-602.7731817827067
 21
808.3478966718901
 31
0.0
100
AcDbText
  0
POINT
  5
86C
330
6F
100
AcDbEntity
  8
DEFPOINTS
  6
Continuous
 62
    30
100
AcDbPoint
 10
-473.6303246398477
 20
558.9999999999998
 30
0.0
 50
270.0
  0
POINT
  5
86D
330
6F
100
AcDbEntity
  8
DEFPOINTS
  6
Continuous
 62
    30
100
AcDbPoint
 10
-523.6303246398497
 20
557.4999999999999
 30
0.0
 50
270.0
  0
POINT
  5
86E
330
6F
100
AcDbEntity
  8
DEFPOINTS
  6
Continuous
 62
    30
100
AcDbPoint
 10
-523.6303246398497
 20
788.3478966718902
 30
0.0
 50
270.0
  0
LINE
  5
86F
330
6F
100
AcDbEntity
  8
SIZE
  6
Continuous
 62
    30
100
AcDbLine
 10
-473.6303246398477
 20
578.9999999999999
 30
0.0
 11
-473.6303246398477
 21
908.3478966718919
 31
0.0
  0
LINE
  5
870
330
6F
100
AcDbEntity
  8
SIZE
  6
Continuous
 62
    30
100
AcDbLine
 10
526.3696753601521
 20
578.9999999999999
 30
0.0
 11
526.3696753601521
 21
908.3478966718919
 31
0.0
  0
LINE
  5
871
330
6F
100
AcDbEntity
  8
SIZE
  6
Continuous
 62
    30
100
AcDbLine
 10
-473.6303246398477
 20
888.347896671892
 30
0.0
 11
526.3696753601521
 21
888.347896671892
 31
0.0
  0
CIRCLE
  5
872
330
6F
100
AcDbEntity
  8
SIZE
  6
Continuous
 62
    30
100
AcDbCircle
 10
-473.6303246398477
 20
888.347896671892
 30
0.0
 40
7.5
  0
CIRCLE
  5
873
330
6F
100
AcDbEntity
  8
SIZE
  6
Continuous
 62
    30
100
AcDbCircle
 10
526.3696753601521
 20
888.347896671892
 30
0.0
 40
7.5
  0
TEXT
  5
874
330
6F
100
AcDbEntity
  8
SIZE
  6
Continuous
 62
    30
100
AcDbText
 10
-149.3446103541309
 20
908.3478966718919
 30
0.0
 40
40.0
  1
100x10=1000
 41
0.9
 72
     1
 11
26.36967536015482
 21
908.3478966718919
 31
0.0
100
AcDbText
  0
POINT
  5
875
330
6F
100
AcDbEntity
  8
DEFPOINTS
  6
Continuous
 62
    30
100
AcDbPoint
 10
-473.6303246398477
 20
558.9999999999998
 30
0.0
 50
270.0
  0
POINT
  5
876
330
6F
100
AcDbEntity
  8
DEFPOINTS
  6
Continuous
 62
    30
100
AcDbPoint
 10
526.3696753601521
 20
558.9999999999998
 30
0.0
 50
270.0
  0
POINT
  5
877
330
6F
100
AcDbEntity
  8
DEFPOINTS
  6
Continuous
 62
    30
100
AcDbPoint
 10
526.3696753601521
 20
888.347896671892
 30
0.0
 50
270.0
  0
LINE
  5
878
330
6F
100
AcDbEntity
  8
SIZE
  6
Continuous
 62
    30
100
AcDbLine
 10
-373.6303246398478
 20
578.9999999999999
 30
0.0
 11
-373.6303246398478
 21
808.3478966718901
 31
0.0
  0
LINE
  5
879
330
6F
100
AcDbEntity
  8
SIZE
  6
Continuous
 62
    30
100
AcDbLine
 10
-473.6303246398477
 20
579.0000000000032
 30
0.0
 11
-473.6303246398477
 21
808.3478966718901
 31
0.0
  0
LINE
  5
87A
330
6F
100
AcDbEntity
  8
SIZE
  6
Continuous
 62
    30
100
AcDbLine
 10
-373.6303246398478
 20
788.3478966718902
 30
0.0
 11
-473.6303246398477
 21
788.3478966718902
 31
0.0
  0
CIRCLE
  5
87B
330
6F
100
AcDbEntity
  8
SIZE
  6
Continuous
 62
    30
100
AcDbCircle
 10
-373.6303246398478
 20
788.3478966718902
 30
0.0
 40
7.5
  0
CIRCLE
  5
87C
330
6F
100
AcDbEntity
  8
SIZE
  6
Continuous
 62
    30
100
AcDbCircle
 10
-473.6303246398477
 20
788.3478966718902
 30
0.0
 40
7.5
  0
TEXT
  5
87D
330
6F
100
AcDbEntity
  8
SIZE
  6
Continuous
 62
    30
100
AcDbText
 10
-466.4874674969905
 20
808.3478966718901
 30
0.0
 40
40.0
  1
100
 41
0.9
 72
     1
 11
-423.6303246398477
 21
808.3478966718901
 31
0.0
100
AcDbText
  0
POINT
  5
87E
330
6F
100
AcDbEntity
  8
DEFPOINTS
  6
Continuous
 62
    30
100
AcDbPoint
 10
-373.6303246398478
 20
558.9999999999998
 30
0.0
 50
270.0
  0
POINT
  5
87F
330
6F
100
AcDbEntity
  8
DEFPOINTS
  6
Continuous
 62
    30
100
AcDbPoint
 10
-473.6303246398477
 20
559.0000000000035
 30
0.0
 50
270.0
  0
POINT
  5
880
330
6F
100
AcDbEntity
  8
DEFPOINTS
  6
Continuous
 62
    30
100
AcDbPoint
 10
-473.6303246398477
 20
788.3478966718902
 30
0.0
 50
270.0
  0
LINE
  5
881
330
6F
100
AcDbEntity
  8
SIZE
  6
Continuous
 62
    30
100
AcDbLine
 10
625.8303246398502
 20
552.2000000073528
 30
0.0
 11
625.8303246398502
 21
1108.347896671889
 31
0.0
  0
LINE
  5
882
330
6F
100
AcDbEntity
  8
SIZE
  6
Continuous
 62
    30
100
AcDbLine
 10
-625.2034590648747
 20
552.200000000044
 30
0.0
 11
-625.2034590648747
 21
1108.347896671892
 31
0.0
  0
LINE
  5
883
330
6F
100
AcDbEntity
  8
SIZE
  6
Continuous
 62
    30
100
AcDbLine
 10
625.8303246398502
 20
1088.347896671889
 30
0.0
 11
-625.2034590648747
 21
1088.347896671892
 31
0.0
  0
CIRCLE
  5
884
330
6F
100
AcDbEntity
  8
SIZE
  6
Continuous
 62
    30
100
AcDbCircle
 10
625.8303246398502
 20
1088.347896671889
 30
0.0
 40
7.5
  0
CIRCLE
  5
885
330
6F
100
AcDbEntity
  8
SIZE
  6
Continuous
 62
    30
100
AcDbCircle
 10
-625.2034590648747
 20
1088.347896671892
 30
0.0
 40
7.5
  0
TEXT
  5
886
330
6F
100
AcDbEntity
  8
SIZE
  6
Continuous
 62
    30
100
AcDbText
 10
-54.26051709872126
 20
1108.347896671892
 30
0.0
 40
40.0
  1
1250
 41
0.9
 72
     1
 11
5.739482901278733
 21
1108.347896671892
 31
0.0
100
AcDbText
  0
POINT
  5
887
330
6F
100
AcDbEntity
  8
DEFPOINTS
  6
Continuous
 62
    30
100
AcDbPoint
 10
625.8303246398502
 20
532.2000000073528
 30
0.0
 50
270.0
  0
POINT
  5
888
330
6F
100
AcDbEntity
  8
DEFPOINTS
  6
Continuous
 62
    30
100
AcDbPoint
 10
-625.2034590648747
 20
532.2000000000444
 30
0.0
 50
270.0
  0
POINT
  5
889
330
6F
100
AcDbEntity
  8
DEFPOINTS
  6
Continuous
 62
    30
100
AcDbPoint
 10
-625.2034590648747
 20
1088.347896671892
 30
0.0
 50
270.0
  0
LINE
  5
88A
330
6F
100
AcDbEntity
  8
SIZE
  6
Continuous
 62
    30
100
AcDbLine
 10
-505.7803246398467
 20
-547.5000000000001
 30
0.0
 11
-854.6543754166075
 21
-547.5000000000001
 31
0.0
  0
LINE
  5
88B
330
6F
100
AcDbEntity
  8
SIZE
  6
Continuous
 62
    30
100
AcDbLine
 10
-544.3303246398484
 20
-562.5
 30
0.0
 11
-854.6543754166075
 21
-562.5
 31
0.0
  0
LINE
  5
88C
330
6F
100
AcDbEntity
  8
SIZE
  6
Continuous
 62
    30
100
AcDbLine
 10
-834.654375416607
 20
-547.5000000000001
 30
0.0
 11
-834.654375416607
 21
-517.5000000000001
 31
0.0
  0
LINE
  5
88D
330
6F
100
AcDbEntity
  8
SIZE
  6
Continuous
 62
    30
100
AcDbLine
 10
-834.654375416607
 20
-562.5
 30
0.0
 11
-834.654375416607
 21
-713.9285714285713
 31
0.0
  0
LINE
  5
88E
330
6F
100
AcDbEntity
  8
SIZE
  6
Continuous
 62
    30
100
AcDbLine
 10
-834.654375416607
 20
-547.5000000000001
 30
0.0
 11
-834.654375416607
 21
-562.5
 31
0.0
  0
CIRCLE
  5
88F
330
6F
100
AcDbEntity
  8
SIZE
  6
Continuous
 62
    30
100
AcDbCircle
 10
-834.654375416607
 20
-547.5000000000001
 30
0.0
 40
7.5
  0
CIRCLE
  5
890
330
6F
100
AcDbEntity
  8
SIZE
  6
Continuous
 62
    30
100
AcDbCircle
 10
-834.654375416607
 20
-562.5
 30
0.0
 40
7.5
  0
TEXT
  5
891
330
6F
100
AcDbEntity
  8
SIZE
  6
Continuous
 62
    30
100
AcDbText
 10
-854.5858825719243
 20
-693.9285714285709
 30
0.0
 40
40.0
  1
15
 50
90.0
 41
0.9
 72
     1
 11
-854.5858825719243
 21
-668.2142857142853
 31
0.0
100
AcDbText
  0
POINT
  5
892
330
6F
100
AcDbEntity
  8
DEFPOINTS
  6
Continuous
 62
    30
100
AcDbPoint
 10
-485.7803246398467
 20
-547.5000000000001
 30
0.0
 50
270.0
  0
POINT
  5
893
330
6F
100
AcDbEntity
  8
DEFPOINTS
  6
Continuous
 62
    30
100
AcDbPoint
 10
-524.3303246398487
 20
-562.5
 30
0.0
 50
270.0
  0
POINT
  5
894
330
6F
100
AcDbEntity
  8
DEFPOINTS
  6
Continuous
 62
    30
100
AcDbPoint
 10
-834.654375416607
 20
-562.5
 30
0.0
 50
270.0
  0
LINE
  5
895
330
6F
100
AcDbEntity
  8
SIZE
  6
Continuous
 62
    30
100
AcDbLine
 10
-725.8303246398485
 20
-293.4263073420954
 30
0.0
 11
-725.8303246398485
 21
-414.4294256277714
 31
0.0
  0
LINE
  5
896
330
6F
100
AcDbEntity
  8
SIZE
  6
Continuous
 62
    30
100
AcDbLine
 10
-625.8303246398485
 20
-328.9763073420906
 30
0.0
 11
-625.8303246398485
 21
-414.4294256277714
 31
0.0
  0
LINE
  5
897
330
6F
100
AcDbEntity
  8
SIZE
  6
Continuous
 62
    30
100
AcDbLine
 10
-725.8303246398485
 20
-394.4294256277714
 30
0.0
 11
-625.8303246398485
 21
-394.4294256277714
 31
0.0
  0
LINE
  5
898
330
6F
100
AcDbEntity
  8
SIZE
  6
Continuous
 62
    30
100
AcDbLine
 10
-625.8303246398485
 20
-394.4294256277714
 30
0.0
 11
-470.1160389255603
 21
-394.4294256277714
 31
0.0
  0
CIRCLE
  5
899
330
6F
100
AcDbEntity
  8
SIZE
  6
Continuous
 62
    30
100
AcDbCircle
 10
-725.8303246398485
 20
-394.4294256277714
 30
0.0
 40
7.5
  0
CIRCLE
  5
89A
330
6F
100
AcDbEntity
  8
SIZE
  6
Continuous
 62
    30
100
AcDbCircle
 10
-625.8303246398485
 20
-394.4294256277714
 30
0.0
 40
7.5
  0
TEXT
  5
89B
330
6F
100
AcDbEntity
  8
SIZE
  6
Continuous
 62
    30
100
AcDbText
 10
-575.8303246398456
 20
-374.4294256277718
 30
0.0
 40
40.0
  1
100
 41
0.9
 72
     1
 11
-532.9731817827028
 21
-374.4294256277718
 31
0.0
100
AcDbText
  0
POINT
  5
89C
330
6F
100
AcDbEntity
  8
DEFPOINTS
  6
Continuous
 62
    30
100
AcDbPoint
 10
-725.8303246398485
 20
-273.4263073420954
 30
0.0
 50
270.0
  0
POINT
  5
89D
330
6F
100
AcDbEntity
  8
DEFPOINTS
  6
Continuous
 62
    30
100
AcDbPoint
 10
-625.8303246398485
 20
-308.9763073420905
 30
0.0
 50
270.0
  0
POINT
  5
89E
330
6F
100
AcDbEntity
  8
DEFPOINTS
  6
Continuous
 62
    30
100
AcDbPoint
 10
-625.8303246398485
 20
-394.4294256277714
 30
0.0
 50
270.0
  0
LINE
  5
89F
330
6F
100
AcDbEntity
  8
SIZE
  6
Continuous
 62
    30
100
AcDbLine
 10
-757.2803246398494
 20
-284.4763073420905
 30
0.0
 11
-1060.252414074878
 21
-284.4763073420905
 31
0.0
  0
LINE
  5
8A0
330
6F
100
AcDbEntity
  8
SIZE
  6
Continuous
 62
    30
100
AcDbLine
 10
-645.0303246398484
 20
-533.4999999999999
 30
0.0
 11
-1060.252414074878
 21
-533.4999999999996
 31
0.0
  0
LINE
  5
8A1
330
6F
100
AcDbEntity
  8
SIZE
  6
Continuous
 62
    30
100
AcDbLine
 10
-1040.252414074878
 20
-284.4763073420905
 30
0.0
 11
-1040.252414074878
 21
-533.4999999999996
 31
0.0
  0
CIRCLE
  5
8A2
330
6F
100
AcDbEntity
  8
SIZE
  6
Continuous
 62
    30
100
AcDbCircle
 10
-1040.252414074878
 20
-284.4763073420905
 30
0.0
 40
7.5
  0
CIRCLE
  5
8A3
330
6F
100
AcDbEntity
  8
SIZE
  6
Continuous
 62
    30
100
AcDbCircle
 10
-1040.252414074878
 20
-533.4999999999996
 30
0.0
 40
7.5
  0
TEXT
  5
8A4
330
6F
100
AcDbEntity
  8
SIZE
  6
Continuous
 62
    30
100
AcDbText
 10
-1060.183921230195
 20
-454.4167250996165
 30
0.0
 40
40.0
  1
249
 50
90.0
 41
0.9
 72
     1
 11
-1060.183921230195
 21
-408.9881536710451
 31
0.0
100
AcDbText
  0
POINT
  5
8A5
330
6F
100
AcDbEntity
  8
DEFPOINTS
  6
Continuous
 62
    30
100
AcDbPoint
 10
-737.2803246398493
 20
-284.4763073420905
 30
0.0
 50
270.0
  0
POINT
  5
8A6
330
6F
100
AcDbEntity
  8
DEFPOINTS
  6
Continuous
 62
    30
100
AcDbPoint
 10
-625.0303246398487
 20
-533.4999999999999
 30
0.0
 50
270.0
  0
POINT
  5
8A7
330
6F
100
AcDbEntity
  8
DEFPOINTS
  6
Continuous
 62
    30
100
AcDbPoint
 10
-1040.252414074878
 20
-533.4999999999996
 30
0.0
 50
270.0
  0
LINE
  5
8A8
330
6F
100
AcDbEntity
  8
SIZE
  6
Continuous
 62
    30
100
AcDbLine
 10
-757.2803246398494
 20
-189.4763073420905
 30
0.0
 11
-1060.252414074878
 21
-189.4763073420905
 31
0.0
  0
LINE
  5
8A9
330
6F
100
AcDbEntity
  8
SIZE
  6
Continuous
 62
    30
100
AcDbLine
 10
-757.2803246398494
 20
-284.4763073420905
 30
0.0
 11
-1060.252414074878
 21
-284.4763073420905
 31
0.0
  0
LINE
  5
8AA
330
6F
100
AcDbEntity
  8
SIZE
  6
Continuous
 62
    30
100
AcDbLine
 10
-1040.252414074878
 20
-189.4763073420905
 30
0.0
 11
-1040.252414074878
 21
-284.4763073420905
 31
0.0
  0
CIRCLE
  5
8AB
330
6F
100
AcDbEntity
  8
SIZE
  6
Continuous
 62
    30
100
AcDbCircle
 10
-1040.252414074878
 20
-189.4763073420905
 30
0.0
 40
7.5
  0
CIRCLE
  5
8AC
330
6F
100
AcDbEntity
  8
SIZE
  6
Continuous
 62
    30
100
AcDbCircle
 10
-1040.252414074878
 20
-284.4763073420905
 30
0.0
 40
7.5
  0
TEXT
  5
8AD
330
6F
100
AcDbEntity
  8
SIZE
  6
Continuous
 62
    30
100
AcDbText
 10
-1060.183921230195
 20
-266.1191644849476
 30
0.0
 40
40.0
  1
95
 50
90.0
 41
0.9
 72
     1
 11
-1060.183921230195
 21
-236.9763073420905
 31
0.0
100
AcDbText
  0
POINT
  5
8AE
330
6F
100
AcDbEntity
  8
DEFPOINTS
  6
Continuous
 62
    30
100
AcDbPoint
 10
-737.2803246398493
 20
-189.4763073420905
 30
0.0
 50
270.0
  0
POINT
  5
8AF
330
6F
100
AcDbEntity
  8
DEFPOINTS
  6
Continuous
 62
    30
100
AcDbPoint
 10
-737.2803246398493
 20
-284.4763073420905
 30
0.0
 50
270.0
  0
POINT
  5
8B0
330
6F
100
AcDbEntity
  8
DEFPOINTS
  6
Continuous
 62
    30
100
AcDbPoint
 10
-1040.252414074878
 20
-284.4763073420905
 30
0.0
 50
270.0
  0
LINE
  5
8B1
330
6F
100
AcDbEntity
  8
SIZE
  6
Continuous
 62
    30
100
AcDbLine
 10
-682.7803246398477
 20
-111.5369064930088
 30
0.0
 11
-1168.485753324885
 21
-111.5369064930088
 31
0.0
  0
LINE
  5
8B2
330
6F
100
AcDbEntity
  8
SIZE
  6
Continuous
 62
    30
100
AcDbLine
 10
-645.0303246398484
 20
-533.4999999999999
 30
0.0
 11
-1168.485753324885
 21
-533.4999999999996
 31
0.0
  0
LINE
  5
8B3
330
6F
100
AcDbEntity
  8
SIZE
  6
Continuous
 62
    30
100
AcDbLine
 10
-1148.485753324884
 20
-111.5369064930088
 30
0.0
 11
-1148.485753324884
 21
-533.4999999999996
 31
0.0
  0
CIRCLE
  5
8B4
330
6F
100
AcDbEntity
  8
SIZE
  6
Continuous
 62
    30
100
AcDbCircle
 10
-1148.485753324884
 20
-111.5369064930088
 30
0.0
 40
7.5
  0
CIRCLE
  5
8B5
330
6F
100
AcDbEntity
  8
SIZE
  6
Continuous
 62
    30
100
AcDbCircle
 10
-1148.485753324884
 20
-533.4999999999996
 30
0.0
 40
7.5
  0
TEXT
  5
8B6
330
6F
100
AcDbEntity
  8
SIZE
  6
Continuous
 62
    30
100
AcDbText
 10
-1168.417260480203
 20
-368.8041675322203
 30
0.0
 40
40.0
  1
422
 50
90.0
 41
0.9
 72
     1
 11
-1168.417260480203
 21
-322.518453246506
 31
0.0
100
AcDbText
  0
POINT
  5
8B7
330
6F
100
AcDbEntity
  8
DEFPOINTS
  6
Continuous
 62
    30
100
AcDbPoint
 10
-662.7803246398476
 20
-111.5369064930088
 30
0.0
 50
270.0
  0
POINT
  5
8B8
330
6F
100
AcDbEntity
  8
DEFPOINTS
  6
Continuous
 62
    30
100
AcDbPoint
 10
-625.0303246398487
 20
-533.4999999999999
 30
0.0
 50
270.0
  0
POINT
  5
8B9
330
6F
100
AcDbEntity
  8
DEFPOINTS
  6
Continuous
 62
    30
100
AcDbPoint
 10
-1148.485753324884
 20
-533.4999999999996
 30
0.0
 50
270.0
  0
LINE
  5
8BA
330
6F
100
AcDbEntity
  8
SIZE
  6
Continuous
 62
    30
100
AcDbLine
 10
-524.3303246398487
 20
-582.5000000000001
 30
0.0
 11
-524.3303246398496
 21
-951.4108856051461
 31
0.0
  0
LINE
  5
8BB
330
6F
100
AcDbEntity
  8
SIZE
  6
Continuous
 62
    30
100
AcDbLine
 10
-474.3303246398459
 20
-578.9500000000002
 30
0.0
 11
-474.3303246398459
 21
-951.4108856051461
 31
0.0
  0
LINE
  5
8BC
330
6F
100
AcDbEntity
  8
SIZE
  6
Continuous
 62
    30
100
AcDbLine
 10
-474.3303246398459
 20
-931.4108856051458
 30
0.0
 11
-524.3303246398496
 21
-931.4108856051458
 31
0.0
  0
LINE
  5
8BD
330
6F
100
AcDbEntity
  8
SIZE
  6
Continuous
 62
    30
100
AcDbLine
 10
-524.3303246398496
 20
-931.4108856051458
 30
0.0
 11
-652.6160389255633
 21
-931.4108856051458
 31
0.0
  0
CIRCLE
  5
8BE
330
6F
100
AcDbEntity
  8
SIZE
  6
Continuous
 62
    30
100
AcDbCircle
 10
-474.3303246398459
 20
-931.4108856051458
 30
0.0
 40
7.5
  0
CIRCLE
  5
8BF
330
6F
100
AcDbEntity
  8
SIZE
  6
Continuous
 62
    30
100
AcDbCircle
 10
-524.3303246398496
 20
-931.4108856051458
 30
0.0
 40
7.5
  0
TEXT
  5
8C0
330
6F
100
AcDbEntity
  8
SIZE
  6
Continuous
 62
    30
100
AcDbText
 10
-632.6160389255623
 20
-911.4108856051457
 30
0.0
 40
40.0
  1
50
 41
0.9
 72
     1
 11
-603.4731817827052
 21
-911.4108856051457
 31
0.0
100
AcDbText
  0
POINT
  5
8C1
330
6F
100
AcDbEntity
  8
DEFPOINTS
  6
Continuous
 62
    30
100
AcDbPoint
 10
-524.3303246398487
 20
-562.5
 30
0.0
 50
270.0
  0
POINT
  5
8C2
330
6F
100
AcDbEntity
  8
DEFPOINTS
  6
Continuous
 62
    30
100
AcDbPoint
 10
-474.3303246398459
 20
-558.9500000000002
 30
0.0
 50
270.0
  0
POINT
  5
8C3
330
6F
100
AcDbEntity
  8
DEFPOINTS
  6
Continuous
 62
    30
100
AcDbPoint
 10
-474.3303246398459
 20
-931.4108856051458
 30
0.0
 50
270.0
  0
LINE
  5
8C4
330
6F
100
AcDbEntity
  8
SIZE
  6
Continuous
 62
    30
100
AcDbLine
 10
-374.330324639846
 20
-578.9500000000002
 30
0.0
 11
-374.3303246398468
 21
-951.4108856051461
 31
0.0
  0
LINE
  5
8C5
330
6F
100
AcDbEntity
  8
SIZE
  6
Continuous
 62
    30
100
AcDbLine
 10
-474.3303246398459
 20
-578.9500000000002
 30
0.0
 11
-474.3303246398459
 21
-951.4108856051461
 31
0.0
  0
LINE
  5
8C6
330
6F
100
AcDbEntity
  8
SIZE
  6
Continuous
 62
    30
100
AcDbLine
 10
-374.3303246398468
 20
-931.4108856051458
 30
0.0
 11
-474.3303246398459
 21
-931.4108856051458
 31
0.0
  0
CIRCLE
  5
8C7
330
6F
100
AcDbEntity
  8
SIZE
  6
Continuous
 62
    30
100
AcDbCircle
 10
-374.3303246398468
 20
-931.4108856051458
 30
0.0
 40
7.5
  0
CIRCLE
  5
8C8
330
6F
100
AcDbEntity
  8
SIZE
  6
Continuous
 62
    30
100
AcDbCircle
 10
-474.3303246398459
 20
-931.4108856051458
 30
0.0
 40
7.5
  0
TEXT
  5
8C9
330
6F
100
AcDbEntity
  8
SIZE
  6
Continuous
 62
    30
100
AcDbText
 10
-467.1874674969887
 20
-911.4108856051457
 30
0.0
 40
40.0
  1
100
 41
0.9
 72
     1
 11
-424.3303246398459
 21
-911.4108856051457
 31
0.0
100
AcDbText
  0
POINT
  5
8CA
330
6F
100
AcDbEntity
  8
DEFPOINTS
  6
Continuous
 62
    30
100
AcDbPoint
 10
-374.330324639846
 20
-558.9500000000002
 30
0.0
 50
270.0
  0
POINT
  5
8CB
330
6F
100
AcDbEntity
  8
DEFPOINTS
  6
Continuous
 62
    30
100
AcDbPoint
 10
-474.3303246398459
 20
-558.9500000000002
 30
0.0
 50
270.0
  0
POINT
  5
8CC
330
6F
100
AcDbEntity
  8
DEFPOINTS
  6
Continuous
 62
    30
100
AcDbPoint
 10
-474.3303246398459
 20
-931.4108856051458
 30
0.0
 50
270.0
  0
LINE
  5
8CD
330
6F
100
AcDbEntity
  8
SIZE
  6
Continuous
 62
    30
100
AcDbLine
 10
-474.3303246398459
 20
-578.9500000000002
 30
0.0
 11
-474.3303246398468
 21
-1051.410885605145
 31
0.0
  0
LINE
  5
8CE
330
6F
100
AcDbEntity
  8
SIZE
  6
Continuous
 62
    30
100
AcDbLine
 10
525.6696753601529
 20
-578.9500000000007
 30
0.0
 11
525.6696753601523
 21
-1051.410885605146
 31
0.0
  0
LINE
  5
8CF
330
6F
100
AcDbEntity
  8
SIZE
  6
Continuous
 62
    30
100
AcDbLine
 10
-474.3303246398468
 20
-1031.410885605145
 30
0.0
 11
525.6696753601523
 21
-1031.410885605146
 31
0.0
  0
CIRCLE
  5
8D0
330
6F
100
AcDbEntity
  8
SIZE
  6
Continuous
 62
    30
100
AcDbCircle
 10
-474.3303246398468
 20
-1031.410885605145
 30
0.0
 40
7.5
  0
CIRCLE
  5
8D1
330
6F
100
AcDbEntity
  8
SIZE
  6
Continuous
 62
    30
100
AcDbCircle
 10
525.6696753601523
 20
-1031.410885605146
 30
0.0
 40
7.5
  0
TEXT
  5
8D2
330
6F
100
AcDbEntity
  8
SIZE
  6
Continuous
 62
    30
100
AcDbText
 10
-157.255542914072
 20
-1011.410885605145
 30
0.0
 40
40.0
  1
100x10=1000
 41
0.9
 72
     1
 11
18.45874280021371
 21
-1011.410885605145
 31
0.0
100
AcDbText
  0
POINT
  5
8D3
330
6F
100
AcDbEntity
  8
DEFPOINTS
  6
Continuous
 62
    30
100
AcDbPoint
 10
-474.3303246398459
 20
-558.9500000000002
 30
0.0
 50
270.0
  0
POINT
  5
8D4
330
6F
100
AcDbEntity
  8
DEFPOINTS
  6
Continuous
 62
    30
100
AcDbPoint
 10
525.6696753601529
 20
-558.9500000000008
 30
0.0
 50
270.0
  0
POINT
  5
8D5
330
6F
100
AcDbEntity
  8
DEFPOINTS
  6
Continuous
 62
    30
100
AcDbPoint
 10
525.6696753601523
 20
-1031.410885605146
 30
0.0
 50
270.0
  0
LINE
  5
8D6
330
6F
100
AcDbEntity
  8
SIZE
  6
Continuous
 62
    30
100
AcDbLine
 10
-663.8303246398456
 20
-535.5422932720103
 30
0.0
 11
-663.8303246398468
 21
-1251.410885605146
 31
0.0
  0
LINE
  5
8D7
330
6F
100
AcDbEntity
  8
SIZE
  6
Continuous
 62
    30
100
AcDbLine
 10
662.1696753601503
 20
-535.5422932720103
 30
0.0
 11
662.1696753601494
 21
-1251.410885605146
 31
0.0
  0
LINE
  5
8D8
330
6F
100
AcDbEntity
  8
SIZE
  6
Continuous
 62
    30
100
AcDbLine
 10
-663.8303246398468
 20
-1231.410885605145
 30
0.0
 11
662.1696753601494
 21
-1231.410885605146
 31
0.0
  0
CIRCLE
  5
8D9
330
6F
100
AcDbEntity
  8
SIZE
  6
Continuous
 62
    30
100
AcDbCircle
 10
-663.8303246398468
 20
-1231.410885605145
 30
0.0
 40
7.5
  0
CIRCLE
  5
8DA
330
6F
100
AcDbEntity
  8
SIZE
  6
Continuous
 62
    30
100
AcDbCircle
 10
662.1696753601494
 20
-1231.410885605146
 30
0.0
 40
7.5
  0
TEXT
  5
8DB
330
6F
100
AcDbEntity
  8
SIZE
  6
Continuous
 62
    30
100
AcDbText
 10
-292.6157516814234
 20
-1200.934695128955
 30
0.0
 40
40.0
  1
1326(吊りボルトピッチ)
 41
0.9
 72
     1
 11
-36.6728945385662
 21
-1200.934695128955
 31
0.0
100
AcDbText
  0
POINT
  5
8DC
330
6F
100
AcDbEntity
  8
DEFPOINTS
  6
Continuous
 62
    30
100
AcDbPoint
 10
-663.8303246398456
 20
-515.5422932720104
 30
0.0
 50
270.0
  0
POINT
  5
8DD
330
6F
100
AcDbEntity
  8
DEFPOINTS
  6
Continuous
 62
    30
100
AcDbPoint
 10
662.1696753601503
 20
-515.5422932720104
 30
0.0
 50
270.0
  0
POINT
  5
8DE
330
6F
100
AcDbEntity
  8
DEFPOINTS
  6
Continuous
 62
    30
100
AcDbPoint
 10
662.1696753601494
 20
-1231.410885605146
 30
0.0
 50
270.0
  0
LINE
  5
8DF
330
6F
100
AcDbEntity
  8
SIZE
  6
Continuous
 62
    30
100
AcDbLine
 10
-686.8303246398474
 20
-549.9963848373992
 30
0.0
 11
-686.8303246398485
 21
-1451.410885605145
 31
0.0
  0
LINE
  5
8E0
330
6F
100
AcDbEntity
  8
SIZE
  6
Continuous
 62
    30
100
AcDbLine
 10
685.1696753601512
 20
-549.9963848373992
 30
0.0
 11
685.1696753601503
 21
-1451.410885605146
 31
0.0
  0
LINE
  5
8E1
330
6F
100
AcDbEntity
  8
SIZE
  6
Continuous
 62
    30
100
AcDbLine
 10
-686.8303246398485
 20
-1431.410885605145
 30
0.0
 11
685.1696753601503
 21
-1431.410885605146
 31
0.0
  0
CIRCLE
  5
8E2
330
6F
100
AcDbEntity
  8
SIZE
  6
Continuous
 62
    30
100
AcDbCircle
 10
-686.8303246398485
 20
-1431.410885605145
 30
0.0
 40
7.5
  0
CIRCLE
  5
8E3
330
6F
100
AcDbEntity
  8
SIZE
  6
Continuous
 62
    30
100
AcDbCircle
 10
685.1696753601503
 20
-1431.410885605146
 30
0.0
 40
7.5
  0
TEXT
  5
8E4
330
6F
100
AcDbEntity
  8
SIZE
  6
Continuous
 62
    30
100
AcDbText
 10
-51.85889582310437
 20
-1411.410885605145
 30
0.0
 40
40.0
  1
1372
 41
0.9
 72
     1
 11
8.141104176895622
 21
-1411.410885605145
 31
0.0
100
AcDbText
  0
POINT
  5
8E5
330
6F
100
AcDbEntity
  8
DEFPOINTS
  6
Continuous
 62
    30
100
AcDbPoint
 10
-686.8303246398474
 20
-529.9963848373992
 30
0.0
 50
270.0
  0
POINT
  5
8E6
330
6F
100
AcDbEntity
  8
DEFPOINTS
  6
Continuous
 62
    30
100
AcDbPoint
 10
685.1696753601512
 20
-529.9963848373992
 30
0.0
 50
270.0
  0
POINT
  5
8E7
330
6F
100
AcDbEntity
  8
DEFPOINTS
  6
Continuous
 62
    30
100
AcDbPoint
 10
685.1696753601503
 20
-1431.410885605146
 30
0.0
 50
270.0
  0
TEXT
  5
8E8
330
6F
100
AcDbEntity
  8
NOTE
  6
Continuous
 62
     4
100
AcDbText
 10
1061.20385314239
 20
-863.8747766072501
 30
0.0
 40
64.0
  1
AH 2x2 M10ボルト用
 41
0.9
100
AcDbText
  0
TEXT
  5
8E9
330
6F
100
AcDbEntity
  8
NOTE
  6
Continuous
 62
     4
100
AcDbText
 10
-1186.552507733197
 20
800.7950184812578
 30
0.0
 40
64.0
  1
 D VP-25
 41
0.9
100
AcDbText
  0
TEXT
  5
8EA
330
6F
100
AcDbEntity
  8
ETC
  6
Continuous
 62
    61
100
AcDbText
 10
-1567.792694677718
 20
1307.926308622837
 30
0.0
 40
64.0
  1
PEFY-P280SMG9_6
 41
0.9
100
AcDbText
  0
LINE
  5
8EB
330
6F
100
AcDbEntity
  8
SIZE
  6
Continuous
 62
    30
100
AcDbLine
 10
662.1696753601503
 20
-535.7459084346118
 30
0.0
 11
662.1696753601494
 21
-1251.410885605146
 31
0.0
  0
LINE
  5
8EC
330
6F
100
AcDbEntity
  8
SIZE
  6
Continuous
 62
    30
100
AcDbLine
 10
685.1696753601512
 20
-549.9963848373992
 30
0.0
 11
685.1696753601512
 21
-1251.410885605146
 31
0.0
  0
LINE
  5
8ED
330
6F
100
AcDbEntity
  8
SIZE
  6
Continuous
 62
    30
100
AcDbLine
 10
662.1696753601494
 20
-1231.410885605145
 30
0.0
 11
632.1696753601494
 21
-1231.410885605145
 31
0.0
  0
LINE
  5
8EE
330
6F
100
AcDbEntity
  8
SIZE
  6
Continuous
 62
    30
100
AcDbLine
 10
685.1696753601512
 20
-1231.410885605145
 30
0.0
 11
843.4553896458654
 21
-1231.410885605145
 31
0.0
  0
LINE
  5
8EF
330
6F
100
AcDbEntity
  8
SIZE
  6
Continuous
 62
    30
100
AcDbLine
 10
662.1696753601494
 20
-1231.410885605145
 30
0.0
 11
685.1696753601512
 21
-1231.410885605145
 31
0.0
  0
CIRCLE
  5
8F0
330
6F
100
AcDbEntity
  8
SIZE
  6
Continuous
 62
    30
100
AcDbCircle
 10
662.1696753601494
 20
-1231.410885605145
 30
0.0
 40
7.5
  0
CIRCLE
  5
8F1
330
6F
100
AcDbEntity
  8
SIZE
  6
Continuous
 62
    30
100
AcDbCircle
 10
685.1696753601512
 20
-1231.410885605145
 30
0.0
 40
7.5
  0
TEXT
  5
8F2
330
6F
100
AcDbEntity
  8
SIZE
  6
Continuous
 62
    30
100
AcDbText
 10
765.1696753601511
 20
-1211.410885605145
 30
0.0
 40
40.0
  1
23
 41
0.9
 72
     1
 11
794.3125325030082
 21
-1211.410885605145
 31
0.0
100
AcDbText
  0
POINT
  5
8F3
330
6F
100
AcDbEntity
  8
DEFPOINTS
  6
Continuous
 62
    30
100
AcDbPoint
 10
662.1696753601503
 20
-515.7459084346119
 30
0.0
 50
270.0
  0
POINT
  5
8F4
330
6F
100
AcDbEntity
  8
DEFPOINTS
  6
Continuous
 62
    30
100
AcDbPoint
 10
685.1696753601512
 20
-529.9963848373992
 30
0.0
 50
270.0
  0
POINT
  5
8F5
330
6F
100
AcDbEntity
  8
DEFPOINTS
  6
Continuous
 62
    30
100
AcDbPoint
 10
685.1696753601512
 20
-1231.410885605145
 30
0.0
 50
270.0
  0
LINE
  5
8F6
330
6F
100
AcDbEntity
  8
SIZE
  6
Continuous
 62
    30
100
AcDbLine
 10
-663.8303246398456
 20
-535.5422932720103
 30
0.0
 11
-663.8303246398468
 21
-1251.410885605146
 31
0.0
  0
LINE
  5
8F7
330
6F
100
AcDbEntity
  8
SIZE
  6
Continuous
 62
    30
100
AcDbLine
 10
-686.8303246398474
 20
-549.9963848373992
 30
0.0
 11
-686.8303246398485
 21
-1251.410885605146
 31
0.0
  0
LINE
  5
8F8
330
6F
100
AcDbEntity
  8
SIZE
  6
Continuous
 62
    30
100
AcDbLine
 10
-663.8303246398468
 20
-1231.410885605145
 30
0.0
 11
-633.8303246398467
 21
-1231.410885605145
 31
0.0
  0
LINE
  5
8F9
330
6F
100
AcDbEntity
  8
SIZE
  6
Continuous
 62
    30
100
AcDbLine
 10
-686.8303246398485
 20
-1231.410885605145
 30
0.0
 11
-845.1160389255624
 21
-1231.410885605145
 31
0.0
  0
LINE
  5
8FA
330
6F
100
AcDbEntity
  8
SIZE
  6
Continuous
 62
    30
100
AcDbLine
 10
-663.8303246398468
 20
-1231.410885605145
 30
0.0
 11
-686.8303246398485
 21
-1231.410885605145
 31
0.0
  0
CIRCLE
  5
8FB
330
6F
100
AcDbEntity
  8
SIZE
  6
Continuous
 62
    30
100
AcDbCircle
 10
-663.8303246398468
 20
-1231.410885605145
 30
0.0
 40
7.5
  0
CIRCLE
  5
8FC
330
6F
100
AcDbEntity
  8
SIZE
  6
Continuous
 62
    30
100
AcDbCircle
 10
-686.8303246398485
 20
-1231.410885605145
 30
0.0
 40
7.5
  0
TEXT
  5
8FD
330
6F
100
AcDbEntity
  8
SIZE
  6
Continuous
 62
    30
100
AcDbText
 10
-825.1160389255627
 20
-1211.410885605146
 30
0.0
 40
40.0
  1
23
 41
0.9
 72
     1
 11
-795.9731817827056
 21
-1211.410885605146
 31
0.0
100
AcDbText
  0
POINT
  5
8FE
330
6F
100
AcDbEntity
  8
DEFPOINTS
  6
Continuous
 62
    30
100
AcDbPoint
 10
-663.8303246398456
 20
-515.5422932720104
 30
0.0
 50
270.0
  0
POINT
  5
8FF
330
6F
100
AcDbEntity
  8
DEFPOINTS
  6
Continuous
 62
    30
100
AcDbPoint
 10
-686.8303246398474
 20
-529.9963848373992
 30
0.0
 50
270.0
  0
POINT
  5
900
330
6F
100
AcDbEntity
  8
DEFPOINTS
  6
Continuous
 62
    30
100
AcDbPoint
 10
-686.8303246398485
 20
-1231.410885605145
 30
0.0
 50
270.0
  0
LINE
  5
901
330
6F
100
AcDbEntity
  8
SIZE
  6
Continuous
 62
    30
100
AcDbLine
 10
596.3696753601529
 20
557.4999999999999
 30
0.0
 11
1224.849676481769
 21
557.4999999999999
 31
0.0
  0
LINE
  5
902
330
6F
100
AcDbEntity
  8
SIZE
  6
Continuous
 62
    30
100
AcDbLine
 10
596.3696753601529
 20
533.4999999999999
 30
0.0
 11
1224.849676481769
 21
533.4999999999999
 31
0.0
  0
LINE
  5
903
330
6F
100
AcDbEntity
  8
SIZE
  6
Continuous
 62
    30
100
AcDbLine
 10
1204.849676481769
 20
533.4999999999999
 30
0.0
 11
1204.849676481769
 21
503.4999999999998
 31
0.0
  0
LINE
  5
904
330
6F
100
AcDbEntity
  8
SIZE
  6
Continuous
 62
    30
100
AcDbLine
 10
1204.849676481769
 20
557.4999999999999
 30
0.0
 11
1204.849676481769
 21
717.4999999999997
 31
0.0
  0
LINE
  5
905
330
6F
100
AcDbEntity
  8
SIZE
  6
Continuous
 62
    30
100
AcDbLine
 10
1204.849676481769
 20
533.4999999999999
 30
0.0
 11
1204.849676481769
 21
557.4999999999999
 31
0.0
  0
CIRCLE
  5
906
330
6F
100
AcDbEntity
  8
SIZE
  6
Continuous
 62
    30
100
AcDbCircle
 10
1204.849676481769
 20
533.4999999999999
 30
0.0
 40
7.5
  0
CIRCLE
  5
907
330
6F
100
AcDbEntity
  8
SIZE
  6
Continuous
 62
    30
100
AcDbCircle
 10
1204.849676481769
 20
557.4999999999999
 30
0.0
 40
7.5
  0
TEXT
  5
908
330
6F
100
AcDbEntity
  8
SIZE
  6
Continuous
 62
    30
100
AcDbText
 10
1189.909602346402
 20
637.4999999999998
 30
0.0
 40
40.0
  1
24
 50
90.0
 41
0.9
 72
     1
 11
1189.909602346402
 21
667.4999999999998
 31
0.0
100
AcDbText
  0
POINT
  5
909
330
6F
100
AcDbEntity
  8
DEFPOINTS
  6
Continuous
 62
    30
100
AcDbPoint
 10
576.3696753601529
 20
557.4999999999999
 30
0.0
 50
270.0
  0
POINT
  5
90A
330
6F
100
AcDbEntity
  8
DEFPOINTS
  6
Continuous
 62
    30
100
AcDbPoint
 10
576.3696753601529
 20
533.4999999999999
 30
0.0
 50
270.0
  0
POINT
  5
90B
330
6F
100
AcDbEntity
  8
DEFPOINTS
  6
Continuous
 62
    30
100
AcDbPoint
 10
1204.849676481769
 20
533.4999999999999
 30
0.0
 50
270.0
  0
TEXT
  5
90C
330
6F
100
AcDbEntity
  8
NOTE
  6
Continuous
 62
     4
100
AcDbText
 10
73.86276772734118
 20
798.8560300487367
 30
0.0
 40
64.0
  1
吸込側
 50
270.0
 41
0.9
100
AcDbText
  0
TEXT
  5
90D
330
6F
100
AcDbEntity
  8
NOTE
  6
Continuous
 62
     4
100
AcDbText
 10
62.95699998771807
 20
-669.6759177446621
 30
0.0
 40
64.0
  1
吹出側
 50
270.0
 41
0.9
100
AcDbText
  0
LINE
  5
90E
330
6F
100
AcDbEntity
  8
SIZE
  6
Continuous
 62
    30
100
AcDbLine
 10
576.3696753601529
 20
577.4999999999997
 30
0.0
 11
576.3696753601529
 21
1008.347896671891
 31
0.0
  0
LINE
  5
90F
330
6F
100
AcDbEntity
  8
SIZE
  6
Continuous
 62
    30
100
AcDbLine
 10
-523.6303246398497
 20
577.4999999999997
 30
0.0
 11
-523.6303246398497
 21
1008.347896671891
 31
0.0
  0
LINE
  5
910
330
6F
100
AcDbEntity
  8
SIZE
  6
Continuous
 62
    30
100
AcDbLine
 10
576.3696753601529
 20
988.347896671892
 30
0.0
 11
-523.6303246398497
 21
988.347896671892
 31
0.0
  0
CIRCLE
  5
911
330
6F
100
AcDbEntity
  8
SIZE
  6
Continuous
 62
    30
100
AcDbCircle
 10
576.3696753601529
 20
988.347896671892
 30
0.0
 40
7.5
  0
CIRCLE
  5
912
330
6F
100
AcDbEntity
  8
SIZE
  6
Continuous
 62
    30
100
AcDbCircle
 10
-523.6303246398497
 20
988.347896671892
 30
0.0
 40
7.5
  0
TEXT
  5
913
330
6F
100
AcDbEntity
  8
SIZE
  6
Continuous
 62
    30
100
AcDbText
 10
-30.20175321127466
 20
1008.347896671891
 30
0.0
 40
40.0
  1
1100
 41
0.9
 72
     1
 11
26.36967536015391
 21
1008.347896671891
 31
0.0
100
AcDbText
  0
POINT
  5
914
330
6F
100
AcDbEntity
  8
DEFPOINTS
  6
Continuous
 62
    30
100
AcDbPoint
 10
576.3696753601529
 20
557.4999999999999
 30
0.0
 50
270.0
  0
POINT
  5
915
330
6F
100
AcDbEntity
  8
DEFPOINTS
  6
Continuous
 62
    30
100
AcDbPoint
 10
-523.6303246398497
 20
557.4999999999999
 30
0.0
 50
270.0
  0
POINT
  5
916
330
6F
100
AcDbEntity
  8
DEFPOINTS
  6
Continuous
 62
    30
100
AcDbPoint
 10
-523.6303246398497
 20
988.347896671892
 30
0.0
 50
270.0
  0
LINE
  5
917
330
6F
100
AcDbEntity
  8
SIZE
  6
Continuous
 62
    30
100
AcDbLine
 10
575.6696753601523
 20
-582.5000000000001
 30
0.0
 11
575.6696753601515
 21
-1151.410885605146
 31
0.0
  0
LINE
  5
918
330
6F
100
AcDbEntity
  8
SIZE
  6
Continuous
 62
    30
100
AcDbLine
 10
-523.3303246398484
 20
-582.5000000000001
 30
0.0
 11
-523.3303246398496
 21
-1151.410885605145
 31
0.0
  0
LINE
  5
919
330
6F
100
AcDbEntity
  8
SIZE
  6
Continuous
 62
    30
100
AcDbLine
 10
575.6696753601515
 20
-1131.410885605146
 30
0.0
 11
-523.3303246398496
 21
-1131.410885605145
 31
0.0
  0
CIRCLE
  5
91A
330
6F
100
AcDbEntity
  8
SIZE
  6
Continuous
 62
    30
100
AcDbCircle
 10
575.6696753601515
 20
-1131.410885605146
 30
0.0
 40
7.5
  0
CIRCLE
  5
91B
330
6F
100
AcDbEntity
  8
SIZE
  6
Continuous
 62
    30
100
AcDbCircle
 10
-523.3303246398496
 20
-1131.410885605145
 30
0.0
 40
7.5
  0
TEXT
  5
91C
330
6F
100
AcDbEntity
  8
SIZE
  6
Continuous
 62
    30
100
AcDbText
 10
-30.40175321127356
 20
-1111.410885605145
 30
0.0
 40
40.0
  1
1100
 41
0.9
 72
     1
 11
26.169675360155
 21
-1111.410885605145
 31
0.0
100
AcDbText
  0
POINT
  5
91D
330
6F
100
AcDbEntity
  8
DEFPOINTS
  6
Continuous
 62
    30
100
AcDbPoint
 10
575.6696753601523
 20
-562.5
 30
0.0
 50
270.0
  0
POINT
  5
91E
330
6F
100
AcDbEntity
  8
DEFPOINTS
  6
Continuous
 62
    30
100
AcDbPoint
 10
-523.3303246398484
 20
-562.5
 30
0.0
 50
270.0
  0
POINT
  5
91F
330
6F
100
AcDbEntity
  8
DEFPOINTS
  6
Continuous
 62
    30
100
AcDbPoint
 10
-523.3303246398496
 20
-1131.410885605145
 30
0.0
 50
270.0
  0
LINE
  5
920
330
6F
100
AcDbEntity
  8
SIZE
  6
Continuous
 62
    30
100
AcDbLine
 10
636.8696753601494
 20
533.4999999999999
 30
0.0
 11
1224.849676481769
 21
533.4999999999999
 31
0.0
  0
LINE
  5
921
330
6F
100
AcDbEntity
  8
SIZE
  6
Continuous
 62
    30
100
AcDbLine
 10
645.3696753601519
 20
-533.4999999999999
 30
0.0
 11
1224.849676481769
 21
-533.4999999999999
 31
0.0
  0
LINE
  5
922
330
6F
100
AcDbEntity
  8
SIZE
  6
Continuous
 62
    30
100
AcDbLine
 10
1204.849676481769
 20
533.4999999999999
 30
0.0
 11
1204.849676481769
 21
-533.4999999999999
 31
0.0
  0
CIRCLE
  5
923
330
6F
100
AcDbEntity
  8
SIZE
  6
Continuous
 62
    30
100
AcDbCircle
 10
1204.849676481769
 20
533.4999999999999
 30
0.0
 40
7.5
  0
CIRCLE
  5
924
330
6F
100
AcDbEntity
  8
SIZE
  6
Continuous
 62
    30
100
AcDbCircle
 10
1204.849676481769
 20
-533.4999999999999
 30
0.0
 40
7.5
  0
TEXT
  5
925
330
6F
100
AcDbEntity
  8
SIZE
  6
Continuous
 62
    30
100
AcDbText
 10
1189.909602346402
 20
-60.00000000000011
 30
0.0
 40
40.0
  1
1067
 50
90.0
 41
0.9
 72
     1
 11
1189.909602346402
 21
-0.0000000000001137
 31
0.0
100
AcDbText
  0
POINT
  5
926
330
6F
100
AcDbEntity
  8
DEFPOINTS
  6
Continuous
 62
    30
100
AcDbPoint
 10
616.8696753601492
 20
533.4999999999999
 30
0.0
 50
270.0
  0
POINT
  5
927
330
6F
100
AcDbEntity
  8
DEFPOINTS
  6
Continuous
 62
    30
100
AcDbPoint
 10
625.3696753601521
 20
-533.4999999999999
 30
0.0
 50
270.0
  0
POINT
  5
928
330
6F
100
AcDbEntity
  8
DEFPOINTS
  6
Continuous
 62
    30
100
AcDbPoint
 10
1204.849676481769
 20
-533.4999999999999
 30
0.0
 50
270.0
  0
LINE
  5
929
330
6F
100
AcDbEntity
  8
SIZE
  6
Continuous
 62
    30
100
AcDbLine
 10
645.3696753601519
 20
-533.4999999999999
 30
0.0
 11
1224.849676481769
 21
-533.4999999999999
 31
0.0
  0
LINE
  5
92A
330
6F
100
AcDbEntity
  8
SIZE
  6
Continuous
 62
    30
100
AcDbLine
 10
594.6696753601512
 20
-562.5
 30
0.0
 11
1224.849676481769
 21
-562.5
 31
0.0
  0
LINE
  5
92B
330
6F
100
AcDbEntity
  8
SIZE
  6
Continuous
 62
    30
100
AcDbLine
 10
1204.849676481769
 20
-533.4999999999999
 30
0.0
 11
1204.849676481769
 21
-503.5000000000001
 31
0.0
  0
LINE
  5
92C
330
6F
100
AcDbEntity
  8
SIZE
  6
Continuous
 62
    30
100
AcDbLine
 10
1204.849676481769
 20
-562.5
 30
0.0
 11
1204.849676481769
 21
-719.0714285714285
 31
0.0
  0
LINE
  5
92D
330
6F
100
AcDbEntity
  8
SIZE
  6
Continuous
 62
    30
100
AcDbLine
 10
1204.849676481769
 20
-533.4999999999999
 30
0.0
 11
1204.849676481769
 21
-562.5
 31
0.0
  0
CIRCLE
  5
92E
330
6F
100
AcDbEntity
  8
SIZE
  6
Continuous
 62
    30
100
AcDbCircle
 10
1204.849676481769
 20
-533.4999999999999
 30
0.0
 40
7.5
  0
CIRCLE
  5
92F
330
6F
100
AcDbEntity
  8
SIZE
  6
Continuous
 62
    30
100
AcDbCircle
 10
1204.849676481769
 20
-562.5
 30
0.0
 40
7.5
  0
TEXT
  5
930
330
6F
100
AcDbEntity
  8
SIZE
  6
Continuous
 62
    30
100
AcDbText
 10
1189.909602346402
 20
-699.0714285714285
 30
0.0
 40
40.0
  1
29
 50
90.0
 41
0.9
 72
     1
 11
1189.909602346402
 21
-670.7857142857142
 31
0.0
100
AcDbText
  0
POINT
  5
931
330
6F
100
AcDbEntity
  8
DEFPOINTS
  6
Continuous
 62
    30
100
AcDbPoint
 10
625.3696753601521
 20
-533.4999999999999
 30
0.0
 50
270.0
  0
POINT
  5
932
330
6F
100
AcDbEntity
  8
DEFPOINTS
  6
Continuous
 62
    30
100
AcDbPoint
 10
574.6696753601512
 20
-562.5
 30
0.0
 50
270.0
  0
POINT
  5
933
330
6F
100
AcDbEntity
  8
DEFPOINTS
  6
Continuous
 62
    30
100
AcDbPoint
 10
1204.849676481769
 20
-562.5
 30
0.0
 50
270.0
  0
LINE
  5
934
330
6F
100
AcDbEntity
  8
SERVICESPACE
  6
DASHDOT
 62
     2
100
AcDbLine
 10
-625.8303246398485
 20
-533.4999999999999
 30
0.0
 11
-625.8303246398485
 21
532.2000000000444
 31
0.0
  0
LINE
  5
935
330
6F
100
AcDbEntity
  8
SERVICESPACE
  6
DASHDOT
 62
     2
100
AcDbLine
 10
-1425.830324639849
 20
-533.4999999999996
 30
0.0
 11
-1425.830324639849
 21
532.2000000000406
 31
0.0
  0
LINE
  5
936
330
6F
100
AcDbEntity
  8
SERVICESPACE
  6
DASHDOT
 62
     2
100
AcDbLine
 10
-975.8303246398496
 20
-167.7999999999589
 30
0.0
 11
-975.8303246398496
 21
282.2000000000443
 31
0.0
  0
LINE
  5
937
330
6F
100
AcDbEntity
  8
SERVICESPACE
  6
DASHDOT
 62
     2
100
AcDbLine
 10
-675.8303246398485
 20
-583.4999999999999
 30
0.0
 11
-675.8303246398485
 21
583.4999999999999
 31
0.0
  0
LINE
  5
938
330
6F
100
AcDbEntity
  8
SERVICESPACE
  6
DASHDOT
 62
     2
100
AcDbLine
 10
674.1696753601512
 20
-583.4999999999999
 30
0.0
 11
674.1696753601522
 21
583.4999999999999
 31
0.0
  0
LINE
  5
939
330
6F
100
AcDbEntity
  8
SERVICESPACE
  6
DASHDOT
 62
     2
100
AcDbLine
 10
-625.8303246398485
 20
-533.4999999999999
 30
0.0
 11
-1425.830324639849
 21
-533.4999999999996
 31
0.0
  0
LINE
  5
93A
330
6F
100
AcDbEntity
  8
SERVICESPACE
  6
DASHDOT
 62
     2
100
AcDbLine
 10
-625.8303246398485
 20
532.2000000000444
 30
0.0
 11
-1425.830324639849
 21
532.2000000000406
 31
0.0
  0
LINE
  5
93B
330
6F
100
AcDbEntity
  8
SERVICESPACE
  6
DASHDOT
 62
     2
100
AcDbLine
 10
-975.8303246398496
 20
282.2000000000443
 30
0.0
 11
-1425.830324639848
 21
282.2000000000406
 31
0.0
  0
LINE
  5
93C
330
6F
100
AcDbEntity
  8
SERVICESPACE
  6
DASHDOT
 62
     2
100
AcDbLine
 10
-975.8303246398496
 20
-167.7999999999589
 30
0.0
 11
-1425.830324639844
 21
-167.7999999999589
 31
0.0
  0
LINE
  5
93D
330
6F
100
AcDbEntity
  8
SERVICESPACE
  6
DASHDOT
 62
     2
100
AcDbLine
 10
674.1696753601512
 20
146.4999999999999
 30
0.0
 11
-675.8303246398485
 21
-583.4999999999999
 31
0.0
  0
LINE
  5
93E
330
6F
100
AcDbEntity
  8
SERVICESPACE
  6
DASHDOT
 62
     2
100
AcDbLine
 10
674.1696753601512
 20
-583.4999999999999
 30
0.0
 11
-675.8303246398485
 21
146.4999999999999
 31
0.0
  0
TEXT
  5
93F
330
6F
100
AcDbEntity
  8
NOTE
  6
Continuous
 62
     4
100
AcDbText
 10
-451.2799415381834
 20
-50.51435682593012
 30
0.0
 40
50.0
  1
サービススペース
 50
270.0
 41
0.6
100
AcDbText
  0
TEXT
  5
940
330
6F
100
AcDbEntity
  8
NOTE
  6
Continuous
 62
     4
100
AcDbText
 10
-1237.976658276196
 20
102.8237288978415
 30
0.0
 40
50.0
  1
点検口
 50
270.0
 41
0.6
100
AcDbText
  0
LINE
  5
941
330
6F
100
AcDbEntity
  8
SIZE
  6
Continuous
 62
    30
100
AcDbLine
 10
-625.8303246398485
 20
-552.7000000000002
 30
0.0
 11
-625.8303246398485
 21
-1051.410885605145
 31
0.0
  0
LINE
  5
942
330
6F
100
AcDbEntity
  8
SIZE
  6
Continuous
 62
    30
100
AcDbLine
 10
-675.8303246398485
 20
-603.4642896564693
 30
0.0
 11
-675.8303246398485
 21
-1051.410885605145
 31
0.0
  0
LINE
  5
943
330
6F
100
AcDbEntity
  8
SIZE
  6
Continuous
 62
    30
100
AcDbLine
 10
-625.8303246398485
 20
-1031.410885605145
 30
0.0
 11
-675.8303246398485
 21
-1031.410885605145
 31
0.0
  0
LINE
  5
944
330
6F
100
AcDbEntity
  8
SIZE
  6
Continuous
 62
    30
100
AcDbLine
 10
-675.8303246398485
 20
-1031.410885605145
 30
0.0
 11
-804.1160389255631
 21
-1031.410885605145
 31
0.0
  0
CIRCLE
  5
945
330
6F
100
AcDbEntity
  8
SIZE
  6
Continuous
 62
    30
100
AcDbCircle
 10
-625.8303246398485
 20
-1031.410885605145
 30
0.0
 40
7.5
  0
CIRCLE
  5
946
330
6F
100
AcDbEntity
  8
SIZE
  6
Continuous
 62
    30
100
AcDbCircle
 10
-675.8303246398485
 20
-1031.410885605145
 30
0.0
 40
7.5
  0
TEXT
  5
947
330
6F
100
AcDbEntity
  8
SIZE
  6
Continuous
 62
    30
100
AcDbText
 10
-784.1160389255634
 20
-1011.410885605146
 30
0.0
 40
40.0
  1
50
 41
0.9
 72
     1
 11
-754.9731817827063
 21
-1011.410885605146
 31
0.0
100
AcDbText
  0
POINT
  5
948
330
6F
100
AcDbEntity
  8
DEFPOINTS
  6
Continuous
 62
    30
100
AcDbPoint
 10
-625.8303246398485
 20
-532.7000000000008
 30
0.0
 50
270.0
  0
POINT
  5
949
330
6F
100
AcDbEntity
  8
DEFPOINTS
  6
Continuous
 62
    30
100
AcDbPoint
 10
-675.8303246398485
 20
-583.4642896564693
 30
0.0
 50
270.0
  0
POINT
  5
94A
330
6F
100
AcDbEntity
  8
DEFPOINTS
  6
Continuous
 62
    30
100
AcDbPoint
 10
-675.8303246398485
 20
-1031.410885605145
 30
0.0
 50
270.0
  0
LINE
  5
94B
330
6F
100
AcDbEntity
  8
SIZE
  6
Continuous
 62
    30
100
AcDbLine
 10
-645.0303246398484
 20
-533.4999999999999
 30
0.0
 11
-947.4477696231804
 21
-533.4999999999996
 31
0.0
  0
LINE
  5
94C
330
6F
100
AcDbEntity
  8
SIZE
  6
Continuous
 62
    30
100
AcDbLine
 10
-695.8303246398485
 20
-583.4999999999999
 30
0.0
 11
-947.4477696231804
 21
-583.4999999999996
 31
0.0
  0
LINE
  5
94D
330
6F
100
AcDbEntity
  8
SIZE
  6
Continuous
 62
    30
100
AcDbLine
 10
-927.4477696231793
 20
-533.4999999999999
 30
0.0
 11
-927.4477696231793
 21
-583.4999999999999
 31
0.0
  0
LINE
  5
94E
330
6F
100
AcDbEntity
  8
SIZE
  6
Continuous
 62
    30
100
AcDbLine
 10
-927.4477696231793
 20
-583.4999999999999
 30
0.0
 11
-927.4477696231793
 21
-711.7857142857141
 31
0.0
  0
CIRCLE
  5
94F
330
6F
100
AcDbEntity
  8
SIZE
  6
Continuous
 62
    30
100
AcDbCircle
 10
-927.4477696231793
 20
-533.4999999999999
 30
0.0
 40
7.5
  0
CIRCLE
  5
950
330
6F
100
AcDbEntity
  8
SIZE
  6
Continuous
 62
    30
100
AcDbCircle
 10
-927.4477696231793
 20
-583.4999999999999
 30
0.0
 40
7.5
  0
TEXT
  5
951
330
6F
100
AcDbEntity
  8
SIZE
  6
Continuous
 62
    30
100
AcDbText
 10
-947.3792767784976
 20
-691.785714285714
 30
0.0
 40
40.0
  1
50
 50
90.0
 41
0.9
 72
     1
 11
-947.3792767784976
 21
-662.642857142857
 31
0.0
100
AcDbText
  0
POINT
  5
952
330
6F
100
AcDbEntity
  8
DEFPOINTS
  6
Continuous
 62
    30
100
AcDbPoint
 10
-625.0303246398487
 20
-533.4999999999999
 30
0.0
 50
270.0
  0
POINT
  5
953
330
6F
100
AcDbEntity
  8
DEFPOINTS
  6
Continuous
 62
    30
100
AcDbPoint
 10
-675.8303246398485
 20
-583.4999999999999
 30
0.0
 50
270.0
  0
POINT
  5
954
330
6F
100
AcDbEntity
  8
DEFPOINTS
  6
Continuous
 62
    30
100
AcDbPoint
 10
-927.4477696231793
 20
-583.4999999999999
 30
0.0
 50
270.0
  0
LINE
  5
955
330
6F
100
AcDbEntity
  8
SIZE
  6
Continuous
 62
    30
100
AcDbLine
 10
-625.8303246398485
 20
-552.7000000000002
 30
0.0
 11
-625.8303246398485
 21
-1151.410885605145
 31
0.0
  0
LINE
  5
956
330
6F
100
AcDbEntity
  8
SIZE
  6
Continuous
 62
    30
100
AcDbLine
 10
-1425.830324639849
 20
-553.4999999999996
 30
0.0
 11
-1425.830324639849
 21
-1151.410885605145
 31
0.0
  0
LINE
  5
957
330
6F
100
AcDbEntity
  8
SIZE
  6
Continuous
 62
    30
100
AcDbLine
 10
-625.8303246398485
 20
-1131.410885605145
 30
0.0
 11
-1425.830324639849
 21
-1131.410885605145
 31
0.0
  0
CIRCLE
  5
958
330
6F
100
AcDbEntity
  8
SIZE
  6
Continuous
 62
    30
100
AcDbCircle
 10
-625.8303246398485
 20
-1131.410885605145
 30
0.0
 40
7.5
  0
CIRCLE
  5
959
330
6F
100
AcDbEntity
  8
SIZE
  6
Continuous
 62
    30
100
AcDbCircle
 10
-1425.830324639849
 20
-1131.410885605145
 30
0.0
 40
7.5
  0
TEXT
  5
95A
330
6F
100
AcDbEntity
  8
SIZE
  6
Continuous
 62
    30
100
AcDbText
 10
-1072.116038925563
 20
-1111.410885605146
 30
0.0
 40
40.0
  1
800
 41
0.9
 72
     1
 11
-1025.830324639849
 21
-1111.410885605146
 31
0.0
100
AcDbText
  0
POINT
  5
95B
330
6F
100
AcDbEntity
  8
DEFPOINTS
  6
Continuous
 62
    30
100
AcDbPoint
 10
-625.8303246398485
 20
-532.7000000000008
 30
0.0
 50
270.0
  0
POINT
  5
95C
330
6F
100
AcDbEntity
  8
DEFPOINTS
  6
Continuous
 62
    30
100
AcDbPoint
 10
-1425.830324639849
 20
-533.4999999999996
 30
0.0
 50
270.0
  0
POINT
  5
95D
330
6F
100
AcDbEntity
  8
DEFPOINTS
  6
Continuous
 62
    30
100
AcDbPoint
 10
-1425.830324639849
 20
-1131.410885605145
 30
0.0
 50
270.0
  0
LINE
  5
95E
330
6F
100
AcDbEntity
  8
SIZE
  6
Continuous
 62
    30
100
AcDbLine
 10
-975.8303246398496
 20
302.2000000000443
 30
0.0
 11
-975.8303246398496
 21
730.4857142857579
 31
0.0
  0
LINE
  5
95F
330
6F
100
AcDbEntity
  8
SIZE
  6
Continuous
 62
    30
100
AcDbLine
 10
-1425.830324639849
 20
552.2000000000406
 30
0.0
 11
-1425.830324639849
 21
730.4857142857579
 31
0.0
  0
LINE
  5
960
330
6F
100
AcDbEntity
  8
SIZE
  6
Continuous
 62
    30
100
AcDbLine
 10
-975.8303246398496
 20
710.4857142857579
 30
0.0
 11
-1425.830324639849
 21
710.4857142857579
 31
0.0
  0
CIRCLE
  5
961
330
6F
100
AcDbEntity
  8
SIZE
  6
Continuous
 62
    30
100
AcDbCircle
 10
-975.8303246398496
 20
710.4857142857579
 30
0.0
 40
7.5
  0
CIRCLE
  5
962
330
6F
100
AcDbEntity
  8
SIZE
  6
Continuous
 62
    30
100
AcDbCircle
 10
-1425.830324639849
 20
710.4857142857579
 30
0.0
 40
7.5
  0
TEXT
  5
963
330
6F
100
AcDbEntity
  8
SIZE
  6
Continuous
 62
    30
100
AcDbText
 10
-1258.45439768271
 20
730.4857142857579
 30
0.0
 40
40.0
  1
450
 41
0.9
 72
     1
 11
-1212.168683396996
 21
730.4857142857579
 31
0.0
100
AcDbText
  0
POINT
  5
964
330
6F
100
AcDbEntity
  8
DEFPOINTS
  6
Continuous
 62
    30
100
AcDbPoint
 10
-975.8303246398496
 20
282.2000000000443
 30
0.0
 50
270.0
  0
POINT
  5
965
330
6F
100
AcDbEntity
  8
DEFPOINTS
  6
Continuous
 62
    30
100
AcDbPoint
 10
-1425.830324639849
 20
532.2000000000406
 30
0.0
 50
270.0
  0
POINT
  5
966
330
6F
100
AcDbEntity
  8
DEFPOINTS
  6
Continuous
 62
    30
100
AcDbPoint
 10
-1425.830324639849
 20
710.4857142857579
 30
0.0
 50
270.0
  0
LINE
  5
967
330
6F
100
AcDbEntity
  8
SIZE
  6
Continuous
 62
    30
100
AcDbLine
 10
-1445.830324639849
 20
532.2000000000406
 30
0.0
 11
-1640.00970218696
 21
532.2000000000406
 31
0.0
  0
LINE
  5
968
330
6F
100
AcDbEntity
  8
SIZE
  6
Continuous
 62
    30
100
AcDbLine
 10
-1445.830324639848
 20
282.2000000000406
 30
0.0
 11
-1640.00970218696
 21
282.2000000000406
 31
0.0
  0
LINE
  5
969
330
6F
100
AcDbEntity
  8
SIZE
  6
Continuous
 62
    30
100
AcDbLine
 10
-1620.00970218696
 20
282.2000000000406
 30
0.0
 11
-1620.00970218696
 21
532.2000000000406
 31
0.0
  0
LINE
  5
96A
330
6F
100
AcDbEntity
  8
SIZE
  6
Continuous
 62
    30
100
AcDbLine
 10
-1620.00970218696
 20
532.2000000000406
 30
0.0
 11
-1620.00970218696
 21
905.0551357764415
 31
0.0
  0
CIRCLE
  5
96B
330
6F
100
AcDbEntity
  8
SIZE
  6
Continuous
 62
    30
100
AcDbCircle
 10
-1620.00970218696
 20
282.2000000000406
 30
0.0
 40
7.5
  0
CIRCLE
  5
96C
330
6F
100
AcDbEntity
  8
SIZE
  6
Continuous
 62
    30
100
AcDbCircle
 10
-1620.00970218696
 20
532.2000000000406
 30
0.0
 40
7.5
  0
TEXT
  5
96D
330
6F
100
AcDbEntity
  8
SIZE
  6
Continuous
 62
    30
100
AcDbText
 10
-1643.814994487417
 20
645.0551357764413
 30
0.0
 40
40.0
  1
200~300
 50
90.0
 41
0.9
 72
     1
 11
-1643.814994487417
 21
765.0551357764413
 31
0.0
100
AcDbText
  0
POINT
  5
96E
330
6F
100
AcDbEntity
  8
DEFPOINTS
  6
Continuous
 62
    30
100
AcDbPoint
 10
-1425.830324639849
 20
532.2000000000406
 30
0.0
 50
270.0
  0
POINT
  5
96F
330
6F
100
AcDbEntity
  8
DEFPOINTS
  6
Continuous
 62
    30
100
AcDbPoint
 10
-1425.830324639848
 20
282.2000000000406
 30
0.0
 50
270.0
  0
POINT
  5
970
330
6F
100
AcDbEntity
  8
DEFPOINTS
  6
Continuous
 62
    30
100
AcDbPoint
 10
-1620.00970218696
 20
282.2000000000406
 30
0.0
 50
270.0
  0
LINE
  5
971
330
6F
100
AcDbEntity
  8
SIZE
  6
Continuous
 62
    30
100
AcDbLine
 10
-1445.830324639848
 20
282.2000000000406
 30
0.0
 11
-1640.00970218696
 21
282.2000000000406
 31
0.0
  0
LINE
  5
972
330
6F
100
AcDbEntity
  8
SIZE
  6
Continuous
 62
    30
100
AcDbLine
 10
-1445.830324639844
 20
-167.7999999999589
 30
0.0
 11
-1640.00970218696
 21
-167.7999999999589
 31
0.0
  0
LINE
  5
973
330
6F
100
AcDbEntity
  8
SIZE
  6
Continuous
 62
    30
100
AcDbLine
 10
-1620.00970218696
 20
282.2000000000406
 30
0.0
 11
-1620.00970218696
 21
-167.7999999999589
 31
0.0
  0
CIRCLE
  5
974
330
6F
100
AcDbEntity
  8
SIZE
  6
Continuous
 62
    30
100
AcDbCircle
 10
-1620.00970218696
 20
282.2000000000406
 30
0.0
 40
7.5
  0
CIRCLE
  5
975
330
6F
100
AcDbEntity
  8
SIZE
  6
Continuous
 62
    30
100
AcDbCircle
 10
-1620.00970218696
 20
-167.7999999999589
 30
0.0
 40
7.5
  0
TEXT
  5
976
330
6F
100
AcDbEntity
  8
SIZE
  6
Continuous
 62
    30
100
AcDbText
 10
-1643.814994487417
 20
10.91428571432682
 30
0.0
 40
40.0
  1
450
 50
90.0
 41
0.9
 72
     1
 11
-1643.814994487417
 21
57.20000000004109
 31
0.0
100
AcDbText
  0
POINT
  5
977
330
6F
100
AcDbEntity
  8
DEFPOINTS
  6
Continuous
 62
    30
100
AcDbPoint
 10
-1425.830324639848
 20
282.2000000000406
 30
0.0
 50
270.0
  0
POINT
  5
978
330
6F
100
AcDbEntity
  8
DEFPOINTS
  6
Continuous
 62
    30
100
AcDbPoint
 10
-1425.830324639844
 20
-167.7999999999589
 30
0.0
 50
270.0
  0
POINT
  5
979
330
6F
100
AcDbEntity
  8
DEFPOINTS
  6
Continuous
 62
    30
100
AcDbPoint
 10
-1620.00970218696
 20
-167.7999999999589
 30
0.0
 50
270.0
  0
TEXT
  5
97A
330
6F
100
AcDbEntity
  8
NOTE
  6
Continuous
 62
     4
100
AcDbText
 10
-1391.932042818479
 20
-217.6522596239443
 30
0.0
 40
50.0
  1
サービススペース
 50
270.0
 41
0.6
100
AcDbText
  0
LINE
  5
97B
330
6F
100
AcDbEntity
  8
SIZE
  6
Continuous
 62
    30
100
AcDbLine
 10
674.1696753601512
 20
-603.5000000000001
 30
0.0
 11
674.1696753601503
 21
-1351.410885605146
 31
0.0
  0
LINE
  5
97C
330
6F
100
AcDbEntity
  8
SIZE
  6
Continuous
 62
    30
100
AcDbLine
 10
-675.8303246398485
 20
-603.5000000000001
 30
0.0
 11
-675.8303246398496
 21
-1351.410885605145
 31
0.0
  0
LINE
  5
97D
330
6F
100
AcDbEntity
  8
SIZE
  6
Continuous
 62
    30
100
AcDbLine
 10
674.1696753601503
 20
-1331.410885605146
 30
0.0
 11
-675.8303246398496
 21
-1331.410885605145
 31
0.0
  0
CIRCLE
  5
97E
330
6F
100
AcDbEntity
  8
SIZE
  6
Continuous
 62
    30
100
AcDbCircle
 10
674.1696753601503
 20
-1331.410885605146
 30
0.0
 40
7.5
  0
CIRCLE
  5
97F
330
6F
100
AcDbEntity
  8
SIZE
  6
Continuous
 62
    30
100
AcDbCircle
 10
-675.8303246398496
 20
-1331.410885605145
 30
0.0
 40
7.5
  0
TEXT
  5
980
330
6F
100
AcDbEntity
  8
SIZE
  6
Continuous
 62
    30
100
AcDbText
 10
-60.83032463984954
 20
-1311.410885605146
 30
0.0
 40
40.0
  1
1350
 41
0.9
 72
     1
 11
-0.8303246398495501
 21
-1311.410885605146
 31
0.0
100
AcDbText
  0
POINT
  5
981
330
6F
100
AcDbEntity
  8
DEFPOINTS
  6
Continuous
 62
    30
100
AcDbPoint
 10
674.1696753601512
 20
-583.4999999999999
 30
0.0
 50
270.0
  0
POINT
  5
982
330
6F
100
AcDbEntity
  8
DEFPOINTS
  6
Continuous
 62
    30
100
AcDbPoint
 10
-675.8303246398485
 20
-583.4999999999999
 30
0.0
 50
270.0
  0
POINT
  5
983
330
6F
100
AcDbEntity
  8
DEFPOINTS
  6
Continuous
 62
    30
100
AcDbPoint
 10
-675.8303246398496
 20
-1331.410885605145
 30
0.0
 50
270.0
  0
LINE
  5
984
330
6F
100
AcDbEntity
  8
SIZE
  6
Continuous
 62
    30
100
AcDbLine
 10
694.1696753601512
 20
146.4999999999999
 30
0.0
 11
1124.849676481769
 21
146.4999999999999
 31
0.0
  0
LINE
  5
985
330
6F
100
AcDbEntity
  8
SIZE
  6
Continuous
 62
    30
100
AcDbLine
 10
694.1696753601512
 20
-583.4999999999999
 30
0.0
 11
1124.849676481769
 21
-583.4999999999999
 31
0.0
  0
LINE
  5
986
330
6F
100
AcDbEntity
  8
SIZE
  6
Continuous
 62
    30
100
AcDbLine
 10
1104.849676481769
 20
146.4999999999999
 30
0.0
 11
1104.849676481769
 21
-583.4999999999999
 31
0.0
  0
CIRCLE
  5
987
330
6F
100
AcDbEntity
  8
SIZE
  6
Continuous
 62
    30
100
AcDbCircle
 10
1104.849676481769
 20
146.4999999999999
 30
0.0
 40
7.5
  0
CIRCLE
  5
988
330
6F
100
AcDbEntity
  8
SIZE
  6
Continuous
 62
    30
100
AcDbCircle
 10
1104.849676481769
 20
-583.4999999999999
 30
0.0
 40
7.5
  0
TEXT
  5
989
330
6F
100
AcDbEntity
  8
SIZE
  6
Continuous
 62
    30
100
AcDbText
 10
1089.909602346402
 20
-264.7857142857144
 30
0.0
 40
40.0
  1
730
 50
90.0
 41
0.9
 72
     1
 11
1089.909602346402
 21
-218.5000000000001
 31
0.0
100
AcDbText
  0
POINT
  5
98A
330
6F
100
AcDbEntity
  8
DEFPOINTS
  6
Continuous
 62
    30
100
AcDbPoint
 10
674.1696753601512
 20
146.4999999999999
 30
0.0
 50
270.0
  0
POINT
  5
98B
330
6F
100
AcDbEntity
  8
DEFPOINTS
  6
Continuous
 62
    30
100
AcDbPoint
 10
674.1696753601512
 20
-583.4999999999999
 30
0.0
 50
270.0
  0
POINT
  5
98C
330
6F
100
AcDbEntity
  8
DEFPOINTS
  6
Continuous
 62
    30
100
AcDbPoint
 10
1104.849676481769
 20
-583.4999999999999
 30
0.0
 50
270.0
  0
LINE
  5
98D
330
6F
100
AcDbEntity
  8
SERVICESPACE
  6
DASHDOT
 62
     2
100
AcDbLine
 10
674.1696753601522
 20
583.4999999999999
 30
0.0
 11
-675.8303246398485
 21
583.4999999999999
 31
0.0
  0
LINE
  5
98E
330
6F
100
AcDbEntity
  8
SERVICESPACE
  6
DASHDOT
 62
     2
100
AcDbLine
 10
674.1696753601522
 20
33.49999999999989
 30
0.0
 11
-675.8303246398485
 21
33.50000000000034
 31
0.0
  0
LINE
  5
98F
330
6F
100
AcDbEntity
  8
SERVICESPACE
  6
DASHDOT
 62
     2
100
AcDbLine
 10
674.1696753601522
 20
33.49999999999989
 30
0.0
 11
-675.8303246398485
 21
583.4999999999999
 31
0.0
  0
LINE
  5
990
330
6F
100
AcDbEntity
  8
SERVICESPACE
  6
DASHDOT
 62
     2
100
AcDbLine
 10
674.1696753601522
 20
583.4999999999999
 30
0.0
 11
-675.8303246398485
 21
33.50000000000034
 31
0.0
  0
LINE
  5
991
330
6F
100
AcDbEntity
  8
SIZE
  6
Continuous
 62
    30
100
AcDbLine
 10
694.1696753601522
 20
33.49999999999989
 30
0.0
 11
1024.849676481769
 21
33.49999999999989
 31
0.0
  0
LINE
  5
992
330
6F
100
AcDbEntity
  8
SIZE
  6
Continuous
 62
    30
100
AcDbLine
 10
694.1696753601522
 20
583.4999999999999
 30
0.0
 11
1024.849676481769
 21
583.4999999999999
 31
0.0
  0
LINE
  5
993
330
6F
100
AcDbEntity
  8
SIZE
  6
Continuous
 62
    30
100
AcDbLine
 10
1004.849676481769
 20
33.49999999999989
 30
0.0
 11
1004.849676481769
 21
583.4999999999999
 31
0.0
  0
CIRCLE
  5
994
330
6F
100
AcDbEntity
  8
SIZE
  6
Continuous
 62
    30
100
AcDbCircle
 10
1004.849676481769
 20
33.49999999999989
 30
0.0
 40
7.5
  0
CIRCLE
  5
995
330
6F
100
AcDbEntity
  8
SIZE
  6
Continuous
 62
    30
100
AcDbCircle
 10
1004.849676481769
 20
583.4999999999999
 30
0.0
 40
7.5
  0
TEXT
  5
996
330
6F
100
AcDbEntity
  8
SIZE
  6
Continuous
 62
    30
100
AcDbText
 10
989.9096023464023
 20
262.2142857142856
 30
0.0
 40
40.0
  1
550
 50
90.0
 41
0.9
 72
     1
 11
989.9096023464023
 21
308.4999999999999
 31
0.0
100
AcDbText
  0
POINT
  5
997
330
6F
100
AcDbEntity
  8
DEFPOINTS
  6
Continuous
 62
    30
100
AcDbPoint
 10
674.1696753601522
 20
33.49999999999989
 30
0.0
 50
270.0
  0
POINT
  5
998
330
6F
100
AcDbEntity
  8
DEFPOINTS
  6
Continuous
 62
    30
100
AcDbPoint
 10
674.1696753601522
 20
583.4999999999999
 30
0.0
 50
270.0
  0
POINT
  5
999
330
6F
100
AcDbEntity
  8
DEFPOINTS
  6
Continuous
 62
    30
100
AcDbPoint
 10
1004.849676481769
 20
583.4999999999999
 30
0.0
 50
270.0
  0
TEXT
  5
99A
330
6F
100
AcDbEntity
  8
NOTE
  6
Continuous
 62
     4
100
AcDbText
 10
-455.6031084320006
 20
462.1518780082914
 30
0.0
 40
50.0
  1
サービススペース
 50
270.0
 41
0.6
100
AcDbText
  0
LINE
  5
99B
330
6F
100
AcDbEntity
  8
SIZE
  6
Continuous
 62
    30
100
AcDbLine
 10
636.8696753601494
 20
533.4999999999999
 30
0.0
 11
924.8496764817694
 21
533.4999999999999
 31
0.0
  0
LINE
  5
99C
330
6F
100
AcDbEntity
  8
SIZE
  6
Continuous
 62
    30
100
AcDbLine
 10
694.1696753601522
 20
583.4999999999999
 30
0.0
 11
924.8496764817694
 21
583.4999999999999
 31
0.0
  0
LINE
  5
99D
330
6F
100
AcDbEntity
  8
SIZE
  6
Continuous
 62
    30
100
AcDbLine
 10
904.84967648177
 20
533.4999999999999
 30
0.0
 11
904.84967648177
 21
583.4999999999999
 31
0.0
  0
LINE
  5
99E
330
6F
100
AcDbEntity
  8
SIZE
  6
Continuous
 62
    30
100
AcDbLine
 10
904.84967648177
 20
583.4999999999999
 30
0.0
 11
904.84967648177
 21
711.7857142857135
 31
0.0
  0
CIRCLE
  5
99F
330
6F
100
AcDbEntity
  8
SIZE
  6
Continuous
 62
    30
100
AcDbCircle
 10
904.84967648177
 20
533.4999999999999
 30
0.0
 40
7.5
  0
CIRCLE
  5
9A0
330
6F
100
AcDbEntity
  8
SIZE
  6
Continuous
 62
    30
100
AcDbCircle
 10
904.84967648177
 20
583.4999999999999
 30
0.0
 40
7.5
  0
TEXT
  5
9A1
330
6F
100
AcDbEntity
  8
SIZE
  6
Continuous
 62
    30
100
AcDbText
 10
889.909602346402
 20
633.4999999999998
 30
0.0
 40
40.0
  1
50
 50
90.0
 41
0.9
 72
     1
 11
889.909602346402
 21
662.6428571428569
 31
0.0
100
AcDbText
  0
POINT
  5
9A2
330
6F
100
AcDbEntity
  8
DEFPOINTS
  6
Continuous
 62
    30
100
AcDbPoint
 10
616.8696753601492
 20
533.4999999999999
 30
0.0
 50
270.0
  0
POINT
  5
9A3
330
6F
100
AcDbEntity
  8
DEFPOINTS
  6
Continuous
 62
    30
100
AcDbPoint
 10
674.1696753601522
 20
583.4999999999999
 30
0.0
 50
270.0
  0
POINT
  5
9A4
330
6F
100
AcDbEntity
  8
DEFPOINTS
  6
Continuous
 62
    30
100
AcDbPoint
 10
904.84967648177
 20
583.4999999999999
 30
0.0
 50
270.0
  0
LINE
  5
A07
330
6F
100
AcDbEntity
  8
NOTE
100
AcDbLine
 10
-748.8049637691837
 20
-303.7679106159737
 30
0.0
 11
-1541.111056676348
 21
-969.0603981191763
 31
0.0
1001
ACAD
1000
DSTYLE
1002
{
1070
   147
1040
20.0
1070
    77
1070
     0
1070
   345
1005
5B
1070
   346
1005
5B
1070
   347
1005
5B
1002
}
  0
LINE
  5
A08
330
6F
100
AcDbEntity
  8
NOTE
100
AcDbLine
 10
-1541.111056676348
 20
-969.0603981191763
 30
0.0
 11
-1958.144345207553
 21
-969.060398119176
 31
0.0
1001
ACAD
1000
DSTYLE
1002
{
1070
   147
1040
20.0
1070
    77
1070
     0
1070
   345
1005
5B
1070
   346
1005
5B
1070
   347
1005
5B
1002
}
  0
LINE
  5
A09
330
6F
100
AcDbEntity
  8
NOTE
100
AcDbLine
 10
-753.9741332402215
 20
-297.6118746707261
 30
0.0
 11
-725.8303246398485
 21
-284.4763073420926
 31
0.0
  0
LINE
  5
A0A
330
6F
100
AcDbEntity
  8
NOTE
100
AcDbLine
 10
-725.8303246398485
 20
-284.4763073420926
 30
0.0
 11
-743.6357942981459
 21
-309.9239465612214
 31
0.0
  0
LINE
  5
A0B
330
6F
100
AcDbEntity
  8
NOTE
100
AcDbLine
 10
-725.8303246398485
 20
-284.4763073420926
 30
0.0
 11
-748.8049637691837
 21
-303.7679106159737
 31
0.0
  0
LINE
  5
A0C
330
6F
100
AcDbEntity
  8
NOTE
100
AcDbLine
 10
-749.4090260240178
 20
-208.0247531270138
 30
0.0
 11
-1535.608183127718
 21
-826.4970007750452
 31
0.0
1001
ACAD
1000
DSTYLE
1002
{
1070
   147
1040
20.0
1070
    77
1070
     0
1070
   345
1005
5B
1070
   346
1005
5B
1070
   347
1005
5B
1002
}
  0
LINE
  5
A0D
330
6F
100
AcDbEntity
  8
NOTE
100
AcDbLine
 10
-1535.608183127718
 20
-826.4970007750452
 30
0.0
 11
-1927.133308111368
 21
-826.4970007750452
 31
0.0
1001
ACAD
1000
DSTYLE
1002
{
1070
   147
1040
20.0
1070
    77
1070
     0
1070
   345
1005
5B
1070
   346
1005
5B
1070
   347
1005
5B
1002
}
  0
LINE
  5
A0E
330
6F
100
AcDbEntity
  8
NOTE
100
AcDbLine
 10
-754.3790670478464
 20
-201.7068591898738
 30
0.0
 11
-725.8303246398485
 21
-189.4763073420923
 31
0.0
  0
LINE
  5
A0F
330
6F
100
AcDbEntity
  8
NOTE
100
AcDbLine
 10
-725.8303246398485
 20
-189.4763073420923
 30
0.0
 11
-744.4389850001892
 21
-214.3426470641539
 31
0.0
  0
LINE
  5
A10
330
6F
100
AcDbEntity
  8
NOTE
100
AcDbLine
 10
-725.8303246398485
 20
-189.4763073420923
 30
0.0
 11
-749.4090260240178
 21
-208.0247531270138
 31
0.0
  0
LINE
  5
A11
330
6F
100
AcDbEntity
  8
NOTE
100
AcDbLine
 10
-659.8838176058563
 20
-81.81201465511653
 30
0.0
 11
-778.72259042043
 21
789.6511154607649
 31
0.0
1001
ACAD
1000
DSTYLE
1002
{
1070
   147
1040
20.0
1070
    77
1070
     0
1070
   345
1005
5B
1070
   346
1005
5B
1070
   347
1005
5B
1002
}
  0
LINE
  5
A12
330
6F
100
AcDbEntity
  8
NOTE
100
AcDbLine
 10
-778.72259042043
 20
789.6511154607649
 30
0.0
 11
-1165.606616440228
 21
789.651115460765
 31
0.0
1001
ACAD
1000
DSTYLE
1002
{
1070
   147
1040
20.0
1070
    77
1070
     0
1070
   345
1005
5B
1070
   346
1005
5B
1070
   347
1005
5B
1002
}
  0
LINE
  5
A13
330
6F
100
AcDbEntity
  8
NOTE
100
AcDbLine
 10
-651.9190569150548
 20
-80.72588449820361
 30
0.0
 11
-655.8303246398468
 21
-111.5369064930108
 31
0.0
  0
LINE
  5
A14
330
6F
100
AcDbEntity
  8
NOTE
100
AcDbLine
 10
-655.8303246398468
 20
-111.5369064930108
 30
0.0
 11
-667.8485782966576
 21
-82.89814481202947
 31
0.0
  0
LINE
  5
A15
330
6F
100
AcDbEntity
  8
NOTE
100
AcDbLine
 10
-655.8303246398468
 20
-111.5369064930108
 30
0.0
 11
-659.8838176058563
 21
-81.81201465511653
 31
0.0
  0
LINE
  5
A16
330
6F
100
AcDbEntity
  8
NOTE
100
AcDbLine
 10
546.669476874077
 20
-568.9244798390971
 30
0.0
 11
985.5267342806486
 21
-1016.656733751759
 31
0.0
1001
ACAD
1000
DSTYLE
1002
{
1070
   147
1040
20.0
1070
    77
1070
     0
1070
   345
1005
5B
1070
   346
1005
5B
1070
   347
1005
5B
1002
}
  0
LINE
  5
A17
330
6F
100
AcDbEntity
  8
NOTE
100
AcDbLine
 10
985.5267342806486
 20
-1016.656733751759
 30
0.0
 11
1382.008346899406
 21
-1016.656733751759
 31
0.0
1001
ACAD
1000
DSTYLE
1002
{
1070
   147
1040
20.0
1070
    77
1070
     0
1070
   345
1005
5B
1070
   346
1005
5B
1070
   347
1005
5B
1002
}
  0
LINE
  5
A18
330
6F
100
AcDbEntity
  8
NOTE
100
AcDbLine
 10
540.9288048550201
 20
-574.5513596449138
 30
0.0
 11
525.6696753601529
 21
-547.5000000000019
 31
0.0
  0
LINE
  5
A19
330
6F
100
AcDbEntity
  8
NOTE
100
AcDbLine
 10
525.6696753601529
 20
-547.5000000000019
 30
0.0
 11
552.4101488931338
 21
-563.2976000332804
 31
0.0
  0
LINE
  5
A1A
330
6F
100
AcDbEntity
  8
NOTE
100
AcDbLine
 10
525.6696753601529
 20
-547.5000000000019
 30
0.0
 11
546.669476874077
 21
-568.9244798390971
 31
0.0
  0
LINE
  5
A1B
330
6F
100
AcDbEntity
  8
NOTE
100
AcDbLine
 10
683.32224341884
 20
-523.9736659869081
 30
0.0
 11
1046.175345638586
 21
-888.9040932295156
 31
0.0
1001
ACAD
1000
DSTYLE
1002
{
1070
   147
1040
20.0
1070
    77
1070
     0
1070
   345
1005
5B
1070
   346
1005
5B
1070
   347
1005
5B
1002
}
  0
LINE
  5
A1C
330
6F
100
AcDbEntity
  8
NOTE
100
AcDbLine
 10
1046.175345638586
 20
-888.9040932295156
 30
0.0
 11
1841.017973113741
 21
-888.9040932295156
 31
0.0
1001
ACAD
1000
DSTYLE
1002
{
1070
   147
1040
20.0
1070
    77
1070
     0
1070
   345
1005
5B
1070
   346
1005
5B
1070
   347
1005
5B
1002
}
  0
LINE
  5
A1D
330
6F
100
AcDbEntity
  8
NOTE
100
AcDbLine
 10
677.6219818493177
 20
-529.6414794646539
 30
0.0
 11
662.1696753601503
 21
-502.7000000000008
 31
0.0
  0
LINE
  5
A1E
330
6F
100
AcDbEntity
  8
NOTE
100
AcDbLine
 10
662.1696753601503
 20
-502.7000000000008
 30
0.0
 11
689.0225049883625
 21
-518.3058525091623
 31
0.0
  0
LINE
  5
A1F
330
6F
100
AcDbEntity
  8
NOTE
100
AcDbLine
 10
662.1696753601503
 20
-502.7000000000008
 30
0.0
 11
683.32224341884
 21
-523.9736659869081
 31
0.0
  0
LINE
  5
A20
330
6F
100
AcDbEntity
  8
NOTE
100
AcDbLine
 10
547.2140111888242
 20
569.0757656610704
 30
0.0
 11
760.3407369420761
 21
789.6811295719087
 31
0.0
1001
ACAD
1000
DSTYLE
1002
{
1070
   147
1040
20.0
1070
    77
1070
     0
1070
   345
1005
5B
1070
   346
1005
5B
1070
   347
1005
5B
1002
}
  0
LINE
  5
A21
330
6F
100
AcDbEntity
  8
NOTE
100
AcDbLine
 10
760.3407369420761
 20
789.6811295719087
 30
0.0
 11
1144.163103294691
 21
789.6811295719087
 31
0.0
1001
ACAD
1000
DSTYLE
1002
{
1070
   147
1040
20.0
1070
    77
1070
     0
1070
   345
1005
5B
1070
   346
1005
5B
1070
   347
1005
5B
1002
}
  0
LINE
  5
A22
330
6F
100
AcDbEntity
  8
NOTE
100
AcDbLine
 10
552.9952201213385
 20
563.4905427596897
 30
0.0
 11
526.3696753601521
 21
547.4999999999973
 31
0.0
  0
LINE
  5
A23
330
6F
100
AcDbEntity
  8
NOTE
100
AcDbLine
 10
526.3696753601521
 20
547.4999999999973
 30
0.0
 11
541.4328022563098
 21
574.660988562451
 31
0.0
  0
LINE
  5
A24
330
6F
100
AcDbEntity
  8
NOTE
100
AcDbLine
 10
526.3696753601521
 20
547.4999999999973
 30
0.0
 11
547.2140111888242
 21
569.0757656610704
 31
0.0
  0
ENDSEC
  0
SECTION
  2
OBJECTS
  0
DICTIONARY
  5
C
330
0
100
AcDbDictionary
281
     1
  3
ACAD_2007HEADERVARS_RT
350
A29
  3
ACAD_CIP_PREVIOUS_PRODUCT_INFO
350
363
  3
ACAD_COLOR
350
62
  3
ACAD_DETAILVIEWSTYLE
350
69
  3
ACAD_GROUP
350
D
  3
ACAD_LAYOUT
350
61
  3
ACAD_MATERIAL
350
10
  3
ACAD_MLEADERSTYLE
350
65
  3
ACAD_MLINESTYLE
350
5E
  3
ACAD_PLOTSETTINGS
350
60
  3
ACAD_PLOTSTYLENAME
350
E
  3
ACAD_SCALELIST
350
42
  3
ACAD_SECTIONVIEWSTYLE
350
67
  3
ACAD_TABLESTYLE
350
63
  3
ACAD_VISUALSTYLE
350
29
  3
ACDB_RECOMPOSE_DATA
350
A27
  3
AcDbVariableDictionary
350
3EB
  3
DWGPROPS
350
A28
  0
DICTIONARY
  5
5FD
330
2
100
AcDbDictionary
280
     1
281
     1
  3
ACAD_LAYERSTATES
360
5FE
  0
DICTIONARY
  5
3D5
330
54
100
AcDbDictionary
280
     1
281
     1
  3
ADSK_XREC_LAYER_RECONCILED
360
3D6
  0
DICTIONARY
  5
3D7
330
73
100
AcDbDictionary
280
     1
281
     1
  3
ADSK_XREC_LAYER_RECONCILED
360
3D8
  0
DICTIONARY
  5
3D9
330
76
100
AcDbDictionary
280
     1
281
     1
  3
ADSK_XREC_LAYER_RECONCILED
360
3DA
  0
DICTIONARY
  5
3DB
330
77
100
AcDbDictionary
280
     1
281
     1
  3
ADSK_XREC_LAYER_RECONCILED
360
3DC
  0
DICTIONARY
  5
3DD
330
78
100
AcDbDictionary
280
     1
281
     1
  3
ADSK_XREC_LAYER_RECONCILED
360
3DE
  0
DICTIONARY
  5
3DF
330
79
100
AcDbDictionary
280
     1
281
     1
  3
ADSK_XREC_LAYER_RECONCILED
360
3E0
  0
DICTIONARY
  5
3E1
330
7A
100
AcDbDictionary
280
     1
281
     1
  3
ADSK_XREC_LAYER_RECONCILED
360
3E2
  0
DICTIONARY
  5
3E3
330
7B
100
AcDbDictionary
280
     1
281
     1
  3
ADSK_XREC_LAYER_RECONCILED
360
3E4
  0
DICTIONARY
  5
3E5
330
7C
100
AcDbDictionary
280
     1
281
     1
  3
ADSK_XREC_LAYER_RECONCILED
360
3E6
  0
DICTIONARY
  5
3E7
330
7D
100
AcDbDictionary
280
     1
281
     1
  3
ADSK_XREC_LAYER_RECONCILED
360
3E8
  0
DICTIONARY
  5
3E9
330
7E
100
AcDbDictionary
280
     1
281
     1
  3
ADSK_XREC_LAYER_RECONCILED
360
3EA
  0
DICTIONARY
  5
9FB
330
6F
100
AcDbDictionary
280
     1
281
     1
  3
ACAD_SORTENTS
360
9FC
  0
DICTIONARY
  5
5E8
330
5E7
100
AcDbDictionary
280
     1
281
     1
  0
DICTIONARY
  5
5ED
330
5EC
100
AcDbDictionary
280
     1
281
     1
  0
DICTIONARY
  5
A29
102
{ACAD_REACTORS
330
C
102
}
330
C
100
AcDbDictionary
281
     1
  3
DIMLTEX1
350
A2B
  3
DIMLTEX2
350
A2C
  3
DIMLTYPE
350
A2A
  0
XRECORD
  5
363
102
{ACAD_REACTORS
330
C
102
}
330
C
100
AcDbXrecord
280
     1
300
ACDLT
300
2018
300
86831ACDLT_2018_0F
  0
DICTIONARY
  5
62
102
{ACAD_REACTORS
330
C
102
}
330
C
100
AcDbDictionary
281
     1
  0
DICTIONARY
  5
69
102
{ACAD_REACTORS
330
C
102
}
330
C
100
AcDbDictionary
281
     1
  3
Imperial24
350
6A
  0
DICTIONARY
  5
D
102
{ACAD_REACTORS
330
C
102
}
330
C
100
AcDbDictionary
281
     1
  0
DICTIONARY
  5
61
102
{ACAD_REACTORS
330
C
102
}
330
C
100
AcDbDictionary
281
     1
  3
Model
350
72
  3
レイアウト1
350
6E
  0
DICTIONARY
  5
10
102
{ACAD_REACTORS
330
C
102
}
330
C
100
AcDbDictionary
281
     1
  3
ByBlock
350
19
  3
ByLayer
350
11
  3
Global
350
21
  0
DICTIONARY
  5
65
102
{ACAD_REACTORS
330
C
102
}
330
C
100
AcDbDictionary
281
     1
  3
Standard
350
66
  0
DICTIONARY
  5
5E
102
{ACAD_REACTORS
330
C
102
}
330
C
100
AcDbDictionary
281
     1
  3
Standard
350
5F
  0
DICTIONARY
  5
60
102
{ACAD_REACTORS
330
C
102
}
330
C
100
AcDbDictionary
281
     1
  0
ACDBDICTIONARYWDFLT
  5
E
102
{ACAD_REACTORS
330
C
102
}
330
C
100
AcDbDictionary
281
     1
  3
Normal
350
F
100
AcDbDictionaryWithDefault
340
F
  0
DICTIONARY
  5
42
102
{ACAD_REACTORS
330
C
102
}
330
C
100
AcDbDictionary
281
     1
  3
A0
350
43
  3
A1
350
44
  3
A2
350
45
  3
A3
350
46
  3
A4
350
47
  3
A5
350
48
  3
A6
350
49
  3
A7
350
4A
  3
A8
350
4B
  3
A9
350
4C
  3
B0
350
4D
  3
B1
350
4E
  3
B2
350
4F
  3
B3
350
50
  3
B4
350
51
  3
B5
350
52
  3
B6
350
53
  0
DICTIONARY
  5
67
102
{ACAD_REACTORS
330
C
102
}
330
C
100
AcDbDictionary
281
     1
  3
Imperial24
350
68
  0
DICTIONARY
  5
63
102
{ACAD_REACTORS
330
C
102
}
330
C
100
AcDbDictionary
281
     1
  3
Standard
350
64
  0
DICTIONARY
  5
29
102
{ACAD_REACTORS
330
C
102
}
330
C
100
AcDbDictionary
281
     1
  3
2dWireframe
350
2F
  3
Basic
350
2E
  3
Brighten
350
35
  3
ColorChange
350
39
  3
Conceptual
350
32
  3
Dim
350
34
  3
EdgeColorOff
350
41
  3
Facepattern
350
38
  3
Flat
350
2A
  3
FlatWithEdges
350
2B
  3
Gouraud
350
2C
  3
GouraudWithEdges
350
2D
  3
Hidden
350
31
  3
JitterOff
350
3F
  3
Linepattern
350
37
  3
OverhangOff
350
40
  3
Realistic
350
33
  3
Shaded
350
3E
  3
Shaded with edges
350
3D
  3
Shades of Gray
350
3A
  3
Sketchy
350
3B
  3
Thicken
350
36
  3
Wireframe
350
30
  3
X-Ray
350
3C
  0
XRECORD
  5
A27
102
{ACAD_REACTORS
330
C
102
}
330
C
100
AcDbXrecord
280
     1
 90
        1
330
64
  0
DICTIONARY
  5
3EB
102
{ACAD_REACTORS
330
C
102
}
330
C
100
AcDbDictionary
281
     1
  3
CANNOSCALE
350
4DC
  3
CMLEADERSTYLE
350
3ED
  3
CTABLESTYLE
350
3EC
  3
CVIEWDETAILSTYLE
350
3EE
  3
CVIEWSECTIONSTYLE
350
3EF
  3
DIMASSOC
350
3F3
  3
HIDETEXT
350
4D5
  3
INDEXCTL
350
3F2
  3
MSLTSCALE
350
4D4
  3
SORTENTS
350
3F1
  3
XCLIPFRAME
350
A25
  0
XRECORD
  5
A28
102
{ACAD_REACTORS
330
C
102
}
330
C
100
AcDbXrecord
280
     1
  1
DWGPROPS COOKIE
  2

  3

  4

  6

  7

  8
idobatak
  9

300
=
301
=
302
=
303
=
304
=
305
=
306
=
307
=
308
=
309
=
 40
1.663699525462963
 41
2455902.607164352
 42
2459034.414386574
  1

 90
        0
  0
DICTIONARY
  5
5FE
102
{ACAD_REACTORS
330
5FD
102
}
330
5FD
100
AcDbDictionary
281
     1
  3
_LAYISO_STATE
350
9F5
1001
AcLayerTools
1000
72
1000
0
  0
XRECORD
  5
3D6
102
{ACAD_REACTORS
330
3D5
102
}
330
3D5
100
AcDbXrecord
280
     1
290
     1
  0
XRECORD
  5
3D8
102
{ACAD_REACTORS
330
3D7
102
}
330
3D7
100
AcDbXrecord
280
     1
290
     1
  0
XRECORD
  5
3DA
102
{ACAD_REACTORS
330
3D9
102
}
330
3D9
100
AcDbXrecord
280
     1
290
     1
  0
XRECORD
  5
3DC
102
{ACAD_REACTORS
330
3DB
102
}
330
3DB
100
AcDbXrecord
280
     1
290
     1
  0
XRECORD
  5
3DE
102
{ACAD_REACTORS
330
3DD
102
}
330
3DD
100
AcDbXrecord
280
     1
290
     1
  0
XRECORD
  5
3E0
102
{ACAD_REACTORS
330
3DF
102
}
330
3DF
100
AcDbXrecord
280
     1
290
     1
  0
XRECORD
  5
3E2
102
{ACAD_REACTORS
330
3E1
102
}
330
3E1
100
AcDbXrecord
280
     1
290
     1
  0
XRECORD
  5
3E4
102
{ACAD_REACTORS
330
3E3
102
}
330
3E3
100
AcDbXrecord
280
     1
290
     1
  0
XRECORD
  5
3E6
102
{ACAD_REACTORS
330
3E5
102
}
330
3E5
100
AcDbXrecord
280
     1
290
     1
  0
XRECORD
  5
3E8
102
{ACAD_REACTORS
330
3E7
102
}
330
3E7
100
AcDbXrecord
280
     1
290
     1
  0
XRECORD
  5
3EA
102
{ACAD_REACTORS
330
3E9
102
}
330
3E9
100
AcDbXrecord
280
     1
290
     1
  0
SORTENTSTABLE
  5
9FC
102
{ACAD_REACTORS
330
9FB
102
}
330
9FB
100
AcDbSortentsTable
330
6F
331
938
  5
938
331
838
  5
838
331
909
  5
909
331
7F0
  5
7F0
331
178
  5
178
331
849
  5
849
331
149
  5
149
331
A1A
  5
A13
331
95A
  5
95A
331
892
  5
892
331
85A
  5
85A
331
92B
  5
92B
331
8A3
  5
8A3
331
812
  5
812
331
19A
  5
19A
331
86B
  5
86B
331
7E3
  5
7E3
331
91E
  5
91E
331
2AC
  5
2AC
331
16B
  5
16B
331
81E
  5
81E
331
8F8
  5
8F8
331
82F
  5
82F
331
7DE
  5
7DE
331
15E
  5
15E
331
A0B
  5
A22
331
F9
  5
F9
331
8BC
  5
8BC
331
99C
  5
99C
331
884
  5
884
331
EC
  5
EC
331
C2
  5
C2
331
955
  5
955
331
8CD
  5
8CD
331
80D
  5
80D
331
195
  5
195
331
8DE
  5
8DE
331
10E
  5
10E
331
977
  5
977
331
8EF
  5
8EF
331
98F
  5
98F
331
1B7
  5
1B7
331
DF
  5
DF
331
BD
  5
BD
331
A9
  5
A9
331
928
  5
928
331
8A0
  5
8A0
331
868
  5
868
331
939
  5
939
331
7E0
  5
7E0
331
839
  5
839
331
7F1
  5
7F1
331
179
  5
179
331
168
  5
168
331
94A
  5
94A
331
8C2
  5
8C2
331
88A
  5
88A
331
A1B
  5
A0F
331
802
  5
802
331
18A
  5
18A
331
95B
  5
95B
331
893
  5
893
331
85B
  5
85B
331
90E
  5
90E
331
82C
  5
82C
331
813
  5
813
331
19B
  5
19B
331
84E
  5
84E
331
14E
  5
14E
331
C3
  5
C3
331
B2
  5
B2
331
91F
  5
91F
331
81F
  5
81F
331
7DF
  5
7DF
331
15F
  5
15F
331
A08
  5
A24
331
8F9
  5
8F9
331
118
  5
118
331
974
  5
974
331
8EC
  5
8EC
331
98C
  5
98C
331
1B4
  5
1B4
331
8BD
  5
8BD
331
99D
  5
99D
331
885
  5
885
331
8DF
  5
8DF
331
10F
  5
10F
331
FE
  5
FE
331
ED
  5
ED
331
DC
  5
DC
331
AE
  5
AE
331
A18
  5
A11
331
958
  5
958
331
890
  5
890
331
858
  5
858
331
929
  5
929
331
8A1
  5
8A1
331
810
  5
810
331
198
  5
198
331
869
  5
869
331
7E1
  5
7E1
331
169
  5
169
331
97A
  5
97A
331
8B2
  5
8B2
331
992
  5
992
331
87A
  5
87A
331
1BA
  5
1BA
331
E2
  5
E2
331
C0
  5
C0
331
94B
  5
94B
331
8C3
  5
8C3
331
88B
  5
88B
331
91C
  5
91C
331
803
  5
803
331
18B
  5
18B
331
81C
  5
81C
331
93E
  5
93E
331
82D
  5
82D
331
7DC
  5
7DC
331
83E
  5
83E
331
7F6
  5
7F6
331
17E
  5
17E
331
15C
  5
15C
331
B3
  5
B3
331
90F
  5
90F
331
84F
  5
84F
331
2CF
  5
2CF
331
14F
  5
14F
331
A09
  5
A20
331
8DC
  5
8DC
331
975
  5
975
331
8ED
  5
8ED
331
98D
  5
98D
331
8FE
  5
8FE
331
1B5
  5
1B5
331
FF
  5
FF
331
DD
  5
DD
331
AF
  5
AF
331
9E
  5
9E
331
948
  5
948
331
8C0
  5
8C0
331
888
  5
888
331
A19
  5
A12
331
800
  5
800
331
188
  5
188
331
959
  5
959
331
891
  5
891
331
859
  5
859
331
811
  5
811
331
199
  5
199
331
96A
  5
96A
331
8E2
  5
8E2
331
982
  5
982
331
1AA
  5
1AA
331
97B
  5
97B
331
8B3
  5
8B3
331
993
  5
993
331
90C
  5
90C
331
87B
  5
87B
331
1BB
  5
1BB
331
84C
  5
84C
331
14C
  5
14C
331
E3
  5
E3
331
D2
  5
D2
331
C1
  5
C1
331
B0
  5
B0
331
91D
  5
91D
331
81D
  5
81D
331
92E
  5
92E
331
8A6
  5
8A6
331
7DD
  5
7DD
331
86E
  5
86E
331
93F
  5
93F
331
7E6
  5
7E6
331
83F
  5
83F
331
7F7
  5
7F7
331
17F
  5
17F
331
16E
  5
16E
331
15D
  5
15D
331
AC
  5
AC
331
A0E
  5
A1B
331
8FF
  5
8FF
331
8DD
  5
8DD
331
10D
  5
10D
331
FC
  5
FC
331
9F
  5
9F
331
978
  5
978
331
8B0
  5
8B0
331
990
  5
990
331
878
  5
878
331
1B8
  5
1B8
331
E0
  5
E0
331
949
  5
949
331
8C1
  5
8C1
331
889
  5
889
331
801
  5
801
331
189
  5
189
331
8D2
  5
8D2
331
102
  5
102
331
96B
  5
96B
331
8E3
  5
8E3
331
983
  5
983
331
93C
  5
93C
331
1AB
  5
1AB
331
83C
  5
83C
331
7F4
  5
7F4
331
17C
  5
17C
331
D3
  5
D3
331
B1
  5
B1
331
90D
  5
90D
331
84D
  5
84D
331
14D
  5
14D
331
A1E
  5
A0D
331
95E
  5
95E
331
896
  5
896
331
85E
  5
85E
331
92F
  5
92F
331
8A7
  5
8A7
331
816
  5
816
331
19E
  5
19E
331
86F
  5
86F
331
832
  5
832
331
7E7
  5
7E7
331
8FC
  5
8FC
331
2C3
  5
2C3
331
2A2
  5
2A2
331
16F
  5
16F
331
A0F
  5
A1C
331
FD
  5
FD
331
C6
  5
C6
331
AD
  5
AD
331
9C
  5
9C
331
968
  5
968
331
8E0
  5
8E0
331
980
  5
980
331
1A8
  5
1A8
331
979
  5
979
331
8B1
  5
8B1
331
991
  5
991
331
879
  5
879
331
1B9
  5
1B9
331
9A2
  5
9A2
331
902
  5
902
331
8D3
  5
8D3
331
92C
  5
92C
331
8A4
  5
8A4
331
86C
  5
86C
331
93D
  5
93D
331
7E4
  5
7E4
331
83D
  5
83D
331
7F5
  5
7F5
331
17D
  5
17D
331
16C
  5
16C
331
103
  5
103
331
F2
  5
F2
331
E1
  5
E1
331
D0
  5
D0
331
94E
  5
94E
331
8C6
  5
8C6
331
88E
  5
88E
331
A1F
  5
A0E
331
806
  5
806
331
18E
  5
18E
331
95F
  5
95F
331
897
  5
897
331
85F
  5
85F
331
922
  5
922
331
817
  5
817
331
19F
  5
19F
331
833
  5
833
331
822
  5
822
331
A0C
  5
A1E
331
8FD
  5
8FD
331
2A3
  5
2A3
331
162
  5
162
331
C7
  5
C7
331
B6
  5
B6
331
9D
  5
9D
331
8D0
  5
8D0
331
100
  5
100
331
969
  5
969
331
8E1
  5
8E1
331
981
  5
981
331
A12
  5
A1A
331
8F2
  5
8F2
331
1A9
  5
1A9
331
A1C
  5
A10
331
9A3
  5
9A3
331
903
  5
903
331
F3
  5
F3
331
D1
  5
D1
331
95C
  5
95C
331
894
  5
894
331
85C
  5
85C
331
92D
  5
92D
331
8A5
  5
8A5
331
814
  5
814
331
19C
  5
19C
331
86D
  5
86D
331
7E5
  5
7E5
331
16D
  5
16D
331
97E
  5
97E
331
8B6
  5
8B6
331
996
  5
996
331
87E
  5
87E
331
1BE
  5
1BE
331
E6
  5
E6
331
C4
  5
C4
331
94F
  5
94F
331
8C7
  5
8C7
331
88F
  5
88F
331
912
  5
912
331
830
  5
830
331
807
  5
807
331
18F
  5
18F
331
852
  5
852
331
923
  5
923
331
2D2
  5
2D2
331
A0D
  5
A1F
331
823
  5
823
331
163
  5
163
331
152
  5
152
331
B7
  5
B7
331
9A0
  5
9A0
331
900
  5
900
331
8D1
  5
8D1
331
A13
  5
A16
331
8F3
  5
8F3
331
112
  5
112
331
101
  5
101
331
F0
  5
F0
331
94C
  5
94C
331
8C4
  5
8C4
331
88C
  5
88C
331
A1D
  5
A0C
331
804
  5
804
331
18C
  5
18C
331
95D
  5
95D
331
895
  5
895
331
85D
  5
85D
331
815
  5
815
331
19D
  5
19D
331
96E
  5
96E
331
8E6
  5
8E6
331
986
  5
986
331
1AE
  5
1AE
331
97F
  5
97F
331
8B7
  5
8B7
331
997
  5
997
331
920
  5
920
331
87F
  5
87F
331
1BF
  5
1BF
331
942
  5
942
331
831
  5
831
331
820
  5
820
331
842
  5
842
331
7FA
  5
7FA
331
182
  5
182
331
160
  5
160
331
E7
  5
E7
331
D6
  5
D6
331
C5
  5
C5
331
B4
  5
B4
331
913
  5
913
331
853
  5
853
331
2D3
  5
2D3
331
153
  5
153
331
A2
  5
A2
331
A10
  5
A1D
331
8F0
  5
8F0
331
9A1
  5
9A1
331
901
  5
901
331
113
  5
113
331
F1
  5
F1
331
97C
  5
97C
331
8B4
  5
8B4
331
994
  5
994
331
87C
  5
87C
331
1BC
  5
1BC
331
E4
  5
E4
331
94D
  5
94D
331
8C5
  5
8C5
331
88D
  5
88D
331
8D6
  5
8D6
331
805
  5
805
331
18D
  5
18D
331
96F
  5
96F
331
8E7
  5
8E7
331
987
  5
987
331
910
  5
910
331
1AF
  5
1AF
331
850
  5
850
331
921
  5
921
331
2D0
  5
2D0
331
932
  5
932
331
8AA
  5
8AA
331
821
  5
821
331
872
  5
872
331
943
  5
943
331
7EA
  5
7EA
331
843
  5
843
331
7FB
  5
7FB
331
183
  5
183
331
172
  5
172
331
161
  5
161
331
150
  5
150
331
D7
  5
D7
331
B5
  5
B5
331
836
  5
836
331
A3
  5
A3
331
A11
  5
A19
331
8F1
  5
8F1
331
110
  5
110
331
96C
  5
96C
331
8E4
  5
8E4
331
984
  5
984
331
1AC
  5
1AC
331
97D
  5
97D
331
8B5
  5
8B5
331
995
  5
995
331
87D
  5
87D
331
1BD
  5
1BD
331
906
  5
906
331
940
  5
940
331
8D7
  5
8D7
331
840
  5
840
331
7F8
  5
7F8
331
180
  5
180
331
F6
  5
F6
331
E5
  5
E5
331
D4
  5
D4
331
911
  5
911
331
851
  5
851
331
A22
  5
A07
331
2D1
  5
2D1
331
151
  5
151
331
962
  5
962
331
89A
  5
89A
331
933
  5
933
331
8AB
  5
8AB
331
862
  5
862
331
1A2
  5
1A2
331
873
  5
873
331
926
  5
926
331
7EB
  5
7EB
331
173
  5
173
331
837
  5
837
331
826
  5
826
331
166
  5
166
331
CA
  5
CA
331
A0
  5
A0
331
111
  5
111
331
8D4
  5
8D4
331
104
  5
104
331
96D
  5
96D
331
8E5
  5
8E5
331
985
  5
985
331
1AD
  5
1AD
331
A16
  5
A14
331
8F6
  5
8F6
331
146
  5
146
331
907
  5
907
331
930
  5
930
331
8A8
  5
8A8
331
870
  5
870
331
941
  5
941
331
7E8
  5
7E8
331
841
  5
841
331
7F9
  5
7F9
331
181
  5
181
331
170
  5
170
331
F7
  5
F7
331
D5
  5
D5
331
952
  5
952
331
8CA
  5
8CA
331
A23
  5
A08
331
80A
  5
80A
331
192
  5
192
331
963
  5
963
331
89B
  5
89B
331
863
  5
863
331
834
  5
834
331
916
  5
916
331
2A4
  5
2A4
331
1A3
  5
1A3
331
927
  5
927
331
856
  5
856
331
827
  5
827
331
167
  5
167
331
156
  5
156
331
CB
  5
CB
331
BA
  5
BA
331
A1
  5
A1
331
9A4
  5
9A4
331
904
  5
904
331
8D5
  5
8D5
331
A17
  5
A15
331
A20
  5
A0A
331
8F7
  5
8F7
331
147
  5
147
331
116
  5
116
331
105
  5
105
331
F4
  5
F4
331
960
  5
960
331
898
  5
898
331
931
  5
931
331
8A9
  5
8A9
331
860
  5
860
331
1A0
  5
1A0
331
871
  5
871
331
7E9
  5
7E9
331
171
  5
171
331
8BA
  5
8BA
331
99A
  5
99A
331
882
  5
882
331
EA
  5
EA
331
C8
  5
C8
331
953
  5
953
331
8CB
  5
8CB
331
924
  5
924
331
80B
  5
80B
331
193
  5
193
331
835
  5
835
331
824
  5
824
331
946
  5
946
331
2A5
  5
2A5
331
846
  5
846
331
7FE
  5
7FE
331
186
  5
186
331
164
  5
164
331
BB
  5
BB
331
917
  5
917
331
857
  5
857
331
157
  5
157
331
A6
  5
A6
331
82A
  5
82A
331
A14
  5
A17
331
8F4
  5
8F4
331
1C2
  5
1C2
331
905
  5
905
331
A07
  5
A23
331
117
  5
117
331
F5
  5
F5
331
950
  5
950
331
8C8
  5
8C8
331
A21
  5
A0B
331
808
  5
808
331
190
  5
190
331
961
  5
961
331
899
  5
899
331
861
  5
861
331
1A1
  5
1A1
331
972
  5
972
331
8EA
  5
8EA
331
98A
  5
98A
331
1B2
  5
1B2
331
8BB
  5
8BB
331
99B
  5
99B
331
914
  5
914
331
883
  5
883
331
854
  5
854
331
925
  5
925
331
2D4
  5
2D4
331
936
  5
936
331
8AE
  5
8AE
331
825
  5
825
331
876
  5
876
331
947
  5
947
331
7EE
  5
7EE
331
847
  5
847
331
7FF
  5
7FF
331
187
  5
187
331
176
  5
176
331
165
  5
165
331
154
  5
154
331
EB
  5
EB
331
DA
  5
DA
331
C9
  5
C9
331
B8
  5
B8
331
A7
  5
A7
331
91A
  5
91A
331
81A
  5
81A
331
82B
  5
82B
331
7DA
  5
7DA
331
15A
  5
15A
331
A15
  5
A18
331
8F5
  5
8F5
331
145
  5
145
331
114
  5
114
331
8B8
  5
8B8
331
998
  5
998
331
880
  5
880
331
E8
  5
E8
331
951
  5
951
331
8C9
  5
8C9
331
8DA
  5
8DA
331
809
  5
809
331
191
  5
191
331
973
  5
973
331
8EB
  5
8EB
331
98B
  5
98B
331
944
  5
944
331
1B3
  5
1B3
331
844
  5
844
331
915
  5
915
331
7FC
  5
7FC
331
184
  5
184
331
855
  5
855
331
155
  5
155
331
DB
  5
DB
331
966
  5
966
331
89E
  5
89E
331
937
  5
937
331
8AF
  5
8AF
331
866
  5
866
331
1A6
  5
1A6
331
877
  5
877
331
7EF
  5
7EF
331
177
  5
177
331
CE
  5
CE
331
B9
  5
B9
331
828
  5
828
331
90A
  5
90A
331
1C0
  5
1C0
331
84A
  5
84A
331
14A
  5
14A
331
91B
  5
91B
331
81B
  5
81B
331
7DB
  5
7DB
331
15B
  5
15B
331
115
  5
115
331
970
  5
970
331
8E8
  5
8E8
331
988
  5
988
331
1B0
  5
1B0
331
8B9
  5
8B9
331
999
  5
999
331
881
  5
881
331
8DB
  5
8DB
331
934
  5
934
331
8AC
  5
8AC
331
874
  5
874
331
945
  5
945
331
7EC
  5
7EC
331
845
  5
845
331
7FD
  5
7FD
331
185
  5
185
331
174
  5
174
331
FA
  5
FA
331
E9
  5
E9
331
D8
  5
D8
331
AA
  5
AA
331
956
  5
956
331
8CE
  5
8CE
331
80E
  5
80E
331
196
  5
196
331
967
  5
967
331
89F
  5
89F
331
867
  5
867
331
1A7
  5
1A7
331
CF
  5
CF
331
BE
  5
BE
331
A5
  5
A5
331
918
  5
918
331
829
  5
829
331
818
  5
818
331
93A
  5
93A
331
1C1
  5
1C1
331
83A
  5
83A
331
7F2
  5
7F2
331
17A
  5
17A
331
158
  5
158
331
90B
  5
90B
331
84B
  5
84B
331
14B
  5
14B
331
8D8
  5
8D8
331
971
  5
971
331
8E9
  5
8E9
331
989
  5
989
331
8FA
  5
8FA
331
1B1
  5
1B1
331
A24
  5
A09
331
FB
  5
FB
331
D9
  5
D9
331
964
  5
964
331
89C
  5
89C
331
935
  5
935
331
8AD
  5
8AD
331
864
  5
864
331
1A4
  5
1A4
331
875
  5
875
331
7ED
  5
7ED
331
175
  5
175
331
8BE
  5
8BE
331
99E
  5
99E
331
886
  5
886
331
EE
  5
EE
331
CC
  5
CC
331
957
  5
957
331
8CF
  5
8CF
331
80F
  5
80F
331
197
  5
197
331
BF
  5
BF
331
AB
  5
AB
331
9A
  5
9A
331
908
  5
908
331
848
  5
848
331
148
  5
148
331
919
  5
919
331
819
  5
819
331
92A
  5
92A
331
8A2
  5
8A2
331
7D9
  5
7D9
331
86A
  5
86A
331
93B
  5
93B
331
7E2
  5
7E2
331
83B
  5
83B
331
7F3
  5
7F3
331
17B
  5
17B
331
16A
  5
16A
331
159
  5
159
331
A8
  5
A8
331
82E
  5
82E
331
A0A
  5
A21
331
8FB
  5
8FB
331
8D9
  5
8D9
331
F8
  5
F8
331
954
  5
954
331
8CC
  5
8CC
331
80C
  5
80C
331
194
  5
194
331
965
  5
965
331
89D
  5
89D
331
865
  5
865
331
1A5
  5
1A5
331
976
  5
976
331
8EE
  5
8EE
331
98E
  5
98E
331
1B6
  5
1B6
331
8BF
  5
8BF
331
99F
  5
99F
331
887
  5
887
331
EF
  5
EF
331
DE
  5
DE
331
CD
  5
CD
331
BC
  5
BC
331
9B
  5
9B
  0
XRECORD
  5
A2B
102
{ACAD_REACTORS
330
A29
102
}
330
A29
100
AcDbXrecord
280
     1
340
5B
  0
XRECORD
  5
A2C
102
{ACAD_REACTORS
330
A29
102
}
330
A29
100
AcDbXrecord
280
     1
340
5B
  0
XRECORD
  5
A2A
102
{ACAD_REACTORS
330
A29
102
}
330
A29
100
AcDbXrecord
280
     1
340
5B
  0
ACDBDETAILVIEWSTYLE
  5
6A
102
{ACAD_XDICTIONARY
360
A60
102
}
102
{ACAD_REACTORS
330
69
102
}
330
69
100
AcDbModelDocViewStyle
 70
     0
  3
Imperial24
290
     0
100
AcDbDetailViewStyle
 70
     0
 71
     0
 90
        3
 71
     1
340
55
 40
0.24
340
0
 40
0.24
300

 40
0.36
280
     3
 71
     2
340
5C
 90
       25
 71
     3
340
55
 40
0.24
 90
        1
 40
0.75
 90
        1
300
%<\AcVar ViewType \f "%tc1">% %<\AcVar ViewDetailId>%\PSCALE %<\AcVar ViewScale \f "%sn">%
 71
     4
340
5C
 90
       25
340
5C
 90
       25
280
     0
  0
LAYOUT
  5
72
102
{ACAD_XDICTIONARY
360
A64
102
}
102
{ACAD_REACTORS
330
61
102
}
330
61
100
AcDbPlotSettings
  1

  2
FX C5575(5工場6F 西内側 X018)
  4

  6

 40
0.0
 41
0.0
 42
0.0
 43
0.0
 44
0.0
 45
0.0
 46
0.0
 47
0.0
 48
0.0
 49
0.0
140
0.0
141
0.0
142
1.0
143
1.0
 70
  1712
 72
     0
 73
     0
 74
     0
  7

 75
     0
147
1.0
148
0.0
149
0.0
100
AcDbLayout
  1
Model
 70
     1
 71
     0
 10
0.0
 20
0.0
 11
12.0
 21
9.0
 12
0.0
 22
0.0
 32
0.0
 14
0.0
 24
0.0
 34
0.0
 15
0.0
 25
0.0
 35
0.0
146
0.0
 13
0.0
 23
0.0
 33
0.0
 16
1.0
 26
0.0
 36
0.0
 17
0.0
 27
1.0
 37
0.0
 76
     0
330
6F
331
81
  0
LAYOUT
  5
6E
102
{ACAD_XDICTIONARY
360
A62
102
}
102
{ACAD_REACTORS
330
61
102
}
330
61
100
AcDbPlotSettings
  1

  2
FX C5575(5工場6F 西内側 X018)
  4

  6

 40
0.0
 41
0.0
 42
0.0
 43
0.0
 44
0.0
 45
0.0
 46
0.0
 47
0.0
 48
0.0
 49
0.0
140
0.0
141
0.0
142
1.0
143
1.0
 70
   688
 72
     0
 73
     0
 74
     5
  7

 75
    16
147
1.0
148
0.0
149
0.0
100
AcDbLayout
  1
レイアウト1
 70
     1
 71
     1
 10
0.0
 20
0.0
 11
12.0
 21
9.0
 12
0.0
 22
0.0
 32
0.0
 14
1.000000000000000E+20
 24
1.000000000000000E+20
 34
1.000000000000000E+20
 15
-1.000000000000000E+20
 25
-1.000000000000000E+20
 35
-1.000000000000000E+20
146
0.0
 13
0.0
 23
0.0
 33
0.0
 16
1.0
 26
0.0
 36
0.0
 17
0.0
 27
1.0
 37
0.0
 76
     0
330
6B
  0
MATERIAL
  5
19
102
{ACAD_XDICTIONARY
360
4DE
102
}
102
{ACAD_REACTORS
330
10
102
}
330
10
100
AcDbMaterial
  1
ByBlock
 72
     0
 43
0.0208333333333333
 43
0.0
 43
0.0
 43
0.0
 43
0.0
 43
0.0208333333333333
 43
0.0
 43
0.0
 43
0.0
 43
0.0
 43
1.0
 43
0.0
 43
0.0
 43
0.0
 43
0.0
 43
1.0
 77
     0
 47
0.0208333333333333
 47
0.0
 47
0.0
 47
0.0
 47
0.0
 47
0.0208333333333333
 47
0.0
 47
0.0
 47
0.0
 47
0.0
 47
1.0
 47
0.0
 47
0.0
 47
0.0
 47
0.0
 47
1.0
171
     0
 49
0.0208333333333333
 49
0.0
 49
0.0
 49
0.0
 49
0.0
 49
0.0208333333333333
 49
0.0
 49
0.0
 49
0.0
 49
0.0
 49
1.0
 49
0.0
 49
0.0
 49
0.0
 49
0.0
 49
1.0
175
     0
142
0.0208333333333333
142
0.0
142
0.0
142
0.0
142
0.0
142
0.0208333333333333
142
0.0
142
0.0
142
0.0
142
0.0
142
1.0
142
0.0
142
0.0
142
0.0
142
0.0
142
1.0
179
     0
144
0.0208333333333333
144
0.0
144
0.0
144
0.0
144
0.0
144
0.0208333333333333
144
0.0
144
0.0
144
0.0
144
0.0
144
1.0
144
0.0
144
0.0
144
0.0
144
0.0
144
1.0
147
0.0208333333333333
147
0.0
147
0.0
147
0.0
147
0.0
147
0.0208333333333333
147
0.0
147
0.0
147
0.0
147
0.0
147
1.0
147
0.0
147
0.0
147
0.0
147
0.0
147
1.0
  0
MATERIAL
  5
11
102
{ACAD_XDICTIONARY
360
4E0
102
}
102
{ACAD_REACTORS
330
10
102
}
330
10
100
AcDbMaterial
  1
ByLayer
 72
     0
 43
0.0208333333333333
 43
0.0
 43
0.0
 43
0.0
 43
0.0
 43
0.0208333333333333
 43
0.0
 43
0.0
 43
0.0
 43
0.0
 43
1.0
 43
0.0
 43
0.0
 43
0.0
 43
0.0
 43
1.0
 77
     0
 47
0.0208333333333333
 47
0.0
 47
0.0
 47
0.0
 47
0.0
 47
0.0208333333333333
 47
0.0
 47
0.0
 47
0.0
 47
0.0
 47
1.0
 47
0.0
 47
0.0
 47
0.0
 47
0.0
 47
1.0
171
     0
 49
0.0208333333333333
 49
0.0
 49
0.0
 49
0.0
 49
0.0
 49
0.0208333333333333
 49
0.0
 49
0.0
 49
0.0
 49
0.0
 49
1.0
 49
0.0
 49
0.0
 49
0.0
 49
0.0
 49
1.0
175
     0
142
0.0208333333333333
142
0.0
142
0.0
142
0.0
142
0.0
142
0.0208333333333333
142
0.0
142
0.0
142
0.0
142
0.0
142
1.0
142
0.0
142
0.0
142
0.0
142
0.0
142
1.0
179
     0
144
0.0208333333333333
144
0.0
144
0.0
144
0.0
144
0.0
144
0.0208333333333333
144
0.0
144
0.0
144
0.0
144
0.0
144
1.0
144
0.0
144
0.0
144
0.0
144
0.0
144
1.0
147
0.0208333333333333
147
0.0
147
0.0
147
0.0
147
0.0
147
0.0208333333333333
147
0.0
147
0.0
147
0.0
147
0.0
147
1.0
147
0.0
147
0.0
147
0.0
147
0.0
147
1.0
  0
MATERIAL
  5
21
102
{ACAD_XDICTIONARY
360
4E2
102
}
102
{ACAD_REACTORS
330
10
102
}
330
10
100
AcDbMaterial
  1
Global
 72
     0
 43
0.0208333333333333
 43
0.0
 43
0.0
 43
0.0
 43
0.0
 43
0.0208333333333333
 43
0.0
 43
0.0
 43
0.0
 43
0.0
 43
1.0
 43
0.0
 43
0.0
 43
0.0
 43
0.0
 43
1.0
 77
     0
 47
0.0208333333333333
 47
0.0
 47
0.0
 47
0.0
 47
0.0
 47
0.0208333333333333
 47
0.0
 47
0.0
 47
0.0
 47
0.0
 47
1.0
 47
0.0
 47
0.0
 47
0.0
 47
0.0
 47
1.0
171
     0
 49
0.0208333333333333
 49
0.0
 49
0.0
 49
0.0
 49
0.0
 49
0.0208333333333333
 49
0.0
 49
0.0
 49
0.0
 49
0.0
 49
1.0
 49
0.0
 49
0.0
 49
0.0
 49
0.0
 49
1.0
175
     0
142
0.0208333333333333
142
0.0
142
0.0
142
0.0
142
0.0
142
0.0208333333333333
142
0.0
142
0.0
142
0.0
142
0.0
142
1.0
142
0.0
142
0.0
142
0.0
142
0.0
142
1.0
179
     0
144
0.0208333333333333
144
0.0
144
0.0
144
0.0
144
0.0
144
0.0208333333333333
144
0.0
144
0.0
144
0.0
144
0.0
144
1.0
144
0.0
144
0.0
144
0.0
144
0.0
144
1.0
147
0.0208333333333333
147
0.0
147
0.0
147
0.0
147
0.0
147
0.0208333333333333
147
0.0
147
0.0
147
0.0
147
0.0
147
1.0
147
0.0
147
0.0
147
0.0
147
0.0
147
1.0
  0
MLEADERSTYLE
  5
66
102
{ACAD_REACTORS
330
65
102
}
330
65
100
AcDbMLeaderStyle
170
     2
171
     1
172
     0
 90
        2
 40
0.0
 41
0.0
173
     1
 91
-1056964608
340
5A
 92
       -2
290
     1
 42
0.09
291
     1
 43
0.36
  3
Standard
 44
0.18
300

342
55
174
     1
178
     6
175
     1
176
     0
 93
-1056964608
 45
0.18
292
     0
297
     0
 46
0.18
 94
-1056964608
 47
1.0
 49
1.0
140
1.0
293
     1
141
0.0
294
     1
177
     0
142
1.0
295
     0
296
     0
143
0.125
1001
ACAD_MLEADERVER
1070
     2
  0
MLINESTYLE
  5
5F
102
{ACAD_REACTORS
330
5E
102
}
330
5E
100
AcDbMlineStyle
  2
STANDARD
 70
     0
  3

 62
   256
 51
90.0
 52
90.0
 71
     2
 49
0.5
 62
   256
  6
BYLAYER
 49
-0.5
 62
   256
  6
BYLAYER
  0
ACDBPLACEHOLDER
  5
F
102
{ACAD_REACTORS
330
E
102
}
330
E
  0
SCALE
  5
43
102
{ACAD_REACTORS
330
42
102
}
330
42
100
AcDbScale
 70
     0
300
1:1
140
1.0
141
1.0
290
     1
  0
SCALE
  5
44
102
{ACAD_REACTORS
330
42
102
}
330
42
100
AcDbScale
 70
     0
300
1/128" = 1'-0"
140
0.0078125
141
12.0
290
     0
  0
SCALE
  5
45
102
{ACAD_REACTORS
330
42
102
}
330
42
100
AcDbScale
 70
     0
300
1/64" = 1'-0"
140
0.015625
141
12.0
290
     0
  0
SCALE
  5
46
102
{ACAD_REACTORS
330
42
102
}
330
42
100
AcDbScale
 70
     0
300
1/32" = 1'-0"
140
0.03125
141
12.0
290
     0
  0
SCALE
  5
47
102
{ACAD_REACTORS
330
42
102
}
330
42
100
AcDbScale
 70
     0
300
1/16" = 1'-0"
140
0.0625
141
12.0
290
     0
  0
SCALE
  5
48
102
{ACAD_REACTORS
330
42
102
}
330
42
100
AcDbScale
 70
     0
300
3/32" = 1'-0"
140
0.09375
141
12.0
290
     0
  0
SCALE
  5
49
102
{ACAD_REACTORS
330
42
102
}
330
42
100
AcDbScale
 70
     0
300
1/8" = 1'-0"
140
0.125
141
12.0
290
     0
  0
SCALE
  5
4A
102
{ACAD_REACTORS
330
42
102
}
330
42
100
AcDbScale
 70
     0
300
3/16" = 1'-0"
140
0.1875
141
12.0
290
     0
  0
SCALE
  5
4B
102
{ACAD_REACTORS
330
42
102
}
330
42
100
AcDbScale
 70
     0
300
1/4" = 1'-0"
140
0.25
141
12.0
290
     0
  0
SCALE
  5
4C
102
{ACAD_REACTORS
330
42
102
}
330
42
100
AcDbScale
 70
     0
300
3/8" = 1'-0"
140
0.375
141
12.0
290
     0
  0
SCALE
  5
4D
102
{ACAD_REACTORS
330
42
102
}
330
42
100
AcDbScale
 70
     0
300
1/2" = 1'-0"
140
0.5
141
12.0
290
     0
  0
SCALE
  5
4E
102
{ACAD_REACTORS
330
42
102
}
330
42
100
AcDbScale
 70
     0
300
3/4" = 1'-0"
140
0.75
141
12.0
290
     0
  0
SCALE
  5
4F
102
{ACAD_REACTORS
330
42
102
}
330
42
100
AcDbScale
 70
     0
300
1" = 1'-0"
140
1.0
141
12.0
290
     0
  0
SCALE
  5
50
102
{ACAD_REACTORS
330
42
102
}
330
42
100
AcDbScale
 70
     0
300
1-1/2" = 1'-0"
140
1.5
141
12.0
290
     0
  0
SCALE
  5
51
102
{ACAD_REACTORS
330
42
102
}
330
42
100
AcDbScale
 70
     0
300
3" = 1'-0"
140
3.0
141
12.0
290
     0
  0
SCALE
  5
52
102
{ACAD_REACTORS
330
42
102
}
330
42
100
AcDbScale
 70
     0
300
6" = 1'-0"
140
6.0
141
12.0
290
     0
  0
SCALE
  5
53
102
{ACAD_REACTORS
330
42
102
}
330
42
100
AcDbScale
 70
     0
300
1'-0" = 1'-0"
140
12.0
141
12.0
290
     0
  0
ACDBSECTIONVIEWSTYLE
  5
68
102
{ACAD_XDICTIONARY
360
A5E
102
}
102
{ACAD_REACTORS
330
67
102
}
330
67
100
AcDbModelDocViewStyle
 70
     0
  3
Imperial24
290
     0
100
AcDbSectionViewStyle
 70
     0
 71
     0
 90
       78
 71
     1
340
55
 40
0.24
340
0
340
0
 40
0.24
300
I, O, Q, S, X, Z
 40
0.48
 90
        3
 40
0.18
 90
        1
 71
     2
340
5C
 90
       25
340
5C
 90
       50
 40
0.24
 40
0.0
 40
0.24
 71
     3
340
55
 40
0.24
 90
        1
 40
0.75
 90
        1
300
%<\AcVar ViewType \f "%tc1">% %<\AcVar ViewSectionStartId>%-%<\AcVar ViewSectionEndId>%\PSCALE %<\AcVar ViewScale \f "%sn">%
 71
     4
300
ANSI31
 40
1.0
 90
        0
290
     0
290
     0
 90
        6
 40
0.0
 40
1.570796326794896
 40
0.2617993877991494
 40
1.308996938995747
 40
-0.2617993877991494
 40
1.832595714594044
  0
TABLESTYLE
  5
64
102
{ACAD_XDICTIONARY
360
51E
102
}
102
{ACAD_REACTORS
330
63
102
}
330
63
100
AcDbTableStyle
  3
Standard
 70
     0
 71
     0
 40
0.06
 41
0.06
280
     0
281
     0
  7
STANDARD
140
0.18
170
     2
 62
     0
 63
     7
283
     0
274
    -2
284
     1
 64
     0
275
    -2
285
     1
 65
     0
276
    -2
286
     1
 66
     0
277
    -2
287
     1
 67
     0
278
    -2
288
     1
 68
     0
279
    -2
289
     1
 69
     0
  7
STANDARD
140
0.25
170
     5
 62
     0
 63
     7
283
     0
274
    -2
284
     1
 64
     0
275
    -2
285
     1
 65
     0
276
    -2
286
     1
 66
     0
277
    -2
287
     1
 67
     0
278
    -2
288
     1
 68
     0
279
    -2
289
     1
 69
     0
  7
STANDARD
140
0.18
170
     5
 62
     0
 63
     7
283
     0
274
    -2
284
     1
 64
     0
275
    -2
285
     1
 65
     0
276
    -2
286
     1
 66
     0
277
    -2
287
     1
 67
     0
278
    -2
288
     1
 68
     0
279
    -2
289
     1
 69
     0
  0
VISUALSTYLE
  5
2F
102
{ACAD_XDICTIONARY
360
A37
102
}
102
{ACAD_REACTORS
330
29
102
}
330
29
100
AcDbVisualStyle
  2

 70
     4
 71
     0
 72
     2
 73
     0
 90
        0
 40
-0.6
 41
-30.0
 62
     5
 63
     7
 74
     1
 91
        4
 64
     7
 65
   257
 75
     1
175
     1
 42
1.0
 92
        0
 66
   257
 43
1.0
 76
     1
 77
     6
 78
     2
 67
     7
 79
     5
170
     0
171
     0
290
     0
174
     0
 93
        1
 44
0.0
173
     0
291
     0
 45
0.0
1001
ACAD
1000
AcDbSavedByObjectVersion
1070
     0
  0
VISUALSTYLE
  5
2E
102
{ACAD_XDICTIONARY
360
A35
102
}
102
{ACAD_REACTORS
330
29
102
}
330
29
100
AcDbVisualStyle
  2

 70
     7
 71
     1
 72
     0
 73
     1
 90
        0
 40
-0.6
 41
-30.0
 62
     5
 63
     7
 74
     0
 91
        4
 64
     7
 65
   257
 75
     1
175
     1
 42
1.0
 92
        8
 66
     7
 43
1.0
 76
     1
 77
     6
 78
     2
 67
     7
 79
     5
170
     0
171
     0
290
     0
174
     0
 93
        1
 44
0.0
173
     0
291
     1
 45
0.0
1001
ACAD
1000
AcDbSavedByObjectVersion
1070
     0
  0
VISUALSTYLE
  5
35
102
{ACAD_XDICTIONARY
360
A43
102
}
102
{ACAD_REACTORS
330
29
102
}
330
29
100
AcDbVisualStyle
  2

 70
    12
 71
     2
 72
     2
 73
     0
 90
        0
 40
-0.6
 41
-30.0
 62
     5
 63
     7
 74
     1
 91
        4
 64
     7
 65
   257
 75
     1
175
     1
 42
1.0
 92
        8
 66
     7
 43
1.0
 76
     1
 77
     6
 78
     2
 67
     7
 79
     5
170
     0
171
     0
290
     0
174
     0
 93
        1
 44
50.0
173
     0
291
     1
 45
0.0
1001
ACAD
1000
AcDbSavedByObjectVersion
1070
     0
  0
VISUALSTYLE
  5
39
102
{ACAD_XDICTIONARY
360
A4B
102
}
102
{ACAD_REACTORS
330
29
102
}
330
29
100
AcDbVisualStyle
  2

 70
    16
 71
     2
 72
     2
 73
     3
 90
        0
 40
-0.6
 41
-30.0
 62
     5
 63
     8
 74
     1
 91
        4
 64
     7
 65
   257
 75
     1
175
     1
 42
1.0
 92
        8
 66
     8
 43
1.0
 76
     1
 77
     6
 78
     2
 67
     7
 79
     5
170
     0
171
     0
290
     0
174
     0
 93
        1
 44
0.0
173
     0
291
     1
 45
0.0
1001
ACAD
1000
AcDbSavedByObjectVersion
1070
     0
  0
VISUALSTYLE
  5
32
102
{ACAD_XDICTIONARY
360
A3D
102
}
102
{ACAD_REACTORS
330
29
102
}
330
29
100
AcDbVisualStyle
  2

 70
     9
 71
     3
 72
     2
 73
     0
 90
        0
 40
-0.6
 41
-30.0
 62
     5
 63
     7
 74
     2
 91
        2
 64
     7
 65
   257
 75
     1
175
     1
 42
179.0
 92
        8
 66
     7
 43
1.0
 76
     1
 77
     6
 78
     2
 67
     7
 79
     3
170
     0
171
     0
290
     0
174
     0
 93
        1
 44
0.0
173
     0
291
     0
 45
0.0
1001
ACAD
1000
AcDbSavedByObjectVersion
1070
     0
  0
VISUALSTYLE
  5
34
102
{ACAD_XDICTIONARY
360
A41
102
}
102
{ACAD_REACTORS
330
29
102
}
330
29
100
AcDbVisualStyle
  2

 70
    11
 71
     2
 72
     2
 73
     0
 90
        0
 40
-0.6
 41
-30.0
 62
     5
 63
     7
 74
     1
 91
        4
 64
     7
 65
   257
 75
     1
175
     1
 42
1.0
 92
        8
 66
     7
 43
1.0
 76
     1
 77
     6
 78
     2
 67
     7
 79
     5
170
     0
171
     0
290
     0
174
     0
 93
        1
 44
-50.0
173
     0
291
     1
 45
0.0
1001
ACAD
1000
AcDbSavedByObjectVersion
1070
     0
  0
VISUALSTYLE
  5
41
102
{ACAD_XDICTIONARY
360
A5B
102
}
102
{ACAD_REACTORS
330
29
102
}
330
29
100
AcDbVisualStyle
  2

 70
    22
 71
     2
 72
     2
 73
     0
 90
        0
 40
-0.6
 41
-30.0
 62
     5
 63
     7
 74
     1
 91
        4
 64
     7
 65
   257
 75
     1
175
     1
 42
1.0
 92
        8
 66
     7
 43
1.0
 76
     1
 77
     6
 78
     2
 67
     7
 79
     5
170
     0
171
     0
290
     0
174
     0
 93
        1
 44
0.0
173
     0
291
     1
 45
0.0
1001
ACAD
1000
AcDbSavedByObjectVersion
1070
     0
  0
VISUALSTYLE
  5
38
102
{ACAD_XDICTIONARY
360
A49
102
}
102
{ACAD_REACTORS
330
29
102
}
330
29
100
AcDbVisualStyle
  2

 70
    15
 71
     2
 72
     2
 73
     0
 90
        0
 40
-0.6
 41
-30.0
 62
     5
 63
     7
 74
     1
 91
        4
 64
     7
 65
   257
 75
     1
175
     1
 42
1.0
 92
        8
 66
     7
 43
1.0
 76
     1
 77
     6
 78
     2
 67
     7
 79
     5
170
     0
171
     0
290
     0
174
     0
 93
        1
 44
0.0
173
     0
291
     1
 45
0.0
1001
ACAD
1000
AcDbSavedByObjectVersion
1070
     0
  0
VISUALSTYLE
  5
2A
102
{ACAD_XDICTIONARY
360
A2D
102
}
102
{ACAD_REACTORS
330
29
102
}
330
29
100
AcDbVisualStyle
  2

 70
     0
 71
     2
 72
     1
 73
     1
 90
        2
 40
-0.6
 41
30.0
 62
     5
 63
     7
 74
     0
 91
        0
 64
     7
 65
   257
 75
     1
175
     1
 42
1.0
 92
        8
 66
     7
 43
1.0
 76
     1
 77
     6
 78
     2
 67
     7
 79
     5
170
     0
171
     0
290
     0
174
     0
 93
       13
 44
0.0
173
     0
291
     1
 45
0.0
1001
ACAD
1000
AcDbSavedByObjectVersion
1070
     0
  0
VISUALSTYLE
  5
2B
102
{ACAD_XDICTIONARY
360
A2F
102
}
102
{ACAD_REACTORS
330
29
102
}
330
29
100
AcDbVisualStyle
  2

 70
     1
 71
     2
 72
     1
 73
     1
 90
        2
 40
-0.6
 41
30.0
 62
     5
 63
     7
 74
     1
 91
        0
 64
     7
 65
   257
 75
     1
175
     1
 42
1.0
 92
        0
 66
   257
 43
1.0
 76
     1
 77
     6
 78
     2
 67
     7
 79
     5
170
     0
171
     0
290
     0
174
     0
 93
       13
 44
0.0
173
     0
291
     1
 45
0.0
1001
ACAD
1000
AcDbSavedByObjectVersion
1070
     0
  0
VISUALSTYLE
  5
2C
102
{ACAD_XDICTIONARY
360
A31
102
}
102
{ACAD_REACTORS
330
29
102
}
330
29
100
AcDbVisualStyle
  2

 70
     2
 71
     2
 72
     2
 73
     1
 90
        2
 40
-0.6
 41
30.0
 62
     5
 63
     7
 74
     0
 91
        0
 64
     7
 65
   257
 75
     1
175
     1
 42
1.0
 92
        0
 66
     7
 43
1.0
 76
     1
 77
     6
 78
     2
 67
     7
 79
     5
170
     0
171
     0
290
     0
174
     0
 93
       13
 44
0.0
173
     0
291
     1
 45
0.0
1001
ACAD
1000
AcDbSavedByObjectVersion
1070
     0
  0
VISUALSTYLE
  5
2D
102
{ACAD_XDICTIONARY
360
A33
102
}
102
{ACAD_REACTORS
330
29
102
}
330
29
100
AcDbVisualStyle
  2

 70
     3
 71
     2
 72
     2
 73
     1
 90
        2
 40
-0.6
 41
30.0
 62
     5
 63
     7
 74
     1
 91
        0
 64
     7
 65
   257
 75
     1
175
     1
 42
1.0
 92
        0
 66
   257
 43
1.0
 76
     1
 77
     6
 78
     2
 67
     7
 79
     5
170
     0
171
     0
290
     0
174
     0
 93
       13
 44
0.0
173
     0
291
     1
 45
0.0
1001
ACAD
1000
AcDbSavedByObjectVersion
1070
     0
  0
VISUALSTYLE
  5
31
102
{ACAD_XDICTIONARY
360
A3B
102
}
102
{ACAD_REACTORS
330
29
102
}
330
29
100
AcDbVisualStyle
  2

 70
     6
 71
     1
 72
     2
 73
     2
 90
        0
 40
-0.6
 41
-30.0
 62
     5
 63
     7
 74
     2
 91
        2
 64
     7
 65
   257
 75
     2
175
     1
 42
40.0
 92
        0
 66
   257
 43
1.0
 76
     1
 77
     6
 78
     2
 67
     7
 79
     3
170
     0
171
     0
290
     0
174
     0
 93
        1
 44
0.0
173
     0
291
     0
 45
0.0
1001
ACAD
1000
AcDbSavedByObjectVersion
1070
     0
  0
VISUALSTYLE
  5
3F
102
{ACAD_XDICTIONARY
360
A57
102
}
102
{ACAD_REACTORS
330
29
102
}
330
29
100
AcDbVisualStyle
  2

 70
    20
 71
     2
 72
     2
 73
     0
 90
        0
 40
-0.6
 41
-30.0
 62
     5
 63
     7
 74
     1
 91
        4
 64
     7
 65
   257
 75
     1
175
     1
 42
1.0
 92
       10
 66
     7
 43
1.0
 76
     1
 77
     6
 78
     2
 67
     7
 79
     5
170
     0
171
     0
290
     0
174
     0
 93
        1
 44
0.0
173
     0
291
     1
 45
0.0
1001
ACAD
1000
AcDbSavedByObjectVersion
1070
     0
  0
VISUALSTYLE
  5
37
102
{ACAD_XDICTIONARY
360
A47
102
}
102
{ACAD_REACTORS
330
29
102
}
330
29
100
AcDbVisualStyle
  2

 70
    14
 71
     2
 72
     2
 73
     0
 90
        0
 40
-0.6
 41
-30.0
 62
     5
 63
     7
 74
     1
 91
        4
 64
     7
 65
   257
 75
     7
175
     7
 42
1.0
 92
        8
 66
     7
 43
1.0
 76
     1
 77
     6
 78
     2
 67
     7
 79
     5
170
     0
171
     0
290
     0
174
     0
 93
        1
 44
0.0
173
     0
291
     1
 45
0.0
1001
ACAD
1000
AcDbSavedByObjectVersion
1070
     0
  0
VISUALSTYLE
  5
40
102
{ACAD_XDICTIONARY
360
A59
102
}
102
{ACAD_REACTORS
330
29
102
}
330
29
100
AcDbVisualStyle
  2

 70
    21
 71
     2
 72
     2
 73
     0
 90
        0
 40
-0.6
 41
-30.0
 62
     5
 63
     7
 74
     1
 91
        4
 64
     7
 65
   257
 75
     1
175
     1
 42
1.0
 92
        9
 66
     7
 43
1.0
 76
     1
 77
     6
 78
     2
 67
     7
 79
     5
170
     0
171
     0
290
     0
174
     0
 93
        1
 44
0.0
173
     0
291
     1
 45
0.0
1001
ACAD
1000
AcDbSavedByObjectVersion
1070
     0
  0
VISUALSTYLE
  5
33
102
{ACAD_XDICTIONARY
360
A3F
102
}
102
{ACAD_REACTORS
330
29
102
}
330
29
100
AcDbVisualStyle
  2

 70
     8
 71
     2
 72
     3
 73
     0
 90
        2
 40
-0.6
 41
30.0
 62
     5
 63
     7
 74
     0
 91
        0
 64
     7
 65
   257
 75
     1
175
     1
 42
1.0
 92
        8
 66
   257
 43
1.0
 76
     1
 77
     6
 78
     2
 67
     7
 79
     3
170
     0
171
     0
290
     0
174
     0
 93
       13
 44
0.0
173
     0
291
     0
 45
0.0
1001
ACAD
1000
AcDbSavedByObjectVersion
1070
     0
  0
VISUALSTYLE
  5
3E
102
{ACAD_XDICTIONARY
360
A55
102
}
102
{ACAD_REACTORS
330
29
102
}
330
29
100
AcDbVisualStyle
  2

 70
    27
 71
     2
 72
     2
 73
     1
 90
        2
 40
-0.6
 41
30.0
 62
     5
 63
     7
 74
     0
 91
        4
 64
     7
 65
   257
 75
     1
175
     1
 42
1.0
 92
        8
 66
   257
 43
1.0
 76
     1
 77
     6
 78
     2
 67
     8
 79
     3
170
     0
171
     0
290
     0
174
     0
 93
        5
 44
0.0
173
     0
291
     0
 45
0.0
1001
ACAD
1000
AcDbSavedByObjectVersion
1070
     0
  0
VISUALSTYLE
  5
3D
102
{ACAD_XDICTIONARY
360
A53
102
}
102
{ACAD_REACTORS
330
29
102
}
330
29
100
AcDbVisualStyle
  2

 70
    26
 71
     2
 72
     2
 73
     1
 90
        2
 40
-0.6
 41
30.0
 62
     5
 63
     7
 74
     1
 91
        2
 64
     7
 65
   257
 75
     2
175
     1
 42
1.0
 92
        8
 66
   257
 43
1.0
 76
     1
 77
     6
 78
     2
 67
     7
 79
     3
170
     0
171
     0
290
     0
174
     0
 93
        5
 44
0.0
173
     0
291
     0
 45
0.0
1001
ACAD
1000
AcDbSavedByObjectVersion
1070
     0
  0
VISUALSTYLE
  5
3A
102
{ACAD_XDICTIONARY
360
A4D
102
}
102
{ACAD_REACTORS
330
29
102
}
330
29
100
AcDbVisualStyle
  2

 70
    23
 71
     2
 72
     2
 73
     3
 90
        0
 40
-0.6
 41
-30.0
 62
     5
 63
     7
 74
     2
 91
        2
 64
     7
 65
     7
 75
     1
175
     1
 42
40.0
 92
        8
 66
     7
 43
1.0
 76
     1
 77
     6
 78
     2
 67
     7
 79
     3
170
     0
171
     0
290
     0
174
     0
 93
        1
 44
0.0
173
     0
291
     0
 45
0.0
1001
ACAD
1000
AcDbSavedByObjectVersion
1070
     0
  0
VISUALSTYLE
  5
3B
102
{ACAD_XDICTIONARY
360
A4F
102
}
102
{ACAD_REACTORS
330
29
102
}
330
29
100
AcDbVisualStyle
  2

 70
    24
 71
     1
 72
     2
 73
     2
 90
        0
 40
-0.6
 41
-30.0
 62
     5
 63
     7
 74
     2
 91
        2
 64
     7
 65
     7
 75
     1
175
     1
 42
40.0
 92
       11
 66
     7
 43
1.0
 76
     1
 77
     6
 78
     2
 67
     7
 79
     6
170
     0
171
     0
290
     0
174
     0
 93
        1
 44
0.0
173
     0
291
     0
 45
0.0
1001
ACAD
1000
AcDbSavedByObjectVersion
1070
     0
  0
VISUALSTYLE
  5
36
102
{ACAD_XDICTIONARY
360
A45
102
}
102
{ACAD_REACTORS
330
29
102
}
330
29
100
AcDbVisualStyle
  2

 70
    13
 71
     2
 72
     2
 73
     0
 90
        0
 40
-0.6
 41
-30.0
 62
     5
 63
     7
 74
     1
 91
        4
 64
     7
 65
   257
 75
     1
175
     1
 42
1.0
 92
       12
 66
     7
 43
1.0
 76
     1
 77
     6
 78
     2
 67
     7
 79
     5
170
     0
171
     0
290
     0
174
     0
 93
        1
 44
0.0
173
     0
291
     1
 45
0.0
1001
ACAD
1000
AcDbSavedByObjectVersion
1070
     0
  0
VISUALSTYLE
  5
30
102
{ACAD_XDICTIONARY
360
A39
102
}
102
{ACAD_REACTORS
330
29
102
}
330
29
100
AcDbVisualStyle
  2

 70
     5
 71
     0
 72
     2
 73
     0
 90
        0
 40
-0.6
 41
-30.0
 62
     5
 63
     7
 74
     1
 91
        4
 64
     7
 65
   257
 75
     1
175
     1
 42
1.0
 92
        0
 66
   257
 43
1.0
 76
     1
 77
     6
 78
     2
 67
     7
 79
     3
170
     0
171
     0
290
     0
174
     0
 93
        1
 44
0.0
173
     0
291
     0
 45
0.0
1001
ACAD
1000
AcDbSavedByObjectVersion
1070
     0
  0
VISUALSTYLE
  5
3C
102
{ACAD_XDICTIONARY
360
A51
102
}
102
{ACAD_REACTORS
330
29
102
}
330
29
100
AcDbVisualStyle
  2

 70
    25
 71
     2
 72
     2
 73
     1
 90
        1
 40
0.5
 41
-30.0
 62
     5
 63
     7
 74
     1
 91
        0
 64
     7
 65
   257
 75
     1
175
     1
 42
1.0
 92
        8
 66
     7
 43
1.0
 76
     1
 77
     6
 78
     2
 67
     7
 79
     3
170
     0
171
     0
290
     0
174
     0
 93
       13
 44
0.0
173
     0
291
     0
 45
0.0
1001
ACAD
1000
AcDbSavedByObjectVersion
1070
     0
  0
DICTIONARYVAR
  5
4DC
102
{ACAD_REACTORS
330
3EB
102
}
330
3EB
100
DictionaryVariables
280
     0
  1
1:1
  0
DICTIONARYVAR
  5
3ED
102
{ACAD_REACTORS
330
3EB
102
}
330
3EB
100
DictionaryVariables
280
     0
  1
STANDARD
  0
DICTIONARYVAR
  5
3EC
102
{ACAD_REACTORS
330
3EB
102
}
330
3EB
100
DictionaryVariables
280
     0
  1
STANDARD
  0
DICTIONARYVAR
  5
3EE
102
{ACAD_REACTORS
330
3EB
102
}
330
3EB
100
DictionaryVariables
280
     0
  1
Imperial24
  0
DICTIONARYVAR
  5
3EF
102
{ACAD_REACTORS
330
3EB
102
}
330
3EB
100
DictionaryVariables
280
     0
  1
Imperial24
  0
DICTIONARYVAR
  5
3F3
102
{ACAD_REACTORS
330
3EB
102
}
330
3EB
100
DictionaryVariables
280
     0
  1
1
  0
DICTIONARYVAR
  5
4D5
102
{ACAD_REACTORS
330
3EB
102
}
330
3EB
100
DictionaryVariables
280
     0
  1
1
  0
DICTIONARYVAR
  5
3F2
102
{ACAD_REACTORS
330
3EB
102
}
330
3EB
100
DictionaryVariables
280
     0
  1
0
  0
DICTIONARYVAR
  5
4D4
102
{ACAD_REACTORS
330
3EB
102
}
330
3EB
100
DictionaryVariables
280
     0
  1
0
  0
DICTIONARYVAR
  5
3F1
102
{ACAD_REACTORS
330
3EB
102
}
330
3EB
100
DictionaryVariables
280
     0
  1
127
  0
DICTIONARYVAR
  5
A25
102
{ACAD_REACTORS
330
3EB
102
}
330
3EB
100
DictionaryVariables
280
     0
  1
2
  0
XRECORD
  5
9F5
102
{ACAD_XDICTIONARY
360
9F6
102
}
102
{ACAD_REACTORS
330
5FE
102
}
330
5FE
100
AcDbXrecord
280
     1
 91
      535
301

290
     0
302
NOTE
330
7F
 90
        0
 62
     7
370
    -3
331
5C
  1
色_7
440
        0
330
7E
 90
        8
 62
    15
370
    -3
331
5C
  1
色_15
440
        0
330
7D
 90
        8
 62
    61
370
    -3
331
5C
  1
色_61
440
        0
330
7C
 90
        8
 62
     2
370
    -3
331
75
  1
色_2
440
        0
330
7B
 90
        8
 62
    11
370
    -3
331
5C
  1
色_11
440
        0
330
7A
 90
        8
 62
     1
370
    -3
331
5C
  1
色_1
440
        0
330
79
 90
        8
 62
    30
370
    -3
331
5C
  1
色_30
440
        0
330
78
 90
        8
 62
     6
370
    -3
331
75
  1
色_6
440
        0
330
77
 90
        8
 62
     5
370
    -3
331
5C
  1
色_5
440
        0
330
76
 90
        8
 62
     3
370
    -3
331
5C
  1
色_3
440
        0
330
73
 90
        8
 62
     4
370
    -3
331
5C
  1
色_4
440
        0
330
54
 90
        8
 62
     7
370
    -3
331
5C
  1
色_7
440
        0
  0
DICTIONARY
  5
A60
330
6A
100
AcDbDictionary
280
     1
281
     1
  3
ACAD_XREC_ROUNDTRIP
360
A61
  0
DICTIONARY
  5
A64
330
72
100
AcDbDictionary
280
     1
281
     1
  3
ACAD_XREC_ROUNDTRIP
360
A65
  0
DICTIONARY
  5
A62
330
6E
100
AcDbDictionary
280
     1
281
     1
  3
ACAD_XREC_ROUNDTRIP
360
A63
  0
DICTIONARY
  5
4DE
330
19
100
AcDbDictionary
280
     1
281
     1
  3
ACAD_XREC_ROUNDTRIP
360
4DF
  0
DICTIONARY
  5
4E0
330
11
100
AcDbDictionary
280
     1
281
     1
  3
ACAD_XREC_ROUNDTRIP
360
4E1
  0
DICTIONARY
  5
4E2
330
21
100
AcDbDictionary
280
     1
281
     1
  3
ACAD_XREC_ROUNDTRIP
360
4E3
  0
DICTIONARY
  5
A5E
330
68
100
AcDbDictionary
280
     1
281
     1
  3
ACAD_XREC_ROUNDTRIP
360
A5F
  0
DICTIONARY
  5
51E
330
64
100
AcDbDictionary
280
     1
281
     1
  3
ACAD_ROUNDTRIP_2008_TABLESTYLE_CELLSTYLEMAP
360
A26
  3
ACAD_XREC_ROUNDTRIP
360
A5D
  0
DICTIONARY
  5
A37
330
2F
100
AcDbDictionary
280
     1
281
     1
  3
ACAD_XREC_ROUNDTRIP
360
A38
  0
DICTIONARY
  5
A35
330
2E
100
AcDbDictionary
280
     1
281
     1
  3
ACAD_XREC_ROUNDTRIP
360
A36
  0
DICTIONARY
  5
A43
330
35
100
AcDbDictionary
280
     1
281
     1
  3
ACAD_XREC_ROUNDTRIP
360
A44
  0
DICTIONARY
  5
A4B
330
39
100
AcDbDictionary
280
     1
281
     1
  3
ACAD_XREC_ROUNDTRIP
360
A4C
  0
DICTIONARY
  5
A3D
330
32
100
AcDbDictionary
280
     1
281
     1
  3
ACAD_XREC_ROUNDTRIP
360
A3E
  0
DICTIONARY
  5
A41
330
34
100
AcDbDictionary
280
     1
281
     1
  3
ACAD_XREC_ROUNDTRIP
360
A42
  0
DICTIONARY
  5
A5B
330
41
100
AcDbDictionary
280
     1
281
     1
  3
ACAD_XREC_ROUNDTRIP
360
A5C
  0
DICTIONARY
  5
A49
330
38
100
AcDbDictionary
280
     1
281
     1
  3
ACAD_XREC_ROUNDTRIP
360
A4A
  0
DICTIONARY
  5
A2D
330
2A
100
AcDbDictionary
280
     1
281
     1
  3
ACAD_XREC_ROUNDTRIP
360
A2E
  0
DICTIONARY
  5
A2F
330
2B
100
AcDbDictionary
280
     1
281
     1
  3
ACAD_XREC_ROUNDTRIP
360
A30
  0
DICTIONARY
  5
A31
330
2C
100
AcDbDictionary
280
     1
281
     1
  3
ACAD_XREC_ROUNDTRIP
360
A32
  0
DICTIONARY
  5
A33
330
2D
100
AcDbDictionary
280
     1
281
     1
  3
ACAD_XREC_ROUNDTRIP
360
A34
  0
DICTIONARY
  5
A3B
330
31
100
AcDbDictionary
280
     1
281
     1
  3
ACAD_XREC_ROUNDTRIP
360
A3C
  0
DICTIONARY
  5
A57
330
3F
100
AcDbDictionary
280
     1
281
     1
  3
ACAD_XREC_ROUNDTRIP
360
A58
  0
DICTIONARY
  5
A47
330
37
100
AcDbDictionary
280
     1
281
     1
  3
ACAD_XREC_ROUNDTRIP
360
A48
  0
DICTIONARY
  5
A59
330
40
100
AcDbDictionary
280
     1
281
     1
  3
ACAD_XREC_ROUNDTRIP
360
A5A
  0
DICTIONARY
  5
A3F
330
33
100
AcDbDictionary
280
     1
281
     1
  3
ACAD_XREC_ROUNDTRIP
360
A40
  0
DICTIONARY
  5
A55
330
3E
100
AcDbDictionary
280
     1
281
     1
  3
ACAD_XREC_ROUNDTRIP
360
A56
  0
DICTIONARY
  5
A53
330
3D
100
AcDbDictionary
280
     1
281
     1
  3
ACAD_XREC_ROUNDTRIP
360
A54
  0
DICTIONARY
  5
A4D
330
3A
100
AcDbDictionary
280
     1
281
     1
  3
ACAD_XREC_ROUNDTRIP
360
A4E
  0
DICTIONARY
  5
A4F
330
3B
100
AcDbDictionary
280
     1
281
     1
  3
ACAD_XREC_ROUNDTRIP
360
A50
  0
DICTIONARY
  5
A45
330
36
100
AcDbDictionary
280
     1
281
     1
  3
ACAD_XREC_ROUNDTRIP
360
A46
  0
DICTIONARY
  5
A39
330
30
100
AcDbDictionary
280
     1
281
     1
  3
ACAD_XREC_ROUNDTRIP
360
A3A
  0
DICTIONARY
  5
A51
330
3C
100
AcDbDictionary
280
     1
281
     1
  3
ACAD_XREC_ROUNDTRIP
360
A52
  0
DICTIONARY
  5
9F6
330
9F5
100
AcDbDictionary
280
     1
281
     1
  3
AcadLayerStateAnnoScale
360
9F7
  0
XRECORD
  5
A61
102
{ACAD_REACTORS
330
A60
102
}
330
A60
100
AcDbXrecord
280
     1
102
DISPLAYNAME
  1
Imperial24
102
FLAGS
 90
        0
  0
XRECORD
  5
A65
102
{ACAD_REACTORS
330
A64
102
}
330
A64
100
AcDbXrecord
280
     1
102
SHADEPLOT
 70
     0
102
SHADEPLOTRESLEVEL
 70
     2
102
SHADEPLOTCUSTOMDPI
 70
   300
  0
XRECORD
  5
A63
102
{ACAD_REACTORS
330
A62
102
}
330
A62
100
AcDbXrecord
280
     1
102
SHADEPLOT
 70
     0
102
SHADEPLOTRESLEVEL
 70
     2
102
SHADEPLOTCUSTOMDPI
 70
   300
  0
XRECORD
  5
4DF
102
{ACAD_REACTORS
330
4DE
102
}
330
4DE
100
AcDbXrecord
280
     1
102
MATERIAL
148
0.0
149
0.0
149
0.0
 93
        0
 94
      127
282
     0
 72
     0
 77
     0
171
     0
175
     0
179
     0
273
     0
  0
XRECORD
  5
4E1
102
{ACAD_REACTORS
330
4E0
102
}
330
4E0
100
AcDbXrecord
280
     1
102
MATERIAL
148
0.0
149
0.0
149
0.0
 93
        0
 94
      127
282
     0
 72
     0
 77
     0
171
     0
175
     0
179
     0
273
     0
  0
XRECORD
  5
4E3
102
{ACAD_REACTORS
330
4E2
102
}
330
4E2
100
AcDbXrecord
280
     1
102
MATERIAL
148
0.0
149
0.0
149
0.0
 93
        0
 94
      127
282
     0
 72
     0
 77
     0
171
     0
175
     0
179
     0
273
     0
  0
XRECORD
  5
A5F
102
{ACAD_REACTORS
330
A5E
102
}
330
A5E
100
AcDbXrecord
280
     1
102
DISPLAYNAME
  1
Imperial24
102
FLAGS
 90
        0
  0
CELLSTYLEMAP
  5
A26
102
{ACAD_REACTORS
330
51E
102
}
330
51E
100
AcDbCellStyleMap
 90
        3
300
CELLSTYLE
  1
TABLEFORMAT_BEGIN
 90
        5
170
     1
 91
        0
 92
    32768
 62
   257
 93
        1
300
CONTENTFORMAT
  1
CONTENTFORMAT_BEGIN
 90
        0
 91
        0
 92
        4
 93
        0
300

 40
0.0
140
1.0
 94
        5
 62
     0
340
55
144
0.25
309
CONTENTFORMAT_END
171
     1
301
MARGIN
  1
CELLMARGIN_BEGIN
 40
0.06
 40
0.06
 40
0.06
 40
0.06
 40
0.18
 40
0.18
309
CELLMARGIN_END
 94
        6
 95
        1
302
GRIDFORMAT
  1
GRIDFORMAT_BEGIN
 90
        0
 91
        1
 62
     0
 92
       -2
340
0
 93
        0
 40
0.045
309
GRIDFORMAT_END
 95
        2
302
GRIDFORMAT
  1
GRIDFORMAT_BEGIN
 90
        0
 91
        1
 62
     0
 92
       -2
340
0
 93
        0
 40
0.045
309
GRIDFORMAT_END
 95
        4
302
GRIDFORMAT
  1
GRIDFORMAT_BEGIN
 90
        0
 91
        1
 62
     0
 92
       -2
340
0
 93
        0
 40
0.045
309
GRIDFORMAT_END
 95
        8
302
GRIDFORMAT
  1
GRIDFORMAT_BEGIN
 90
        0
 91
        1
 62
     0
 92
       -2
340
0
 93
        0
 40
0.045
309
GRIDFORMAT_END
 95
       16
302
GRIDFORMAT
  1
GRIDFORMAT_BEGIN
 90
        0
 91
        1
 62
     0
 92
       -2
340
0
 93
        0
 40
0.045
309
GRIDFORMAT_END
 95
       32
302
GRIDFORMAT
  1
GRIDFORMAT_BEGIN
 90
        0
 91
        1
 62
     0
 92
       -2
340
0
 93
        0
 40
0.045
309
GRIDFORMAT_END
309
TABLEFORMAT_END
  1
CELLSTYLE_BEGIN
 90
        1
 91
        1
300
_TITLE
309
CELLSTYLE_END
300
CELLSTYLE
  1
TABLEFORMAT_BEGIN
 90
        5
170
     1
 91
        0
 92
        0
 62
   257
 93
        1
300
CONTENTFORMAT
  1
CONTENTFORMAT_BEGIN
 90
        0
 91
        0
 92
        4
 93
        0
300

 40
0.0
140
1.0
 94
        5
 62
     0
340
55
144
0.18
309
CONTENTFORMAT_END
171
     1
301
MARGIN
  1
CELLMARGIN_BEGIN
 40
0.06
 40
0.06
 40
0.06
 40
0.06
 40
0.18
 40
0.18
309
CELLMARGIN_END
 94
        6
 95
        1
302
GRIDFORMAT
  1
GRIDFORMAT_BEGIN
 90
        0
 91
        1
 62
     0
 92
       -2
340
0
 93
        0
 40
0.045
309
GRIDFORMAT_END
 95
        2
302
GRIDFORMAT
  1
GRIDFORMAT_BEGIN
 90
        0
 91
        1
 62
     0
 92
       -2
340
0
 93
        0
 40
0.045
309
GRIDFORMAT_END
 95
        4
302
GRIDFORMAT
  1
GRIDFORMAT_BEGIN
 90
        0
 91
        1
 62
     0
 92
       -2
340
0
 93
        0
 40
0.045
309
GRIDFORMAT_END
 95
        8
302
GRIDFORMAT
  1
GRIDFORMAT_BEGIN
 90
        0
 91
        1
 62
     0
 92
       -2
340
0
 93
        0
 40
0.045
309
GRIDFORMAT_END
 95
       16
302
GRIDFORMAT
  1
GRIDFORMAT_BEGIN
 90
        0
 91
        1
 62
     0
 92
       -2
340
0
 93
        0
 40
0.045
309
GRIDFORMAT_END
 95
       32
302
GRIDFORMAT
  1
GRIDFORMAT_BEGIN
 90
        0
 91
        1
 62
     0
 92
       -2
340
0
 93
        0
 40
0.045
309
GRIDFORMAT_END
309
TABLEFORMAT_END
  1
CELLSTYLE_BEGIN
 90
        2
 91
        1
300
_HEADER
309
CELLSTYLE_END
300
CELLSTYLE
  1
TABLEFORMAT_BEGIN
 90
        5
170
     1
 91
        0
 92
        0
 62
   257
 93
        1
300
CONTENTFORMAT
  1
CONTENTFORMAT_BEGIN
 90
        0
 91
        0
 92
        4
 93
        0
300

 40
0.0
140
1.0
 94
        2
 62
     0
340
55
144
0.18
309
CONTENTFORMAT_END
171
     1
301
MARGIN
  1
CELLMARGIN_BEGIN
 40
0.06
 40
0.06
 40
0.06
 40
0.06
 40
0.18
 40
0.18
309
CELLMARGIN_END
 94
        6
 95
        1
302
GRIDFORMAT
  1
GRIDFORMAT_BEGIN
 90
        0
 91
        1
 62
     0
 92
       -2
340
0
 93
        0
 40
0.045
309
GRIDFORMAT_END
 95
        2
302
GRIDFORMAT
  1
GRIDFORMAT_BEGIN
 90
        0
 91
        1
 62
     0
 92
       -2
340
0
 93
        0
 40
0.045
309
GRIDFORMAT_END
 95
        4
302
GRIDFORMAT
  1
GRIDFORMAT_BEGIN
 90
        0
 91
        1
 62
     0
 92
       -2
340
0
 93
        0
 40
0.045
309
GRIDFORMAT_END
 95
        8
302
GRIDFORMAT
  1
GRIDFORMAT_BEGIN
 90
        0
 91
        1
 62
     0
 92
       -2
340
0
 93
        0
 40
0.045
309
GRIDFORMAT_END
 95
       16
302
GRIDFORMAT
  1
GRIDFORMAT_BEGIN
 90
        0
 91
        1
 62
     0
 92
       -2
340
0
 93
        0
 40
0.045
309
GRIDFORMAT_END
 95
       32
302
GRIDFORMAT
  1
GRIDFORMAT_BEGIN
 90
        0
 91
        1
 62
     0
 92
       -2
340
0
 93
        0
 40
0.045
309
GRIDFORMAT_END
309
TABLEFORMAT_END
  1
CELLSTYLE_BEGIN
 90
        3
 91
        2
300
_DATA
309
CELLSTYLE_END
  0
XRECORD
  5
A5D
102
{ACAD_REACTORS
330
51E
102
}
330
51E
100
AcDbXrecord
280
     1
102
ACAD_ROUNDTRIP_PRE2007_TABLESTYLE
 90
        4
 91
        0
  1

 92
        4
 93
        0
  2

 94
        4
 95
        0
  3

  0
XRECORD
  5
A38
102
{ACAD_REACTORS
330
A37
102
}
330
A37
100
AcDbXrecord
280
     1
102
RTVSPost2010Prop28
280
     1
102
RTVSPost2010PropOp28
 70
     1
102
RTVSPost2010Prop29
280
     1
102
RTVSPost2010PropOp29
 70
     1
102
RTVSPost2010Prop30
280
     0
102
RTVSPost2010PropOp30
 70
     1
102
RTVSPost2010Prop31
280
     0
102
RTVSPost2010PropOp31
 70
     1
102
RTVSPost2010Prop32
280
     0
102
RTVSPost2010PropOp32
 70
     1
102
RTVSPost2010Prop33
280
     0
102
RTVSPost2010PropOp33
 70
     1
102
RTVSPost2010Prop34
280
     0
102
RTVSPost2010PropOp34
 70
     1
102
RTVSPost2010Prop35
280
     0
102
RTVSPost2010PropOp35
 70
     1
102
RTVSPost2010Prop36
280
     0
102
RTVSPost2010PropOp36
 70
     1
102
RTVSPost2010Prop37
 90
       50
102
RTVSPost2010PropOp37
 70
     1
102
RTVSPost2010Prop38
140
0.0
102
RTVSPost2010PropOp38
 70
     1
102
RTVSPost2010Prop39
140
1.0
102
RTVSPost2010PropOp39
 70
     1
102
RTVSPost2010Prop40
 90
        0
102
RTVSPost2010PropOp40
 70
     1
102
RTVSPost2010Prop41ColorIndex
 90
       18
102
RTVSPost2010Prop41ColorRGB
 90
        0
102
RTVSPost2010PropOp41
 70
     1
102
RTVSPost2010Prop42
 90
       50
102
RTVSPost2010PropOp42
 70
     1
102
RTVSPost2010Prop43
 90
        3
102
RTVSPost2010PropOp43
 70
     1
102
RTVSPost2010Prop44ColorIndex
 90
        5
102
RTVSPost2010Prop44ColorRGB
 90
      255
102
RTVSPost2010PropOp44
 70
     1
102
RTVSPost2010Prop45
280
     0
102
RTVSPost2010PropOp45
 70
     1
102
RTVSPost2010Prop46
 90
       50
102
RTVSPost2010PropOp46
 70
     1
102
RTVSPost2010Prop47
 90
       50
102
RTVSPost2010PropOp47
 70
     1
102
RTVSPost2010Prop48
 90
       50
102
RTVSPost2010PropOp48
 70
     1
102
RTVSPost2010Prop49
280
     0
102
RTVSPost2010PropOp49
 70
     1
102
RTVSPost2010Prop50
 90
       50
102
RTVSPost2010PropOp50
 70
     1
102
RTVSPost2010Prop51ColorIndex
 90
      256
102
RTVSPost2010Prop51ColorRGB
 90
-16777216
102
RTVSPost2010PropOp51
 70
     0
102
RTVSPost2010Prop52
140
1.0
102
RTVSPost2010PropOp52
 70
     0
102
RTVSPost2010Prop53
 90
        2
102
RTVSPost2010PropOp53
 70
     1
102
RTVSPost2010Prop54
  1
strokes_ogs.tif
102
RTVSPost2010PropOp54
 70
     1
102
RTVSPost2010Prop55
280
     0
102
RTVSPost2010PropOp55
 70
     1
102
RTVSPost2010Prop56
140
1.0
102
RTVSPost2010PropOp56
 70
     1
102
RTVSPost2010Prop57
140
1.0
102
RTVSPost2010PropOp57
 70
     1
102
RTVSPropertyOp0
 70
     1
102
RTVSPropertyOp1
 70
     1
102
RTVSPropertyOp2
 70
     1
102
RTVSPropertyOp3
 70
     1
102
RTVSPropertyOp4
 70
     1
102
RTVSPropertyOp5
 70
     1
102
RTVSPropertyOp6
 70
     1
102
RTVSPropertyOp7
 70
     1
102
RTVSPropertyOp8
 70
     1
102
RTVSPropertyOp9
 70
     1
102
RTVSPropertyOp10
 70
     1
102
RTVSPropertyOp11
 70
     1
102
RTVSPropertyOp12
 70
     1
102
RTVSPropertyOp13
 70
     1
102
RTVSPropertyOp14
 70
     1
102
RTVSPropertyOp15
 70
     1
102
RTVSPropertyOp16
 70
     1
102
RTVSPropertyOp17
 70
     1
102
RTVSPropertyOp18
 70
     1
102
RTVSPropertyOp19
 70
     1
102
RTVSPropertyOp20
 70
     1
102
RTVSPropertyOp21
 70
     1
102
RTVSPropertyOp22
 70
     1
102
RTVSPropertyOp23
 70
     1
102
RTVSPropertyOp24
 70
     1
102
RTVSPropertyOp25
 70
     1
102
RTVSPropertyOp26
 70
     1
102
RTVSPropertyOp27
 70
     1
102
RTVSPropertyOp28
 70
     1
102
RTVSPropertyOp29
 70
     1
102
RTVSPropertyOp30
 70
     1
102
RTVSPropertyOp31
 70
     1
102
RTVSPropertyOp32
 70
     1
102
RTVSPropertyOp33
 70
     1
102
RTVSPropertyOp34
 70
     1
102
RTVSPropertyOp35
 70
     1
102
RTVSPropertyOp36
 70
     1
102
RTVSPropertyOp37
 70
     1
102
RTVSPropertyOp38
 70
     1
102
RTVSPropertyOp39
 70
     1
102
RTVSPropertyOp40
 70
     1
102
RTVSPropertyOp41
 70
     1
102
RTVSPropertyOp42
 70
     1
102
RTVSPropertyOp43
 70
     1
102
RTVSPropertyOp44
 70
     1
102
RTVSPropertyOp45
 70
     1
102
RTVSPropertyOp46
 70
     1
102
RTVSPropertyOp47
 70
     1
102
RTVSPropertyOp48
 70
     1
102
RTVSPropertyOp49
 70
     1
102
RTVSPropertyOp50
 70
     1
102
RTVSPropertyOp51
 70
     0
102
RTVSPropertyOp52
 70
     0
102
RTVSPropertyOp53
 70
     1
102
RTVSPropertyOp54
 70
     1
102
RTVSPropertyOp55
 70
     1
102
RTVSPropertyOp56
 70
     1
102
RTVSPropertyOp57
 70
     1
102
RTVSPropertyOp58
 70
     1
102
RTVSPropertyOp59
 70
     1
102
RTVSPropertyOp60
 70
     1
102
RTVSPropertyOp61
 70
     1
102
RTVSPropertyOp62
 70
     1
  0
XRECORD
  5
A36
102
{ACAD_REACTORS
330
A35
102
}
330
A35
100
AcDbXrecord
280
     1
102
RTVSPost2010Prop28
280
     0
102
RTVSPost2010PropOp28
 70
     1
102
RTVSPost2010Prop29
280
     1
102
RTVSPost2010PropOp29
 70
     1
102
RTVSPost2010Prop30
280
     1
102
RTVSPost2010PropOp30
 70
     1
102
RTVSPost2010Prop31
280
     0
102
RTVSPost2010PropOp31
 70
     1
102
RTVSPost2010Prop32
280
     0
102
RTVSPost2010PropOp32
 70
     1
102
RTVSPost2010Prop33
280
     0
102
RTVSPost2010PropOp33
 70
     1
102
RTVSPost2010Prop34
280
     0
102
RTVSPost2010PropOp34
 70
     1
102
RTVSPost2010Prop35
280
     0
102
RTVSPost2010PropOp35
 70
     1
102
RTVSPost2010Prop36
280
     0
102
RTVSPost2010PropOp36
 70
     1
102
RTVSPost2010Prop37
 90
       50
102
RTVSPost2010PropOp37
 70
     1
102
RTVSPost2010Prop38
140
0.0
102
RTVSPost2010PropOp38
 70
     1
102
RTVSPost2010Prop39
140
1.0
102
RTVSPost2010PropOp39
 70
     1
102
RTVSPost2010Prop40
 90
        0
102
RTVSPost2010PropOp40
 70
     1
102
RTVSPost2010Prop41ColorIndex
 90
       18
102
RTVSPost2010Prop41ColorRGB
 90
        0
102
RTVSPost2010PropOp41
 70
     1
102
RTVSPost2010Prop42
 90
       50
102
RTVSPost2010PropOp42
 70
     1
102
RTVSPost2010Prop43
 90
        3
102
RTVSPost2010PropOp43
 70
     1
102
RTVSPost2010Prop44ColorIndex
 90
        5
102
RTVSPost2010Prop44ColorRGB
 90
      255
102
RTVSPost2010PropOp44
 70
     1
102
RTVSPost2010Prop45
280
     0
102
RTVSPost2010PropOp45
 70
     1
102
RTVSPost2010Prop46
 90
       50
102
RTVSPost2010PropOp46
 70
     1
102
RTVSPost2010Prop47
 90
       50
102
RTVSPost2010PropOp47
 70
     1
102
RTVSPost2010Prop48
 90
       50
102
RTVSPost2010PropOp48
 70
     1
102
RTVSPost2010Prop49
280
     0
102
RTVSPost2010PropOp49
 70
     1
102
RTVSPost2010Prop50
 90
       50
102
RTVSPost2010PropOp50
 70
     1
102
RTVSPost2010Prop51ColorIndex
 90
      256
102
RTVSPost2010Prop51ColorRGB
 90
-16777216
102
RTVSPost2010PropOp51
 70
     0
102
RTVSPost2010Prop52
140
1.0
102
RTVSPost2010PropOp52
 70
     0
102
RTVSPost2010Prop53
 90
        2
102
RTVSPost2010PropOp53
 70
     1
102
RTVSPost2010Prop54
  1
strokes_ogs.tif
102
RTVSPost2010PropOp54
 70
     1
102
RTVSPost2010Prop55
280
     0
102
RTVSPost2010PropOp55
 70
     1
102
RTVSPost2010Prop56
140
1.0
102
RTVSPost2010PropOp56
 70
     1
102
RTVSPost2010Prop57
140
1.0
102
RTVSPost2010PropOp57
 70
     1
102
RTVSPropertyOp0
 70
     1
102
RTVSPropertyOp1
 70
     1
102
RTVSPropertyOp2
 70
     1
102
RTVSPropertyOp3
 70
     1
102
RTVSPropertyOp4
 70
     1
102
RTVSPropertyOp5
 70
     1
102
RTVSPropertyOp6
 70
     1
102
RTVSPropertyOp7
 70
     1
102
RTVSPropertyOp8
 70
     1
102
RTVSPropertyOp9
 70
     1
102
RTVSPropertyOp10
 70
     1
102
RTVSPropertyOp11
 70
     1
102
RTVSPropertyOp12
 70
     1
102
RTVSPropertyOp13
 70
     1
102
RTVSPropertyOp14
 70
     1
102
RTVSPropertyOp15
 70
     1
102
RTVSPropertyOp16
 70
     1
102
RTVSPropertyOp17
 70
     1
102
RTVSPropertyOp18
 70
     1
102
RTVSPropertyOp19
 70
     1
102
RTVSPropertyOp20
 70
     1
102
RTVSPropertyOp21
 70
     1
102
RTVSPropertyOp22
 70
     1
102
RTVSPropertyOp23
 70
     1
102
RTVSPropertyOp24
 70
     1
102
RTVSPropertyOp25
 70
     1
102
RTVSPropertyOp26
 70
     1
102
RTVSPropertyOp27
 70
     1
102
RTVSPropertyOp28
 70
     1
102
RTVSPropertyOp29
 70
     1
102
RTVSPropertyOp30
 70
     1
102
RTVSPropertyOp31
 70
     1
102
RTVSPropertyOp32
 70
     1
102
RTVSPropertyOp33
 70
     1
102
RTVSPropertyOp34
 70
     1
102
RTVSPropertyOp35
 70
     1
102
RTVSPropertyOp36
 70
     1
102
RTVSPropertyOp37
 70
     1
102
RTVSPropertyOp38
 70
     1
102
RTVSPropertyOp39
 70
     1
102
RTVSPropertyOp40
 70
     1
102
RTVSPropertyOp41
 70
     1
102
RTVSPropertyOp42
 70
     1
102
RTVSPropertyOp43
 70
     1
102
RTVSPropertyOp44
 70
     1
102
RTVSPropertyOp45
 70
     1
102
RTVSPropertyOp46
 70
     1
102
RTVSPropertyOp47
 70
     1
102
RTVSPropertyOp48
 70
     1
102
RTVSPropertyOp49
 70
     1
102
RTVSPropertyOp50
 70
     1
102
RTVSPropertyOp51
 70
     0
102
RTVSPropertyOp52
 70
     0
102
RTVSPropertyOp53
 70
     1
102
RTVSPropertyOp54
 70
     1
102
RTVSPropertyOp55
 70
     1
102
RTVSPropertyOp56
 70
     1
102
RTVSPropertyOp57
 70
     1
102
RTVSPropertyOp58
 70
     1
102
RTVSPropertyOp59
 70
     1
102
RTVSPropertyOp60
 70
     1
102
RTVSPropertyOp61
 70
     1
102
RTVSPropertyOp62
 70
     1
  0
XRECORD
  5
A44
102
{ACAD_REACTORS
330
A43
102
}
330
A43
100
AcDbXrecord
280
     1
102
RTVSPost2010Prop28
280
     0
102
RTVSPost2010PropOp28
 70
     1
102
RTVSPost2010Prop29
280
     1
102
RTVSPost2010PropOp29
 70
     1
102
RTVSPost2010Prop30
280
     1
102
RTVSPost2010PropOp30
 70
     1
102
RTVSPost2010Prop31
280
     0
102
RTVSPost2010PropOp31
 70
     1
102
RTVSPost2010Prop32
280
     0
102
RTVSPost2010PropOp32
 70
     1
102
RTVSPost2010Prop33
280
     0
102
RTVSPost2010PropOp33
 70
     1
102
RTVSPost2010Prop34
280
     0
102
RTVSPost2010PropOp34
 70
     1
102
RTVSPost2010Prop35
280
     0
102
RTVSPost2010PropOp35
 70
     1
102
RTVSPost2010Prop36
280
     0
102
RTVSPost2010PropOp36
 70
     1
102
RTVSPost2010Prop37
 90
       50
102
RTVSPost2010PropOp37
 70
     1
102
RTVSPost2010Prop38
140
0.0
102
RTVSPost2010PropOp38
 70
     1
102
RTVSPost2010Prop39
140
1.0
102
RTVSPost2010PropOp39
 70
     1
102
RTVSPost2010Prop40
 90
        0
102
RTVSPost2010PropOp40
 70
     1
102
RTVSPost2010Prop41ColorIndex
 90
       18
102
RTVSPost2010Prop41ColorRGB
 90
        0
102
RTVSPost2010PropOp41
 70
     1
102
RTVSPost2010Prop42
 90
       50
102
RTVSPost2010PropOp42
 70
     1
102
RTVSPost2010Prop43
 90
        3
102
RTVSPost2010PropOp43
 70
     1
102
RTVSPost2010Prop44ColorIndex
 90
        5
102
RTVSPost2010Prop44ColorRGB
 90
      255
102
RTVSPost2010PropOp44
 70
     1
102
RTVSPost2010Prop45
280
     0
102
RTVSPost2010PropOp45
 70
     1
102
RTVSPost2010Prop46
 90
       50
102
RTVSPost2010PropOp46
 70
     1
102
RTVSPost2010Prop47
 90
       50
102
RTVSPost2010PropOp47
 70
     1
102
RTVSPost2010Prop48
 90
       50
102
RTVSPost2010PropOp48
 70
     1
102
RTVSPost2010Prop49
280
     0
102
RTVSPost2010PropOp49
 70
     1
102
RTVSPost2010Prop50
 90
       50
102
RTVSPost2010PropOp50
 70
     1
102
RTVSPost2010Prop51ColorIndex
 90
      256
102
RTVSPost2010Prop51ColorRGB
 90
-16777216
102
RTVSPost2010PropOp51
 70
     0
102
RTVSPost2010Prop52
140
1.0
102
RTVSPost2010PropOp52
 70
     0
102
RTVSPost2010Prop53
 90
        2
102
RTVSPost2010PropOp53
 70
     1
102
RTVSPost2010Prop54
  1
strokes_ogs.tif
102
RTVSPost2010PropOp54
 70
     1
102
RTVSPost2010Prop55
280
     0
102
RTVSPost2010PropOp55
 70
     1
102
RTVSPost2010Prop56
140
1.0
102
RTVSPost2010PropOp56
 70
     1
102
RTVSPost2010Prop57
140
1.0
102
RTVSPost2010PropOp57
 70
     1
102
RTVSPropertyOp0
 70
     1
102
RTVSPropertyOp1
 70
     1
102
RTVSPropertyOp2
 70
     1
102
RTVSPropertyOp3
 70
     1
102
RTVSPropertyOp4
 70
     1
102
RTVSPropertyOp5
 70
     1
102
RTVSPropertyOp6
 70
     1
102
RTVSPropertyOp7
 70
     1
102
RTVSPropertyOp8
 70
     1
102
RTVSPropertyOp9
 70
     1
102
RTVSPropertyOp10
 70
     1
102
RTVSPropertyOp11
 70
     1
102
RTVSPropertyOp12
 70
     1
102
RTVSPropertyOp13
 70
     1
102
RTVSPropertyOp14
 70
     1
102
RTVSPropertyOp15
 70
     1
102
RTVSPropertyOp16
 70
     1
102
RTVSPropertyOp17
 70
     1
102
RTVSPropertyOp18
 70
     1
102
RTVSPropertyOp19
 70
     1
102
RTVSPropertyOp20
 70
     1
102
RTVSPropertyOp21
 70
     1
102
RTVSPropertyOp22
 70
     1
102
RTVSPropertyOp23
 70
     1
102
RTVSPropertyOp24
 70
     1
102
RTVSPropertyOp25
 70
     1
102
RTVSPropertyOp26
 70
     1
102
RTVSPropertyOp27
 70
     1
102
RTVSPropertyOp28
 70
     1
102
RTVSPropertyOp29
 70
     1
102
RTVSPropertyOp30
 70
     1
102
RTVSPropertyOp31
 70
     1
102
RTVSPropertyOp32
 70
     1
102
RTVSPropertyOp33
 70
     1
102
RTVSPropertyOp34
 70
     1
102
RTVSPropertyOp35
 70
     1
102
RTVSPropertyOp36
 70
     1
102
RTVSPropertyOp37
 70
     1
102
RTVSPropertyOp38
 70
     1
102
RTVSPropertyOp39
 70
     1
102
RTVSPropertyOp40
 70
     1
102
RTVSPropertyOp41
 70
     1
102
RTVSPropertyOp42
 70
     1
102
RTVSPropertyOp43
 70
     1
102
RTVSPropertyOp44
 70
     1
102
RTVSPropertyOp45
 70
     1
102
RTVSPropertyOp46
 70
     1
102
RTVSPropertyOp47
 70
     1
102
RTVSPropertyOp48
 70
     1
102
RTVSPropertyOp49
 70
     1
102
RTVSPropertyOp50
 70
     1
102
RTVSPropertyOp51
 70
     0
102
RTVSPropertyOp52
 70
     0
102
RTVSPropertyOp53
 70
     1
102
RTVSPropertyOp54
 70
     1
102
RTVSPropertyOp55
 70
     1
102
RTVSPropertyOp56
 70
     1
102
RTVSPropertyOp57
 70
     1
102
RTVSPropertyOp58
 70
     1
102
RTVSPropertyOp59
 70
     1
102
RTVSPropertyOp60
 70
     1
102
RTVSPropertyOp61
 70
     1
102
RTVSPropertyOp62
 70
     1
  0
XRECORD
  5
A4C
102
{ACAD_REACTORS
330
A4B
102
}
330
A4B
100
AcDbXrecord
280
     1
102
RTVSPost2010Prop28
280
     0
102
RTVSPost2010PropOp28
 70
     1
102
RTVSPost2010Prop29
280
     1
102
RTVSPost2010PropOp29
 70
     1
102
RTVSPost2010Prop30
280
     1
102
RTVSPost2010PropOp30
 70
     1
102
RTVSPost2010Prop31
280
     0
102
RTVSPost2010PropOp31
 70
     1
102
RTVSPost2010Prop32
280
     0
102
RTVSPost2010PropOp32
 70
     1
102
RTVSPost2010Prop33
280
     0
102
RTVSPost2010PropOp33
 70
     1
102
RTVSPost2010Prop34
280
     0
102
RTVSPost2010PropOp34
 70
     1
102
RTVSPost2010Prop35
280
     0
102
RTVSPost2010PropOp35
 70
     1
102
RTVSPost2010Prop36
280
     0
102
RTVSPost2010PropOp36
 70
     1
102
RTVSPost2010Prop37
 90
       50
102
RTVSPost2010PropOp37
 70
     1
102
RTVSPost2010Prop38
140
0.0
102
RTVSPost2010PropOp38
 70
     1
102
RTVSPost2010Prop39
140
1.0
102
RTVSPost2010PropOp39
 70
     1
102
RTVSPost2010Prop40
 90
        0
102
RTVSPost2010PropOp40
 70
     1
102
RTVSPost2010Prop41ColorIndex
 90
       18
102
RTVSPost2010Prop41ColorRGB
 90
        0
102
RTVSPost2010PropOp41
 70
     1
102
RTVSPost2010Prop42
 90
       50
102
RTVSPost2010PropOp42
 70
     1
102
RTVSPost2010Prop43
 90
        3
102
RTVSPost2010PropOp43
 70
     1
102
RTVSPost2010Prop44ColorIndex
 90
        5
102
RTVSPost2010Prop44ColorRGB
 90
      255
102
RTVSPost2010PropOp44
 70
     1
102
RTVSPost2010Prop45
280
     0
102
RTVSPost2010PropOp45
 70
     1
102
RTVSPost2010Prop46
 90
       50
102
RTVSPost2010PropOp46
 70
     1
102
RTVSPost2010Prop47
 90
       50
102
RTVSPost2010PropOp47
 70
     1
102
RTVSPost2010Prop48
 90
       50
102
RTVSPost2010PropOp48
 70
     1
102
RTVSPost2010Prop49
280
     0
102
RTVSPost2010PropOp49
 70
     1
102
RTVSPost2010Prop50
 90
       50
102
RTVSPost2010PropOp50
 70
     1
102
RTVSPost2010Prop51ColorIndex
 90
      256
102
RTVSPost2010Prop51ColorRGB
 90
-16777216
102
RTVSPost2010PropOp51
 70
     0
102
RTVSPost2010Prop52
140
1.0
102
RTVSPost2010PropOp52
 70
     0
102
RTVSPost2010Prop53
 90
        2
102
RTVSPost2010PropOp53
 70
     1
102
RTVSPost2010Prop54
  1
strokes_ogs.tif
102
RTVSPost2010PropOp54
 70
     1
102
RTVSPost2010Prop55
280
     0
102
RTVSPost2010PropOp55
 70
     1
102
RTVSPost2010Prop56
140
1.0
102
RTVSPost2010PropOp56
 70
     1
102
RTVSPost2010Prop57
140
1.0
102
RTVSPost2010PropOp57
 70
     1
102
RTVSPropertyOp0
 70
     1
102
RTVSPropertyOp1
 70
     1
102
RTVSPropertyOp2
 70
     1
102
RTVSPropertyOp3
 70
     1
102
RTVSPropertyOp4
 70
     1
102
RTVSPropertyOp5
 70
     1
102
RTVSPropertyOp6
 70
     1
102
RTVSPropertyOp7
 70
     1
102
RTVSPropertyOp8
 70
     1
102
RTVSPropertyOp9
 70
     1
102
RTVSPropertyOp10
 70
     1
102
RTVSPropertyOp11
 70
     1
102
RTVSPropertyOp12
 70
     1
102
RTVSPropertyOp13
 70
     1
102
RTVSPropertyOp14
 70
     1
102
RTVSPropertyOp15
 70
     1
102
RTVSPropertyOp16
 70
     1
102
RTVSPropertyOp17
 70
     1
102
RTVSPropertyOp18
 70
     1
102
RTVSPropertyOp19
 70
     1
102
RTVSPropertyOp20
 70
     1
102
RTVSPropertyOp21
 70
     1
102
RTVSPropertyOp22
 70
     1
102
RTVSPropertyOp23
 70
     1
102
RTVSPropertyOp24
 70
     1
102
RTVSPropertyOp25
 70
     1
102
RTVSPropertyOp26
 70
     1
102
RTVSPropertyOp27
 70
     1
102
RTVSPropertyOp28
 70
     1
102
RTVSPropertyOp29
 70
     1
102
RTVSPropertyOp30
 70
     1
102
RTVSPropertyOp31
 70
     1
102
RTVSPropertyOp32
 70
     1
102
RTVSPropertyOp33
 70
     1
102
RTVSPropertyOp34
 70
     1
102
RTVSPropertyOp35
 70
     1
102
RTVSPropertyOp36
 70
     1
102
RTVSPropertyOp37
 70
     1
102
RTVSPropertyOp38
 70
     1
102
RTVSPropertyOp39
 70
     1
102
RTVSPropertyOp40
 70
     1
102
RTVSPropertyOp41
 70
     1
102
RTVSPropertyOp42
 70
     1
102
RTVSPropertyOp43
 70
     1
102
RTVSPropertyOp44
 70
     1
102
RTVSPropertyOp45
 70
     1
102
RTVSPropertyOp46
 70
     1
102
RTVSPropertyOp47
 70
     1
102
RTVSPropertyOp48
 70
     1
102
RTVSPropertyOp49
 70
     1
102
RTVSPropertyOp50
 70
     1
102
RTVSPropertyOp51
 70
     0
102
RTVSPropertyOp52
 70
     0
102
RTVSPropertyOp53
 70
     1
102
RTVSPropertyOp54
 70
     1
102
RTVSPropertyOp55
 70
     1
102
RTVSPropertyOp56
 70
     1
102
RTVSPropertyOp57
 70
     1
102
RTVSPropertyOp58
 70
     1
102
RTVSPropertyOp59
 70
     1
102
RTVSPropertyOp60
 70
     1
102
RTVSPropertyOp61
 70
     1
102
RTVSPropertyOp62
 70
     1
  0
XRECORD
  5
A3E
102
{ACAD_REACTORS
330
A3D
102
}
330
A3D
100
AcDbXrecord
280
     1
102
RTVSPost2010Prop28
280
     0
102
RTVSPost2010PropOp28
 70
     1
102
RTVSPost2010Prop29
280
     1
102
RTVSPost2010PropOp29
 70
     1
102
RTVSPost2010Prop30
280
     1
102
RTVSPost2010PropOp30
 70
     1
102
RTVSPost2010Prop31
280
     0
102
RTVSPost2010PropOp31
 70
     1
102
RTVSPost2010Prop32
280
     0
102
RTVSPost2010PropOp32
 70
     1
102
RTVSPost2010Prop33
280
     0
102
RTVSPost2010PropOp33
 70
     1
102
RTVSPost2010Prop34
280
     0
102
RTVSPost2010PropOp34
 70
     1
102
RTVSPost2010Prop35
280
     0
102
RTVSPost2010PropOp35
 70
     1
102
RTVSPost2010Prop36
280
     0
102
RTVSPost2010PropOp36
 70
     1
102
RTVSPost2010Prop37
 90
       50
102
RTVSPost2010PropOp37
 70
     1
102
RTVSPost2010Prop38
140
0.0
102
RTVSPost2010PropOp38
 70
     1
102
RTVSPost2010Prop39
140
1.0
102
RTVSPost2010PropOp39
 70
     1
102
RTVSPost2010Prop40
 90
        0
102
RTVSPost2010PropOp40
 70
     1
102
RTVSPost2010Prop41ColorIndex
 90
       18
102
RTVSPost2010Prop41ColorRGB
 90
        0
102
RTVSPost2010PropOp41
 70
     1
102
RTVSPost2010Prop42
 90
       50
102
RTVSPost2010PropOp42
 70
     1
102
RTVSPost2010Prop43
 90
        3
102
RTVSPost2010PropOp43
 70
     1
102
RTVSPost2010Prop44ColorIndex
 90
        5
102
RTVSPost2010Prop44ColorRGB
 90
      255
102
RTVSPost2010PropOp44
 70
     1
102
RTVSPost2010Prop45
280
     0
102
RTVSPost2010PropOp45
 70
     1
102
RTVSPost2010Prop46
 90
       50
102
RTVSPost2010PropOp46
 70
     1
102
RTVSPost2010Prop47
 90
       50
102
RTVSPost2010PropOp47
 70
     1
102
RTVSPost2010Prop48
 90
       50
102
RTVSPost2010PropOp48
 70
     1
102
RTVSPost2010Prop49
280
     0
102
RTVSPost2010PropOp49
 70
     1
102
RTVSPost2010Prop50
 90
       50
102
RTVSPost2010PropOp50
 70
     1
102
RTVSPost2010Prop51ColorIndex
 90
      256
102
RTVSPost2010Prop51ColorRGB
 90
-16777216
102
RTVSPost2010PropOp51
 70
     0
102
RTVSPost2010Prop52
140
1.0
102
RTVSPost2010PropOp52
 70
     0
102
RTVSPost2010Prop53
 90
        2
102
RTVSPost2010PropOp53
 70
     1
102
RTVSPost2010Prop54
  1
strokes_ogs.tif
102
RTVSPost2010PropOp54
 70
     1
102
RTVSPost2010Prop55
280
     0
102
RTVSPost2010PropOp55
 70
     1
102
RTVSPost2010Prop56
140
1.0
102
RTVSPost2010PropOp56
 70
     1
102
RTVSPost2010Prop57
140
1.0
102
RTVSPost2010PropOp57
 70
     1
102
RTVSPropertyOp0
 70
     1
102
RTVSPropertyOp1
 70
     1
102
RTVSPropertyOp2
 70
     1
102
RTVSPropertyOp3
 70
     1
102
RTVSPropertyOp4
 70
     1
102
RTVSPropertyOp5
 70
     1
102
RTVSPropertyOp6
 70
     1
102
RTVSPropertyOp7
 70
     1
102
RTVSPropertyOp8
 70
     1
102
RTVSPropertyOp9
 70
     1
102
RTVSPropertyOp10
 70
     1
102
RTVSPropertyOp11
 70
     1
102
RTVSPropertyOp12
 70
     1
102
RTVSPropertyOp13
 70
     1
102
RTVSPropertyOp14
 70
     1
102
RTVSPropertyOp15
 70
     1
102
RTVSPropertyOp16
 70
     1
102
RTVSPropertyOp17
 70
     1
102
RTVSPropertyOp18
 70
     1
102
RTVSPropertyOp19
 70
     1
102
RTVSPropertyOp20
 70
     1
102
RTVSPropertyOp21
 70
     1
102
RTVSPropertyOp22
 70
     1
102
RTVSPropertyOp23
 70
     1
102
RTVSPropertyOp24
 70
     1
102
RTVSPropertyOp25
 70
     1
102
RTVSPropertyOp26
 70
     1
102
RTVSPropertyOp27
 70
     1
102
RTVSPropertyOp28
 70
     1
102
RTVSPropertyOp29
 70
     1
102
RTVSPropertyOp30
 70
     1
102
RTVSPropertyOp31
 70
     1
102
RTVSPropertyOp32
 70
     1
102
RTVSPropertyOp33
 70
     1
102
RTVSPropertyOp34
 70
     1
102
RTVSPropertyOp35
 70
     1
102
RTVSPropertyOp36
 70
     1
102
RTVSPropertyOp37
 70
     1
102
RTVSPropertyOp38
 70
     1
102
RTVSPropertyOp39
 70
     1
102
RTVSPropertyOp40
 70
     1
102
RTVSPropertyOp41
 70
     1
102
RTVSPropertyOp42
 70
     1
102
RTVSPropertyOp43
 70
     1
102
RTVSPropertyOp44
 70
     1
102
RTVSPropertyOp45
 70
     1
102
RTVSPropertyOp46
 70
     1
102
RTVSPropertyOp47
 70
     1
102
RTVSPropertyOp48
 70
     1
102
RTVSPropertyOp49
 70
     1
102
RTVSPropertyOp50
 70
     1
102
RTVSPropertyOp51
 70
     0
102
RTVSPropertyOp52
 70
     0
102
RTVSPropertyOp53
 70
     1
102
RTVSPropertyOp54
 70
     1
102
RTVSPropertyOp55
 70
     1
102
RTVSPropertyOp56
 70
     1
102
RTVSPropertyOp57
 70
     1
102
RTVSPropertyOp58
 70
     1
102
RTVSPropertyOp59
 70
     1
102
RTVSPropertyOp60
 70
     1
102
RTVSPropertyOp61
 70
     1
102
RTVSPropertyOp62
 70
     1
  0
XRECORD
  5
A42
102
{ACAD_REACTORS
330
A41
102
}
330
A41
100
AcDbXrecord
280
     1
102
RTVSPost2010Prop28
280
     0
102
RTVSPost2010PropOp28
 70
     1
102
RTVSPost2010Prop29
280
     1
102
RTVSPost2010PropOp29
 70
     1
102
RTVSPost2010Prop30
280
     1
102
RTVSPost2010PropOp30
 70
     1
102
RTVSPost2010Prop31
280
     0
102
RTVSPost2010PropOp31
 70
     1
102
RTVSPost2010Prop32
280
     0
102
RTVSPost2010PropOp32
 70
     1
102
RTVSPost2010Prop33
280
     0
102
RTVSPost2010PropOp33
 70
     1
102
RTVSPost2010Prop34
280
     0
102
RTVSPost2010PropOp34
 70
     1
102
RTVSPost2010Prop35
280
     0
102
RTVSPost2010PropOp35
 70
     1
102
RTVSPost2010Prop36
280
     0
102
RTVSPost2010PropOp36
 70
     1
102
RTVSPost2010Prop37
 90
       50
102
RTVSPost2010PropOp37
 70
     1
102
RTVSPost2010Prop38
140
0.0
102
RTVSPost2010PropOp38
 70
     1
102
RTVSPost2010Prop39
140
1.0
102
RTVSPost2010PropOp39
 70
     1
102
RTVSPost2010Prop40
 90
        0
102
RTVSPost2010PropOp40
 70
     1
102
RTVSPost2010Prop41ColorIndex
 90
       18
102
RTVSPost2010Prop41ColorRGB
 90
        0
102
RTVSPost2010PropOp41
 70
     1
102
RTVSPost2010Prop42
 90
       50
102
RTVSPost2010PropOp42
 70
     1
102
RTVSPost2010Prop43
 90
        3
102
RTVSPost2010PropOp43
 70
     1
102
RTVSPost2010Prop44ColorIndex
 90
        5
102
RTVSPost2010Prop44ColorRGB
 90
      255
102
RTVSPost2010PropOp44
 70
     1
102
RTVSPost2010Prop45
280
     0
102
RTVSPost2010PropOp45
 70
     1
102
RTVSPost2010Prop46
 90
       50
102
RTVSPost2010PropOp46
 70
     1
102
RTVSPost2010Prop47
 90
       50
102
RTVSPost2010PropOp47
 70
     1
102
RTVSPost2010Prop48
 90
       50
102
RTVSPost2010PropOp48
 70
     1
102
RTVSPost2010Prop49
280
     0
102
RTVSPost2010PropOp49
 70
     1
102
RTVSPost2010Prop50
 90
       50
102
RTVSPost2010PropOp50
 70
     1
102
RTVSPost2010Prop51ColorIndex
 90
      256
102
RTVSPost2010Prop51ColorRGB
 90
-16777216
102
RTVSPost2010PropOp51
 70
     0
102
RTVSPost2010Prop52
140
1.0
102
RTVSPost2010PropOp52
 70
     0
102
RTVSPost2010Prop53
 90
        2
102
RTVSPost2010PropOp53
 70
     1
102
RTVSPost2010Prop54
  1
strokes_ogs.tif
102
RTVSPost2010PropOp54
 70
     1
102
RTVSPost2010Prop55
280
     0
102
RTVSPost2010PropOp55
 70
     1
102
RTVSPost2010Prop56
140
1.0
102
RTVSPost2010PropOp56
 70
     1
102
RTVSPost2010Prop57
140
1.0
102
RTVSPost2010PropOp57
 70
     1
102
RTVSPropertyOp0
 70
     1
102
RTVSPropertyOp1
 70
     1
102
RTVSPropertyOp2
 70
     1
102
RTVSPropertyOp3
 70
     1
102
RTVSPropertyOp4
 70
     1
102
RTVSPropertyOp5
 70
     1
102
RTVSPropertyOp6
 70
     1
102
RTVSPropertyOp7
 70
     1
102
RTVSPropertyOp8
 70
     1
102
RTVSPropertyOp9
 70
     1
102
RTVSPropertyOp10
 70
     1
102
RTVSPropertyOp11
 70
     1
102
RTVSPropertyOp12
 70
     1
102
RTVSPropertyOp13
 70
     1
102
RTVSPropertyOp14
 70
     1
102
RTVSPropertyOp15
 70
     1
102
RTVSPropertyOp16
 70
     1
102
RTVSPropertyOp17
 70
     1
102
RTVSPropertyOp18
 70
     1
102
RTVSPropertyOp19
 70
     1
102
RTVSPropertyOp20
 70
     1
102
RTVSPropertyOp21
 70
     1
102
RTVSPropertyOp22
 70
     1
102
RTVSPropertyOp23
 70
     1
102
RTVSPropertyOp24
 70
     1
102
RTVSPropertyOp25
 70
     1
102
RTVSPropertyOp26
 70
     1
102
RTVSPropertyOp27
 70
     1
102
RTVSPropertyOp28
 70
     1
102
RTVSPropertyOp29
 70
     1
102
RTVSPropertyOp30
 70
     1
102
RTVSPropertyOp31
 70
     1
102
RTVSPropertyOp32
 70
     1
102
RTVSPropertyOp33
 70
     1
102
RTVSPropertyOp34
 70
     1
102
RTVSPropertyOp35
 70
     1
102
RTVSPropertyOp36
 70
     1
102
RTVSPropertyOp37
 70
     1
102
RTVSPropertyOp38
 70
     1
102
RTVSPropertyOp39
 70
     1
102
RTVSPropertyOp40
 70
     1
102
RTVSPropertyOp41
 70
     1
102
RTVSPropertyOp42
 70
     1
102
RTVSPropertyOp43
 70
     1
102
RTVSPropertyOp44
 70
     1
102
RTVSPropertyOp45
 70
     1
102
RTVSPropertyOp46
 70
     1
102
RTVSPropertyOp47
 70
     1
102
RTVSPropertyOp48
 70
     1
102
RTVSPropertyOp49
 70
     1
102
RTVSPropertyOp50
 70
     1
102
RTVSPropertyOp51
 70
     0
102
RTVSPropertyOp52
 70
     0
102
RTVSPropertyOp53
 70
     1
102
RTVSPropertyOp54
 70
     1
102
RTVSPropertyOp55
 70
     1
102
RTVSPropertyOp56
 70
     1
102
RTVSPropertyOp57
 70
     1
102
RTVSPropertyOp58
 70
     1
102
RTVSPropertyOp59
 70
     1
102
RTVSPropertyOp60
 70
     1
102
RTVSPropertyOp61
 70
     1
102
RTVSPropertyOp62
 70
     1
  0
XRECORD
  5
A5C
102
{ACAD_REACTORS
330
A5B
102
}
330
A5B
100
AcDbXrecord
280
     1
102
RTVSPost2010Prop28
280
     0
102
RTVSPost2010PropOp28
 70
     1
102
RTVSPost2010Prop29
280
     1
102
RTVSPost2010PropOp29
 70
     1
102
RTVSPost2010Prop30
280
     1
102
RTVSPost2010PropOp30
 70
     1
102
RTVSPost2010Prop31
280
     0
102
RTVSPost2010PropOp31
 70
     1
102
RTVSPost2010Prop32
280
     0
102
RTVSPost2010PropOp32
 70
     1
102
RTVSPost2010Prop33
280
     0
102
RTVSPost2010PropOp33
 70
     1
102
RTVSPost2010Prop34
280
     0
102
RTVSPost2010PropOp34
 70
     1
102
RTVSPost2010Prop35
280
     0
102
RTVSPost2010PropOp35
 70
     1
102
RTVSPost2010Prop36
280
     0
102
RTVSPost2010PropOp36
 70
     1
102
RTVSPost2010Prop37
 90
       50
102
RTVSPost2010PropOp37
 70
     0
102
RTVSPost2010Prop38
140
0.0
102
RTVSPost2010PropOp38
 70
     0
102
RTVSPost2010Prop39
140
1.0
102
RTVSPost2010PropOp39
 70
     0
102
RTVSPost2010Prop40
 90
        0
102
RTVSPost2010PropOp40
 70
     0
102
RTVSPost2010Prop41ColorIndex
 90
       18
102
RTVSPost2010Prop41ColorRGB
 90
        0
102
RTVSPost2010PropOp41
 70
     0
102
RTVSPost2010Prop42
 90
       50
102
RTVSPost2010PropOp42
 70
     0
102
RTVSPost2010Prop43
 90
        3
102
RTVSPost2010PropOp43
 70
     0
102
RTVSPost2010Prop44ColorIndex
 90
        5
102
RTVSPost2010Prop44ColorRGB
 90
      255
102
RTVSPost2010PropOp44
 70
     0
102
RTVSPost2010Prop45
280
     0
102
RTVSPost2010PropOp45
 70
     1
102
RTVSPost2010Prop46
 90
       50
102
RTVSPost2010PropOp46
 70
     0
102
RTVSPost2010Prop47
 90
       50
102
RTVSPost2010PropOp47
 70
     0
102
RTVSPost2010Prop48
 90
       50
102
RTVSPost2010PropOp48
 70
     0
102
RTVSPost2010Prop49
280
     0
102
RTVSPost2010PropOp49
 70
     1
102
RTVSPost2010Prop50
 90
       50
102
RTVSPost2010PropOp50
 70
     0
102
RTVSPost2010Prop51ColorIndex
 90
      256
102
RTVSPost2010Prop51ColorRGB
 90
-16777216
102
RTVSPost2010PropOp51
 70
     0
102
RTVSPost2010Prop52
140
1.0
102
RTVSPost2010PropOp52
 70
     0
102
RTVSPost2010Prop53
 90
        2
102
RTVSPost2010PropOp53
 70
     0
102
RTVSPost2010Prop54
  1
strokes_ogs.tif
102
RTVSPost2010PropOp54
 70
     0
102
RTVSPost2010Prop55
280
     0
102
RTVSPost2010PropOp55
 70
     1
102
RTVSPost2010Prop56
140
1.0
102
RTVSPost2010PropOp56
 70
     0
102
RTVSPost2010Prop57
140
1.0
102
RTVSPost2010PropOp57
 70
     0
102
RTVSPropertyOp0
 70
     0
102
RTVSPropertyOp1
 70
     0
102
RTVSPropertyOp2
 70
     0
102
RTVSPropertyOp3
 70
     0
102
RTVSPropertyOp4
 70
     0
102
RTVSPropertyOp5
 70
     0
102
RTVSPropertyOp6
 70
     0
102
RTVSPropertyOp7
 70
     0
102
RTVSPropertyOp8
 70
     0
102
RTVSPropertyOp9
 70
     0
102
RTVSPropertyOp10
 70
     0
102
RTVSPropertyOp11
 70
     0
102
RTVSPropertyOp12
 70
     0
102
RTVSPropertyOp13
 70
     0
102
RTVSPropertyOp14
 70
     2
102
RTVSPropertyOp15
 70
     0
102
RTVSPropertyOp16
 70
     0
102
RTVSPropertyOp17
 70
     0
102
RTVSPropertyOp18
 70
     0
102
RTVSPropertyOp19
 70
     0
102
RTVSPropertyOp20
 70
     0
102
RTVSPropertyOp21
 70
     0
102
RTVSPropertyOp22
 70
     0
102
RTVSPropertyOp23
 70
     0
102
RTVSPropertyOp24
 70
     0
102
RTVSPropertyOp25
 70
     0
102
RTVSPropertyOp26
 70
     0
102
RTVSPropertyOp27
 70
     0
102
RTVSPropertyOp28
 70
     1
102
RTVSPropertyOp29
 70
     1
102
RTVSPropertyOp30
 70
     1
102
RTVSPropertyOp31
 70
     1
102
RTVSPropertyOp32
 70
     1
102
RTVSPropertyOp33
 70
     1
102
RTVSPropertyOp34
 70
     1
102
RTVSPropertyOp35
 70
     1
102
RTVSPropertyOp36
 70
     1
102
RTVSPropertyOp37
 70
     0
102
RTVSPropertyOp38
 70
     0
102
RTVSPropertyOp39
 70
     0
102
RTVSPropertyOp40
 70
     0
102
RTVSPropertyOp41
 70
     0
102
RTVSPropertyOp42
 70
     0
102
RTVSPropertyOp43
 70
     0
102
RTVSPropertyOp44
 70
     0
102
RTVSPropertyOp45
 70
     1
102
RTVSPropertyOp46
 70
     0
102
RTVSPropertyOp47
 70
     0
102
RTVSPropertyOp48
 70
     0
102
RTVSPropertyOp49
 70
     1
102
RTVSPropertyOp50
 70
     0
102
RTVSPropertyOp51
 70
     0
102
RTVSPropertyOp52
 70
     0
102
RTVSPropertyOp53
 70
     0
102
RTVSPropertyOp54
 70
     0
102
RTVSPropertyOp55
 70
     1
102
RTVSPropertyOp56
 70
     0
102
RTVSPropertyOp57
 70
     0
102
RTVSPropertyOp58
 70
     1
102
RTVSPropertyOp59
 70
     1
102
RTVSPropertyOp60
 70
     1
102
RTVSPropertyOp61
 70
     1
102
RTVSPropertyOp62
 70
     1
  0
XRECORD
  5
A4A
102
{ACAD_REACTORS
330
A49
102
}
330
A49
100
AcDbXrecord
280
     1
102
RTVSPost2010Prop28
280
     0
102
RTVSPost2010PropOp28
 70
     1
102
RTVSPost2010Prop29
280
     1
102
RTVSPost2010PropOp29
 70
     1
102
RTVSPost2010Prop30
280
     1
102
RTVSPost2010PropOp30
 70
     1
102
RTVSPost2010Prop31
280
     0
102
RTVSPost2010PropOp31
 70
     1
102
RTVSPost2010Prop32
280
     0
102
RTVSPost2010PropOp32
 70
     1
102
RTVSPost2010Prop33
280
     0
102
RTVSPost2010PropOp33
 70
     1
102
RTVSPost2010Prop34
280
     0
102
RTVSPost2010PropOp34
 70
     1
102
RTVSPost2010Prop35
280
     0
102
RTVSPost2010PropOp35
 70
     1
102
RTVSPost2010Prop36
280
     0
102
RTVSPost2010PropOp36
 70
     1
102
RTVSPost2010Prop37
 90
       50
102
RTVSPost2010PropOp37
 70
     1
102
RTVSPost2010Prop38
140
0.0
102
RTVSPost2010PropOp38
 70
     1
102
RTVSPost2010Prop39
140
1.0
102
RTVSPost2010PropOp39
 70
     1
102
RTVSPost2010Prop40
 90
        0
102
RTVSPost2010PropOp40
 70
     1
102
RTVSPost2010Prop41ColorIndex
 90
       18
102
RTVSPost2010Prop41ColorRGB
 90
        0
102
RTVSPost2010PropOp41
 70
     1
102
RTVSPost2010Prop42
 90
       50
102
RTVSPost2010PropOp42
 70
     1
102
RTVSPost2010Prop43
 90
        3
102
RTVSPost2010PropOp43
 70
     1
102
RTVSPost2010Prop44ColorIndex
 90
        5
102
RTVSPost2010Prop44ColorRGB
 90
      255
102
RTVSPost2010PropOp44
 70
     1
102
RTVSPost2010Prop45
280
     0
102
RTVSPost2010PropOp45
 70
     1
102
RTVSPost2010Prop46
 90
       50
102
RTVSPost2010PropOp46
 70
     1
102
RTVSPost2010Prop47
 90
       50
102
RTVSPost2010PropOp47
 70
     1
102
RTVSPost2010Prop48
 90
       50
102
RTVSPost2010PropOp48
 70
     1
102
RTVSPost2010Prop49
280
     0
102
RTVSPost2010PropOp49
 70
     1
102
RTVSPost2010Prop50
 90
       50
102
RTVSPost2010PropOp50
 70
     1
102
RTVSPost2010Prop51ColorIndex
 90
      256
102
RTVSPost2010Prop51ColorRGB
 90
-16777216
102
RTVSPost2010PropOp51
 70
     0
102
RTVSPost2010Prop52
140
1.0
102
RTVSPost2010PropOp52
 70
     0
102
RTVSPost2010Prop53
 90
        2
102
RTVSPost2010PropOp53
 70
     1
102
RTVSPost2010Prop54
  1
strokes_ogs.tif
102
RTVSPost2010PropOp54
 70
     1
102
RTVSPost2010Prop55
280
     0
102
RTVSPost2010PropOp55
 70
     1
102
RTVSPost2010Prop56
140
1.0
102
RTVSPost2010PropOp56
 70
     1
102
RTVSPost2010Prop57
140
1.0
102
RTVSPost2010PropOp57
 70
     1
102
RTVSPropertyOp0
 70
     1
102
RTVSPropertyOp1
 70
     1
102
RTVSPropertyOp2
 70
     1
102
RTVSPropertyOp3
 70
     1
102
RTVSPropertyOp4
 70
     1
102
RTVSPropertyOp5
 70
     1
102
RTVSPropertyOp6
 70
     1
102
RTVSPropertyOp7
 70
     1
102
RTVSPropertyOp8
 70
     1
102
RTVSPropertyOp9
 70
     1
102
RTVSPropertyOp10
 70
     1
102
RTVSPropertyOp11
 70
     1
102
RTVSPropertyOp12
 70
     1
102
RTVSPropertyOp13
 70
     1
102
RTVSPropertyOp14
 70
     1
102
RTVSPropertyOp15
 70
     1
102
RTVSPropertyOp16
 70
     1
102
RTVSPropertyOp17
 70
     1
102
RTVSPropertyOp18
 70
     1
102
RTVSPropertyOp19
 70
     1
102
RTVSPropertyOp20
 70
     1
102
RTVSPropertyOp21
 70
     1
102
RTVSPropertyOp22
 70
     1
102
RTVSPropertyOp23
 70
     1
102
RTVSPropertyOp24
 70
     1
102
RTVSPropertyOp25
 70
     1
102
RTVSPropertyOp26
 70
     1
102
RTVSPropertyOp27
 70
     1
102
RTVSPropertyOp28
 70
     1
102
RTVSPropertyOp29
 70
     1
102
RTVSPropertyOp30
 70
     1
102
RTVSPropertyOp31
 70
     1
102
RTVSPropertyOp32
 70
     1
102
RTVSPropertyOp33
 70
     1
102
RTVSPropertyOp34
 70
     1
102
RTVSPropertyOp35
 70
     1
102
RTVSPropertyOp36
 70
     1
102
RTVSPropertyOp37
 70
     1
102
RTVSPropertyOp38
 70
     1
102
RTVSPropertyOp39
 70
     1
102
RTVSPropertyOp40
 70
     1
102
RTVSPropertyOp41
 70
     1
102
RTVSPropertyOp42
 70
     1
102
RTVSPropertyOp43
 70
     1
102
RTVSPropertyOp44
 70
     1
102
RTVSPropertyOp45
 70
     1
102
RTVSPropertyOp46
 70
     1
102
RTVSPropertyOp47
 70
     1
102
RTVSPropertyOp48
 70
     1
102
RTVSPropertyOp49
 70
     1
102
RTVSPropertyOp50
 70
     1
102
RTVSPropertyOp51
 70
     0
102
RTVSPropertyOp52
 70
     0
102
RTVSPropertyOp53
 70
     1
102
RTVSPropertyOp54
 70
     1
102
RTVSPropertyOp55
 70
     1
102
RTVSPropertyOp56
 70
     1
102
RTVSPropertyOp57
 70
     1
102
RTVSPropertyOp58
 70
     1
102
RTVSPropertyOp59
 70
     1
102
RTVSPropertyOp60
 70
     1
102
RTVSPropertyOp61
 70
     1
102
RTVSPropertyOp62
 70
     1
  0
XRECORD
  5
A2E
102
{ACAD_REACTORS
330
A2D
102
}
330
A2D
100
AcDbXrecord
280
     1
102
RTVSPost2010Prop28
280
     0
102
RTVSPost2010PropOp28
 70
     1
102
RTVSPost2010Prop29
280
     1
102
RTVSPost2010PropOp29
 70
     1
102
RTVSPost2010Prop30
280
     1
102
RTVSPost2010PropOp30
 70
     1
102
RTVSPost2010Prop31
280
     0
102
RTVSPost2010PropOp31
 70
     1
102
RTVSPost2010Prop32
280
     0
102
RTVSPost2010PropOp32
 70
     1
102
RTVSPost2010Prop33
280
     0
102
RTVSPost2010PropOp33
 70
     1
102
RTVSPost2010Prop34
280
     0
102
RTVSPost2010PropOp34
 70
     1
102
RTVSPost2010Prop35
280
     0
102
RTVSPost2010PropOp35
 70
     1
102
RTVSPost2010Prop36
280
     0
102
RTVSPost2010PropOp36
 70
     1
102
RTVSPost2010Prop37
 90
       50
102
RTVSPost2010PropOp37
 70
     1
102
RTVSPost2010Prop38
140
0.0
102
RTVSPost2010PropOp38
 70
     1
102
RTVSPost2010Prop39
140
1.0
102
RTVSPost2010PropOp39
 70
     1
102
RTVSPost2010Prop40
 90
        0
102
RTVSPost2010PropOp40
 70
     1
102
RTVSPost2010Prop41ColorIndex
 90
       18
102
RTVSPost2010Prop41ColorRGB
 90
        0
102
RTVSPost2010PropOp41
 70
     1
102
RTVSPost2010Prop42
 90
       50
102
RTVSPost2010PropOp42
 70
     1
102
RTVSPost2010Prop43
 90
        3
102
RTVSPost2010PropOp43
 70
     1
102
RTVSPost2010Prop44ColorIndex
 90
        5
102
RTVSPost2010Prop44ColorRGB
 90
      255
102
RTVSPost2010PropOp44
 70
     1
102
RTVSPost2010Prop45
280
     0
102
RTVSPost2010PropOp45
 70
     1
102
RTVSPost2010Prop46
 90
       50
102
RTVSPost2010PropOp46
 70
     1
102
RTVSPost2010Prop47
 90
       50
102
RTVSPost2010PropOp47
 70
     1
102
RTVSPost2010Prop48
 90
       50
102
RTVSPost2010PropOp48
 70
     1
102
RTVSPost2010Prop49
280
     0
102
RTVSPost2010PropOp49
 70
     1
102
RTVSPost2010Prop50
 90
       50
102
RTVSPost2010PropOp50
 70
     1
102
RTVSPost2010Prop51ColorIndex
 90
      256
102
RTVSPost2010Prop51ColorRGB
 90
-16777216
102
RTVSPost2010PropOp51
 70
     0
102
RTVSPost2010Prop52
140
1.0
102
RTVSPost2010PropOp52
 70
     0
102
RTVSPost2010Prop53
 90
        2
102
RTVSPost2010PropOp53
 70
     1
102
RTVSPost2010Prop54
  1
strokes_ogs.tif
102
RTVSPost2010PropOp54
 70
     1
102
RTVSPost2010Prop55
280
     0
102
RTVSPost2010PropOp55
 70
     1
102
RTVSPost2010Prop56
140
1.0
102
RTVSPost2010PropOp56
 70
     1
102
RTVSPost2010Prop57
140
1.0
102
RTVSPost2010PropOp57
 70
     1
102
RTVSPropertyOp0
 70
     1
102
RTVSPropertyOp1
 70
     1
102
RTVSPropertyOp2
 70
     1
102
RTVSPropertyOp3
 70
     1
102
RTVSPropertyOp4
 70
     1
102
RTVSPropertyOp5
 70
     1
102
RTVSPropertyOp6
 70
     1
102
RTVSPropertyOp7
 70
     1
102
RTVSPropertyOp8
 70
     1
102
RTVSPropertyOp9
 70
     1
102
RTVSPropertyOp10
 70
     1
102
RTVSPropertyOp11
 70
     1
102
RTVSPropertyOp12
 70
     1
102
RTVSPropertyOp13
 70
     1
102
RTVSPropertyOp14
 70
     1
102
RTVSPropertyOp15
 70
     1
102
RTVSPropertyOp16
 70
     1
102
RTVSPropertyOp17
 70
     1
102
RTVSPropertyOp18
 70
     1
102
RTVSPropertyOp19
 70
     1
102
RTVSPropertyOp20
 70
     1
102
RTVSPropertyOp21
 70
     1
102
RTVSPropertyOp22
 70
     1
102
RTVSPropertyOp23
 70
     1
102
RTVSPropertyOp24
 70
     1
102
RTVSPropertyOp25
 70
     1
102
RTVSPropertyOp26
 70
     1
102
RTVSPropertyOp27
 70
     1
102
RTVSPropertyOp28
 70
     1
102
RTVSPropertyOp29
 70
     1
102
RTVSPropertyOp30
 70
     1
102
RTVSPropertyOp31
 70
     1
102
RTVSPropertyOp32
 70
     1
102
RTVSPropertyOp33
 70
     1
102
RTVSPropertyOp34
 70
     1
102
RTVSPropertyOp35
 70
     1
102
RTVSPropertyOp36
 70
     1
102
RTVSPropertyOp37
 70
     1
102
RTVSPropertyOp38
 70
     1
102
RTVSPropertyOp39
 70
     1
102
RTVSPropertyOp40
 70
     1
102
RTVSPropertyOp41
 70
     1
102
RTVSPropertyOp42
 70
     1
102
RTVSPropertyOp43
 70
     1
102
RTVSPropertyOp44
 70
     1
102
RTVSPropertyOp45
 70
     1
102
RTVSPropertyOp46
 70
     1
102
RTVSPropertyOp47
 70
     1
102
RTVSPropertyOp48
 70
     1
102
RTVSPropertyOp49
 70
     1
102
RTVSPropertyOp50
 70
     1
102
RTVSPropertyOp51
 70
     0
102
RTVSPropertyOp52
 70
     0
102
RTVSPropertyOp53
 70
     1
102
RTVSPropertyOp54
 70
     1
102
RTVSPropertyOp55
 70
     1
102
RTVSPropertyOp56
 70
     1
102
RTVSPropertyOp57
 70
     1
102
RTVSPropertyOp58
 70
     1
102
RTVSPropertyOp59
 70
     1
102
RTVSPropertyOp60
 70
     1
102
RTVSPropertyOp61
 70
     1
102
RTVSPropertyOp62
 70
     1
  0
XRECORD
  5
A30
102
{ACAD_REACTORS
330
A2F
102
}
330
A2F
100
AcDbXrecord
280
     1
102
RTVSPost2010Prop28
280
     0
102
RTVSPost2010PropOp28
 70
     1
102
RTVSPost2010Prop29
280
     1
102
RTVSPost2010PropOp29
 70
     1
102
RTVSPost2010Prop30
280
     1
102
RTVSPost2010PropOp30
 70
     1
102
RTVSPost2010Prop31
280
     0
102
RTVSPost2010PropOp31
 70
     1
102
RTVSPost2010Prop32
280
     0
102
RTVSPost2010PropOp32
 70
     1
102
RTVSPost2010Prop33
280
     0
102
RTVSPost2010PropOp33
 70
     1
102
RTVSPost2010Prop34
280
     0
102
RTVSPost2010PropOp34
 70
     1
102
RTVSPost2010Prop35
280
     0
102
RTVSPost2010PropOp35
 70
     1
102
RTVSPost2010Prop36
280
     0
102
RTVSPost2010PropOp36
 70
     1
102
RTVSPost2010Prop37
 90
       50
102
RTVSPost2010PropOp37
 70
     1
102
RTVSPost2010Prop38
140
0.0
102
RTVSPost2010PropOp38
 70
     1
102
RTVSPost2010Prop39
140
1.0
102
RTVSPost2010PropOp39
 70
     1
102
RTVSPost2010Prop40
 90
        0
102
RTVSPost2010PropOp40
 70
     1
102
RTVSPost2010Prop41ColorIndex
 90
       18
102
RTVSPost2010Prop41ColorRGB
 90
        0
102
RTVSPost2010PropOp41
 70
     1
102
RTVSPost2010Prop42
 90
       50
102
RTVSPost2010PropOp42
 70
     1
102
RTVSPost2010Prop43
 90
        3
102
RTVSPost2010PropOp43
 70
     1
102
RTVSPost2010Prop44ColorIndex
 90
        5
102
RTVSPost2010Prop44ColorRGB
 90
      255
102
RTVSPost2010PropOp44
 70
     1
102
RTVSPost2010Prop45
280
     0
102
RTVSPost2010PropOp45
 70
     1
102
RTVSPost2010Prop46
 90
       50
102
RTVSPost2010PropOp46
 70
     1
102
RTVSPost2010Prop47
 90
       50
102
RTVSPost2010PropOp47
 70
     1
102
RTVSPost2010Prop48
 90
       50
102
RTVSPost2010PropOp48
 70
     1
102
RTVSPost2010Prop49
280
     0
102
RTVSPost2010PropOp49
 70
     1
102
RTVSPost2010Prop50
 90
       50
102
RTVSPost2010PropOp50
 70
     1
102
RTVSPost2010Prop51ColorIndex
 90
      256
102
RTVSPost2010Prop51ColorRGB
 90
-16777216
102
RTVSPost2010PropOp51
 70
     0
102
RTVSPost2010Prop52
140
1.0
102
RTVSPost2010PropOp52
 70
     0
102
RTVSPost2010Prop53
 90
        2
102
RTVSPost2010PropOp53
 70
     1
102
RTVSPost2010Prop54
  1
strokes_ogs.tif
102
RTVSPost2010PropOp54
 70
     1
102
RTVSPost2010Prop55
280
     0
102
RTVSPost2010PropOp55
 70
     1
102
RTVSPost2010Prop56
140
1.0
102
RTVSPost2010PropOp56
 70
     1
102
RTVSPost2010Prop57
140
1.0
102
RTVSPost2010PropOp57
 70
     1
102
RTVSPropertyOp0
 70
     1
102
RTVSPropertyOp1
 70
     1
102
RTVSPropertyOp2
 70
     1
102
RTVSPropertyOp3
 70
     1
102
RTVSPropertyOp4
 70
     1
102
RTVSPropertyOp5
 70
     1
102
RTVSPropertyOp6
 70
     1
102
RTVSPropertyOp7
 70
     1
102
RTVSPropertyOp8
 70
     1
102
RTVSPropertyOp9
 70
     1
102
RTVSPropertyOp10
 70
     1
102
RTVSPropertyOp11
 70
     1
102
RTVSPropertyOp12
 70
     1
102
RTVSPropertyOp13
 70
     1
102
RTVSPropertyOp14
 70
     1
102
RTVSPropertyOp15
 70
     1
102
RTVSPropertyOp16
 70
     1
102
RTVSPropertyOp17
 70
     1
102
RTVSPropertyOp18
 70
     1
102
RTVSPropertyOp19
 70
     1
102
RTVSPropertyOp20
 70
     1
102
RTVSPropertyOp21
 70
     1
102
RTVSPropertyOp22
 70
     1
102
RTVSPropertyOp23
 70
     1
102
RTVSPropertyOp24
 70
     1
102
RTVSPropertyOp25
 70
     1
102
RTVSPropertyOp26
 70
     1
102
RTVSPropertyOp27
 70
     1
102
RTVSPropertyOp28
 70
     1
102
RTVSPropertyOp29
 70
     1
102
RTVSPropertyOp30
 70
     1
102
RTVSPropertyOp31
 70
     1
102
RTVSPropertyOp32
 70
     1
102
RTVSPropertyOp33
 70
     1
102
RTVSPropertyOp34
 70
     1
102
RTVSPropertyOp35
 70
     1
102
RTVSPropertyOp36
 70
     1
102
RTVSPropertyOp37
 70
     1
102
RTVSPropertyOp38
 70
     1
102
RTVSPropertyOp39
 70
     1
102
RTVSPropertyOp40
 70
     1
102
RTVSPropertyOp41
 70
     1
102
RTVSPropertyOp42
 70
     1
102
RTVSPropertyOp43
 70
     1
102
RTVSPropertyOp44
 70
     1
102
RTVSPropertyOp45
 70
     1
102
RTVSPropertyOp46
 70
     1
102
RTVSPropertyOp47
 70
     1
102
RTVSPropertyOp48
 70
     1
102
RTVSPropertyOp49
 70
     1
102
RTVSPropertyOp50
 70
     1
102
RTVSPropertyOp51
 70
     0
102
RTVSPropertyOp52
 70
     0
102
RTVSPropertyOp53
 70
     1
102
RTVSPropertyOp54
 70
     1
102
RTVSPropertyOp55
 70
     1
102
RTVSPropertyOp56
 70
     1
102
RTVSPropertyOp57
 70
     1
102
RTVSPropertyOp58
 70
     1
102
RTVSPropertyOp59
 70
     1
102
RTVSPropertyOp60
 70
     1
102
RTVSPropertyOp61
 70
     1
102
RTVSPropertyOp62
 70
     1
  0
XRECORD
  5
A32
102
{ACAD_REACTORS
330
A31
102
}
330
A31
100
AcDbXrecord
280
     1
102
RTVSPost2010Prop28
280
     0
102
RTVSPost2010PropOp28
 70
     1
102
RTVSPost2010Prop29
280
     1
102
RTVSPost2010PropOp29
 70
     1
102
RTVSPost2010Prop30
280
     1
102
RTVSPost2010PropOp30
 70
     1
102
RTVSPost2010Prop31
280
     0
102
RTVSPost2010PropOp31
 70
     1
102
RTVSPost2010Prop32
280
     0
102
RTVSPost2010PropOp32
 70
     1
102
RTVSPost2010Prop33
280
     0
102
RTVSPost2010PropOp33
 70
     1
102
RTVSPost2010Prop34
280
     0
102
RTVSPost2010PropOp34
 70
     1
102
RTVSPost2010Prop35
280
     0
102
RTVSPost2010PropOp35
 70
     1
102
RTVSPost2010Prop36
280
     0
102
RTVSPost2010PropOp36
 70
     1
102
RTVSPost2010Prop37
 90
       50
102
RTVSPost2010PropOp37
 70
     1
102
RTVSPost2010Prop38
140
0.0
102
RTVSPost2010PropOp38
 70
     1
102
RTVSPost2010Prop39
140
1.0
102
RTVSPost2010PropOp39
 70
     1
102
RTVSPost2010Prop40
 90
        0
102
RTVSPost2010PropOp40
 70
     1
102
RTVSPost2010Prop41ColorIndex
 90
       18
102
RTVSPost2010Prop41ColorRGB
 90
        0
102
RTVSPost2010PropOp41
 70
     1
102
RTVSPost2010Prop42
 90
       50
102
RTVSPost2010PropOp42
 70
     1
102
RTVSPost2010Prop43
 90
        3
102
RTVSPost2010PropOp43
 70
     1
102
RTVSPost2010Prop44ColorIndex
 90
        5
102
RTVSPost2010Prop44ColorRGB
 90
      255
102
RTVSPost2010PropOp44
 70
     1
102
RTVSPost2010Prop45
280
     0
102
RTVSPost2010PropOp45
 70
     1
102
RTVSPost2010Prop46
 90
       50
102
RTVSPost2010PropOp46
 70
     1
102
RTVSPost2010Prop47
 90
       50
102
RTVSPost2010PropOp47
 70
     1
102
RTVSPost2010Prop48
 90
       50
102
RTVSPost2010PropOp48
 70
     1
102
RTVSPost2010Prop49
280
     0
102
RTVSPost2010PropOp49
 70
     1
102
RTVSPost2010Prop50
 90
       50
102
RTVSPost2010PropOp50
 70
     1
102
RTVSPost2010Prop51ColorIndex
 90
      256
102
RTVSPost2010Prop51ColorRGB
 90
-16777216
102
RTVSPost2010PropOp51
 70
     0
102
RTVSPost2010Prop52
140
1.0
102
RTVSPost2010PropOp52
 70
     0
102
RTVSPost2010Prop53
 90
        2
102
RTVSPost2010PropOp53
 70
     1
102
RTVSPost2010Prop54
  1
strokes_ogs.tif
102
RTVSPost2010PropOp54
 70
     1
102
RTVSPost2010Prop55
280
     0
102
RTVSPost2010PropOp55
 70
     1
102
RTVSPost2010Prop56
140
1.0
102
RTVSPost2010PropOp56
 70
     1
102
RTVSPost2010Prop57
140
1.0
102
RTVSPost2010PropOp57
 70
     1
102
RTVSPropertyOp0
 70
     1
102
RTVSPropertyOp1
 70
     1
102
RTVSPropertyOp2
 70
     1
102
RTVSPropertyOp3
 70
     1
102
RTVSPropertyOp4
 70
     1
102
RTVSPropertyOp5
 70
     1
102
RTVSPropertyOp6
 70
     1
102
RTVSPropertyOp7
 70
     1
102
RTVSPropertyOp8
 70
     1
102
RTVSPropertyOp9
 70
     1
102
RTVSPropertyOp10
 70
     1
102
RTVSPropertyOp11
 70
     1
102
RTVSPropertyOp12
 70
     1
102
RTVSPropertyOp13
 70
     1
102
RTVSPropertyOp14
 70
     1
102
RTVSPropertyOp15
 70
     1
102
RTVSPropertyOp16
 70
     1
102
RTVSPropertyOp17
 70
     1
102
RTVSPropertyOp18
 70
     1
102
RTVSPropertyOp19
 70
     1
102
RTVSPropertyOp20
 70
     1
102
RTVSPropertyOp21
 70
     1
102
RTVSPropertyOp22
 70
     1
102
RTVSPropertyOp23
 70
     1
102
RTVSPropertyOp24
 70
     1
102
RTVSPropertyOp25
 70
     1
102
RTVSPropertyOp26
 70
     1
102
RTVSPropertyOp27
 70
     1
102
RTVSPropertyOp28
 70
     1
102
RTVSPropertyOp29
 70
     1
102
RTVSPropertyOp30
 70
     1
102
RTVSPropertyOp31
 70
     1
102
RTVSPropertyOp32
 70
     1
102
RTVSPropertyOp33
 70
     1
102
RTVSPropertyOp34
 70
     1
102
RTVSPropertyOp35
 70
     1
102
RTVSPropertyOp36
 70
     1
102
RTVSPropertyOp37
 70
     1
102
RTVSPropertyOp38
 70
     1
102
RTVSPropertyOp39
 70
     1
102
RTVSPropertyOp40
 70
     1
102
RTVSPropertyOp41
 70
     1
102
RTVSPropertyOp42
 70
     1
102
RTVSPropertyOp43
 70
     1
102
RTVSPropertyOp44
 70
     1
102
RTVSPropertyOp45
 70
     1
102
RTVSPropertyOp46
 70
     1
102
RTVSPropertyOp47
 70
     1
102
RTVSPropertyOp48
 70
     1
102
RTVSPropertyOp49
 70
     1
102
RTVSPropertyOp50
 70
     1
102
RTVSPropertyOp51
 70
     0
102
RTVSPropertyOp52
 70
     0
102
RTVSPropertyOp53
 70
     1
102
RTVSPropertyOp54
 70
     1
102
RTVSPropertyOp55
 70
     1
102
RTVSPropertyOp56
 70
     1
102
RTVSPropertyOp57
 70
     1
102
RTVSPropertyOp58
 70
     1
102
RTVSPropertyOp59
 70
     1
102
RTVSPropertyOp60
 70
     1
102
RTVSPropertyOp61
 70
     1
102
RTVSPropertyOp62
 70
     1
  0
XRECORD
  5
A34
102
{ACAD_REACTORS
330
A33
102
}
330
A33
100
AcDbXrecord
280
     1
102
RTVSPost2010Prop28
280
     0
102
RTVSPost2010PropOp28
 70
     1
102
RTVSPost2010Prop29
280
     1
102
RTVSPost2010PropOp29
 70
     1
102
RTVSPost2010Prop30
280
     1
102
RTVSPost2010PropOp30
 70
     1
102
RTVSPost2010Prop31
280
     0
102
RTVSPost2010PropOp31
 70
     1
102
RTVSPost2010Prop32
280
     0
102
RTVSPost2010PropOp32
 70
     1
102
RTVSPost2010Prop33
280
     0
102
RTVSPost2010PropOp33
 70
     1
102
RTVSPost2010Prop34
280
     0
102
RTVSPost2010PropOp34
 70
     1
102
RTVSPost2010Prop35
280
     0
102
RTVSPost2010PropOp35
 70
     1
102
RTVSPost2010Prop36
280
     0
102
RTVSPost2010PropOp36
 70
     1
102
RTVSPost2010Prop37
 90
       50
102
RTVSPost2010PropOp37
 70
     1
102
RTVSPost2010Prop38
140
0.0
102
RTVSPost2010PropOp38
 70
     1
102
RTVSPost2010Prop39
140
1.0
102
RTVSPost2010PropOp39
 70
     1
102
RTVSPost2010Prop40
 90
        0
102
RTVSPost2010PropOp40
 70
     1
102
RTVSPost2010Prop41ColorIndex
 90
       18
102
RTVSPost2010Prop41ColorRGB
 90
        0
102
RTVSPost2010PropOp41
 70
     1
102
RTVSPost2010Prop42
 90
       50
102
RTVSPost2010PropOp42
 70
     1
102
RTVSPost2010Prop43
 90
        3
102
RTVSPost2010PropOp43
 70
     1
102
RTVSPost2010Prop44ColorIndex
 90
        5
102
RTVSPost2010Prop44ColorRGB
 90
      255
102
RTVSPost2010PropOp44
 70
     1
102
RTVSPost2010Prop45
280
     0
102
RTVSPost2010PropOp45
 70
     1
102
RTVSPost2010Prop46
 90
       50
102
RTVSPost2010PropOp46
 70
     1
102
RTVSPost2010Prop47
 90
       50
102
RTVSPost2010PropOp47
 70
     1
102
RTVSPost2010Prop48
 90
       50
102
RTVSPost2010PropOp48
 70
     1
102
RTVSPost2010Prop49
280
     0
102
RTVSPost2010PropOp49
 70
     1
102
RTVSPost2010Prop50
 90
       50
102
RTVSPost2010PropOp50
 70
     1
102
RTVSPost2010Prop51ColorIndex
 90
      256
102
RTVSPost2010Prop51ColorRGB
 90
-16777216
102
RTVSPost2010PropOp51
 70
     0
102
RTVSPost2010Prop52
140
1.0
102
RTVSPost2010PropOp52
 70
     0
102
RTVSPost2010Prop53
 90
        2
102
RTVSPost2010PropOp53
 70
     1
102
RTVSPost2010Prop54
  1
strokes_ogs.tif
102
RTVSPost2010PropOp54
 70
     1
102
RTVSPost2010Prop55
280
     0
102
RTVSPost2010PropOp55
 70
     1
102
RTVSPost2010Prop56
140
1.0
102
RTVSPost2010PropOp56
 70
     1
102
RTVSPost2010Prop57
140
1.0
102
RTVSPost2010PropOp57
 70
     1
102
RTVSPropertyOp0
 70
     1
102
RTVSPropertyOp1
 70
     1
102
RTVSPropertyOp2
 70
     1
102
RTVSPropertyOp3
 70
     1
102
RTVSPropertyOp4
 70
     1
102
RTVSPropertyOp5
 70
     1
102
RTVSPropertyOp6
 70
     1
102
RTVSPropertyOp7
 70
     1
102
RTVSPropertyOp8
 70
     1
102
RTVSPropertyOp9
 70
     1
102
RTVSPropertyOp10
 70
     1
102
RTVSPropertyOp11
 70
     1
102
RTVSPropertyOp12
 70
     1
102
RTVSPropertyOp13
 70
     1
102
RTVSPropertyOp14
 70
     1
102
RTVSPropertyOp15
 70
     1
102
RTVSPropertyOp16
 70
     1
102
RTVSPropertyOp17
 70
     1
102
RTVSPropertyOp18
 70
     1
102
RTVSPropertyOp19
 70
     1
102
RTVSPropertyOp20
 70
     1
102
RTVSPropertyOp21
 70
     1
102
RTVSPropertyOp22
 70
     1
102
RTVSPropertyOp23
 70
     1
102
RTVSPropertyOp24
 70
     1
102
RTVSPropertyOp25
 70
     1
102
RTVSPropertyOp26
 70
     1
102
RTVSPropertyOp27
 70
     1
102
RTVSPropertyOp28
 70
     1
102
RTVSPropertyOp29
 70
     1
102
RTVSPropertyOp30
 70
     1
102
RTVSPropertyOp31
 70
     1
102
RTVSPropertyOp32
 70
     1
102
RTVSPropertyOp33
 70
     1
102
RTVSPropertyOp34
 70
     1
102
RTVSPropertyOp35
 70
     1
102
RTVSPropertyOp36
 70
     1
102
RTVSPropertyOp37
 70
     1
102
RTVSPropertyOp38
 70
     1
102
RTVSPropertyOp39
 70
     1
102
RTVSPropertyOp40
 70
     1
102
RTVSPropertyOp41
 70
     1
102
RTVSPropertyOp42
 70
     1
102
RTVSPropertyOp43
 70
     1
102
RTVSPropertyOp44
 70
     1
102
RTVSPropertyOp45
 70
     1
102
RTVSPropertyOp46
 70
     1
102
RTVSPropertyOp47
 70
     1
102
RTVSPropertyOp48
 70
     1
102
RTVSPropertyOp49
 70
     1
102
RTVSPropertyOp50
 70
     1
102
RTVSPropertyOp51
 70
     0
102
RTVSPropertyOp52
 70
     0
102
RTVSPropertyOp53
 70
     1
102
RTVSPropertyOp54
 70
     1
102
RTVSPropertyOp55
 70
     1
102
RTVSPropertyOp56
 70
     1
102
RTVSPropertyOp57
 70
     1
102
RTVSPropertyOp58
 70
     1
102
RTVSPropertyOp59
 70
     1
102
RTVSPropertyOp60
 70
     1
102
RTVSPropertyOp61
 70
     1
102
RTVSPropertyOp62
 70
     1
  0
XRECORD
  5
A3C
102
{ACAD_REACTORS
330
A3B
102
}
330
A3B
100
AcDbXrecord
280
     1
102
RTVSPost2010Prop28
280
     0
102
RTVSPost2010PropOp28
 70
     1
102
RTVSPost2010Prop29
280
     1
102
RTVSPost2010PropOp29
 70
     1
102
RTVSPost2010Prop30
280
     1
102
RTVSPost2010PropOp30
 70
     1
102
RTVSPost2010Prop31
280
     0
102
RTVSPost2010PropOp31
 70
     1
102
RTVSPost2010Prop32
280
     0
102
RTVSPost2010PropOp32
 70
     1
102
RTVSPost2010Prop33
280
     0
102
RTVSPost2010PropOp33
 70
     1
102
RTVSPost2010Prop34
280
     0
102
RTVSPost2010PropOp34
 70
     1
102
RTVSPost2010Prop35
280
     0
102
RTVSPost2010PropOp35
 70
     1
102
RTVSPost2010Prop36
280
     0
102
RTVSPost2010PropOp36
 70
     1
102
RTVSPost2010Prop37
 90
       50
102
RTVSPost2010PropOp37
 70
     1
102
RTVSPost2010Prop38
140
0.0
102
RTVSPost2010PropOp38
 70
     1
102
RTVSPost2010Prop39
140
1.0
102
RTVSPost2010PropOp39
 70
     1
102
RTVSPost2010Prop40
 90
        0
102
RTVSPost2010PropOp40
 70
     1
102
RTVSPost2010Prop41ColorIndex
 90
       18
102
RTVSPost2010Prop41ColorRGB
 90
        0
102
RTVSPost2010PropOp41
 70
     1
102
RTVSPost2010Prop42
 90
       50
102
RTVSPost2010PropOp42
 70
     1
102
RTVSPost2010Prop43
 90
        3
102
RTVSPost2010PropOp43
 70
     1
102
RTVSPost2010Prop44ColorIndex
 90
        5
102
RTVSPost2010Prop44ColorRGB
 90
      255
102
RTVSPost2010PropOp44
 70
     1
102
RTVSPost2010Prop45
280
     0
102
RTVSPost2010PropOp45
 70
     1
102
RTVSPost2010Prop46
 90
       50
102
RTVSPost2010PropOp46
 70
     1
102
RTVSPost2010Prop47
 90
       50
102
RTVSPost2010PropOp47
 70
     1
102
RTVSPost2010Prop48
 90
       50
102
RTVSPost2010PropOp48
 70
     1
102
RTVSPost2010Prop49
280
     0
102
RTVSPost2010PropOp49
 70
     1
102
RTVSPost2010Prop50
 90
       50
102
RTVSPost2010PropOp50
 70
     1
102
RTVSPost2010Prop51ColorIndex
 90
      256
102
RTVSPost2010Prop51ColorRGB
 90
-16777216
102
RTVSPost2010PropOp51
 70
     0
102
RTVSPost2010Prop52
140
1.0
102
RTVSPost2010PropOp52
 70
     0
102
RTVSPost2010Prop53
 90
        2
102
RTVSPost2010PropOp53
 70
     1
102
RTVSPost2010Prop54
  1
strokes_ogs.tif
102
RTVSPost2010PropOp54
 70
     1
102
RTVSPost2010Prop55
280
     0
102
RTVSPost2010PropOp55
 70
     1
102
RTVSPost2010Prop56
140
1.0
102
RTVSPost2010PropOp56
 70
     1
102
RTVSPost2010Prop57
140
1.0
102
RTVSPost2010PropOp57
 70
     1
102
RTVSPropertyOp0
 70
     1
102
RTVSPropertyOp1
 70
     1
102
RTVSPropertyOp2
 70
     1
102
RTVSPropertyOp3
 70
     1
102
RTVSPropertyOp4
 70
     1
102
RTVSPropertyOp5
 70
     1
102
RTVSPropertyOp6
 70
     1
102
RTVSPropertyOp7
 70
     1
102
RTVSPropertyOp8
 70
     1
102
RTVSPropertyOp9
 70
     1
102
RTVSPropertyOp10
 70
     1
102
RTVSPropertyOp11
 70
     1
102
RTVSPropertyOp12
 70
     1
102
RTVSPropertyOp13
 70
     1
102
RTVSPropertyOp14
 70
     1
102
RTVSPropertyOp15
 70
     1
102
RTVSPropertyOp16
 70
     1
102
RTVSPropertyOp17
 70
     1
102
RTVSPropertyOp18
 70
     1
102
RTVSPropertyOp19
 70
     1
102
RTVSPropertyOp20
 70
     1
102
RTVSPropertyOp21
 70
     1
102
RTVSPropertyOp22
 70
     1
102
RTVSPropertyOp23
 70
     1
102
RTVSPropertyOp24
 70
     1
102
RTVSPropertyOp25
 70
     1
102
RTVSPropertyOp26
 70
     1
102
RTVSPropertyOp27
 70
     1
102
RTVSPropertyOp28
 70
     1
102
RTVSPropertyOp29
 70
     1
102
RTVSPropertyOp30
 70
     1
102
RTVSPropertyOp31
 70
     1
102
RTVSPropertyOp32
 70
     1
102
RTVSPropertyOp33
 70
     1
102
RTVSPropertyOp34
 70
     1
102
RTVSPropertyOp35
 70
     1
102
RTVSPropertyOp36
 70
     1
102
RTVSPropertyOp37
 70
     1
102
RTVSPropertyOp38
 70
     1
102
RTVSPropertyOp39
 70
     1
102
RTVSPropertyOp40
 70
     1
102
RTVSPropertyOp41
 70
     1
102
RTVSPropertyOp42
 70
     1
102
RTVSPropertyOp43
 70
     1
102
RTVSPropertyOp44
 70
     1
102
RTVSPropertyOp45
 70
     1
102
RTVSPropertyOp46
 70
     1
102
RTVSPropertyOp47
 70
     1
102
RTVSPropertyOp48
 70
     1
102
RTVSPropertyOp49
 70
     1
102
RTVSPropertyOp50
 70
     1
102
RTVSPropertyOp51
 70
     0
102
RTVSPropertyOp52
 70
     0
102
RTVSPropertyOp53
 70
     1
102
RTVSPropertyOp54
 70
     1
102
RTVSPropertyOp55
 70
     1
102
RTVSPropertyOp56
 70
     1
102
RTVSPropertyOp57
 70
     1
102
RTVSPropertyOp58
 70
     1
102
RTVSPropertyOp59
 70
     1
102
RTVSPropertyOp60
 70
     1
102
RTVSPropertyOp61
 70
     1
102
RTVSPropertyOp62
 70
     1
  0
XRECORD
  5
A58
102
{ACAD_REACTORS
330
A57
102
}
330
A57
100
AcDbXrecord
280
     1
102
RTVSPost2010Prop28
280
     0
102
RTVSPost2010PropOp28
 70
     1
102
RTVSPost2010Prop29
280
     1
102
RTVSPost2010PropOp29
 70
     1
102
RTVSPost2010Prop30
280
     1
102
RTVSPost2010PropOp30
 70
     1
102
RTVSPost2010Prop31
280
     0
102
RTVSPost2010PropOp31
 70
     1
102
RTVSPost2010Prop32
280
     0
102
RTVSPost2010PropOp32
 70
     1
102
RTVSPost2010Prop33
280
     0
102
RTVSPost2010PropOp33
 70
     1
102
RTVSPost2010Prop34
280
     0
102
RTVSPost2010PropOp34
 70
     1
102
RTVSPost2010Prop35
280
     0
102
RTVSPost2010PropOp35
 70
     1
102
RTVSPost2010Prop36
280
     0
102
RTVSPost2010PropOp36
 70
     1
102
RTVSPost2010Prop37
 90
       50
102
RTVSPost2010PropOp37
 70
     0
102
RTVSPost2010Prop38
140
0.0
102
RTVSPost2010PropOp38
 70
     0
102
RTVSPost2010Prop39
140
1.0
102
RTVSPost2010PropOp39
 70
     0
102
RTVSPost2010Prop40
 90
        0
102
RTVSPost2010PropOp40
 70
     0
102
RTVSPost2010Prop41ColorIndex
 90
       18
102
RTVSPost2010Prop41ColorRGB
 90
        0
102
RTVSPost2010PropOp41
 70
     0
102
RTVSPost2010Prop42
 90
       50
102
RTVSPost2010PropOp42
 70
     0
102
RTVSPost2010Prop43
 90
        3
102
RTVSPost2010PropOp43
 70
     0
102
RTVSPost2010Prop44ColorIndex
 90
        5
102
RTVSPost2010Prop44ColorRGB
 90
      255
102
RTVSPost2010PropOp44
 70
     0
102
RTVSPost2010Prop45
280
     0
102
RTVSPost2010PropOp45
 70
     1
102
RTVSPost2010Prop46
 90
       50
102
RTVSPost2010PropOp46
 70
     0
102
RTVSPost2010Prop47
 90
       50
102
RTVSPost2010PropOp47
 70
     0
102
RTVSPost2010Prop48
 90
       50
102
RTVSPost2010PropOp48
 70
     0
102
RTVSPost2010Prop49
280
     0
102
RTVSPost2010PropOp49
 70
     1
102
RTVSPost2010Prop50
 90
       50
102
RTVSPost2010PropOp50
 70
     0
102
RTVSPost2010Prop51ColorIndex
 90
      256
102
RTVSPost2010Prop51ColorRGB
 90
-16777216
102
RTVSPost2010PropOp51
 70
     0
102
RTVSPost2010Prop52
140
1.0
102
RTVSPost2010PropOp52
 70
     0
102
RTVSPost2010Prop53
 90
        2
102
RTVSPost2010PropOp53
 70
     0
102
RTVSPost2010Prop54
  1
strokes_ogs.tif
102
RTVSPost2010PropOp54
 70
     0
102
RTVSPost2010Prop55
280
     0
102
RTVSPost2010PropOp55
 70
     1
102
RTVSPost2010Prop56
140
1.0
102
RTVSPost2010PropOp56
 70
     0
102
RTVSPost2010Prop57
140
1.0
102
RTVSPost2010PropOp57
 70
     0
102
RTVSPropertyOp0
 70
     0
102
RTVSPropertyOp1
 70
     0
102
RTVSPropertyOp2
 70
     0
102
RTVSPropertyOp3
 70
     0
102
RTVSPropertyOp4
 70
     0
102
RTVSPropertyOp5
 70
     0
102
RTVSPropertyOp6
 70
     0
102
RTVSPropertyOp7
 70
     0
102
RTVSPropertyOp8
 70
     0
102
RTVSPropertyOp9
 70
     0
102
RTVSPropertyOp10
 70
     0
102
RTVSPropertyOp11
 70
     0
102
RTVSPropertyOp12
 70
     0
102
RTVSPropertyOp13
 70
     0
102
RTVSPropertyOp14
 70
     2
102
RTVSPropertyOp15
 70
     0
102
RTVSPropertyOp16
 70
     0
102
RTVSPropertyOp17
 70
     0
102
RTVSPropertyOp18
 70
     0
102
RTVSPropertyOp19
 70
     0
102
RTVSPropertyOp20
 70
     0
102
RTVSPropertyOp21
 70
     0
102
RTVSPropertyOp22
 70
     0
102
RTVSPropertyOp23
 70
     0
102
RTVSPropertyOp24
 70
     0
102
RTVSPropertyOp25
 70
     0
102
RTVSPropertyOp26
 70
     0
102
RTVSPropertyOp27
 70
     0
102
RTVSPropertyOp28
 70
     1
102
RTVSPropertyOp29
 70
     1
102
RTVSPropertyOp30
 70
     1
102
RTVSPropertyOp31
 70
     1
102
RTVSPropertyOp32
 70
     1
102
RTVSPropertyOp33
 70
     1
102
RTVSPropertyOp34
 70
     1
102
RTVSPropertyOp35
 70
     1
102
RTVSPropertyOp36
 70
     1
102
RTVSPropertyOp37
 70
     0
102
RTVSPropertyOp38
 70
     0
102
RTVSPropertyOp39
 70
     0
102
RTVSPropertyOp40
 70
     0
102
RTVSPropertyOp41
 70
     0
102
RTVSPropertyOp42
 70
     0
102
RTVSPropertyOp43
 70
     0
102
RTVSPropertyOp44
 70
     0
102
RTVSPropertyOp45
 70
     1
102
RTVSPropertyOp46
 70
     0
102
RTVSPropertyOp47
 70
     0
102
RTVSPropertyOp48
 70
     0
102
RTVSPropertyOp49
 70
     1
102
RTVSPropertyOp50
 70
     0
102
RTVSPropertyOp51
 70
     0
102
RTVSPropertyOp52
 70
     0
102
RTVSPropertyOp53
 70
     0
102
RTVSPropertyOp54
 70
     0
102
RTVSPropertyOp55
 70
     1
102
RTVSPropertyOp56
 70
     0
102
RTVSPropertyOp57
 70
     0
102
RTVSPropertyOp58
 70
     1
102
RTVSPropertyOp59
 70
     1
102
RTVSPropertyOp60
 70
     1
102
RTVSPropertyOp61
 70
     1
102
RTVSPropertyOp62
 70
     1
  0
XRECORD
  5
A48
102
{ACAD_REACTORS
330
A47
102
}
330
A47
100
AcDbXrecord
280
     1
102
RTVSPost2010Prop28
280
     0
102
RTVSPost2010PropOp28
 70
     1
102
RTVSPost2010Prop29
280
     1
102
RTVSPost2010PropOp29
 70
     1
102
RTVSPost2010Prop30
280
     1
102
RTVSPost2010PropOp30
 70
     1
102
RTVSPost2010Prop31
280
     0
102
RTVSPost2010PropOp31
 70
     1
102
RTVSPost2010Prop32
280
     0
102
RTVSPost2010PropOp32
 70
     1
102
RTVSPost2010Prop33
280
     0
102
RTVSPost2010PropOp33
 70
     1
102
RTVSPost2010Prop34
280
     0
102
RTVSPost2010PropOp34
 70
     1
102
RTVSPost2010Prop35
280
     0
102
RTVSPost2010PropOp35
 70
     1
102
RTVSPost2010Prop36
280
     0
102
RTVSPost2010PropOp36
 70
     1
102
RTVSPost2010Prop37
 90
       50
102
RTVSPost2010PropOp37
 70
     1
102
RTVSPost2010Prop38
140
0.0
102
RTVSPost2010PropOp38
 70
     1
102
RTVSPost2010Prop39
140
1.0
102
RTVSPost2010PropOp39
 70
     1
102
RTVSPost2010Prop40
 90
        0
102
RTVSPost2010PropOp40
 70
     1
102
RTVSPost2010Prop41ColorIndex
 90
       18
102
RTVSPost2010Prop41ColorRGB
 90
        0
102
RTVSPost2010PropOp41
 70
     1
102
RTVSPost2010Prop42
 90
       50
102
RTVSPost2010PropOp42
 70
     1
102
RTVSPost2010Prop43
 90
        3
102
RTVSPost2010PropOp43
 70
     1
102
RTVSPost2010Prop44ColorIndex
 90
        5
102
RTVSPost2010Prop44ColorRGB
 90
      255
102
RTVSPost2010PropOp44
 70
     1
102
RTVSPost2010Prop45
280
     0
102
RTVSPost2010PropOp45
 70
     1
102
RTVSPost2010Prop46
 90
       50
102
RTVSPost2010PropOp46
 70
     1
102
RTVSPost2010Prop47
 90
       50
102
RTVSPost2010PropOp47
 70
     1
102
RTVSPost2010Prop48
 90
       50
102
RTVSPost2010PropOp48
 70
     1
102
RTVSPost2010Prop49
280
     0
102
RTVSPost2010PropOp49
 70
     1
102
RTVSPost2010Prop50
 90
       50
102
RTVSPost2010PropOp50
 70
     1
102
RTVSPost2010Prop51ColorIndex
 90
      256
102
RTVSPost2010Prop51ColorRGB
 90
-16777216
102
RTVSPost2010PropOp51
 70
     0
102
RTVSPost2010Prop52
140
1.0
102
RTVSPost2010PropOp52
 70
     0
102
RTVSPost2010Prop53
 90
        2
102
RTVSPost2010PropOp53
 70
     1
102
RTVSPost2010Prop54
  1
strokes_ogs.tif
102
RTVSPost2010PropOp54
 70
     1
102
RTVSPost2010Prop55
280
     0
102
RTVSPost2010PropOp55
 70
     1
102
RTVSPost2010Prop56
140
1.0
102
RTVSPost2010PropOp56
 70
     1
102
RTVSPost2010Prop57
140
1.0
102
RTVSPost2010PropOp57
 70
     1
102
RTVSPropertyOp0
 70
     1
102
RTVSPropertyOp1
 70
     1
102
RTVSPropertyOp2
 70
     1
102
RTVSPropertyOp3
 70
     1
102
RTVSPropertyOp4
 70
     1
102
RTVSPropertyOp5
 70
     1
102
RTVSPropertyOp6
 70
     1
102
RTVSPropertyOp7
 70
     1
102
RTVSPropertyOp8
 70
     1
102
RTVSPropertyOp9
 70
     1
102
RTVSPropertyOp10
 70
     1
102
RTVSPropertyOp11
 70
     1
102
RTVSPropertyOp12
 70
     1
102
RTVSPropertyOp13
 70
     1
102
RTVSPropertyOp14
 70
     1
102
RTVSPropertyOp15
 70
     1
102
RTVSPropertyOp16
 70
     1
102
RTVSPropertyOp17
 70
     1
102
RTVSPropertyOp18
 70
     1
102
RTVSPropertyOp19
 70
     1
102
RTVSPropertyOp20
 70
     1
102
RTVSPropertyOp21
 70
     1
102
RTVSPropertyOp22
 70
     1
102
RTVSPropertyOp23
 70
     1
102
RTVSPropertyOp24
 70
     1
102
RTVSPropertyOp25
 70
     1
102
RTVSPropertyOp26
 70
     1
102
RTVSPropertyOp27
 70
     1
102
RTVSPropertyOp28
 70
     1
102
RTVSPropertyOp29
 70
     1
102
RTVSPropertyOp30
 70
     1
102
RTVSPropertyOp31
 70
     1
102
RTVSPropertyOp32
 70
     1
102
RTVSPropertyOp33
 70
     1
102
RTVSPropertyOp34
 70
     1
102
RTVSPropertyOp35
 70
     1
102
RTVSPropertyOp36
 70
     1
102
RTVSPropertyOp37
 70
     1
102
RTVSPropertyOp38
 70
     1
102
RTVSPropertyOp39
 70
     1
102
RTVSPropertyOp40
 70
     1
102
RTVSPropertyOp41
 70
     1
102
RTVSPropertyOp42
 70
     1
102
RTVSPropertyOp43
 70
     1
102
RTVSPropertyOp44
 70
     1
102
RTVSPropertyOp45
 70
     1
102
RTVSPropertyOp46
 70
     1
102
RTVSPropertyOp47
 70
     1
102
RTVSPropertyOp48
 70
     1
102
RTVSPropertyOp49
 70
     1
102
RTVSPropertyOp50
 70
     1
102
RTVSPropertyOp51
 70
     0
102
RTVSPropertyOp52
 70
     0
102
RTVSPropertyOp53
 70
     1
102
RTVSPropertyOp54
 70
     1
102
RTVSPropertyOp55
 70
     1
102
RTVSPropertyOp56
 70
     1
102
RTVSPropertyOp57
 70
     1
102
RTVSPropertyOp58
 70
     1
102
RTVSPropertyOp59
 70
     1
102
RTVSPropertyOp60
 70
     1
102
RTVSPropertyOp61
 70
     1
102
RTVSPropertyOp62
 70
     1
  0
XRECORD
  5
A5A
102
{ACAD_REACTORS
330
A59
102
}
330
A59
100
AcDbXrecord
280
     1
102
RTVSPost2010Prop28
280
     0
102
RTVSPost2010PropOp28
 70
     1
102
RTVSPost2010Prop29
280
     1
102
RTVSPost2010PropOp29
 70
     1
102
RTVSPost2010Prop30
280
     1
102
RTVSPost2010PropOp30
 70
     1
102
RTVSPost2010Prop31
280
     0
102
RTVSPost2010PropOp31
 70
     1
102
RTVSPost2010Prop32
280
     0
102
RTVSPost2010PropOp32
 70
     1
102
RTVSPost2010Prop33
280
     0
102
RTVSPost2010PropOp33
 70
     1
102
RTVSPost2010Prop34
280
     0
102
RTVSPost2010PropOp34
 70
     1
102
RTVSPost2010Prop35
280
     0
102
RTVSPost2010PropOp35
 70
     1
102
RTVSPost2010Prop36
280
     0
102
RTVSPost2010PropOp36
 70
     1
102
RTVSPost2010Prop37
 90
       50
102
RTVSPost2010PropOp37
 70
     0
102
RTVSPost2010Prop38
140
0.0
102
RTVSPost2010PropOp38
 70
     0
102
RTVSPost2010Prop39
140
1.0
102
RTVSPost2010PropOp39
 70
     0
102
RTVSPost2010Prop40
 90
        0
102
RTVSPost2010PropOp40
 70
     0
102
RTVSPost2010Prop41ColorIndex
 90
       18
102
RTVSPost2010Prop41ColorRGB
 90
        0
102
RTVSPost2010PropOp41
 70
     0
102
RTVSPost2010Prop42
 90
       50
102
RTVSPost2010PropOp42
 70
     0
102
RTVSPost2010Prop43
 90
        3
102
RTVSPost2010PropOp43
 70
     0
102
RTVSPost2010Prop44ColorIndex
 90
        5
102
RTVSPost2010Prop44ColorRGB
 90
      255
102
RTVSPost2010PropOp44
 70
     0
102
RTVSPost2010Prop45
280
     0
102
RTVSPost2010PropOp45
 70
     1
102
RTVSPost2010Prop46
 90
       50
102
RTVSPost2010PropOp46
 70
     0
102
RTVSPost2010Prop47
 90
       50
102
RTVSPost2010PropOp47
 70
     0
102
RTVSPost2010Prop48
 90
       50
102
RTVSPost2010PropOp48
 70
     0
102
RTVSPost2010Prop49
280
     0
102
RTVSPost2010PropOp49
 70
     1
102
RTVSPost2010Prop50
 90
       50
102
RTVSPost2010PropOp50
 70
     0
102
RTVSPost2010Prop51ColorIndex
 90
      256
102
RTVSPost2010Prop51ColorRGB
 90
-16777216
102
RTVSPost2010PropOp51
 70
     0
102
RTVSPost2010Prop52
140
1.0
102
RTVSPost2010PropOp52
 70
     0
102
RTVSPost2010Prop53
 90
        2
102
RTVSPost2010PropOp53
 70
     0
102
RTVSPost2010Prop54
  1
strokes_ogs.tif
102
RTVSPost2010PropOp54
 70
     0
102
RTVSPost2010Prop55
280
     0
102
RTVSPost2010PropOp55
 70
     1
102
RTVSPost2010Prop56
140
1.0
102
RTVSPost2010PropOp56
 70
     0
102
RTVSPost2010Prop57
140
1.0
102
RTVSPost2010PropOp57
 70
     0
102
RTVSPropertyOp0
 70
     0
102
RTVSPropertyOp1
 70
     0
102
RTVSPropertyOp2
 70
     0
102
RTVSPropertyOp3
 70
     0
102
RTVSPropertyOp4
 70
     0
102
RTVSPropertyOp5
 70
     0
102
RTVSPropertyOp6
 70
     0
102
RTVSPropertyOp7
 70
     0
102
RTVSPropertyOp8
 70
     0
102
RTVSPropertyOp9
 70
     0
102
RTVSPropertyOp10
 70
     0
102
RTVSPropertyOp11
 70
     0
102
RTVSPropertyOp12
 70
     0
102
RTVSPropertyOp13
 70
     0
102
RTVSPropertyOp14
 70
     2
102
RTVSPropertyOp15
 70
     0
102
RTVSPropertyOp16
 70
     0
102
RTVSPropertyOp17
 70
     0
102
RTVSPropertyOp18
 70
     0
102
RTVSPropertyOp19
 70
     0
102
RTVSPropertyOp20
 70
     0
102
RTVSPropertyOp21
 70
     0
102
RTVSPropertyOp22
 70
     0
102
RTVSPropertyOp23
 70
     0
102
RTVSPropertyOp24
 70
     0
102
RTVSPropertyOp25
 70
     0
102
RTVSPropertyOp26
 70
     0
102
RTVSPropertyOp27
 70
     0
102
RTVSPropertyOp28
 70
     1
102
RTVSPropertyOp29
 70
     1
102
RTVSPropertyOp30
 70
     1
102
RTVSPropertyOp31
 70
     1
102
RTVSPropertyOp32
 70
     1
102
RTVSPropertyOp33
 70
     1
102
RTVSPropertyOp34
 70
     1
102
RTVSPropertyOp35
 70
     1
102
RTVSPropertyOp36
 70
     1
102
RTVSPropertyOp37
 70
     0
102
RTVSPropertyOp38
 70
     0
102
RTVSPropertyOp39
 70
     0
102
RTVSPropertyOp40
 70
     0
102
RTVSPropertyOp41
 70
     0
102
RTVSPropertyOp42
 70
     0
102
RTVSPropertyOp43
 70
     0
102
RTVSPropertyOp44
 70
     0
102
RTVSPropertyOp45
 70
     1
102
RTVSPropertyOp46
 70
     0
102
RTVSPropertyOp47
 70
     0
102
RTVSPropertyOp48
 70
     0
102
RTVSPropertyOp49
 70
     1
102
RTVSPropertyOp50
 70
     0
102
RTVSPropertyOp51
 70
     0
102
RTVSPropertyOp52
 70
     0
102
RTVSPropertyOp53
 70
     0
102
RTVSPropertyOp54
 70
     0
102
RTVSPropertyOp55
 70
     1
102
RTVSPropertyOp56
 70
     0
102
RTVSPropertyOp57
 70
     0
102
RTVSPropertyOp58
 70
     1
102
RTVSPropertyOp59
 70
     1
102
RTVSPropertyOp60
 70
     1
102
RTVSPropertyOp61
 70
     1
102
RTVSPropertyOp62
 70
     1
  0
XRECORD
  5
A40
102
{ACAD_REACTORS
330
A3F
102
}
330
A3F
100
AcDbXrecord
280
     1
102
RTVSPost2010Prop28
280
     0
102
RTVSPost2010PropOp28
 70
     1
102
RTVSPost2010Prop29
280
     1
102
RTVSPost2010PropOp29
 70
     1
102
RTVSPost2010Prop30
280
     1
102
RTVSPost2010PropOp30
 70
     1
102
RTVSPost2010Prop31
280
     0
102
RTVSPost2010PropOp31
 70
     1
102
RTVSPost2010Prop32
280
     0
102
RTVSPost2010PropOp32
 70
     1
102
RTVSPost2010Prop33
280
     0
102
RTVSPost2010PropOp33
 70
     1
102
RTVSPost2010Prop34
280
     0
102
RTVSPost2010PropOp34
 70
     1
102
RTVSPost2010Prop35
280
     0
102
RTVSPost2010PropOp35
 70
     1
102
RTVSPost2010Prop36
280
     0
102
RTVSPost2010PropOp36
 70
     1
102
RTVSPost2010Prop37
 90
       50
102
RTVSPost2010PropOp37
 70
     1
102
RTVSPost2010Prop38
140
0.0
102
RTVSPost2010PropOp38
 70
     1
102
RTVSPost2010Prop39
140
1.0
102
RTVSPost2010PropOp39
 70
     1
102
RTVSPost2010Prop40
 90
        0
102
RTVSPost2010PropOp40
 70
     1
102
RTVSPost2010Prop41ColorIndex
 90
       18
102
RTVSPost2010Prop41ColorRGB
 90
        0
102
RTVSPost2010PropOp41
 70
     1
102
RTVSPost2010Prop42
 90
       50
102
RTVSPost2010PropOp42
 70
     1
102
RTVSPost2010Prop43
 90
        3
102
RTVSPost2010PropOp43
 70
     1
102
RTVSPost2010Prop44ColorIndex
 90
        5
102
RTVSPost2010Prop44ColorRGB
 90
      255
102
RTVSPost2010PropOp44
 70
     1
102
RTVSPost2010Prop45
280
     0
102
RTVSPost2010PropOp45
 70
     1
102
RTVSPost2010Prop46
 90
       50
102
RTVSPost2010PropOp46
 70
     1
102
RTVSPost2010Prop47
 90
       50
102
RTVSPost2010PropOp47
 70
     1
102
RTVSPost2010Prop48
 90
       50
102
RTVSPost2010PropOp48
 70
     1
102
RTVSPost2010Prop49
280
     0
102
RTVSPost2010PropOp49
 70
     1
102
RTVSPost2010Prop50
 90
       50
102
RTVSPost2010PropOp50
 70
     1
102
RTVSPost2010Prop51ColorIndex
 90
      256
102
RTVSPost2010Prop51ColorRGB
 90
-16777216
102
RTVSPost2010PropOp51
 70
     0
102
RTVSPost2010Prop52
140
1.0
102
RTVSPost2010PropOp52
 70
     0
102
RTVSPost2010Prop53
 90
        2
102
RTVSPost2010PropOp53
 70
     1
102
RTVSPost2010Prop54
  1
strokes_ogs.tif
102
RTVSPost2010PropOp54
 70
     1
102
RTVSPost2010Prop55
280
     0
102
RTVSPost2010PropOp55
 70
     1
102
RTVSPost2010Prop56
140
1.0
102
RTVSPost2010PropOp56
 70
     1
102
RTVSPost2010Prop57
140
1.0
102
RTVSPost2010PropOp57
 70
     1
102
RTVSPropertyOp0
 70
     1
102
RTVSPropertyOp1
 70
     1
102
RTVSPropertyOp2
 70
     1
102
RTVSPropertyOp3
 70
     1
102
RTVSPropertyOp4
 70
     1
102
RTVSPropertyOp5
 70
     1
102
RTVSPropertyOp6
 70
     1
102
RTVSPropertyOp7
 70
     1
102
RTVSPropertyOp8
 70
     1
102
RTVSPropertyOp9
 70
     1
102
RTVSPropertyOp10
 70
     1
102
RTVSPropertyOp11
 70
     1
102
RTVSPropertyOp12
 70
     1
102
RTVSPropertyOp13
 70
     1
102
RTVSPropertyOp14
 70
     1
102
RTVSPropertyOp15
 70
     1
102
RTVSPropertyOp16
 70
     1
102
RTVSPropertyOp17
 70
     1
102
RTVSPropertyOp18
 70
     1
102
RTVSPropertyOp19
 70
     1
102
RTVSPropertyOp20
 70
     1
102
RTVSPropertyOp21
 70
     1
102
RTVSPropertyOp22
 70
     1
102
RTVSPropertyOp23
 70
     1
102
RTVSPropertyOp24
 70
     1
102
RTVSPropertyOp25
 70
     1
102
RTVSPropertyOp26
 70
     1
102
RTVSPropertyOp27
 70
     1
102
RTVSPropertyOp28
 70
     1
102
RTVSPropertyOp29
 70
     1
102
RTVSPropertyOp30
 70
     1
102
RTVSPropertyOp31
 70
     1
102
RTVSPropertyOp32
 70
     1
102
RTVSPropertyOp33
 70
     1
102
RTVSPropertyOp34
 70
     1
102
RTVSPropertyOp35
 70
     1
102
RTVSPropertyOp36
 70
     1
102
RTVSPropertyOp37
 70
     1
102
RTVSPropertyOp38
 70
     1
102
RTVSPropertyOp39
 70
     1
102
RTVSPropertyOp40
 70
     1
102
RTVSPropertyOp41
 70
     1
102
RTVSPropertyOp42
 70
     1
102
RTVSPropertyOp43
 70
     1
102
RTVSPropertyOp44
 70
     1
102
RTVSPropertyOp45
 70
     1
102
RTVSPropertyOp46
 70
     1
102
RTVSPropertyOp47
 70
     1
102
RTVSPropertyOp48
 70
     1
102
RTVSPropertyOp49
 70
     1
102
RTVSPropertyOp50
 70
     1
102
RTVSPropertyOp51
 70
     0
102
RTVSPropertyOp52
 70
     0
102
RTVSPropertyOp53
 70
     1
102
RTVSPropertyOp54
 70
     1
102
RTVSPropertyOp55
 70
     1
102
RTVSPropertyOp56
 70
     1
102
RTVSPropertyOp57
 70
     1
102
RTVSPropertyOp58
 70
     1
102
RTVSPropertyOp59
 70
     1
102
RTVSPropertyOp60
 70
     1
102
RTVSPropertyOp61
 70
     1
102
RTVSPropertyOp62
 70
     1
  0
XRECORD
  5
A56
102
{ACAD_REACTORS
330
A55
102
}
330
A55
100
AcDbXrecord
280
     1
102
RTVSPost2010Prop28
280
     0
102
RTVSPost2010PropOp28
 70
     1
102
RTVSPost2010Prop29
280
     1
102
RTVSPost2010PropOp29
 70
     1
102
RTVSPost2010Prop30
280
     1
102
RTVSPost2010PropOp30
 70
     1
102
RTVSPost2010Prop31
280
     0
102
RTVSPost2010PropOp31
 70
     1
102
RTVSPost2010Prop32
280
     0
102
RTVSPost2010PropOp32
 70
     1
102
RTVSPost2010Prop33
280
     0
102
RTVSPost2010PropOp33
 70
     1
102
RTVSPost2010Prop34
280
     0
102
RTVSPost2010PropOp34
 70
     1
102
RTVSPost2010Prop35
280
     0
102
RTVSPost2010PropOp35
 70
     1
102
RTVSPost2010Prop36
280
     0
102
RTVSPost2010PropOp36
 70
     1
102
RTVSPost2010Prop37
 90
       50
102
RTVSPost2010PropOp37
 70
     1
102
RTVSPost2010Prop38
140
0.0
102
RTVSPost2010PropOp38
 70
     1
102
RTVSPost2010Prop39
140
1.0
102
RTVSPost2010PropOp39
 70
     1
102
RTVSPost2010Prop40
 90
        0
102
RTVSPost2010PropOp40
 70
     1
102
RTVSPost2010Prop41ColorIndex
 90
       18
102
RTVSPost2010Prop41ColorRGB
 90
        0
102
RTVSPost2010PropOp41
 70
     1
102
RTVSPost2010Prop42
 90
       50
102
RTVSPost2010PropOp42
 70
     1
102
RTVSPost2010Prop43
 90
        3
102
RTVSPost2010PropOp43
 70
     1
102
RTVSPost2010Prop44ColorIndex
 90
        5
102
RTVSPost2010Prop44ColorRGB
 90
      255
102
RTVSPost2010PropOp44
 70
     1
102
RTVSPost2010Prop45
280
     0
102
RTVSPost2010PropOp45
 70
     1
102
RTVSPost2010Prop46
 90
       50
102
RTVSPost2010PropOp46
 70
     1
102
RTVSPost2010Prop47
 90
       50
102
RTVSPost2010PropOp47
 70
     1
102
RTVSPost2010Prop48
 90
       50
102
RTVSPost2010PropOp48
 70
     1
102
RTVSPost2010Prop49
280
     0
102
RTVSPost2010PropOp49
 70
     1
102
RTVSPost2010Prop50
 90
       50
102
RTVSPost2010PropOp50
 70
     1
102
RTVSPost2010Prop51ColorIndex
 90
      256
102
RTVSPost2010Prop51ColorRGB
 90
-16777216
102
RTVSPost2010PropOp51
 70
     0
102
RTVSPost2010Prop52
140
1.0
102
RTVSPost2010PropOp52
 70
     0
102
RTVSPost2010Prop53
 90
        2
102
RTVSPost2010PropOp53
 70
     1
102
RTVSPost2010Prop54
  1
strokes_ogs.tif
102
RTVSPost2010PropOp54
 70
     1
102
RTVSPost2010Prop55
280
     0
102
RTVSPost2010PropOp55
 70
     1
102
RTVSPost2010Prop56
140
1.0
102
RTVSPost2010PropOp56
 70
     1
102
RTVSPost2010Prop57
140
1.0
102
RTVSPost2010PropOp57
 70
     1
102
RTVSPropertyOp0
 70
     1
102
RTVSPropertyOp1
 70
     1
102
RTVSPropertyOp2
 70
     1
102
RTVSPropertyOp3
 70
     1
102
RTVSPropertyOp4
 70
     1
102
RTVSPropertyOp5
 70
     1
102
RTVSPropertyOp6
 70
     1
102
RTVSPropertyOp7
 70
     1
102
RTVSPropertyOp8
 70
     1
102
RTVSPropertyOp9
 70
     1
102
RTVSPropertyOp10
 70
     1
102
RTVSPropertyOp11
 70
     1
102
RTVSPropertyOp12
 70
     1
102
RTVSPropertyOp13
 70
     1
102
RTVSPropertyOp14
 70
     1
102
RTVSPropertyOp15
 70
     1
102
RTVSPropertyOp16
 70
     1
102
RTVSPropertyOp17
 70
     1
102
RTVSPropertyOp18
 70
     1
102
RTVSPropertyOp19
 70
     1
102
RTVSPropertyOp20
 70
     1
102
RTVSPropertyOp21
 70
     1
102
RTVSPropertyOp22
 70
     1
102
RTVSPropertyOp23
 70
     1
102
RTVSPropertyOp24
 70
     1
102
RTVSPropertyOp25
 70
     1
102
RTVSPropertyOp26
 70
     1
102
RTVSPropertyOp27
 70
     1
102
RTVSPropertyOp28
 70
     1
102
RTVSPropertyOp29
 70
     1
102
RTVSPropertyOp30
 70
     1
102
RTVSPropertyOp31
 70
     1
102
RTVSPropertyOp32
 70
     1
102
RTVSPropertyOp33
 70
     1
102
RTVSPropertyOp34
 70
     1
102
RTVSPropertyOp35
 70
     1
102
RTVSPropertyOp36
 70
     1
102
RTVSPropertyOp37
 70
     1
102
RTVSPropertyOp38
 70
     1
102
RTVSPropertyOp39
 70
     1
102
RTVSPropertyOp40
 70
     1
102
RTVSPropertyOp41
 70
     1
102
RTVSPropertyOp42
 70
     1
102
RTVSPropertyOp43
 70
     1
102
RTVSPropertyOp44
 70
     1
102
RTVSPropertyOp45
 70
     1
102
RTVSPropertyOp46
 70
     1
102
RTVSPropertyOp47
 70
     1
102
RTVSPropertyOp48
 70
     1
102
RTVSPropertyOp49
 70
     1
102
RTVSPropertyOp50
 70
     1
102
RTVSPropertyOp51
 70
     0
102
RTVSPropertyOp52
 70
     0
102
RTVSPropertyOp53
 70
     1
102
RTVSPropertyOp54
 70
     1
102
RTVSPropertyOp55
 70
     1
102
RTVSPropertyOp56
 70
     1
102
RTVSPropertyOp57
 70
     1
102
RTVSPropertyOp58
 70
     1
102
RTVSPropertyOp59
 70
     1
102
RTVSPropertyOp60
 70
     1
102
RTVSPropertyOp61
 70
     1
102
RTVSPropertyOp62
 70
     1
  0
XRECORD
  5
A54
102
{ACAD_REACTORS
330
A53
102
}
330
A53
100
AcDbXrecord
280
     1
102
RTVSPost2010Prop28
280
     0
102
RTVSPost2010PropOp28
 70
     1
102
RTVSPost2010Prop29
280
     1
102
RTVSPost2010PropOp29
 70
     1
102
RTVSPost2010Prop30
280
     1
102
RTVSPost2010PropOp30
 70
     1
102
RTVSPost2010Prop31
280
     0
102
RTVSPost2010PropOp31
 70
     1
102
RTVSPost2010Prop32
280
     0
102
RTVSPost2010PropOp32
 70
     1
102
RTVSPost2010Prop33
280
     0
102
RTVSPost2010PropOp33
 70
     1
102
RTVSPost2010Prop34
280
     0
102
RTVSPost2010PropOp34
 70
     1
102
RTVSPost2010Prop35
280
     0
102
RTVSPost2010PropOp35
 70
     1
102
RTVSPost2010Prop36
280
     0
102
RTVSPost2010PropOp36
 70
     1
102
RTVSPost2010Prop37
 90
       50
102
RTVSPost2010PropOp37
 70
     1
102
RTVSPost2010Prop38
140
0.0
102
RTVSPost2010PropOp38
 70
     1
102
RTVSPost2010Prop39
140
1.0
102
RTVSPost2010PropOp39
 70
     1
102
RTVSPost2010Prop40
 90
        0
102
RTVSPost2010PropOp40
 70
     1
102
RTVSPost2010Prop41ColorIndex
 90
       18
102
RTVSPost2010Prop41ColorRGB
 90
        0
102
RTVSPost2010PropOp41
 70
     1
102
RTVSPost2010Prop42
 90
       50
102
RTVSPost2010PropOp42
 70
     1
102
RTVSPost2010Prop43
 90
        3
102
RTVSPost2010PropOp43
 70
     1
102
RTVSPost2010Prop44ColorIndex
 90
        5
102
RTVSPost2010Prop44ColorRGB
 90
      255
102
RTVSPost2010PropOp44
 70
     1
102
RTVSPost2010Prop45
280
     0
102
RTVSPost2010PropOp45
 70
     1
102
RTVSPost2010Prop46
 90
       50
102
RTVSPost2010PropOp46
 70
     1
102
RTVSPost2010Prop47
 90
       50
102
RTVSPost2010PropOp47
 70
     1
102
RTVSPost2010Prop48
 90
       50
102
RTVSPost2010PropOp48
 70
     1
102
RTVSPost2010Prop49
280
     0
102
RTVSPost2010PropOp49
 70
     1
102
RTVSPost2010Prop50
 90
       50
102
RTVSPost2010PropOp50
 70
     1
102
RTVSPost2010Prop51ColorIndex
 90
      256
102
RTVSPost2010Prop51ColorRGB
 90
-16777216
102
RTVSPost2010PropOp51
 70
     0
102
RTVSPost2010Prop52
140
1.0
102
RTVSPost2010PropOp52
 70
     0
102
RTVSPost2010Prop53
 90
        2
102
RTVSPost2010PropOp53
 70
     1
102
RTVSPost2010Prop54
  1
strokes_ogs.tif
102
RTVSPost2010PropOp54
 70
     1
102
RTVSPost2010Prop55
280
     0
102
RTVSPost2010PropOp55
 70
     1
102
RTVSPost2010Prop56
140
1.0
102
RTVSPost2010PropOp56
 70
     1
102
RTVSPost2010Prop57
140
1.0
102
RTVSPost2010PropOp57
 70
     1
102
RTVSPropertyOp0
 70
     1
102
RTVSPropertyOp1
 70
     1
102
RTVSPropertyOp2
 70
     1
102
RTVSPropertyOp3
 70
     1
102
RTVSPropertyOp4
 70
     1
102
RTVSPropertyOp5
 70
     1
102
RTVSPropertyOp6
 70
     1
102
RTVSPropertyOp7
 70
     1
102
RTVSPropertyOp8
 70
     1
102
RTVSPropertyOp9
 70
     1
102
RTVSPropertyOp10
 70
     1
102
RTVSPropertyOp11
 70
     1
102
RTVSPropertyOp12
 70
     1
102
RTVSPropertyOp13
 70
     1
102
RTVSPropertyOp14
 70
     1
102
RTVSPropertyOp15
 70
     1
102
RTVSPropertyOp16
 70
     1
102
RTVSPropertyOp17
 70
     1
102
RTVSPropertyOp18
 70
     1
102
RTVSPropertyOp19
 70
     1
102
RTVSPropertyOp20
 70
     1
102
RTVSPropertyOp21
 70
     1
102
RTVSPropertyOp22
 70
     1
102
RTVSPropertyOp23
 70
     1
102
RTVSPropertyOp24
 70
     1
102
RTVSPropertyOp25
 70
     1
102
RTVSPropertyOp26
 70
     1
102
RTVSPropertyOp27
 70
     1
102
RTVSPropertyOp28
 70
     1
102
RTVSPropertyOp29
 70
     1
102
RTVSPropertyOp30
 70
     1
102
RTVSPropertyOp31
 70
     1
102
RTVSPropertyOp32
 70
     1
102
RTVSPropertyOp33
 70
     1
102
RTVSPropertyOp34
 70
     1
102
RTVSPropertyOp35
 70
     1
102
RTVSPropertyOp36
 70
     1
102
RTVSPropertyOp37
 70
     1
102
RTVSPropertyOp38
 70
     1
102
RTVSPropertyOp39
 70
     1
102
RTVSPropertyOp40
 70
     1
102
RTVSPropertyOp41
 70
     1
102
RTVSPropertyOp42
 70
     1
102
RTVSPropertyOp43
 70
     1
102
RTVSPropertyOp44
 70
     1
102
RTVSPropertyOp45
 70
     1
102
RTVSPropertyOp46
 70
     1
102
RTVSPropertyOp47
 70
     1
102
RTVSPropertyOp48
 70
     1
102
RTVSPropertyOp49
 70
     1
102
RTVSPropertyOp50
 70
     1
102
RTVSPropertyOp51
 70
     0
102
RTVSPropertyOp52
 70
     0
102
RTVSPropertyOp53
 70
     1
102
RTVSPropertyOp54
 70
     1
102
RTVSPropertyOp55
 70
     1
102
RTVSPropertyOp56
 70
     1
102
RTVSPropertyOp57
 70
     1
102
RTVSPropertyOp58
 70
     1
102
RTVSPropertyOp59
 70
     1
102
RTVSPropertyOp60
 70
     1
102
RTVSPropertyOp61
 70
     1
102
RTVSPropertyOp62
 70
     1
  0
XRECORD
  5
A4E
102
{ACAD_REACTORS
330
A4D
102
}
330
A4D
100
AcDbXrecord
280
     1
102
RTVSPost2010Prop28
280
     0
102
RTVSPost2010PropOp28
 70
     1
102
RTVSPost2010Prop29
280
     1
102
RTVSPost2010PropOp29
 70
     1
102
RTVSPost2010Prop30
280
     1
102
RTVSPost2010PropOp30
 70
     1
102
RTVSPost2010Prop31
280
     0
102
RTVSPost2010PropOp31
 70
     1
102
RTVSPost2010Prop32
280
     0
102
RTVSPost2010PropOp32
 70
     1
102
RTVSPost2010Prop33
280
     0
102
RTVSPost2010PropOp33
 70
     1
102
RTVSPost2010Prop34
280
     0
102
RTVSPost2010PropOp34
 70
     1
102
RTVSPost2010Prop35
280
     0
102
RTVSPost2010PropOp35
 70
     1
102
RTVSPost2010Prop36
280
     0
102
RTVSPost2010PropOp36
 70
     1
102
RTVSPost2010Prop37
 90
       50
102
RTVSPost2010PropOp37
 70
     1
102
RTVSPost2010Prop38
140
0.0
102
RTVSPost2010PropOp38
 70
     1
102
RTVSPost2010Prop39
140
1.0
102
RTVSPost2010PropOp39
 70
     1
102
RTVSPost2010Prop40
 90
        0
102
RTVSPost2010PropOp40
 70
     1
102
RTVSPost2010Prop41ColorIndex
 90
       18
102
RTVSPost2010Prop41ColorRGB
 90
        0
102
RTVSPost2010PropOp41
 70
     1
102
RTVSPost2010Prop42
 90
       50
102
RTVSPost2010PropOp42
 70
     1
102
RTVSPost2010Prop43
 90
        3
102
RTVSPost2010PropOp43
 70
     1
102
RTVSPost2010Prop44ColorIndex
 90
        5
102
RTVSPost2010Prop44ColorRGB
 90
      255
102
RTVSPost2010PropOp44
 70
     1
102
RTVSPost2010Prop45
280
     0
102
RTVSPost2010PropOp45
 70
     1
102
RTVSPost2010Prop46
 90
       50
102
RTVSPost2010PropOp46
 70
     1
102
RTVSPost2010Prop47
 90
       50
102
RTVSPost2010PropOp47
 70
     1
102
RTVSPost2010Prop48
 90
       50
102
RTVSPost2010PropOp48
 70
     1
102
RTVSPost2010Prop49
280
     0
102
RTVSPost2010PropOp49
 70
     1
102
RTVSPost2010Prop50
 90
       50
102
RTVSPost2010PropOp50
 70
     1
102
RTVSPost2010Prop51ColorIndex
 90
      256
102
RTVSPost2010Prop51ColorRGB
 90
-16777216
102
RTVSPost2010PropOp51
 70
     0
102
RTVSPost2010Prop52
140
1.0
102
RTVSPost2010PropOp52
 70
     0
102
RTVSPost2010Prop53
 90
        2
102
RTVSPost2010PropOp53
 70
     1
102
RTVSPost2010Prop54
  1
strokes_ogs.tif
102
RTVSPost2010PropOp54
 70
     1
102
RTVSPost2010Prop55
280
     0
102
RTVSPost2010PropOp55
 70
     1
102
RTVSPost2010Prop56
140
1.0
102
RTVSPost2010PropOp56
 70
     1
102
RTVSPost2010Prop57
140
1.0
102
RTVSPost2010PropOp57
 70
     1
102
RTVSPropertyOp0
 70
     1
102
RTVSPropertyOp1
 70
     1
102
RTVSPropertyOp2
 70
     1
102
RTVSPropertyOp3
 70
     1
102
RTVSPropertyOp4
 70
     1
102
RTVSPropertyOp5
 70
     1
102
RTVSPropertyOp6
 70
     1
102
RTVSPropertyOp7
 70
     1
102
RTVSPropertyOp8
 70
     1
102
RTVSPropertyOp9
 70
     1
102
RTVSPropertyOp10
 70
     1
102
RTVSPropertyOp11
 70
     1
102
RTVSPropertyOp12
 70
     1
102
RTVSPropertyOp13
 70
     1
102
RTVSPropertyOp14
 70
     1
102
RTVSPropertyOp15
 70
     1
102
RTVSPropertyOp16
 70
     1
102
RTVSPropertyOp17
 70
     1
102
RTVSPropertyOp18
 70
     1
102
RTVSPropertyOp19
 70
     1
102
RTVSPropertyOp20
 70
     1
102
RTVSPropertyOp21
 70
     1
102
RTVSPropertyOp22
 70
     1
102
RTVSPropertyOp23
 70
     1
102
RTVSPropertyOp24
 70
     1
102
RTVSPropertyOp25
 70
     1
102
RTVSPropertyOp26
 70
     1
102
RTVSPropertyOp27
 70
     1
102
RTVSPropertyOp28
 70
     1
102
RTVSPropertyOp29
 70
     1
102
RTVSPropertyOp30
 70
     1
102
RTVSPropertyOp31
 70
     1
102
RTVSPropertyOp32
 70
     1
102
RTVSPropertyOp33
 70
     1
102
RTVSPropertyOp34
 70
     1
102
RTVSPropertyOp35
 70
     1
102
RTVSPropertyOp36
 70
     1
102
RTVSPropertyOp37
 70
     1
102
RTVSPropertyOp38
 70
     1
102
RTVSPropertyOp39
 70
     1
102
RTVSPropertyOp40
 70
     1
102
RTVSPropertyOp41
 70
     1
102
RTVSPropertyOp42
 70
     1
102
RTVSPropertyOp43
 70
     1
102
RTVSPropertyOp44
 70
     1
102
RTVSPropertyOp45
 70
     1
102
RTVSPropertyOp46
 70
     1
102
RTVSPropertyOp47
 70
     1
102
RTVSPropertyOp48
 70
     1
102
RTVSPropertyOp49
 70
     1
102
RTVSPropertyOp50
 70
     1
102
RTVSPropertyOp51
 70
     0
102
RTVSPropertyOp52
 70
     0
102
RTVSPropertyOp53
 70
     1
102
RTVSPropertyOp54
 70
     1
102
RTVSPropertyOp55
 70
     1
102
RTVSPropertyOp56
 70
     1
102
RTVSPropertyOp57
 70
     1
102
RTVSPropertyOp58
 70
     1
102
RTVSPropertyOp59
 70
     1
102
RTVSPropertyOp60
 70
     1
102
RTVSPropertyOp61
 70
     1
102
RTVSPropertyOp62
 70
     1
  0
XRECORD
  5
A50
102
{ACAD_REACTORS
330
A4F
102
}
330
A4F
100
AcDbXrecord
280
     1
102
RTVSPost2010Prop28
280
     0
102
RTVSPost2010PropOp28
 70
     1
102
RTVSPost2010Prop29
280
     1
102
RTVSPost2010PropOp29
 70
     1
102
RTVSPost2010Prop30
280
     1
102
RTVSPost2010PropOp30
 70
     1
102
RTVSPost2010Prop31
280
     0
102
RTVSPost2010PropOp31
 70
     1
102
RTVSPost2010Prop32
280
     0
102
RTVSPost2010PropOp32
 70
     1
102
RTVSPost2010Prop33
280
     0
102
RTVSPost2010PropOp33
 70
     1
102
RTVSPost2010Prop34
280
     0
102
RTVSPost2010PropOp34
 70
     1
102
RTVSPost2010Prop35
280
     0
102
RTVSPost2010PropOp35
 70
     1
102
RTVSPost2010Prop36
280
     0
102
RTVSPost2010PropOp36
 70
     1
102
RTVSPost2010Prop37
 90
       50
102
RTVSPost2010PropOp37
 70
     1
102
RTVSPost2010Prop38
140
0.0
102
RTVSPost2010PropOp38
 70
     1
102
RTVSPost2010Prop39
140
1.0
102
RTVSPost2010PropOp39
 70
     1
102
RTVSPost2010Prop40
 90
        0
102
RTVSPost2010PropOp40
 70
     1
102
RTVSPost2010Prop41ColorIndex
 90
       18
102
RTVSPost2010Prop41ColorRGB
 90
        0
102
RTVSPost2010PropOp41
 70
     1
102
RTVSPost2010Prop42
 90
       50
102
RTVSPost2010PropOp42
 70
     1
102
RTVSPost2010Prop43
 90
        3
102
RTVSPost2010PropOp43
 70
     1
102
RTVSPost2010Prop44ColorIndex
 90
        5
102
RTVSPost2010Prop44ColorRGB
 90
      255
102
RTVSPost2010PropOp44
 70
     1
102
RTVSPost2010Prop45
280
     0
102
RTVSPost2010PropOp45
 70
     1
102
RTVSPost2010Prop46
 90
       50
102
RTVSPost2010PropOp46
 70
     1
102
RTVSPost2010Prop47
 90
       50
102
RTVSPost2010PropOp47
 70
     1
102
RTVSPost2010Prop48
 90
       50
102
RTVSPost2010PropOp48
 70
     1
102
RTVSPost2010Prop49
280
     0
102
RTVSPost2010PropOp49
 70
     1
102
RTVSPost2010Prop50
 90
       50
102
RTVSPost2010PropOp50
 70
     1
102
RTVSPost2010Prop51ColorIndex
 90
      256
102
RTVSPost2010Prop51ColorRGB
 90
-16777216
102
RTVSPost2010PropOp51
 70
     0
102
RTVSPost2010Prop52
140
1.0
102
RTVSPost2010PropOp52
 70
     0
102
RTVSPost2010Prop53
 90
        2
102
RTVSPost2010PropOp53
 70
     1
102
RTVSPost2010Prop54
  1
strokes_ogs.tif
102
RTVSPost2010PropOp54
 70
     1
102
RTVSPost2010Prop55
280
     0
102
RTVSPost2010PropOp55
 70
     1
102
RTVSPost2010Prop56
140
1.0
102
RTVSPost2010PropOp56
 70
     1
102
RTVSPost2010Prop57
140
1.0
102
RTVSPost2010PropOp57
 70
     1
102
RTVSPropertyOp0
 70
     1
102
RTVSPropertyOp1
 70
     1
102
RTVSPropertyOp2
 70
     1
102
RTVSPropertyOp3
 70
     1
102
RTVSPropertyOp4
 70
     1
102
RTVSPropertyOp5
 70
     1
102
RTVSPropertyOp6
 70
     1
102
RTVSPropertyOp7
 70
     1
102
RTVSPropertyOp8
 70
     1
102
RTVSPropertyOp9
 70
     1
102
RTVSPropertyOp10
 70
     1
102
RTVSPropertyOp11
 70
     1
102
RTVSPropertyOp12
 70
     1
102
RTVSPropertyOp13
 70
     1
102
RTVSPropertyOp14
 70
     1
102
RTVSPropertyOp15
 70
     1
102
RTVSPropertyOp16
 70
     1
102
RTVSPropertyOp17
 70
     1
102
RTVSPropertyOp18
 70
     1
102
RTVSPropertyOp19
 70
     1
102
RTVSPropertyOp20
 70
     1
102
RTVSPropertyOp21
 70
     1
102
RTVSPropertyOp22
 70
     1
102
RTVSPropertyOp23
 70
     1
102
RTVSPropertyOp24
 70
     1
102
RTVSPropertyOp25
 70
     1
102
RTVSPropertyOp26
 70
     1
102
RTVSPropertyOp27
 70
     1
102
RTVSPropertyOp28
 70
     1
102
RTVSPropertyOp29
 70
     1
102
RTVSPropertyOp30
 70
     1
102
RTVSPropertyOp31
 70
     1
102
RTVSPropertyOp32
 70
     1
102
RTVSPropertyOp33
 70
     1
102
RTVSPropertyOp34
 70
     1
102
RTVSPropertyOp35
 70
     1
102
RTVSPropertyOp36
 70
     1
102
RTVSPropertyOp37
 70
     1
102
RTVSPropertyOp38
 70
     1
102
RTVSPropertyOp39
 70
     1
102
RTVSPropertyOp40
 70
     1
102
RTVSPropertyOp41
 70
     1
102
RTVSPropertyOp42
 70
     1
102
RTVSPropertyOp43
 70
     1
102
RTVSPropertyOp44
 70
     1
102
RTVSPropertyOp45
 70
     1
102
RTVSPropertyOp46
 70
     1
102
RTVSPropertyOp47
 70
     1
102
RTVSPropertyOp48
 70
     1
102
RTVSPropertyOp49
 70
     1
102
RTVSPropertyOp50
 70
     1
102
RTVSPropertyOp51
 70
     0
102
RTVSPropertyOp52
 70
     0
102
RTVSPropertyOp53
 70
     1
102
RTVSPropertyOp54
 70
     1
102
RTVSPropertyOp55
 70
     1
102
RTVSPropertyOp56
 70
     1
102
RTVSPropertyOp57
 70
     1
102
RTVSPropertyOp58
 70
     1
102
RTVSPropertyOp59
 70
     1
102
RTVSPropertyOp60
 70
     1
102
RTVSPropertyOp61
 70
     1
102
RTVSPropertyOp62
 70
     1
  0
XRECORD
  5
A46
102
{ACAD_REACTORS
330
A45
102
}
330
A45
100
AcDbXrecord
280
     1
102
RTVSPost2010Prop28
280
     0
102
RTVSPost2010PropOp28
 70
     1
102
RTVSPost2010Prop29
280
     1
102
RTVSPost2010PropOp29
 70
     1
102
RTVSPost2010Prop30
280
     1
102
RTVSPost2010PropOp30
 70
     1
102
RTVSPost2010Prop31
280
     0
102
RTVSPost2010PropOp31
 70
     1
102
RTVSPost2010Prop32
280
     0
102
RTVSPost2010PropOp32
 70
     1
102
RTVSPost2010Prop33
280
     0
102
RTVSPost2010PropOp33
 70
     1
102
RTVSPost2010Prop34
280
     0
102
RTVSPost2010PropOp34
 70
     1
102
RTVSPost2010Prop35
280
     0
102
RTVSPost2010PropOp35
 70
     1
102
RTVSPost2010Prop36
280
     0
102
RTVSPost2010PropOp36
 70
     1
102
RTVSPost2010Prop37
 90
       50
102
RTVSPost2010PropOp37
 70
     1
102
RTVSPost2010Prop38
140
0.0
102
RTVSPost2010PropOp38
 70
     1
102
RTVSPost2010Prop39
140
1.0
102
RTVSPost2010PropOp39
 70
     1
102
RTVSPost2010Prop40
 90
        0
102
RTVSPost2010PropOp40
 70
     1
102
RTVSPost2010Prop41ColorIndex
 90
       18
102
RTVSPost2010Prop41ColorRGB
 90
        0
102
RTVSPost2010PropOp41
 70
     1
102
RTVSPost2010Prop42
 90
       50
102
RTVSPost2010PropOp42
 70
     1
102
RTVSPost2010Prop43
 90
        3
102
RTVSPost2010PropOp43
 70
     1
102
RTVSPost2010Prop44ColorIndex
 90
        5
102
RTVSPost2010Prop44ColorRGB
 90
      255
102
RTVSPost2010PropOp44
 70
     1
102
RTVSPost2010Prop45
280
     0
102
RTVSPost2010PropOp45
 70
     1
102
RTVSPost2010Prop46
 90
       50
102
RTVSPost2010PropOp46
 70
     1
102
RTVSPost2010Prop47
 90
       50
102
RTVSPost2010PropOp47
 70
     1
102
RTVSPost2010Prop48
 90
       50
102
RTVSPost2010PropOp48
 70
     1
102
RTVSPost2010Prop49
280
     0
102
RTVSPost2010PropOp49
 70
     1
102
RTVSPost2010Prop50
 90
       50
102
RTVSPost2010PropOp50
 70
     1
102
RTVSPost2010Prop51ColorIndex
 90
      256
102
RTVSPost2010Prop51ColorRGB
 90
-16777216
102
RTVSPost2010PropOp51
 70
     0
102
RTVSPost2010Prop52
140
1.0
102
RTVSPost2010PropOp52
 70
     0
102
RTVSPost2010Prop53
 90
        2
102
RTVSPost2010PropOp53
 70
     1
102
RTVSPost2010Prop54
  1
strokes_ogs.tif
102
RTVSPost2010PropOp54
 70
     1
102
RTVSPost2010Prop55
280
     0
102
RTVSPost2010PropOp55
 70
     1
102
RTVSPost2010Prop56
140
1.0
102
RTVSPost2010PropOp56
 70
     1
102
RTVSPost2010Prop57
140
1.0
102
RTVSPost2010PropOp57
 70
     1
102
RTVSPropertyOp0
 70
     1
102
RTVSPropertyOp1
 70
     1
102
RTVSPropertyOp2
 70
     1
102
RTVSPropertyOp3
 70
     1
102
RTVSPropertyOp4
 70
     1
102
RTVSPropertyOp5
 70
     1
102
RTVSPropertyOp6
 70
     1
102
RTVSPropertyOp7
 70
     1
102
RTVSPropertyOp8
 70
     1
102
RTVSPropertyOp9
 70
     1
102
RTVSPropertyOp10
 70
     1
102
RTVSPropertyOp11
 70
     1
102
RTVSPropertyOp12
 70
     1
102
RTVSPropertyOp13
 70
     1
102
RTVSPropertyOp14
 70
     1
102
RTVSPropertyOp15
 70
     1
102
RTVSPropertyOp16
 70
     1
102
RTVSPropertyOp17
 70
     1
102
RTVSPropertyOp18
 70
     1
102
RTVSPropertyOp19
 70
     1
102
RTVSPropertyOp20
 70
     1
102
RTVSPropertyOp21
 70
     1
102
RTVSPropertyOp22
 70
     1
102
RTVSPropertyOp23
 70
     1
102
RTVSPropertyOp24
 70
     1
102
RTVSPropertyOp25
 70
     1
102
RTVSPropertyOp26
 70
     1
102
RTVSPropertyOp27
 70
     1
102
RTVSPropertyOp28
 70
     1
102
RTVSPropertyOp29
 70
     1
102
RTVSPropertyOp30
 70
     1
102
RTVSPropertyOp31
 70
     1
102
RTVSPropertyOp32
 70
     1
102
RTVSPropertyOp33
 70
     1
102
RTVSPropertyOp34
 70
     1
102
RTVSPropertyOp35
 70
     1
102
RTVSPropertyOp36
 70
     1
102
RTVSPropertyOp37
 70
     1
102
RTVSPropertyOp38
 70
     1
102
RTVSPropertyOp39
 70
     1
102
RTVSPropertyOp40
 70
     1
102
RTVSPropertyOp41
 70
     1
102
RTVSPropertyOp42
 70
     1
102
RTVSPropertyOp43
 70
     1
102
RTVSPropertyOp44
 70
     1
102
RTVSPropertyOp45
 70
     1
102
RTVSPropertyOp46
 70
     1
102
RTVSPropertyOp47
 70
     1
102
RTVSPropertyOp48
 70
     1
102
RTVSPropertyOp49
 70
     1
102
RTVSPropertyOp50
 70
     1
102
RTVSPropertyOp51
 70
     0
102
RTVSPropertyOp52
 70
     0
102
RTVSPropertyOp53
 70
     1
102
RTVSPropertyOp54
 70
     1
102
RTVSPropertyOp55
 70
     1
102
RTVSPropertyOp56
 70
     1
102
RTVSPropertyOp57
 70
     1
102
RTVSPropertyOp58
 70
     1
102
RTVSPropertyOp59
 70
     1
102
RTVSPropertyOp60
 70
     1
102
RTVSPropertyOp61
 70
     1
102
RTVSPropertyOp62
 70
     1
  0
XRECORD
  5
A3A
102
{ACAD_REACTORS
330
A39
102
}
330
A39
100
AcDbXrecord
280
     1
102
RTVSPost2010Prop28
280
     0
102
RTVSPost2010PropOp28
 70
     1
102
RTVSPost2010Prop29
280
     1
102
RTVSPost2010PropOp29
 70
     1
102
RTVSPost2010Prop30
280
     1
102
RTVSPost2010PropOp30
 70
     1
102
RTVSPost2010Prop31
280
     0
102
RTVSPost2010PropOp31
 70
     1
102
RTVSPost2010Prop32
280
     0
102
RTVSPost2010PropOp32
 70
     1
102
RTVSPost2010Prop33
280
     0
102
RTVSPost2010PropOp33
 70
     1
102
RTVSPost2010Prop34
280
     0
102
RTVSPost2010PropOp34
 70
     1
102
RTVSPost2010Prop35
280
     0
102
RTVSPost2010PropOp35
 70
     1
102
RTVSPost2010Prop36
280
     0
102
RTVSPost2010PropOp36
 70
     1
102
RTVSPost2010Prop37
 90
       50
102
RTVSPost2010PropOp37
 70
     1
102
RTVSPost2010Prop38
140
0.0
102
RTVSPost2010PropOp38
 70
     1
102
RTVSPost2010Prop39
140
1.0
102
RTVSPost2010PropOp39
 70
     1
102
RTVSPost2010Prop40
 90
        0
102
RTVSPost2010PropOp40
 70
     1
102
RTVSPost2010Prop41ColorIndex
 90
       18
102
RTVSPost2010Prop41ColorRGB
 90
        0
102
RTVSPost2010PropOp41
 70
     1
102
RTVSPost2010Prop42
 90
       50
102
RTVSPost2010PropOp42
 70
     1
102
RTVSPost2010Prop43
 90
        3
102
RTVSPost2010PropOp43
 70
     1
102
RTVSPost2010Prop44ColorIndex
 90
        5
102
RTVSPost2010Prop44ColorRGB
 90
      255
102
RTVSPost2010PropOp44
 70
     1
102
RTVSPost2010Prop45
280
     0
102
RTVSPost2010PropOp45
 70
     1
102
RTVSPost2010Prop46
 90
       50
102
RTVSPost2010PropOp46
 70
     1
102
RTVSPost2010Prop47
 90
       50
102
RTVSPost2010PropOp47
 70
     1
102
RTVSPost2010Prop48
 90
       50
102
RTVSPost2010PropOp48
 70
     1
102
RTVSPost2010Prop49
280
     0
102
RTVSPost2010PropOp49
 70
     1
102
RTVSPost2010Prop50
 90
       50
102
RTVSPost2010PropOp50
 70
     1
102
RTVSPost2010Prop51ColorIndex
 90
      256
102
RTVSPost2010Prop51ColorRGB
 90
-16777216
102
RTVSPost2010PropOp51
 70
     0
102
RTVSPost2010Prop52
140
1.0
102
RTVSPost2010PropOp52
 70
     0
102
RTVSPost2010Prop53
 90
        2
102
RTVSPost2010PropOp53
 70
     1
102
RTVSPost2010Prop54
  1
strokes_ogs.tif
102
RTVSPost2010PropOp54
 70
     1
102
RTVSPost2010Prop55
280
     0
102
RTVSPost2010PropOp55
 70
     1
102
RTVSPost2010Prop56
140
1.0
102
RTVSPost2010PropOp56
 70
     1
102
RTVSPost2010Prop57
140
1.0
102
RTVSPost2010PropOp57
 70
     1
102
RTVSPropertyOp0
 70
     1
102
RTVSPropertyOp1
 70
     1
102
RTVSPropertyOp2
 70
     1
102
RTVSPropertyOp3
 70
     1
102
RTVSPropertyOp4
 70
     1
102
RTVSPropertyOp5
 70
     1
102
RTVSPropertyOp6
 70
     1
102
RTVSPropertyOp7
 70
     1
102
RTVSPropertyOp8
 70
     1
102
RTVSPropertyOp9
 70
     1
102
RTVSPropertyOp10
 70
     1
102
RTVSPropertyOp11
 70
     1
102
RTVSPropertyOp12
 70
     1
102
RTVSPropertyOp13
 70
     1
102
RTVSPropertyOp14
 70
     1
102
RTVSPropertyOp15
 70
     1
102
RTVSPropertyOp16
 70
     1
102
RTVSPropertyOp17
 70
     1
102
RTVSPropertyOp18
 70
     1
102
RTVSPropertyOp19
 70
     1
102
RTVSPropertyOp20
 70
     1
102
RTVSPropertyOp21
 70
     1
102
RTVSPropertyOp22
 70
     1
102
RTVSPropertyOp23
 70
     1
102
RTVSPropertyOp24
 70
     1
102
RTVSPropertyOp25
 70
     1
102
RTVSPropertyOp26
 70
     1
102
RTVSPropertyOp27
 70
     1
102
RTVSPropertyOp28
 70
     1
102
RTVSPropertyOp29
 70
     1
102
RTVSPropertyOp30
 70
     1
102
RTVSPropertyOp31
 70
     1
102
RTVSPropertyOp32
 70
     1
102
RTVSPropertyOp33
 70
     1
102
RTVSPropertyOp34
 70
     1
102
RTVSPropertyOp35
 70
     1
102
RTVSPropertyOp36
 70
     1
102
RTVSPropertyOp37
 70
     1
102
RTVSPropertyOp38
 70
     1
102
RTVSPropertyOp39
 70
     1
102
RTVSPropertyOp40
 70
     1
102
RTVSPropertyOp41
 70
     1
102
RTVSPropertyOp42
 70
     1
102
RTVSPropertyOp43
 70
     1
102
RTVSPropertyOp44
 70
     1
102
RTVSPropertyOp45
 70
     1
102
RTVSPropertyOp46
 70
     1
102
RTVSPropertyOp47
 70
     1
102
RTVSPropertyOp48
 70
     1
102
RTVSPropertyOp49
 70
     1
102
RTVSPropertyOp50
 70
     1
102
RTVSPropertyOp51
 70
     0
102
RTVSPropertyOp52
 70
     0
102
RTVSPropertyOp53
 70
     1
102
RTVSPropertyOp54
 70
     1
102
RTVSPropertyOp55
 70
     1
102
RTVSPropertyOp56
 70
     1
102
RTVSPropertyOp57
 70
     1
102
RTVSPropertyOp58
 70
     1
102
RTVSPropertyOp59
 70
     1
102
RTVSPropertyOp60
 70
     1
102
RTVSPropertyOp61
 70
     1
102
RTVSPropertyOp62
 70
     1
  0
XRECORD
  5
A52
102
{ACAD_REACTORS
330
A51
102
}
330
A51
100
AcDbXrecord
280
     1
102
RTVSPost2010Prop28
280
     0
102
RTVSPost2010PropOp28
 70
     1
102
RTVSPost2010Prop29
280
     1
102
RTVSPost2010PropOp29
 70
     1
102
RTVSPost2010Prop30
280
     1
102
RTVSPost2010PropOp30
 70
     1
102
RTVSPost2010Prop31
280
     0
102
RTVSPost2010PropOp31
 70
     1
102
RTVSPost2010Prop32
280
     0
102
RTVSPost2010PropOp32
 70
     1
102
RTVSPost2010Prop33
280
     0
102
RTVSPost2010PropOp33
 70
     1
102
RTVSPost2010Prop34
280
     0
102
RTVSPost2010PropOp34
 70
     1
102
RTVSPost2010Prop35
280
     0
102
RTVSPost2010PropOp35
 70
     1
102
RTVSPost2010Prop36
280
     0
102
RTVSPost2010PropOp36
 70
     1
102
RTVSPost2010Prop37
 90
       50
102
RTVSPost2010PropOp37
 70
     1
102
RTVSPost2010Prop38
140
0.0
102
RTVSPost2010PropOp38
 70
     1
102
RTVSPost2010Prop39
140
1.0
102
RTVSPost2010PropOp39
 70
     1
102
RTVSPost2010Prop40
 90
        0
102
RTVSPost2010PropOp40
 70
     1
102
RTVSPost2010Prop41ColorIndex
 90
       18
102
RTVSPost2010Prop41ColorRGB
 90
        0
102
RTVSPost2010PropOp41
 70
     1
102
RTVSPost2010Prop42
 90
       50
102
RTVSPost2010PropOp42
 70
     1
102
RTVSPost2010Prop43
 90
        3
102
RTVSPost2010PropOp43
 70
     1
102
RTVSPost2010Prop44ColorIndex
 90
        5
102
RTVSPost2010Prop44ColorRGB
 90
      255
102
RTVSPost2010PropOp44
 70
     1
102
RTVSPost2010Prop45
280
     0
102
RTVSPost2010PropOp45
 70
     1
102
RTVSPost2010Prop46
 90
       50
102
RTVSPost2010PropOp46
 70
     1
102
RTVSPost2010Prop47
 90
       50
102
RTVSPost2010PropOp47
 70
     1
102
RTVSPost2010Prop48
 90
       50
102
RTVSPost2010PropOp48
 70
     1
102
RTVSPost2010Prop49
280
     0
102
RTVSPost2010PropOp49
 70
     1
102
RTVSPost2010Prop50
 90
       50
102
RTVSPost2010PropOp50
 70
     1
102
RTVSPost2010Prop51ColorIndex
 90
      256
102
RTVSPost2010Prop51ColorRGB
 90
-16777216
102
RTVSPost2010PropOp51
 70
     0
102
RTVSPost2010Prop52
140
1.0
102
RTVSPost2010PropOp52
 70
     0
102
RTVSPost2010Prop53
 90
        2
102
RTVSPost2010PropOp53
 70
     1
102
RTVSPost2010Prop54
  1
strokes_ogs.tif
102
RTVSPost2010PropOp54
 70
     1
102
RTVSPost2010Prop55
280
     0
102
RTVSPost2010PropOp55
 70
     1
102
RTVSPost2010Prop56
140
1.0
102
RTVSPost2010PropOp56
 70
     1
102
RTVSPost2010Prop57
140
1.0
102
RTVSPost2010PropOp57
 70
     1
102
RTVSPropertyOp0
 70
     1
102
RTVSPropertyOp1
 70
     1
102
RTVSPropertyOp2
 70
     1
102
RTVSPropertyOp3
 70
     1
102
RTVSPropertyOp4
 70
     1
102
RTVSPropertyOp5
 70
     1
102
RTVSPropertyOp6
 70
     1
102
RTVSPropertyOp7
 70
     1
102
RTVSPropertyOp8
 70
     1
102
RTVSPropertyOp9
 70
     1
102
RTVSPropertyOp10
 70
     1
102
RTVSPropertyOp11
 70
     1
102
RTVSPropertyOp12
 70
     1
102
RTVSPropertyOp13
 70
     1
102
RTVSPropertyOp14
 70
     1
102
RTVSPropertyOp15
 70
     1
102
RTVSPropertyOp16
 70
     1
102
RTVSPropertyOp17
 70
     1
102
RTVSPropertyOp18
 70
     1
102
RTVSPropertyOp19
 70
     1
102
RTVSPropertyOp20
 70
     1
102
RTVSPropertyOp21
 70
     1
102
RTVSPropertyOp22
 70
     1
102
RTVSPropertyOp23
 70
     1
102
RTVSPropertyOp24
 70
     1
102
RTVSPropertyOp25
 70
     1
102
RTVSPropertyOp26
 70
     1
102
RTVSPropertyOp27
 70
     1
102
RTVSPropertyOp28
 70
     1
102
RTVSPropertyOp29
 70
     1
102
RTVSPropertyOp30
 70
     1
102
RTVSPropertyOp31
 70
     1
102
RTVSPropertyOp32
 70
     1
102
RTVSPropertyOp33
 70
     1
102
RTVSPropertyOp34
 70
     1
102
RTVSPropertyOp35
 70
     1
102
RTVSPropertyOp36
 70
     1
102
RTVSPropertyOp37
 70
     1
102
RTVSPropertyOp38
 70
     1
102
RTVSPropertyOp39
 70
     1
102
RTVSPropertyOp40
 70
     1
102
RTVSPropertyOp41
 70
     1
102
RTVSPropertyOp42
 70
     1
102
RTVSPropertyOp43
 70
     1
102
RTVSPropertyOp44
 70
     1
102
RTVSPropertyOp45
 70
     1
102
RTVSPropertyOp46
 70
     1
102
RTVSPropertyOp47
 70
     1
102
RTVSPropertyOp48
 70
     1
102
RTVSPropertyOp49
 70
     1
102
RTVSPropertyOp50
 70
     1
102
RTVSPropertyOp51
 70
     0
102
RTVSPropertyOp52
 70
     0
102
RTVSPropertyOp53
 70
     1
102
RTVSPropertyOp54
 70
     1
102
RTVSPropertyOp55
 70
     1
102
RTVSPropertyOp56
 70
     1
102
RTVSPropertyOp57
 70
     1
102
RTVSPropertyOp58
 70
     1
102
RTVSPropertyOp59
 70
     1
102
RTVSPropertyOp60
 70
     1
102
RTVSPropertyOp61
 70
     1
102
RTVSPropertyOp62
 70
     1
  0
XRECORD
  5
9F7
102
{ACAD_REACTORS
330
9F6
102
}
330
9F6
100
AcDbXrecord
280
     1
330
43
  0
ENDSEC
  0
EOF
