  0
SECTION
  2
HEADER
  9
$ACADVER
  1
AC1009
  9
$INSBASE
 10
0.0
 20
0.0
 30
0.0
  9
$EXTMIN
 10
-1262.512173576411
 20
-1117.1722163180491
 30
-0.0000000000000053
  9
$EXTMAX
 10
1182.861350456787
 20
784.83583205942705
 30
0.0000000000000099
  9
$LIMMIN
 10
-6000.0
 20
-4500.0
  9
$LIMMAX
 10
6000.0
 20
4500.0
  9
$ORTHOMODE
 70
     0
  9
$REGENMODE
 70
     1
  9
$FILLMODE
 70
     1
  9
$QTEXTMODE
 70
     0
  9
$MIRRTEXT
 70
     0
  9
$DRAGMODE
 70
     2
  9
$LTSCALE
 40
20.0
  9
$OSMODE
 70
   431
  9
$ATTMODE
 70
     1
  9
$TEXTSIZE
 40
64.0
  9
$TRACEWID
 40
0.05
  9
$TEXTSTYLE
  7
STANDARD
  9
$CLAYER
  8
SYMBOLLINE
  9
$CELTYPE
  6
CONTINUOUS
  9
$CECOLOR
 62
     7
  9
$DIMSCALE
 40
1.0
  9
$DIMASZ
 40
10.0
  9
$DIMEXO
 40
20.0
  9
$DIMDLI
 40
200.0
  9
$DIMRND
 40
0.0
  9
$DIMDLE
 40
0.0
  9
$DIMEXE
 40
30.0
  9
$DIMTP
 40
0.0
  9
$DIMTM
 40
0.0
  9
$DIMTXT
 40
55.0
  9
$DIMCEN
 40
0.0
  9
$DIMTSZ
 40
0.0
  9
$DIMTOL
 70
     0
  9
$DIMLIM
 70
     0
  9
$DIMTIH
 70
     0
  9
$DIMTOH
 70
     0
  9
$DIMSE1
 70
     0
  9
$DIMSE2
 70
     0
  9
$DIMTAD
 70
     1
  9
$DIMZIN
 70
     8
  9
$DIMBLK
  1

  9
$DIMASO
 70
     1
  9
$DIMSHO
 70
     0
  9
$DIMPOST
  1

  9
$DIMAPOST
  1

  9
$DIMALT
 70
     0
  9
$DIMALTD
 70
     2
  9
$DIMALTF
 40
25.399999999999999
  9
$DIMLFAC
 40
1.0
  9
$DIMTOFL
 70
     1
  9
$DIMTVP
 40
0.0
  9
$DIMTIX
 70
     1
  9
$DIMSOXD
 70
     0
  9
$DIMSAH
 70
     1
  9
$DIMBLK1
  1
DOTBLANK
  9
$DIMBLK2
  1
DOTBLANK
  9
$DIMSTYLE
  2
STANDARD
  9
$DIMCLRD
 70
     0
  9
$DIMCLRE
 70
     0
  9
$DIMCLRT
 70
     0
  9
$DIMTFAC
 40
1.0
  9
$DIMGAP
 40
0.09
  9
$LUNITS
 70
     2
  9
$LUPREC
 70
     4
  9
$SKETCHINC
 40
0.1
  9
$FILLETRAD
 40
19.039999999999999
  9
$AUNITS
 70
     1
  9
$AUPREC
 70
     3
  9
$MENU
  1
ACAD
  9
$ELEVATION
 40
0.0
  9
$PELEVATION
 40
0.0
  9
$THICKNESS
 40
0.0
  9
$LIMCHECK
 70
     0
  9
$BLIPMODE
 70
     0
  9
$CHAMFERA
 40
0.0
  9
$CHAMFERB
 40
0.0
  9
$SKPOLY
 70
     0
  9
$TDCREATE
 40
2450330.4399309959
  9
$TDUPDATE
 40
2456855.6265798151
  9
$TDINDWG
 40
1.3136636921
  9
$TDUSRTIMER
 40
1.3136349769
  9
$USRTIMER
 70
     1
  9
$ANGBASE
 50
0.0
  9
$ANGDIR
 70
     0
  9
$PDMODE
 70
     3
  9
$PDSIZE
 40
-2.0
  9
$PLINEWID
 40
0.0
  9
$COORDS
 70
     1
  9
$SPLFRAME
 70
     0
  9
$SPLINETYPE
 70
     6
  9
$SPLINESEGS
 70
     8
  9
$ATTDIA
 70
     1
  9
$ATTREQ
 70
     1
  9
$HANDLING
 70
     1
  9
$HANDSEED
  5
D6C
  9
$SURFTAB1
 70
     6
  9
$SURFTAB2
 70
     6
  9
$SURFTYPE
 70
     6
  9
$SURFU
 70
     6
  9
$SURFV
 70
     6
  9
$UCSNAME
  2

  9
$UCSORG
 10
0.0
 20
0.0
 30
0.0
  9
$UCSXDIR
 10
1.0
 20
0.0
 30
0.0
  9
$UCSYDIR
 10
0.0
 20
1.0
 30
0.0
  9
$PUCSNAME
  2

  9
$PUCSORG
 10
0.0
 20
0.0
 30
0.0
  9
$PUCSXDIR
 10
1.0
 20
0.0
 30
0.0
  9
$PUCSYDIR
 10
0.0
 20
1.0
 30
0.0
  9
$USERI1
 70
     0
  9
$USERI2
 70
     0
  9
$USERI3
 70
     0
  9
$USERI4
 70
     0
  9
$USERI5
 70
     0
  9
$USERR1
 40
20.0
  9
$USERR2
 40
0.0
  9
$USERR3
 40
0.0
  9
$USERR4
 40
0.0
  9
$USERR5
 40
0.0
  9
$WORLDVIEW
 70
     1
  9
$SHADEDGE
 70
     3
  9
$SHADEDIF
 70
    70
  9
$TILEMODE
 70
     1
  9
$MAXACTVP
 70
    48
  9
$PLIMCHECK
 70
     0
  9
$PEXTMIN
 10
1.0000000000000000E+020
 20
1.0000000000000000E+020
 30
1.0000000000000000E+020
  9
$PEXTMAX
 10
-1.0000000000000000E+020
 20
-1.0000000000000000E+020
 30
-1.0000000000000000E+020
  9
$PLIMMIN
 10
0.0
 20
0.0
  9
$PLIMMAX
 10
12.0
 20
9.0
  9
$UNITMODE
 70
     0
  9
$VISRETAIN
 70
     1
  9
$PLINEGEN
 70
     0
  9
$PSLTSCALE
 70
     1
  0
ENDSEC
  0
SECTION
  2
TABLES
  0
TABLE
  2
VPORT
 70
     1
  0
VPORT
  2
*ACTIVE
 70
     0
 10
0.0
 20
0.0
 11
1.0
 21
1.0
 12
-39.825411559811933
 22
-166.16819212931111
 13
0.0
 23
0.0
 14
50.0
 24
50.0
 15
100.0
 25
100.0
 16
0.0
 26
0.0
 36
1.0
 17
0.0
 27
0.0
 37
0.0
 40
1916.964861339816
 41
1.5944881889763769
 42
50.0
 43
0.0
 44
0.0
 50
0.0
 51
0.0
 71
     0
 72
  1000
 73
     1
 74
     0
 75
     0
 76
     0
 77
     0
 78
     0
  0
ENDTAB
  0
TABLE
  2
LTYPE
 70
     4
  0
LTYPE
  2
CONTINUOUS
 70
     0
  3
実線
 72
    65
 73
     0
 40
0.0
  0
LTYPE
  2
DASHDOT
 70
     0
  3
____ _ ____ _ ____ _ ____ _ ____ _ ____ _ ____
 72
    65
 73
     4
 40
5.5
 49
4.0
 49
-0.6
 49
0.3
 49
-0.6
  0
ENDTAB
  0
TABLE
  2
LAYER
 70
    12
  0
LAYER
  2
0
 70
     0
 62
     7
  6
CONTINUOUS
  0
LAYER
  2
SYMBOLLINE
 70
     0
 62
    15
  6
CONTINUOUS
  0
LAYER
  2
OUTLINE
 70
     0
 62
     3
  6
CONTINUOUS
  0
LAYER
  2
DETAIL
 70
     0
 62
     5
  6
CONTINUOUS
  0
LAYER
  2
BASIS
 70
     0
 62
     6
  6
DASHDOT
  0
LAYER
  2
SIZE
 70
     0
 62
    30
  6
CONTINUOUS
  0
LAYER
  2
NOTE
 70
     0
 62
     4
  6
CONTINUOUS
  0
LAYER
  2
ARRANGE
 70
     0
 62
     1
  6
CONTINUOUS
  0
LAYER
  2
FIX
 70
     0
 62
    11
  6
CONTINUOUS
  0
LAYER
  2
SERVICESPACE
 70
     0
 62
     2
  6
DASHDOT
  0
LAYER
  2
ETC
 70
     0
 62
    61
  6
CONTINUOUS
  0
LAYER
  2
DEFPOINTS
 70
     0
 62
     7
  6
CONTINUOUS
  0
ENDTAB
  0
TABLE
  2
STYLE
 70
     3
  0
STYLE
  2
STANDARD
 70
     0
 40
0.0
 41
0.9
 50
0.0
 71
     0
 42
64.0
  3
SIMPLEX
  4
BIGFONT
  0
STYLE
  2
ANNOTATIVE
 70
     0
 40
0.0
 41
1.0
 50
0.0
 71
     0
 42
0.2
  3
txt
  4

  0
STYLE
  2
STANDARD1
 70
     0
 40
0.0
 41
1.0
 50
0.0
 71
     0
 42
64.0
  3
MONOTXT
  4
BIGFONT
  0
ENDTAB
  0
TABLE
  2
VIEW
 70
     1
  0
VIEW
  2
ALL
 70
     0
 40
9000.0
 10
241.50664699999999
 20
0.0
 41
12483.01
 11
0.0
 21
0.0
 31
1.0
 12
0.0
 22
0.0
 32
0.0
 42
50.0
 43
0.0
 44
0.0
 50
0.0
 71
     0
  0
ENDTAB
  0
TABLE
  2
UCS
 70
     0
  0
ENDTAB
  0
TABLE
  2
APPID
 70
     7
  0
APPID
  2
ACAD
 70
     0
  0
APPID
  2
ACADANNOTATIVE
 70
     0
  0
APPID
  2
ACAD_MLEADERVER
 70
     0
  0
APPID
  2
ACAD_EXEMPT_FROM_CAD_STANDARDS
 70
     0
  0
APPID
  2
ACAD_DSTYLE_DIMJAG
 70
     0
  0
APPID
  2
ACAD_DSTYLE_DIMTALN
 70
     0
  0
APPID
  2
ACAD_NAV_VCDISPLAY
 70
     0
  0
ENDTAB
  0
TABLE
  2
DIMSTYLE
 70
     3
  0
DIMSTYLE
  2
STANDARD
 70
     0
  3

  4

  5

  6

  7

 40
1.0
 41
0.18
 42
0.0625
 43
0.38
 44
0.18
 45
0.0
 46
0.0
 47
0.0
 48
0.0
140
0.18
141
0.09
142
0.0
143
25.399999999999999
144
1.0
145
0.0
146
1.0
147
0.09
 71
     0
 72
     0
 73
     1
 74
     1
 75
     0
 76
     0
 77
     0
 78
     0
170
     0
171
     2
172
     0
173
     0
174
     0
175
     0
176
     0
177
     0
178
     0
  0
DIMSTYLE
  2
ANNOTATIVE
 70
     0
  3

  4

  5

  6

  7

 40
1.0
 41
0.18
 42
0.0625
 43
0.38
 44
0.18
 45
0.0
 46
0.0
 47
0.0
 48
0.0
140
0.18
141
0.09
142
0.0
143
25.399999999999999
144
1.0
145
0.0
146
1.0
147
0.09
 71
     0
 72
     0
 73
     1
 74
     1
 75
     0
 76
     0
 77
     0
 78
     0
170
     0
171
     2
172
     0
173
     0
174
     0
175
     0
176
     0
177
     0
178
     0
  0
ENDTAB
  0
ENDSEC
  0
SECTION
  2
BLOCKS
  0
BLOCK
  8
0
  2
$MODEL_SPACE
 70
     0
 10
0.0
 20
0.0
 30
0.0
  3
$MODEL_SPACE
  1

  0
ENDBLK
  5
CA1
  8
0
  0
BLOCK
 67
     1
  8
0
  2
$PAPER_SPACE
 70
     0
 10
0.0
 20
0.0
 30
0.0
  3
$PAPER_SPACE
  1

  0
ENDBLK
  5
C9D
 67
     1
  8
0
  0
BLOCK
  8
0
  2
_DOTBLANK
 70
     0
 10
0.0
 20
0.0
 30
0.0
  3
_DOTBLANK
  1

  0
CIRCLE
  5
30
  8
0
  6
CONTINUOUS
 62
     7
 10
0.0
 20
0.0
 30
0.0
 40
0.5
  0
LINE
  5
31
  8
0
  6
CONTINUOUS
 62
     7
 10
-0.5
 20
0.0
 30
0.0
 11
-1.0
 21
0.0
 31
0.0
  0
ENDBLK
  5
32
  8
0
  0
BLOCK
  8
0
  2
_ORIGIN
 70
     0
 10
0.0
 20
0.0
 30
0.0
  3
_ORIGIN
  1

  0
CIRCLE
  5
266
  8
0
  6
CONTINUOUS
 62
     7
 10
0.0
 20
0.0
 30
0.0
 40
0.5
  0
LINE
  5
267
  8
0
  6
CONTINUOUS
 62
     7
 10
-0.5
 20
0.0
 30
0.0
 11
-1.0
 21
0.0
 31
0.0
  0
ENDBLK
  5
268
  8
0
  0
BLOCK
  8
0
 62
     7
  2
A$C051C3E03
 70
     0
 10
0.0
 20
0.0
 30
0.0
  3
A$C051C3E03
  1

  0
POINT
  5
26B
  8
DEFPOINTS
  6
CONTINUOUS
 62
     7
 10
15.99999847811705
 20
7.7009232893022359
 30
0.0
  0
POINT
  5
26C
  8
DEFPOINTS
  6
CONTINUOUS
 62
     7
 10
15.99999847811705
 20
7.7009232893022359
 30
0.0
  0
ARC
  5
26D
  8
DETAIL
  6
CONTINUOUS
 62
     5
 10
11.69972347811688
 20
7.7011632893023121
 30
0.0
 40
2.0
 50
0.0
 51
90.0
  0
LINE
  5
26E
  8
DETAIL
  6
CONTINUOUS
 62
     5
 10
-0.0000015218829503
 20
9.7011632893022561
 30
0.0
 11
11.69972347811688
 21
9.7011632893022561
 31
0.0
  0
LINE
  5
26F
  8
DETAIL
  6
CONTINUOUS
 62
     5
 10
13.69972347811688
 20
0.0000012893022472
 30
0.0
 11
15.99999847811705
 21
0.0000012893022472
 31
0.0
  0
LINE
  5
270
  8
DETAIL
  6
CONTINUOUS
 62
     5
 10
13.69972347811688
 20
7.7011632893023121
 30
0.0
 11
13.69972347811688
 21
0.0000012893022472
 31
0.0
  0
LINE
  5
271
  8
DETAIL
  6
CONTINUOUS
 62
     5
 10
15.99999847811705
 20
7.7009232893022359
 30
0.0
 11
15.99999847811705
 21
0.0000012893022472
 31
0.0
  0
ARC
  5
272
  8
DETAIL
  6
CONTINUOUS
 62
     5
 10
11.69948347811702
 20
7.7009232893022359
 30
0.0
 40
4.3005149999999981
 50
0.0
 51
90.0
  0
ENDBLK
  5
274
  8
0
 62
     7
  0
BLOCK
  8
0
 62
     7
  2
*D5
 70
     1
 10
0.0
 20
0.0
 30
0.0
  3
*D5
  1

  0
LINE
  5
3C5
  8
SIZE
  6
CONTINUOUS
 62
     0
 10
-402.0
 20
-133.0
 30
0.0
 11
-402.0
 21
-12.65258209095555
 31
0.0
  0
LINE
  5
3C6
  8
SIZE
  6
CONTINUOUS
 62
     0
 10
-350.0
 20
-42.652582090955548
 30
0.0
 11
-392.0
 21
-42.652582090955548
 31
0.0
  0
LINE
  5
3C7
  8
SIZE
  6
CONTINUOUS
 62
     0
 10
-402.0
 20
-42.652582090955548
 30
0.0
 11
-521.58836057348333
 21
-42.652582090955548
 31
0.0
  0
INSERT
  5
3C8
  8
SIZE
  6
CONTINUOUS
 62
     0
  2
_DOTBLANK
 10
-340.0
 20
-42.652582090955548
 30
0.0
 41
10.0
 42
10.0
 43
10.0
  0
INSERT
  5
3C9
  8
SIZE
  6
CONTINUOUS
 62
     0
  2
_DOTBLANK
 10
-402.0
 20
-42.652582090955548
 30
0.0
 41
10.0
 42
10.0
 43
10.0
 50
180.0
  0
INSERT
  5
3CA
  8
SYMBOLLINE
  6
CONTINUOUS
 62
     7
  2
*U6
 10
0.0
 20
0.0
 30
0.0
  0
POINT
  5
3CB
  8
DEFPOINTS
  6
CONTINUOUS
 62
     0
 10
-340.0
 20
-163.5
 30
0.0
  0
POINT
  5
3CC
  8
DEFPOINTS
  6
CONTINUOUS
 62
     0
 10
-402.0
 20
-153.0
 30
0.0
  0
POINT
  5
3CD
  8
DEFPOINTS
  6
CONTINUOUS
 62
     0
 10
-402.0
 20
-42.652582090955548
 30
0.0
  0
ENDBLK
  5
37F
  8
0
 62
     7
  0
BLOCK
  8
0
 62
     7
  2
*U6
 70
     1
 10
0.0
 20
0.0
 30
0.0
  3
*U6
  1

  0
TEXT
  5
46B
  8
SIZE
  6
CONTINUOUS
 62
     0
 10
-521.4983605734833
 20
-42.56258209095553
 30
0.0
 40
64.0
  1
62
 41
0.9
  0
ENDBLK
  5
46D
  8
0
 62
     7
  0
BLOCK
  8
0
 62
     7
  2
*D7
 70
     1
 10
0.0
 20
0.0
 30
0.0
  3
*D7
  1

  0
LINE
  5
3BC
  8
SIZE
  6
CONTINUOUS
 62
     0
 10
-340.0
 20
-218.5
 30
0.0
 11
-340.0
 21
-94.208562890264147
 31
0.0
  0
LINE
  5
3BD
  8
SIZE
  6
CONTINUOUS
 62
     0
 10
-350.0
 20
-124.2085628902641
 30
0.0
 11
-408.0
 21
-124.2085628902641
 31
0.0
  0
LINE
  5
3BE
  8
SIZE
  6
CONTINUOUS
 62
     0
 10
-418.0
 20
-124.2085628902641
 30
0.0
 11
-523.87082893769355
 21
-124.2085628902641
 31
0.0
  0
INSERT
  5
3BF
  8
SIZE
  6
CONTINUOUS
 62
     0
  2
_DOTBLANK
 10
-340.0
 20
-124.2085628902641
 30
0.0
 41
10.0
 42
10.0
 43
10.0
  0
INSERT
  5
3C0
  8
SIZE
  6
CONTINUOUS
 62
     0
  2
_DOTBLANK
 10
-418.0
 20
-124.2085628902641
 30
0.0
 41
10.0
 42
10.0
 43
10.0
 50
180.0
  0
INSERT
  5
3C1
  8
SYMBOLLINE
  6
CONTINUOUS
 62
     7
  2
*U8
 10
0.0
 20
0.0
 30
0.0
  0
POINT
  5
3C2
  8
DEFPOINTS
  6
CONTINUOUS
 62
     0
 10
-418.0
 20
-230.0
 30
0.0
  0
POINT
  5
3C3
  8
DEFPOINTS
  6
CONTINUOUS
 62
     0
 10
-340.0
 20
-238.5
 30
0.0
  0
POINT
  5
3C4
  8
DEFPOINTS
  6
CONTINUOUS
 62
     0
 10
-340.0
 20
-124.2085628902641
 30
0.0
  0
ENDBLK
  5
38D
  8
0
 62
     7
  0
BLOCK
  8
0
 62
     7
  2
*U8
 70
     1
 10
0.0
 20
0.0
 30
0.0
  3
*U8
  1

  0
TEXT
  5
467
  8
SIZE
  6
CONTINUOUS
 62
     0
 10
-523.78082893769351
 20
-124.1185628902641
 30
0.0
 40
64.0
  1
78
 41
0.9
  0
ENDBLK
  5
469
  8
0
 62
     7
  0
BLOCK
  8
0
 62
     7
  2
*D9
 70
     1
 10
0.0
 20
0.0
 30
0.0
  3
*D9
  1

  0
LINE
  5
924
  8
SIZE
  6
CONTINUOUS
 62
     0
 10
-440.0
 20
-53.499999999999993
 30
0.0
 11
-858.5209261831186
 21
-53.499999999999872
 31
0.0
  0
LINE
  5
925
  8
SIZE
  6
CONTINUOUS
 62
     0
 10
-387.84986249999997
 20
-379.99999999999989
 30
0.0
 11
-858.5209261831186
 21
-379.99999999999977
 31
0.0
  0
LINE
  5
926
  8
SIZE
  6
CONTINUOUS
 62
     0
 10
-828.5209261831186
 20
-63.499999999999879
 30
0.0
 11
-828.52092618311872
 21
-369.99999999999989
 31
0.0
  0
INSERT
  5
927
  8
SIZE
  6
CONTINUOUS
 62
     0
  2
_DOTBLANK
 10
-828.5209261831186
 20
-53.499999999999879
 30
0.0
 41
10.0
 42
10.0
 43
10.0
 50
90.0
  0
INSERT
  5
928
  8
SIZE
  6
CONTINUOUS
 62
     0
  2
_DOTBLANK
 10
-828.52092618311872
 20
-379.99999999999989
 30
0.0
 41
10.0
 42
10.0
 43
10.0
 50
270.0
  0
INSERT
  5
929
  8
SYMBOLLINE
  6
CONTINUOUS
 62
     7
  2
*U10
 10
0.0
 20
0.0
 30
0.0
  0
POINT
  5
92A
  8
DEFPOINTS
  6
CONTINUOUS
 62
     0
 10
-420.0
 20
-53.5
 30
0.0
  0
POINT
  5
92B
  8
DEFPOINTS
  6
CONTINUOUS
 62
     0
 10
-367.84986249999997
 20
-380.0
 30
0.0
  0
POINT
  5
92C
  8
DEFPOINTS
  6
CONTINUOUS
 62
     0
 10
-828.52092618311872
 20
-379.99999999999989
 30
0.0
  0
ENDBLK
  5
911
  8
0
 62
     7
  0
BLOCK
  8
0
 62
     7
  2
*U10
 70
     1
 10
0.0
 20
0.0
 30
0.0
  3
*U10
  1

  0
TEXT
  5
9A7
  8
SIZE
  6
CONTINUOUS
 62
     0
 10
-828.61092618311841
 20
-315.75
 30
0.0
 40
55.0
  1
326.5
 50
90.0
 41
0.9
  0
ENDBLK
  5
9A9
  8
0
 62
     7
  0
ENDSEC
  0
SECTION
  2
ENTITIES
  0
LINE
  5
39
  8
NOTE
  6
CONTINUOUS
 62
     4
 10
377.0
 20
-359.0
 30
0.0
 11
377.0
 21
-319.0
 31
0.0
  0
LINE
  5
3A
  8
NOTE
  6
CONTINUOUS
 62
     4
 10
-397.0
 20
-339.0
 30
0.0
 11
-357.0
 21
-339.0
 31
0.0
  0
LINE
  5
3B
  8
NOTE
  6
CONTINUOUS
 62
     4
 10
-377.0
 20
-359.0
 30
0.0
 11
-377.0
 21
-319.0
 31
0.0
  0
LINE
  5
41
  8
NOTE
  6
CONTINUOUS
 62
     4
 10
-438.0
 20
-237.0
 30
0.0
 11
-398.0
 21
-237.0
 31
0.0
  0
LINE
  5
42
  8
NOTE
  6
CONTINUOUS
 62
     4
 10
-418.0
 20
-257.0
 30
0.0
 11
-418.0
 21
-217.0
 31
0.0
  0
LINE
  5
4F
  8
NOTE
  6
CONTINUOUS
 62
     4
 10
-422.0
 20
-179.0
 30
0.0
 11
-382.0
 21
-179.0
 31
0.0
  0
LINE
  5
50
  8
NOTE
  6
CONTINUOUS
 62
     4
 10
-402.0
 20
-199.0
 30
0.0
 11
-402.0
 21
-159.0
 31
0.0
  0
LINE
  5
51
  8
NOTE
  6
CONTINUOUS
 62
     4
 10
270.0
 20
-261.0
 30
0.0
 11
310.0
 21
-261.0
 31
0.0
  0
LINE
  5
52
  8
NOTE
  6
CONTINUOUS
 62
     4
 10
290.0
 20
-281.0
 30
0.0
 11
290.0
 21
-241.0
 31
0.0
  0
LINE
  5
53
  8
NOTE
  6
CONTINUOUS
 62
     4
 10
270.0
 20
-211.0
 30
0.0
 11
310.0
 21
-211.0
 31
0.0
  0
LINE
  5
54
  8
NOTE
  6
CONTINUOUS
 62
     4
 10
290.0
 20
-231.0
 30
0.0
 11
290.0
 21
-191.0
 31
0.0
  0
LINE
  5
55
  8
NOTE
  6
CONTINUOUS
 62
     4
 10
270.0
 20
-161.0
 30
0.0
 11
310.0
 21
-161.0
 31
0.0
  0
LINE
  5
56
  8
NOTE
  6
CONTINUOUS
 62
     4
 10
290.0
 20
-181.0
 30
0.0
 11
290.0
 21
-141.0
 31
0.0
  0
LINE
  5
57
  8
NOTE
  6
CONTINUOUS
 62
     4
 10
270.0
 20
-111.0
 30
0.0
 11
310.0
 21
-111.0
 31
0.0
  0
LINE
  5
58
  8
NOTE
  6
CONTINUOUS
 62
     4
 10
290.0
 20
-131.0
 30
0.0
 11
290.0
 21
-91.0
 31
0.0
  0
LINE
  5
59
  8
NOTE
  6
CONTINUOUS
 62
     4
 10
270.0
 20
-61.0
 30
0.0
 11
310.0
 21
-61.0
 31
0.0
  0
LINE
  5
5A
  8
NOTE
  6
CONTINUOUS
 62
     4
 10
290.0
 20
-81.0
 30
0.0
 11
290.0
 21
-41.0
 31
0.0
  0
LINE
  5
5B
  8
NOTE
  6
CONTINUOUS
 62
     4
 10
-280.0
 20
-61.0
 30
0.0
 11
-240.0
 21
-61.0
 31
0.0
  0
LINE
  5
5C
  8
NOTE
  6
CONTINUOUS
 62
     4
 10
-260.0
 20
-81.0
 30
0.0
 11
-260.0
 21
-41.0
 31
0.0
  0
LINE
  5
5D
  8
NOTE
  6
CONTINUOUS
 62
     4
 10
-280.0
 20
-111.0
 30
0.0
 11
-240.0
 21
-111.0
 31
0.0
  0
LINE
  5
5E
  8
NOTE
  6
CONTINUOUS
 62
     4
 10
-260.0
 20
-131.0
 30
0.0
 11
-260.0
 21
-91.0
 31
0.0
  0
LINE
  5
5F
  8
NOTE
  6
CONTINUOUS
 62
     4
 10
-280.0
 20
-161.0
 30
0.0
 11
-240.0
 21
-161.0
 31
0.0
  0
LINE
  5
60
  8
NOTE
  6
CONTINUOUS
 62
     4
 10
-260.0
 20
-181.0
 30
0.0
 11
-260.0
 21
-141.0
 31
0.0
  0
LINE
  5
61
  8
NOTE
  6
CONTINUOUS
 62
     4
 10
-280.0
 20
-211.0
 30
0.0
 11
-240.0
 21
-211.0
 31
0.0
  0
LINE
  5
62
  8
NOTE
  6
CONTINUOUS
 62
     4
 10
-260.0
 20
-231.0
 30
0.0
 11
-260.0
 21
-191.0
 31
0.0
  0
LINE
  5
63
  8
NOTE
  6
CONTINUOUS
 62
     4
 10
-280.0
 20
-261.0
 30
0.0
 11
-240.0
 21
-261.0
 31
0.0
  0
LINE
  5
64
  8
NOTE
  6
CONTINUOUS
 62
     4
 10
-260.0
 20
-281.0
 30
0.0
 11
-260.0
 21
-241.0
 31
0.0
  0
LINE
  5
65
  8
NOTE
  6
CONTINUOUS
 62
     4
 10
-230.0
 20
-36.0
 30
0.0
 11
-190.0
 21
-36.0
 31
0.0
  0
LINE
  5
66
  8
NOTE
  6
CONTINUOUS
 62
     4
 10
-210.0
 20
-56.0
 30
0.0
 11
-210.0
 21
-16.0
 31
0.0
  0
LINE
  5
67
  8
NOTE
  6
CONTINUOUS
 62
     4
 10
-180.0
 20
-36.0
 30
0.0
 11
-140.0
 21
-36.0
 31
0.0
  0
LINE
  5
68
  8
NOTE
  6
CONTINUOUS
 62
     4
 10
-160.0
 20
-56.0
 30
0.0
 11
-160.0
 21
-16.0
 31
0.0
  0
LINE
  5
69
  8
NOTE
  6
CONTINUOUS
 62
     4
 10
-130.0
 20
-36.0
 30
0.0
 11
-90.0
 21
-36.0
 31
0.0
  0
LINE
  5
6A
  8
NOTE
  6
CONTINUOUS
 62
     4
 10
-110.0
 20
-56.0
 30
0.0
 11
-110.0
 21
-16.0
 31
0.0
  0
LINE
  5
6B
  8
NOTE
  6
CONTINUOUS
 62
     4
 10
-80.0
 20
-36.0
 30
0.0
 11
-40.0
 21
-36.0
 31
0.0
  0
LINE
  5
6C
  8
NOTE
  6
CONTINUOUS
 62
     4
 10
-60.0
 20
-56.0
 30
0.0
 11
-60.0
 21
-16.0
 31
0.0
  0
LINE
  5
6D
  8
NOTE
  6
CONTINUOUS
 62
     4
 10
-30.0
 20
-36.0
 30
0.0
 11
10.0
 21
-36.0
 31
0.0
  0
LINE
  5
6E
  8
NOTE
  6
CONTINUOUS
 62
     4
 10
-10.0
 20
-56.0
 30
0.0
 11
-10.0
 21
-16.0
 31
0.0
  0
LINE
  5
6F
  8
NOTE
  6
CONTINUOUS
 62
     4
 10
20.0
 20
-36.0
 30
0.0
 11
60.0
 21
-36.0
 31
0.0
  0
LINE
  5
70
  8
NOTE
  6
CONTINUOUS
 62
     4
 10
40.0
 20
-56.0
 30
0.0
 11
40.0
 21
-16.0
 31
0.0
  0
LINE
  5
71
  8
NOTE
  6
CONTINUOUS
 62
     4
 10
70.0
 20
-36.0
 30
0.0
 11
110.0
 21
-36.0
 31
0.0
  0
LINE
  5
72
  8
NOTE
  6
CONTINUOUS
 62
     4
 10
90.0
 20
-56.0
 30
0.0
 11
90.0
 21
-16.0
 31
0.0
  0
LINE
  5
73
  8
NOTE
  6
CONTINUOUS
 62
     4
 10
120.0
 20
-36.0
 30
0.0
 11
160.0
 21
-36.0
 31
0.0
  0
LINE
  5
74
  8
NOTE
  6
CONTINUOUS
 62
     4
 10
140.0
 20
-56.0
 30
0.0
 11
140.0
 21
-16.0
 31
0.0
  0
LINE
  5
75
  8
NOTE
  6
CONTINUOUS
 62
     4
 10
170.0
 20
-36.0
 30
0.0
 11
210.0
 21
-36.0
 31
0.0
  0
LINE
  5
76
  8
NOTE
  6
CONTINUOUS
 62
     4
 10
190.0
 20
-56.0
 30
0.0
 11
190.0
 21
-16.0
 31
0.0
  0
LINE
  5
77
  8
NOTE
  6
CONTINUOUS
 62
     4
 10
220.0
 20
-36.0
 30
0.0
 11
260.0
 21
-36.0
 31
0.0
  0
LINE
  5
78
  8
NOTE
  6
CONTINUOUS
 62
     4
 10
240.0
 20
-56.0
 30
0.0
 11
240.0
 21
-16.0
 31
0.0
  0
LINE
  5
79
  8
NOTE
  6
CONTINUOUS
 62
     4
 10
220.0
 20
-286.0
 30
0.0
 11
260.0
 21
-286.0
 31
0.0
  0
LINE
  5
7A
  8
NOTE
  6
CONTINUOUS
 62
     4
 10
240.0
 20
-306.0
 30
0.0
 11
240.0
 21
-266.0
 31
0.0
  0
LINE
  5
7B
  8
NOTE
  6
CONTINUOUS
 62
     4
 10
170.0
 20
-286.0
 30
0.0
 11
210.0
 21
-286.0
 31
0.0
  0
LINE
  5
7C
  8
NOTE
  6
CONTINUOUS
 62
     4
 10
190.0
 20
-306.0
 30
0.0
 11
190.0
 21
-266.0
 31
0.0
  0
LINE
  5
7D
  8
NOTE
  6
CONTINUOUS
 62
     4
 10
120.0
 20
-286.0
 30
0.0
 11
160.0
 21
-286.0
 31
0.0
  0
LINE
  5
7E
  8
NOTE
  6
CONTINUOUS
 62
     4
 10
140.0
 20
-306.0
 30
0.0
 11
140.0
 21
-266.0
 31
0.0
  0
LINE
  5
7F
  8
NOTE
  6
CONTINUOUS
 62
     4
 10
70.0
 20
-286.0
 30
0.0
 11
110.0
 21
-286.0
 31
0.0
  0
LINE
  5
80
  8
NOTE
  6
CONTINUOUS
 62
     4
 10
90.0
 20
-306.0
 30
0.0
 11
90.0
 21
-266.0
 31
0.0
  0
LINE
  5
81
  8
NOTE
  6
CONTINUOUS
 62
     4
 10
20.0
 20
-286.0
 30
0.0
 11
60.0
 21
-286.0
 31
0.0
  0
LINE
  5
82
  8
NOTE
  6
CONTINUOUS
 62
     4
 10
40.0
 20
-306.0
 30
0.0
 11
40.0
 21
-266.0
 31
0.0
  0
LINE
  5
83
  8
NOTE
  6
CONTINUOUS
 62
     4
 10
-30.0
 20
-286.0
 30
0.0
 11
10.0
 21
-286.0
 31
0.0
  0
LINE
  5
84
  8
NOTE
  6
CONTINUOUS
 62
     4
 10
-10.0
 20
-306.0
 30
0.0
 11
-10.0
 21
-266.0
 31
0.0
  0
LINE
  5
85
  8
NOTE
  6
CONTINUOUS
 62
     4
 10
-80.0
 20
-286.0
 30
0.0
 11
-40.0
 21
-286.0
 31
0.0
  0
LINE
  5
86
  8
NOTE
  6
CONTINUOUS
 62
     4
 10
-60.0
 20
-306.0
 30
0.0
 11
-60.0
 21
-266.0
 31
0.0
  0
LINE
  5
87
  8
NOTE
  6
CONTINUOUS
 62
     4
 10
-130.0
 20
-286.0
 30
0.0
 11
-90.0
 21
-286.0
 31
0.0
  0
LINE
  5
88
  8
NOTE
  6
CONTINUOUS
 62
     4
 10
-110.0
 20
-306.0
 30
0.0
 11
-110.0
 21
-266.0
 31
0.0
  0
LINE
  5
89
  8
NOTE
  6
CONTINUOUS
 62
     4
 10
-180.0
 20
-286.0
 30
0.0
 11
-140.0
 21
-286.0
 31
0.0
  0
LINE
  5
8A
  8
NOTE
  6
CONTINUOUS
 62
     4
 10
-160.0
 20
-306.0
 30
0.0
 11
-160.0
 21
-266.0
 31
0.0
  0
LINE
  5
8B
  8
NOTE
  6
CONTINUOUS
 62
     4
 10
-230.0
 20
-286.0
 30
0.0
 11
-190.0
 21
-286.0
 31
0.0
  0
LINE
  5
8C
  8
NOTE
  6
CONTINUOUS
 62
     4
 10
-210.0
 20
-306.0
 30
0.0
 11
-210.0
 21
-266.0
 31
0.0
  0
CIRCLE
  5
A1
  8
SIZE
  6
CONTINUOUS
 62
    30
 10
377.0
 20
-636.83171899999979
 30
0.0
 40
6.0
  0
CIRCLE
  5
A2
  8
SIZE
  6
CONTINUOUS
 62
    30
 10
-377.0
 20
-636.83171899999979
 30
0.0
 40
6.0
  0
CIRCLE
  5
A3
  8
SIZE
  6
CONTINUOUS
 62
    30
 10
377.0
 20
-636.83171899999979
 30
0.0
 40
6.0
  0
CIRCLE
  5
A4
  8
SIZE
  6
CONTINUOUS
 62
    30
 10
400.0
 20
-636.83171899999979
 30
0.0
 40
6.0
  0
CIRCLE
  5
A5
  8
SIZE
  6
CONTINUOUS
 62
    30
 10
533.82268499999986
 20
-339.0
 30
0.0
 40
6.0
  0
CIRCLE
  5
A6
  8
SIZE
  6
CONTINUOUS
 62
    30
 10
533.82268499999986
 20
-380.0
 30
0.0
 40
6.0
  0
CIRCLE
  5
A7
  8
SIZE
  6
CONTINUOUS
 62
    30
 10
679.24227300000007
 20
-211.0
 30
0.0
 40
6.0
  0
CIRCLE
  5
A8
  8
SIZE
  6
CONTINUOUS
 62
    30
 10
679.24227300000007
 20
-261.0
 30
0.0
 40
6.0
  0
CIRCLE
  5
A9
  8
SIZE
  6
CONTINUOUS
 62
    30
 10
679.24227300000007
 20
-261.0
 30
0.0
 40
6.0
  0
CIRCLE
  5
AA
  8
SIZE
  6
CONTINUOUS
 62
    30
 10
679.24227300000007
 20
-286.0
 30
0.0
 40
6.0
  0
CIRCLE
  5
AB
  8
SIZE
  6
CONTINUOUS
 62
    30
 10
950.67771098796618
 20
-286.0
 30
0.0
 40
6.0
  0
CIRCLE
  5
AC
  8
SIZE
  6
CONTINUOUS
 62
    30
 10
950.67771098796618
 20
-36.0
 30
0.0
 40
6.0
  0
CIRCLE
  5
AD
  8
SIZE
  6
CONTINUOUS
 62
    30
 10
950.67771098796618
 20
-286.0
 30
0.0
 40
6.0
  0
CIRCLE
  5
AE
  8
SIZE
  6
CONTINUOUS
 62
    30
 10
950.67771098796618
 20
-380.0
 30
0.0
 40
6.0
  0
CIRCLE
  5
AF
  8
SIZE
  6
CONTINUOUS
 62
    30
 10
-676.392064
 20
-179.0
 30
0.0
 40
6.0
  0
CIRCLE
  5
B0
  8
SIZE
  6
CONTINUOUS
 62
    30
 10
-676.392064
 20
-237.0
 30
0.0
 40
6.0
  0
CIRCLE
  5
B1
  8
SIZE
  6
CONTINUOUS
 62
    30
 10
-676.392064
 20
-237.0
 30
0.0
 40
6.0
  0
CIRCLE
  5
B2
  8
SIZE
  6
CONTINUOUS
 62
    30
 10
-676.392064
 20
-380.0
 30
0.0
 40
6.0
  0
CIRCLE
  5
B5
  8
SIZE
  6
CONTINUOUS
 62
    30
 10
1078.364020987967
 20
0.0
 30
0.0
 40
6.0
  0
CIRCLE
  5
B6
  8
SIZE
  6
CONTINUOUS
 62
    30
 10
1078.364020987967
 20
-380.0
 30
0.0
 40
6.0
  0
CIRCLE
  5
B7
  8
SIZE
  6
CONTINUOUS
 62
    30
 10
-405.0
 20
81.522833917806565
 30
0.0
 40
6.0
  0
CIRCLE
  5
B8
  8
SIZE
  6
CONTINUOUS
 62
    30
 10
-340.0
 20
81.522833917806565
 30
0.0
 40
6.0
  0
CIRCLE
  5
B9
  8
SIZE
  6
CONTINUOUS
 62
    30
 10
340.0
 20
454.31161263311128
 30
0.0
 40
6.0
  0
CIRCLE
  5
BA
  8
SIZE
  6
CONTINUOUS
 62
    30
 10
-340.0
 20
454.31161263311128
 30
0.0
 40
6.0
  0
CIRCLE
  5
BB
  8
SIZE
  6
CONTINUOUS
 62
    30
 10
290.0
 20
339.42422263311158
 30
0.0
 40
6.0
  0
CIRCLE
  5
BC
  8
SIZE
  6
CONTINUOUS
 62
    30
 10
-260.0
 20
339.42422263311158
 30
0.0
 40
6.0
  0
CIRCLE
  5
BD
  8
SIZE
  6
CONTINUOUS
 62
    30
 10
-160.0
 20
45.910437999999999
 30
0.0
 40
6.0
  0
CIRCLE
  5
BE
  8
SIZE
  6
CONTINUOUS
 62
    30
 10
-210.0
 20
45.910437999999999
 30
0.0
 40
6.0
  0
CIRCLE
  5
BF
  8
SIZE
  6
CONTINUOUS
 62
    30
 10
-210.0
 20
169.85075699999999
 30
0.0
 40
6.0
  0
CIRCLE
  5
C0
  8
SIZE
  6
CONTINUOUS
 62
    30
 10
240.0
 20
169.85075699999999
 30
0.0
 40
6.0
  0
CIRCLE
  5
C1
  8
SIZE
  6
CONTINUOUS
 62
    30
 10
-210.0
 20
169.85075699999999
 30
0.0
 40
6.0
  0
CIRCLE
  5
C2
  8
SIZE
  6
CONTINUOUS
 62
    30
 10
-260.0
 20
169.85075699999999
 30
0.0
 40
6.0
  0
CIRCLE
  5
C3
  8
SIZE
  6
CONTINUOUS
 62
    30
 10
-260.0
 20
169.85075699999999
 30
0.0
 40
6.0
  0
CIRCLE
  5
C4
  8
SIZE
  6
CONTINUOUS
 62
    30
 10
-340.0
 20
169.85075699999999
 30
0.0
 40
6.0
  0
TEXT
  5
C5
  8
SIZE
  6
CONTINUOUS
 62
    30
 10
-443.60220175293313
 20
180.0794495010266
 30
0.0
 40
55.0
  1
80
 41
0.9
 72
     1
 11
-403.53077318150451
 21
180.0794495010266
 31
0.0
  0
LINE
  5
C6
  8
SIZE
  6
CONTINUOUS
 62
    30
 10
-260.0
 20
169.85075699999999
 30
0.0
 11
-340.0
 21
169.85075699999999
 31
0.0
  0
LINE
  5
C9
  8
SIZE
  6
CONTINUOUS
 62
    30
 10
-260.0
 20
-16.0
 30
0.0
 11
-260.0
 21
199.85075699999999
 31
0.0
  0
LINE
  5
CA
  8
SIZE
  6
CONTINUOUS
 62
    30
 10
-340.0
 20
20.0
 30
0.0
 11
-340.0
 21
199.85075699999999
 31
0.0
  0
LINE
  5
CC
  8
SIZE
  6
CONTINUOUS
 62
    30
 10
-216.0
 20
169.85075699999999
 30
0.0
 11
-254.0
 21
169.85075699999999
 31
0.0
  0
LINE
  5
CD
  8
SIZE
  6
CONTINUOUS
 62
    30
 10
-262.0
 20
169.85075699999999
 30
0.0
 11
-264.0
 21
169.85075699999999
 31
0.0
  0
LINE
  5
CE
  8
SIZE
  6
CONTINUOUS
 62
    30
 10
-208.0
 20
169.85075699999999
 30
0.0
 11
-206.0
 21
169.85075699999999
 31
0.0
  0
LINE
  5
CF
  8
SIZE
  6
CONTINUOUS
 62
    30
 10
-210.0
 20
4.0
 30
0.0
 11
-210.0
 21
199.85075699999999
 31
0.0
  0
LINE
  5
D0
  8
SIZE
  6
CONTINUOUS
 62
    30
 10
-260.0
 20
149.85075699999999
 30
0.0
 11
-260.0
 21
139.85075699999999
 31
0.0
  0
TEXT
  5
D1
  8
SIZE
  6
CONTINUOUS
 62
    30
 10
-48.642857142857139
 20
180.0794495010266
 30
0.0
 40
55.0
  1
450
 41
0.9
 72
     1
 11
14.999999999999989
 21
180.0794495010266
 31
0.0
  0
LINE
  5
D3
  8
SIZE
  6
CONTINUOUS
 62
    30
 10
-210.0
 20
169.85075699999999
 30
0.0
 11
240.0
 21
169.85075699999999
 31
0.0
  0
LINE
  5
D4
  8
SIZE
  6
CONTINUOUS
 62
    30
 10
240.0
 20
4.0
 30
0.0
 11
240.0
 21
199.85075699999999
 31
0.0
  0
LINE
  5
D5
  8
SIZE
  6
CONTINUOUS
 62
    30
 10
-210.0
 20
4.0
 30
0.0
 11
-210.0
 21
199.85075699999999
 31
0.0
  0
TEXT
  5
D6
  8
SIZE
  6
CONTINUOUS
 62
    30
 10
-145.73039768979021
 20
56.139130501026671
 30
0.0
 40
55.0
  1
50
 41
0.9
 72
     1
 11
-105.6589691183617
 21
56.139130501026671
 31
0.0
  0
LINE
  5
D7
  8
SIZE
  6
CONTINUOUS
 62
    30
 10
-160.0
 20
45.910437999999999
 30
0.0
 11
-210.0
 21
45.910437999999999
 31
0.0
  0
LINE
  5
D8
  8
SIZE
  6
CONTINUOUS
 62
    30
 10
-212.0
 20
45.910437999999999
 30
0.0
 11
-214.0
 21
45.910437999999999
 31
0.0
  0
LINE
  5
D9
  8
SIZE
  6
CONTINUOUS
 62
    30
 10
-158.0
 20
45.910437999999999
 30
0.0
 11
-156.0
 21
45.910437999999999
 31
0.0
  0
LINE
  5
DA
  8
SIZE
  6
CONTINUOUS
 62
    30
 10
-160.0
 20
4.0
 30
0.0
 11
-160.0
 21
75.910437999999999
 31
0.0
  0
LINE
  5
DB
  8
SIZE
  6
CONTINUOUS
 62
    30
 10
-210.0
 20
4.0
 30
0.0
 11
-210.0
 21
75.910437999999999
 31
0.0
  0
TEXT
  5
DC
  8
SIZE
  6
CONTINUOUS
 62
    30
 10
-48.642857142857139
 20
349.65291513413803
 30
0.0
 40
55.0
  1
550
 41
0.9
 72
     1
 11
14.999999999999989
 21
349.65291513413803
 31
0.0
  0
LINE
  5
DD
  8
SIZE
  6
CONTINUOUS
 62
    30
 10
-260.0
 20
339.42422263311158
 30
0.0
 11
290.0
 21
339.42422263311158
 31
0.0
  0
LINE
  5
DF
  8
SIZE
  6
CONTINUOUS
 62
    30
 10
-260.0
 20
-16.0
 30
0.0
 11
-260.0
 21
369.42422263311153
 31
0.0
  0
LINE
  5
E0
  8
SIZE
  6
CONTINUOUS
 62
    30
 10
290.0
 20
-21.0
 30
0.0
 11
290.0
 21
369.42422263311153
 31
0.0
  0
TEXT
  5
E1
  8
SIZE
  6
CONTINUOUS
 62
    30
 10
-63.642857142857132
 20
464.5403051341379
 30
0.0
 40
55.0
  1
680
 41
0.9
 72
     1
 11
0.0
 21
464.5403051341379
 31
0.0
  0
LINE
  5
E2
  8
SIZE
  6
CONTINUOUS
 62
    30
 10
-340.0
 20
454.31161263311128
 30
0.0
 11
340.0
 21
454.31161263311128
 31
0.0
  0
LINE
  5
E4
  8
SIZE
  6
CONTINUOUS
 62
    30
 10
-340.0
 20
20.0
 30
0.0
 11
-340.0
 21
484.31161263311111
 31
0.0
  0
LINE
  5
E5
  8
SIZE
  6
CONTINUOUS
 62
    30
 10
340.0
 20
20.0
 30
0.0
 11
340.0
 21
484.31161263311111
 31
0.0
  0
TEXT
  5
E6
  8
SIZE
  6
CONTINUOUS
 62
    30
 10
-504.14289694239483
 20
91.751526418833265
 30
0.0
 40
55.0
  1
65
 41
0.9
 72
     1
 11
-464.07146837096627
 21
91.751526418833265
 31
0.0
  0
LINE
  5
E7
  8
SIZE
  6
CONTINUOUS
 62
    30
 10
-405.0
 20
81.522833917806565
 30
0.0
 11
-340.0
 21
81.522833917806565
 31
0.0
  0
LINE
  5
E9
  8
SIZE
  6
CONTINUOUS
 62
    30
 10
-508.44667916566692
 20
81.522833917806565
 30
0.0
 11
-411.0
 21
81.522833917806565
 31
0.0
  0
LINE
  5
EA
  8
SIZE
  6
CONTINUOUS
 62
    30
 10
-405.0
 20
20.0
 30
0.0
 11
-405.0
 21
111.52283391780649
 31
0.0
  0
LINE
  5
EB
  8
SIZE
  6
CONTINUOUS
 62
    30
 10
-340.0
 20
20.0
 30
0.0
 11
-340.0
 21
111.52283391780649
 31
0.0
  0
TEXT
  5
EC
  8
SIZE
  6
CONTINUOUS
 62
    30
 10
1067.745457978257
 20
-253.64285714285711
 30
0.0
 40
55.0
  1
380
 50
90.0
 41
0.9
 72
     1
 11
1067.745457978257
 21
-190.0
 31
0.0
  0
LINE
  5
ED
  8
SIZE
  6
CONTINUOUS
 62
    30
 10
1078.364020987967
 20
-380.00000000000011
 30
0.0
 11
1078.364020987967
 21
0.0
 31
0.0
  0
LINE
  5
EF
  8
SIZE
  6
CONTINUOUS
 62
    30
 10
372.78806971797172
 20
-380.0
 30
0.0
 11
1108.3640209879659
 21
-380.0
 31
0.0
  0
LINE
  5
F0
  8
SIZE
  6
CONTINUOUS
 62
    30
 10
360.0
 20
0.0
 30
0.0
 11
1108.3640209879659
 21
0.0
 31
0.0
  0
TEXT
  5
F7
  8
SIZE
  6
CONTINUOUS
 62
    30
 10
-687.01062700970965
 20
-373.92857142857139
 30
0.0
 40
55.0
  1
143
 50
90.0
 41
0.9
 72
     1
 11
-687.01062700970965
 21
-315.0
 31
0.0
  0
LINE
  5
F8
  8
SIZE
  6
CONTINUOUS
 62
    30
 10
-676.392064
 20
-237.0
 30
0.0
 11
-676.392064
 21
-380.0
 31
0.0
  0
LINE
  5
FA
  8
SIZE
  6
CONTINUOUS
 62
    30
 10
-676.392064
 20
-235.0
 30
0.0
 11
-676.392064
 21
-233.0
 31
0.0
  0
LINE
  5
FB
  8
SIZE
  6
CONTINUOUS
 62
    30
 10
-465.0
 20
-237.0
 30
0.0
 11
-706.392064
 21
-237.0
 31
0.0
  0
LINE
  5
FC
  8
SIZE
  6
CONTINUOUS
 62
    30
 10
-387.84986249999997
 20
-380.0
 30
0.0
 11
-706.392064
 21
-380.0
 31
0.0
  0
TEXT
  5
FD
  8
SIZE
  6
CONTINUOUS
 62
    30
 10
-687.01062700970965
 20
-158.35711918295161
 30
0.0
 40
55.0
  1
58
 50
90.0
 41
0.9
 72
     1
 11
-687.01062700970965
 21
-118.28569061152299
 31
0.0
  0
LINE
  5
FE
  8
SIZE
  6
CONTINUOUS
 62
    30
 10
-676.392064
 20
-179.0
 30
0.0
 11
-676.392064
 21
-237.0
 31
0.0
  0
LINE
  5
101
  8
SIZE
  6
CONTINUOUS
 62
    30
 10
-445.0
 20
-179.0
 30
0.0
 11
-706.392064
 21
-179.0
 31
0.0
  0
LINE
  5
102
  8
SIZE
  6
CONTINUOUS
 62
    30
 10
-465.0
 20
-237.0
 30
0.0
 11
-706.392064
 21
-237.0
 31
0.0
  0
TEXT
  5
103
  8
SIZE
  6
CONTINUOUS
 62
    30
 10
940.05914797825665
 20
-374.25
 30
0.0
 40
55.0
  1
94
 50
90.0
 41
0.9
 72
     1
 11
940.05914797825665
 21
-333.0
 31
0.0
  0
LINE
  5
104
  8
SIZE
  6
CONTINUOUS
 62
    30
 10
950.67771098796618
 20
-286.0
 30
0.0
 11
950.67771098796618
 21
-380.0
 31
0.0
  0
LINE
  5
105
  8
SIZE
  6
CONTINUOUS
 62
    30
 10
950.67771098796618
 20
-382.0
 30
0.0
 11
950.67771098796618
 21
-384.0
 31
0.0
  0
LINE
  5
106
  8
SIZE
  6
CONTINUOUS
 62
    30
 10
950.67771098796618
 20
-284.0
 30
0.0
 11
950.67771098796618
 21
-282.0
 31
0.0
  0
LINE
  5
107
  8
SIZE
  6
CONTINUOUS
 62
    30
 10
310.0
 20
-286.0
 30
0.0
 11
980.67771098796629
 21
-286.0
 31
0.0
  0
LINE
  5
108
  8
SIZE
  6
CONTINUOUS
 62
    30
 10
372.78806971797172
 20
-380.0
 30
0.0
 11
980.67771098796629
 21
-380.0
 31
0.0
  0
TEXT
  5
109
  8
SIZE
  6
CONTINUOUS
 62
    30
 10
940.05914797825665
 20
-224.64285714285711
 30
0.0
 40
55.0
  1
250
 50
90.0
 41
0.9
 72
     1
 11
940.05914797825665
 21
-161.0
 31
0.0
  0
LINE
  5
10B
  8
SIZE
  6
CONTINUOUS
 62
    30
 10
950.67771098796618
 20
-286.0
 30
0.0
 11
950.67771098796618
 21
-36.0
 31
0.0
  0
LINE
  5
10C
  8
SIZE
  6
CONTINUOUS
 62
    30
 10
310.0
 20
-36.0
 30
0.0
 11
980.67771098796629
 21
-36.0
 31
0.0
  0
LINE
  5
10D
  8
SIZE
  6
CONTINUOUS
 62
    30
 10
310.0
 20
-286.0
 30
0.0
 11
980.67771098796629
 21
-286.0
 31
0.0
  0
LINE
  5
10F
  8
SIZE
  6
CONTINUOUS
 62
    30
 10
679.24227300000007
 20
-261.0
 30
0.0
 11
679.24227300000007
 21
-286.0
 31
0.0
  0
LINE
  5
111
  8
SIZE
  6
CONTINUOUS
 62
    30
 10
679.24227300000007
 20
-259.0
 30
0.0
 11
679.24227300000007
 21
-257.0
 31
0.0
  0
LINE
  5
112
  8
SIZE
  6
CONTINUOUS
 62
    30
 10
330.0
 20
-261.0
 30
0.0
 11
709.24227299999995
 21
-261.0
 31
0.0
  0
LINE
  5
113
  8
SIZE
  6
CONTINUOUS
 62
    30
 10
310.0
 20
-286.0
 30
0.0
 11
709.24227299999995
 21
-286.0
 31
0.0
  0
TEXT
  5
114
  8
SIZE
  6
CONTINUOUS
 62
    30
 10
668.62370999029019
 20
-196.11729396745531
 30
0.0
 40
55.0
  1
50
 50
90.0
 41
0.9
 72
     1
 11
668.62370999029019
 21
-156.04586539602681
 31
0.0
  0
LINE
  5
115
  8
SIZE
  6
CONTINUOUS
 62
    30
 10
679.24227300000007
 20
-211.0
 30
0.0
 11
679.24227300000007
 21
-261.0
 31
0.0
  0
LINE
  5
116
  8
SIZE
  6
CONTINUOUS
 62
    30
 10
679.24227300000007
 20
-263.0
 30
0.0
 11
679.24227300000007
 21
-265.0
 31
0.0
  0
LINE
  5
118
  8
SIZE
  6
CONTINUOUS
 62
    30
 10
330.0
 20
-211.0
 30
0.0
 11
709.24227299999995
 21
-211.0
 31
0.0
  0
LINE
  5
119
  8
SIZE
  6
CONTINUOUS
 62
    30
 10
330.0
 20
-261.0
 30
0.0
 11
709.24227299999995
 21
-261.0
 31
0.0
  0
TEXT
  5
11A
  8
SIZE
  6
CONTINUOUS
 62
    30
 10
523.20412199028999
 20
-467.12317889725398
 30
0.0
 40
55.0
  1
41
 50
90.0
 41
0.9
 72
     1
 11
523.20412199028999
 21
-437.65889318296831
 31
0.0
  0
LINE
  5
11B
  8
SIZE
  6
CONTINUOUS
 62
    30
 10
533.82268499999986
 20
-339.0
 30
0.0
 11
533.82268499999986
 21
-380.0
 31
0.0
  0
LINE
  5
11E
  8
SIZE
  6
CONTINUOUS
 62
    30
 10
417.0
 20
-339.0
 30
0.0
 11
563.82268499999975
 21
-339.0
 31
0.0
  0
LINE
  5
11F
  8
SIZE
  6
CONTINUOUS
 62
    30
 10
372.70293392993318
 20
-380.0
 30
0.0
 11
563.82268499999975
 21
-380.0
 31
0.0
  0
TEXT
  5
120
  8
SIZE
  6
CONTINUOUS
 62
    30
 10
429.36781460677457
 20
-626.60302649897335
 30
0.0
 40
55.0
  1
23
 41
0.9
 72
     1
 11
469.43924317820318
 21
-626.60302649897335
 31
0.0
  0
LINE
  5
121
  8
SIZE
  6
CONTINUOUS
 62
    30
 10
377.0
 20
-636.83171899999979
 30
0.0
 11
400.0
 21
-636.83171899999979
 31
0.0
  0
LINE
  5
122
  8
SIZE
  6
CONTINUOUS
 62
    30
 10
519.72913012946083
 20
-636.83171899999979
 30
0.0
 11
406.0
 21
-636.83171899999979
 31
0.0
  0
LINE
  5
124
  8
SIZE
  6
CONTINUOUS
 62
    30
 10
377.0
 20
-379.0
 30
0.0
 11
377.0
 21
-666.83171900000002
 31
0.0
  0
LINE
  5
125
  8
SIZE
  6
CONTINUOUS
 62
    30
 10
400.0
 20
-369.0
 30
0.0
 11
400.0
 21
-666.83171900000002
 31
0.0
  0
TEXT
  5
126
  8
SIZE
  6
CONTINUOUS
 62
    30
 10
-64.821428571428569
 20
-626.60302649897335
 30
0.0
 40
55.0
  1
754
 41
0.9
 72
     1
 11
0.0
 21
-626.60302649897335
 31
0.0
  0
LINE
  5
127
  8
SIZE
  6
CONTINUOUS
 62
    30
 10
-377.0
 20
-636.83171899999979
 30
0.0
 11
377.0
 21
-636.83171899999979
 31
0.0
  0
LINE
  5
129
  8
SIZE
  6
CONTINUOUS
 62
    30
 10
-377.0
 20
-379.0
 30
0.0
 11
-377.0
 21
-666.83171900000002
 31
0.0
  0
LINE
  5
12A
  8
SIZE
  6
CONTINUOUS
 62
    30
 10
377.0
 20
-379.0
 30
0.0
 11
377.0
 21
-666.83171900000002
 31
0.0
  0
POINT
  5
12B
  8
ARRANGE
  6
CONTINUOUS
 62
     1
 10
0.0
 20
0.0
 30
0.0
  0
LINE
  5
12C
  8
OUTLINE
  6
CONTINUOUS
 62
     3
 10
340.0
 20
0.0
 30
0.0
 11
340.0
 21
-380.0
 31
0.0
  0
LINE
  5
12D
  8
OUTLINE
  6
CONTINUOUS
 62
     3
 10
-340.0
 20
0.0
 30
0.0
 11
-340.0
 21
-380.0
 31
0.0
  0
LINE
  5
12E
  8
OUTLINE
  6
CONTINUOUS
 62
     3
 10
-340.0
 20
0.0
 30
0.0
 11
340.0
 21
0.0
 31
0.0
  0
LINE
  5
12F
  8
OUTLINE
  6
CONTINUOUS
 62
     3
 10
-340.0
 20
-380.0
 30
0.0
 11
340.0
 21
-380.0
 31
0.0
  0
LINE
  5
131
  8
NOTE
  6
CONTINUOUS
 62
     4
 10
290.0
 20
-61.0
 30
0.0
 11
473.00420599999973
 21
106.437426
 31
0.0
  0
LINE
  5
134
  8
SIZE
  6
CONTINUOUS
 62
    30
 10
533.82268499999986
 20
-386.0
 30
0.0
 11
533.82268499999986
 21
-479.98468092365511
 31
0.0
  0
LINE
  5
135
  8
SIZE
  6
CONTINUOUS
 62
    30
 10
679.24227300000007
 20
-205.0
 30
0.0
 11
679.24227300000007
 21
-100.317894
 31
0.0
  0
LINE
  5
136
  8
SIZE
  6
CONTINUOUS
 62
    30
 10
679.24227300000007
 20
-273.5
 30
0.0
 11
791.72169031083831
 21
-257.8338401928558
 31
0.0
  0
LINE
  5
137
  8
SIZE
  6
CONTINUOUS
 62
    30
 10
-676.392064
 20
-173.0
 30
0.0
 11
-676.392064
 21
-76.837126999999981
 31
0.0
  0
LINE
  5
139
  8
SIZE
  6
CONTINUOUS
 62
    30
 10
-160.0
 20
45.910437999999999
 30
0.0
 11
-57.403918000000012
 21
45.910437999999999
 31
0.0
  0
LINE
  5
13A
  8
SIZE
  6
CONTINUOUS
 62
    30
 10
-346.0
 20
169.85075699999999
 30
0.0
 11
-452.59874299999979
 21
169.85075699999999
 31
0.0
  0
LINE
  5
13B
  8
NOTE
  6
CONTINUOUS
 62
     4
 10
473.00420599999973
 20
106.437426
 30
0.0
 11
740.13444100000004
 21
106.437426
 31
0.0
  0
TEXT
  5
13C
  8
NOTE
  6
CONTINUOUS
 62
     4
 10
473.00420599999973
 20
135.05685399999999
 30
0.0
 40
55.0
  1
30-\U+03C63
 41
0.9
  0
CIRCLE
  5
143
  8
FIX
  6
CONTINUOUS
 62
    11
 10
-377.0
 20
-339.0
 30
0.0
 40
15.0
  0
CIRCLE
  5
144
  8
FIX
  6
CONTINUOUS
 62
    11
 10
377.0
 20
-339.0
 30
0.0
 40
15.0
  0
CIRCLE
  5
145
  8
ARRANGE
  6
CONTINUOUS
 62
     1
 10
0.0
 20
0.0
 30
0.0
 40
40.0
  0
LINE
  5
14E
  8
DETAIL
  6
CONTINUOUS
 62
     5
 10
-364.99999999999989
 20
-339.0
 30
0.0
 11
-365.0
 21
-334.0
 31
0.0
  0
LINE
  5
14F
  8
DETAIL
  6
CONTINUOUS
 62
     5
 10
-365.0
 20
-334.0
 30
0.0
 11
-340.0
 21
-334.0
 31
0.0
  0
LINE
  5
157
  8
DETAIL
  6
CONTINUOUS
 62
     5
 10
-340.0
 20
-334.0
 30
0.0
 11
-404.99999999999989
 21
-334.0
 31
0.0
  0
LINE
  5
158
  8
DETAIL
  6
CONTINUOUS
 62
     5
 10
-340.0
 20
0.0
 30
0.0
 11
-405.0
 21
0.0
 31
0.0
  0
LINE
  5
159
  8
DETAIL
  6
CONTINUOUS
 62
     5
 10
-405.0
 20
0.0
 30
0.0
 11
-404.99999999999989
 21
-224.0
 31
0.0
  0
LINE
  5
15A
  8
DETAIL
  6
CONTINUOUS
 62
     5
 10
-260.0
 20
-36.0
 30
0.0
 11
290.0
 21
-36.0
 31
0.0
  0
LINE
  5
15B
  8
DETAIL
  6
CONTINUOUS
 62
     5
 10
-260.0
 20
-286.0
 30
0.0
 11
290.0
 21
-286.0
 31
0.0
  0
LINE
  5
15C
  8
DETAIL
  6
CONTINUOUS
 62
     5
 10
-340.0
 20
-380.0
 30
0.0
 11
340.0
 21
-380.0
 31
0.0
  0
LINE
  5
15D
  8
DETAIL
  6
CONTINUOUS
 62
     5
 10
-340.0
 20
0.0
 30
0.0
 11
340.0
 21
0.0
 31
0.0
  0
LINE
  5
15E
  8
DETAIL
  6
CONTINUOUS
 62
     5
 10
-260.0
 20
-36.0
 30
0.0
 11
-260.0
 21
-286.0
 31
0.0
  0
LINE
  5
15F
  8
DETAIL
  6
CONTINUOUS
 62
     5
 10
290.0
 20
-36.0
 30
0.0
 11
290.0
 21
-286.0
 31
0.0
  0
LINE
  5
161
  8
DETAIL
  6
CONTINUOUS
 62
     5
 10
-340.0
 20
0.0
 30
0.0
 11
-340.0
 21
-380.0
 31
0.0
  0
LINE
  5
162
  8
DETAIL
  6
CONTINUOUS
 62
     5
 10
340.0
 20
0.0
 30
0.0
 11
340.0
 21
-380.0
 31
0.0
  0
LINE
  5
163
  8
BASIS
  6
DASHDOT
 62
     6
 10
0.0
 20
129.245848
 30
0.0
 11
0.0
 21
-481.66203499999989
 31
0.0
  0
LINE
  5
27D
  8
DETAIL
  6
CONTINUOUS
 62
     5
 10
400.0
 20
-343.30051500000002
 30
0.0
 11
400.0
 21
-351.00143700000001
 31
0.0
  0
ARC
  5
27E
  8
DETAIL
  6
CONTINUOUS
 62
     5
 10
395.69948499999998
 20
-343.30051500000002
 30
0.0
 40
4.3005149999999981
 50
0.0
 51
90.0
  0
LINE
  5
29B
  8
DETAIL
  6
CONTINUOUS
 62
     5
 10
340.0
 20
-339.0
 30
0.0
 11
395.69948499999998
 21
-339.0
 31
0.0
  0
LINE
  5
2AA
  8
NOTE
  6
CONTINUOUS
 62
     4
 10
357.0
 20
-339.0
 30
0.0
 11
397.0
 21
-339.0
 31
0.0
  0
LINE
  5
2D5
  8
DETAIL
  6
CONTINUOUS
 62
     5
 10
-400.0
 20
-343.30051500000002
 30
0.0
 11
-400.0
 21
-351.00143700000001
 31
0.0
  0
ARC
  5
2D6
  8
DETAIL
  6
CONTINUOUS
 62
     5
 10
-395.69948499999998
 20
-343.30051500000002
 30
0.0
 40
4.3005149999999981
 50
90.0
 51
180.0
  0
LINE
  5
2D7
  8
DETAIL
  6
CONTINUOUS
 62
     5
 10
-340.0
 20
-339.0
 30
0.0
 11
-395.69948499999998
 21
-339.0
 31
0.0
  0
LINE
  5
327
  8
DETAIL
  6
CONTINUOUS
 62
     5
 10
-383.00914899999998
 20
-184.5
 30
0.0
 11
-340.0
 21
-184.5
 31
0.0
  0
LINE
  5
328
  8
DETAIL
  6
CONTINUOUS
 62
     5
 10
-382.00914899999998
 20
-188.50000000000011
 30
0.0
 11
-340.0
 21
-188.50000000000011
 31
0.0
  0
LINE
  5
329
  8
DETAIL
  6
CONTINUOUS
 62
     5
 10
-382.00914899999998
 20
-169.5
 30
0.0
 11
-340.0
 21
-169.5
 31
0.0
  0
LINE
  5
32A
  8
DETAIL
  6
CONTINUOUS
 62
     5
 10
-383.00914899999998
 20
-173.5
 30
0.0
 11
-340.0
 21
-173.5
 31
0.0
  0
LINE
  5
32B
  8
DETAIL
  6
CONTINUOUS
 62
     5
 10
-399.00914899999998
 20
-189.5
 30
0.0
 11
-386.00914899999998
 21
-189.5
 31
0.0
  0
LINE
  5
32C
  8
DETAIL
  6
CONTINUOUS
 62
     5
 10
-398.00914899999998
 20
-184.5
 30
0.0
 11
-385.00914899999958
 21
-184.5
 31
0.0
  0
LINE
  5
32D
  8
DETAIL
  6
CONTINUOUS
 62
     5
 10
-385.00914899999958
 20
-188.50000000000011
 30
0.0
 11
-386.00914899999998
 21
-189.5
 31
0.0
  0
LINE
  5
32E
  8
DETAIL
  6
CONTINUOUS
 62
     5
 10
-383.00914899999998
 20
-187.5
 30
0.0
 11
-382.00914899999998
 21
-188.50000000000011
 31
0.0
  0
LINE
  5
32F
  8
DETAIL
  6
CONTINUOUS
 62
     5
 10
-398.00914899999998
 20
-184.5
 30
0.0
 11
-399.00914899999998
 21
-183.5
 31
0.0
  0
LINE
  5
330
  8
DETAIL
  6
CONTINUOUS
 62
     5
 10
-398.00914899999998
 20
-184.5
 30
0.0
 11
-399.00914899999998
 21
-185.5
 31
0.0
  0
LINE
  5
332
  8
DETAIL
  6
CONTINUOUS
 62
     5
 10
-383.00914899999998
 20
-187.5
 30
0.0
 11
-383.00914899999998
 21
-170.5
 31
0.0
  0
LINE
  5
333
  8
DETAIL
  6
CONTINUOUS
 62
     5
 10
-385.00914899999958
 20
-188.50000000000011
 30
0.0
 11
-385.00914899999958
 21
-169.5
 31
0.0
  0
LINE
  5
334
  8
DETAIL
  6
CONTINUOUS
 62
     5
 10
-399.00914899999998
 20
-168.5
 30
0.0
 11
-386.00914899999998
 21
-168.5
 31
0.0
  0
LINE
  5
335
  8
DETAIL
  6
CONTINUOUS
 62
     5
 10
-399.00914899999998
 20
-189.5
 30
0.0
 11
-399.00914899999998
 21
-168.5
 31
0.0
  0
LINE
  5
336
  8
DETAIL
  6
CONTINUOUS
 62
     5
 10
-398.00914899999998
 20
-173.5
 30
0.0
 11
-385.00914899999958
 21
-173.5
 31
0.0
  0
LINE
  5
337
  8
DETAIL
  6
CONTINUOUS
 62
     5
 10
-386.00914899999998
 20
-168.5
 30
0.0
 11
-385.00914899999958
 21
-169.5
 31
0.0
  0
LINE
  5
338
  8
DETAIL
  6
CONTINUOUS
 62
     5
 10
-383.00914899999998
 20
-170.5
 30
0.0
 11
-382.00914899999998
 21
-169.5
 31
0.0
  0
LINE
  5
339
  8
DETAIL
  6
CONTINUOUS
 62
     5
 10
-398.00914899999998
 20
-173.5
 30
0.0
 11
-399.00914899999998
 21
-172.5
 31
0.0
  0
LINE
  5
33A
  8
DETAIL
  6
CONTINUOUS
 62
     5
 10
-398.00914899999998
 20
-173.5
 30
0.0
 11
-399.00914899999998
 21
-174.5
 31
0.0
  0
LINE
  5
33C
  8
DETAIL
  6
CONTINUOUS
 62
     5
 10
-402.0
 20
-184.5
 30
0.0
 11
-402.0
 21
-173.5
 31
0.0
  0
LINE
  5
33D
  8
DETAIL
  6
CONTINUOUS
 62
     5
 10
-402.0
 20
-184.5
 30
0.0
 11
-399.00914899999998
 21
-189.5
 31
0.0
  0
LINE
  5
33E
  8
DETAIL
  6
CONTINUOUS
 62
     5
 10
-385.00914899999958
 20
-188.50000000000011
 30
0.0
 11
-386.00914899999998
 21
-189.5
 31
0.0
  0
LINE
  5
33F
  8
DETAIL
  6
CONTINUOUS
 62
     5
 10
-402.0
 20
-173.5
 30
0.0
 11
-399.00914899999998
 21
-168.5
 31
0.0
  0
LINE
  5
340
  8
DETAIL
  6
CONTINUOUS
 62
     5
 10
-418.0
 20
-225.75
 30
0.0
 11
-418.0
 21
-248.25
 31
0.0
  0
LINE
  5
341
  8
DETAIL
  6
CONTINUOUS
 62
     5
 10
-339.99999460952682
 20
-248.50000001138909
 30
0.0
 11
-393.00914899999998
 21
-248.5
 31
0.0
  0
LINE
  5
342
  8
DETAIL
  6
CONTINUOUS
 62
     5
 10
-340.0
 20
-225.5
 30
0.0
 11
-393.00914899999998
 21
-225.5
 31
0.0
  0
LINE
  5
343
  8
DETAIL
  6
CONTINUOUS
 62
     5
 10
-413.00914899999981
 20
-244.0
 30
0.0
 11
-415.00914899999958
 21
-246.0
 31
0.0
  0
LINE
  5
344
  8
DETAIL
  6
CONTINUOUS
 62
     5
 10
-413.00914899999981
 20
-244.0
 30
0.0
 11
-415.00914899999958
 21
-242.0
 31
0.0
  0
LINE
  5
345
  8
DETAIL
  6
CONTINUOUS
 62
     5
 10
-413.00914899999981
 20
-230.0
 30
0.0
 11
-415.00914899999958
 21
-232.0
 31
0.0
  0
LINE
  5
346
  8
DETAIL
  6
CONTINUOUS
 62
     5
 10
-413.00914899999981
 20
-230.0
 30
0.0
 11
-415.00914899999958
 21
-228.0
 31
0.0
  0
LINE
  5
347
  8
DETAIL
  6
CONTINUOUS
 62
     5
 10
-401.00914899999981
 20
-230.0
 30
0.0
 11
-399.00914899999998
 21
-228.0
 31
0.0
  0
LINE
  5
348
  8
DETAIL
  6
CONTINUOUS
 62
     5
 10
-401.00914899999981
 20
-230.0
 30
0.0
 11
-399.00914899999998
 21
-232.0
 31
0.0
  0
LINE
  5
349
  8
DETAIL
  6
CONTINUOUS
 62
     5
 10
-401.00914899999981
 20
-244.0
 30
0.0
 11
-399.00914899999998
 21
-242.0
 31
0.0
  0
LINE
  5
34A
  8
DETAIL
  6
CONTINUOUS
 62
     5
 10
-401.00914899999981
 20
-244.0
 30
0.0
 11
-399.00914899999998
 21
-246.0
 31
0.0
  0
LINE
  5
34B
  8
DETAIL
  6
CONTINUOUS
 62
     5
 10
-401.00914899999981
 20
-244.0
 30
0.0
 11
-413.00914899999981
 21
-244.0
 31
0.0
  0
LINE
  5
34C
  8
DETAIL
  6
CONTINUOUS
 62
     5
 10
-401.00914899999981
 20
-230.0
 30
0.0
 11
-413.00914899999981
 21
-230.0
 31
0.0
  0
LINE
  5
34D
  8
DETAIL
  6
CONTINUOUS
 62
     5
 10
-399.00914899999998
 20
-248.0
 30
0.0
 11
-401.00914899999981
 21
-250.0
 31
0.0
  0
LINE
  5
34E
  8
DETAIL
  6
CONTINUOUS
 62
     5
 10
-399.00914899999998
 20
-226.0
 30
0.0
 11
-401.00914899999981
 21
-224.0
 31
0.0
  0
LINE
  5
34F
  8
DETAIL
  6
CONTINUOUS
 62
     5
 10
-418.0
 20
-248.25
 30
0.0
 11
-415.00914899999958
 21
-250.0
 31
0.0
  0
LINE
  5
350
  8
DETAIL
  6
CONTINUOUS
 62
     5
 10
-415.00914899999958
 20
-224.0
 30
0.0
 11
-418.0
 21
-225.75000399999999
 31
0.0
  0
LINE
  5
351
  8
DETAIL
  6
CONTINUOUS
 62
     5
 10
-415.00914899999958
 20
-224.0
 30
0.0
 11
-415.00914899999958
 21
-250.0
 31
0.0
  0
LINE
  5
352
  8
DETAIL
  6
CONTINUOUS
 62
     5
 10
-399.00914899999998
 20
-226.0
 30
0.0
 11
-399.00914899999998
 21
-248.0
 31
0.0
  0
LINE
  5
354
  8
DETAIL
  6
CONTINUOUS
 62
     5
 10
-401.00914899999981
 20
-250.0
 30
0.0
 11
-415.00914899999958
 21
-250.0
 31
0.0
  0
LINE
  5
355
  8
DETAIL
  6
CONTINUOUS
 62
     5
 10
-401.00914899999981
 20
-224.0
 30
0.0
 11
-415.00914899999958
 21
-224.0
 31
0.0
  0
LINE
  5
359
  8
DETAIL
  6
CONTINUOUS
 62
     5
 10
-395.00914899999998
 20
-227.5
 30
0.0
 11
-393.00914899999998
 21
-225.5
 31
0.0
  0
LINE
  5
35A
  8
DETAIL
  6
CONTINUOUS
 62
     5
 10
-395.00914899999998
 20
-246.5
 30
0.0
 11
-393.00914899999998
 21
-248.5
 31
0.0
  0
LINE
  5
35B
  8
DETAIL
  6
CONTINUOUS
 62
     5
 10
-395.00914899999998
 20
-227.5
 30
0.0
 11
-395.00914899999998
 21
-246.5
 31
0.0
  0
POINT
  5
35C
  8
DEFPOINTS
  6
CONTINUOUS
 62
     7
 10
-402.0
 20
-179.0
 30
0.0
  0
POINT
  5
35D
  8
DEFPOINTS
  6
CONTINUOUS
 62
     7
 10
-418.0
 20
-237.0
 30
0.0
  0
LINE
  5
372
  8
DETAIL
  6
CONTINUOUS
 62
     5
 10
-405.0
 20
-250.0
 30
0.0
 11
-405.0
 21
-334.0
 31
0.0
  0
LINE
  5
708
  8
DETAIL
  6
CONTINUOUS
 62
     5
 10
-367.84986249999992
 20
-380.00000000000011
 30
0.0
 11
-400.0
 21
-351.00143700000001
 31
0.0
  0
LINE
  5
709
  8
DETAIL
  6
CONTINUOUS
 62
     5
 10
-367.84986249999992
 20
-380.00000000000011
 30
0.0
 11
-340.0
 21
-380.00000000000011
 31
0.0
  0
LINE
  5
70A
  8
DETAIL
  6
CONTINUOUS
 62
     5
 10
367.84986249999992
 20
-379.99999857601091
 30
0.0
 11
399.99999851727648
 21
-351.00143393214461
 31
0.0
  0
LINE
  5
70B
  8
DETAIL
  6
CONTINUOUS
 62
     5
 10
367.84986249999992
 20
-379.99999857601091
 30
0.0
 11
340.0
 21
-380.00000000000011
 31
0.0
  0
TEXT
  5
8D1
  8
SIZE
  6
CONTINUOUS
 62
    30
 10
-196.78031325228321
 20
245.85349067695989
 30
0.0
 40
55.0
  1
50
 41
0.9
 72
     1
 11
-156.70888468085471
 21
245.85349067695989
 31
0.0
  0
LINE
  5
8D2
  8
SIZE
  6
CONTINUOUS
 62
    30
 10
-103.437429880083
 20
235.62479817593319
 30
0.0
 11
-214.0361728800828
 21
235.62479817593319
 31
0.0
  0
LINE
  5
8D8
  8
SIZE
  6
CONTINUOUS
 62
    30
 10
-214.0361728800828
 20
235.62479817593319
 30
0.0
 11
-235.0
 21
169.85075699999999
 31
0.0
  0
TEXT
  5
8E7
  8
SIZE
  6
CONTINUOUS
 62
    30
 10
781.10312730112867
 20
-242.951134160311
 30
0.0
 40
55.0
  1
25
 50
90.0
 41
0.9
 72
     1
 11
781.10312730112867
 21
-202.8797055888825
 31
0.0
  0
LINE
  5
8E8
  8
SIZE
  6
CONTINUOUS
 62
    30
 10
791.72169031083831
 20
-257.8338401928558
 30
0.0
 11
791.72169031083831
 21
-147.1517341928558
 31
0.0
  0
LINE
  5
903
  8
NOTE
  6
CONTINUOUS
 62
     4
 10
-420.0
 20
-53.5
 30
0.0
 11
-380.0
 21
-53.5
 31
0.0
  0
TEXT
  5
904
  8
NOTE
  6
CONTINUOUS
 62
     4
 10
-1180.363052019823
 20
225.38927675944359
 30
0.0
 40
55.0
  1
D1 (O.D.\U+03C632)
 41
0.9
  0
LINE
  5
905
  8
NOTE
  6
CONTINUOUS
 62
     4
 10
-1189.347093019823
 20
202.55074775944371
 30
0.0
 11
-672.20991531691107
 21
202.55074775944371
 31
0.0
  0
LINE
  5
906
  8
NOTE
  6
CONTINUOUS
 62
     4
 10
-400.0
 20
-53.5
 30
0.0
 11
-672.20991531691107
 21
202.55074775944371
 31
0.0
  0
LINE
  5
907
  8
DETAIL
  6
CONTINUOUS
 62
     5
 10
-400.0
 20
-69.5
 30
0.0
 11
-340.0
 21
-69.5
 31
0.0
  0
LINE
  5
908
  8
DETAIL
  6
CONTINUOUS
 62
     5
 10
-400.0
 20
-37.5
 30
0.0
 11
-340.0
 21
-37.5
 31
0.0
  0
LINE
  5
90A
  8
NOTE
  6
CONTINUOUS
 62
     4
 10
-400.0
 20
-73.5
 30
0.0
 11
-400.0
 21
-33.5
 31
0.0
  0
LINE
  5
90B
  8
DETAIL
  6
CONTINUOUS
 62
     5
 10
-400.0
 20
-69.5
 30
0.0
 11
-400.0
 21
-37.5
 31
0.0
  0
LINE
  5
92D
  8
SIZE
  6
CONTINUOUS
 62
    30
 10
-440.0
 20
-53.499999999999993
 30
0.0
 11
-858.5209261831186
 21
-53.499999999999872
 31
0.0
  0
LINE
  5
92E
  8
SIZE
  6
CONTINUOUS
 62
    30
 10
-387.84986249999997
 20
-379.99999999999989
 30
0.0
 11
-858.5209261831186
 21
-379.99999999999977
 31
0.0
  0
LINE
  5
92F
  8
SIZE
  6
CONTINUOUS
 62
    30
 10
-828.5209261831186
 20
-63.499999999999879
 30
0.0
 11
-828.52092618311872
 21
-369.99999999999989
 31
0.0
  0
TEXT
  5
935
  8
SIZE
  6
CONTINUOUS
 62
    30
 10
-841.01586471289204
 20
-315.74999999999989
 30
0.0
 40
55.0
  1
326.5
 50
90.0
 41
0.9
 72
     1
 11
-841.01586471289204
 21
-216.74999999999989
 31
0.0
  0
CIRCLE
  5
936
  8
SIZE
  6
CONTINUOUS
 62
    30
 10
-828.52092618311872
 20
-379.99999999999989
 30
0.0
 40
5.0
  0
LINE
  5
937
  8
SIZE
  6
CONTINUOUS
 62
    30
 10
-828.52092618311872
 20
-375.0
 30
0.0
 11
-828.52092618311872
 21
-369.99999999999989
 31
0.0
  0
CIRCLE
  5
938
  8
SIZE
  6
CONTINUOUS
 62
    30
 10
-828.5209261831186
 20
-53.499999999999879
 30
0.0
 40
5.0
  0
LINE
  5
939
  8
SIZE
  6
CONTINUOUS
 62
    30
 10
-828.5209261831186
 20
-58.499999999999879
 30
0.0
 11
-828.5209261831186
 21
-63.499999999999879
 31
0.0
  0
LINE
  5
A4D
  8
NOTE
  6
CONTINUOUS
 62
     4
 10
-437.0040585723176
 20
-38.311199523327147
 30
0.0
 11
-400.0
 21
-53.5
 31
0.0
  0
LINE
  5
A4E
  8
NOTE
  6
CONTINUOUS
 62
     4
 10
-400.0
 20
-53.5
 30
0.0
 11
-424.45205431950251
 21
-21.844083989616411
 31
0.0
  0
LINE
  5
A51
  8
NOTE
  6
CONTINUOUS
 62
     4
 10
311.64474899999999
 20
-27.362151999999998
 30
0.0
 11
290.0
 21
-61.0
 31
0.0
  0
LINE
  5
A52
  8
NOTE
  6
CONTINUOUS
 62
     4
 10
290.0
 20
-61.0
 30
0.0
 11
325.563827
 21
-42.691142999999997
 31
0.0
  0
LINE
  5
A53
  8
NOTE
  6
CONTINUOUS
 62
     4
 10
-416.89380891027258
 20
-216.1237724815912
 30
0.0
 11
-402.0
 21
-179.0
 31
0.0
  0
LINE
  5
A54
  8
NOTE
  6
CONTINUOUS
 62
     4
 10
-402.0
 20
-179.0
 30
0.0
 11
-433.46030355466331
 21
-203.7032251801013
 31
0.0
  0
LINE
  5
A55
  8
NOTE
  6
CONTINUOUS
 62
     4
 10
-426.30995323730622
 20
-276.12728763336668
 30
0.0
 11
-418.0
 21
-237.0
 31
0.0
  0
LINE
  5
A56
  8
NOTE
  6
CONTINUOUS
 62
     4
 10
-418.0
 20
-237.0
 30
0.0
 11
-444.76027496943573
 21
-266.73024872871167
 31
0.0
  0
LINE
  5
BFC
  8
DETAIL
  6
CONTINUOUS
 62
     5
 10
-399.00914899999998
 20
-229.06
 30
0.0
 11
-395.00914899999998
 21
-229.06
 31
0.0
  0
LINE
  5
BFF
  8
DETAIL
  6
CONTINUOUS
 62
     5
 10
-399.00914899999998
 20
-244.94
 30
0.0
 11
-395.00914899999998
 21
-244.94
 31
0.0
  0
LINE
  5
C00
  8
DETAIL
  6
CONTINUOUS
 62
     5
 10
-385.00914899999958
 20
-174.2399999999999
 30
0.0
 11
-383.00914899999998
 21
-174.2399999999999
 31
0.0
  0
LINE
  5
C01
  8
DETAIL
  6
CONTINUOUS
 62
     5
 10
-385.00914899999958
 20
-183.75999999999991
 30
0.0
 11
-383.00914899999998
 21
-183.75999999999991
 31
0.0
  0
TEXT
  5
CDA
  8
ETC
  6
CONTINUOUS
 62
    61
 10
24.705249913097759
 20
720.18342755943149
 30
0.0
 40
64.0
  1
PEFY-P45_71MG2_2
 41
0.9
  0
TEXT
  5
CDB
  8
ETC
  6
CONTINUOUS
 62
    61
 10
53.478940486628737
 20
605.70475991586625
 30
0.0
 40
64.0
  1
（ダブルフィルターボックス組込み）
 41
0.9
  0
LINE
  5
CF0
  8
NOTE
  6
CONTINUOUS
 62
     4
 10
-402.0
 20
-179.0
 30
0.0
 11
-839.39053915399882
 21
-746.73615068574804
 31
0.0
  0
LINE
  5
CF1
  8
NOTE
  6
CONTINUOUS
 62
     4
 10
-418.0
 20
-237.0
 30
0.0
 11
-810.64837347413629
 21
-1116.559705758292
 31
0.0
  0
TEXT
  5
CF2
  8
NOTE
  6
CONTINUOUS
 62
     4
 10
-1214.6877258158211
 20
-887.57823417105635
 30
0.0
 40
55.0
  1
RG \U+03C612.7
 41
0.9
  0
LINE
  5
CF3
  8
NOTE
  6
CONTINUOUS
 62
     4
 10
-1233.4952761313621
 20
-962.66863086443107
 30
0.0
 11
-741.94913696560752
 21
-962.66863086443107
 31
0.0
  0
TEXT
  5
CF4
  8
NOTE
  6
CONTINUOUS
 62
     4
 10
-1184.852033515604
 20
-947.12079668734043
 30
0.0
 40
45.0
  1
PEFY-P45_56MG2
 50
359.9999970000153
 41
0.6309520000000001
  7
STANDARD1
  0
LINE
  5
CF5
  8
NOTE
  6
CONTINUOUS
 62
     4
 10
-1231.4006192262771
 20
-1116.559705758292
 30
0.0
 11
-810.64837347413629
 21
-1116.559705758292
 31
0.0
  0
TEXT
  5
CF6
  8
NOTE
  6
CONTINUOUS
 62
     4
 10
-1213.409713117243
 20
-1042.816028898957
 30
0.0
 40
55.0
  1
RG \U+03C615.88
 41
0.9
  0
TEXT
  5
CF7
  8
NOTE
  6
CONTINUOUS
 62
     4
 10
-1183.5740208170259
 20
-1102.3585914152411
 30
0.0
 40
45.0
  1
PEFY-P71MG2
 50
359.9999970000153
 41
0.6309520000000001
  7
STANDARD1
  0
TEXT
  5
CF8
  8
NOTE
  6
CONTINUOUS
 62
     4
 10
-1243.429891495683
 20
-517.75467909851238
 30
0.0
 40
55.0
  1
RL \U+03C66.35
 41
0.9
  0
LINE
  5
CF9
  8
NOTE
  6
CONTINUOUS
 62
     4
 10
-1262.237441811224
 20
-592.84507579188721
 30
0.0
 11
-720.83106370486234
 21
-592.84507579188721
 31
0.0
  0
TEXT
  5
CFA
  8
NOTE
  6
CONTINUOUS
 62
     4
 10
-1213.594199195466
 20
-577.29724161479635
 30
0.0
 40
45.0
  1
PEFY-P45_56MG2
 50
359.9999970000153
 41
0.6309520000000001
  7
STANDARD1
  0
LINE
  5
CFB
  8
NOTE
  6
CONTINUOUS
 62
     4
 10
-1260.142784906139
 20
-746.73615068574804
 30
0.0
 11
-839.39053915399882
 21
-746.73615068574804
 31
0.0
  0
TEXT
  5
CFC
  8
NOTE
  6
CONTINUOUS
 62
     4
 10
-1242.1518787971049
 20
-672.99247382641306
 30
0.0
 40
55.0
  1
RL \U+03C69.52
 41
0.9
  0
TEXT
  5
CFD
  8
NOTE
  6
CONTINUOUS
 62
     4
 10
-1212.316186496889
 20
-732.53503634269737
 30
0.0
 40
45.0
  1
PEFY-P71MG2
 50
359.9999970000153
 41
0.6309520000000001
  7
STANDARD1
  0
ENDSEC
  0
EOF
