  0
SECTION
  2
HEADER
  9
$ACADVER
  1
AC1009
  9
$INSBASE
 10
0.0
 20
0.0
 30
0.0
  9
$EXTMIN
 10
-501.8005132463295
 20
-331.73216083288747
 30
-0.000000000000013
  9
$EXTMAX
 10
881.83595319492088
 20
2256.8664680780671
 30
0.0000000000000023
  9
$LIMMIN
 10
-4200.0
 20
-2970.0
  9
$LIMMAX
 10
4200.0
 20
2970.0
  9
$ORTHOMODE
 70
     1
  9
$REGENMODE
 70
     0
  9
$FILLMODE
 70
     1
  9
$QTEXTMODE
 70
     0
  9
$MIRRTEXT
 70
     0
  9
$DRAGMODE
 70
     2
  9
$LTSCALE
 40
20.0
  9
$OSMODE
 70
   959
  9
$ATTMODE
 70
     1
  9
$TEXTSIZE
 40
64.0
  9
$TRACEWID
 40
0.05
  9
$TEXTSTYLE
  7
STANDARD
  9
$CLAYER
  8
SYMBOLLINE
  9
$CELTYPE
  6
CONTINUOUS
  9
$CECOLOR
 62
     7
  9
$DIMSCALE
 40
1.0
  9
$DIMASZ
 40
10.0
  9
$DIMEXO
 40
20.0
  9
$DIMDLI
 40
80.0
  9
$DIMRND
 40
0.0
  9
$DIMDLE
 40
0.0
  9
$DIMEXE
 40
20.0
  9
$DIMTP
 40
0.0
  9
$DIMTM
 40
0.0
  9
$DIMTXT
 40
55.0
  9
$DIMCEN
 40
0.09
  9
$DIMTSZ
 40
0.0
  9
$DIMTOL
 70
     0
  9
$DIMLIM
 70
     0
  9
$DIMTIH
 70
     0
  9
$DIMTOH
 70
     0
  9
$DIMSE1
 70
     0
  9
$DIMSE2
 70
     0
  9
$DIMTAD
 70
     1
  9
$DIMZIN
 70
     8
  9
$DIMBLK
  1
DOTBLANK
  9
$DIMASO
 70
     1
  9
$DIMSHO
 70
     0
  9
$DIMPOST
  1

  9
$DIMAPOST
  1

  9
$DIMALT
 70
     0
  9
$DIMALTD
 70
     2
  9
$DIMALTF
 40
25.399999999999999
  9
$DIMLFAC
 40
1.0
  9
$DIMTOFL
 70
     1
  9
$DIMTVP
 40
0.0
  9
$DIMTIX
 70
     0
  9
$DIMSOXD
 70
     0
  9
$DIMSAH
 70
     0
  9
$DIMBLK1
  1

  9
$DIMBLK2
  1

  9
$DIMSTYLE
  2
STANDARD
  9
$DIMCLRD
 70
     0
  9
$DIMCLRE
 70
     0
  9
$DIMCLRT
 70
     0
  9
$DIMTFAC
 40
1.0
  9
$DIMGAP
 40
10.0
  9
$LUNITS
 70
     2
  9
$LUPREC
 70
     4
  9
$SKETCHINC
 40
0.1
  9
$FILLETRAD
 40
0.0
  9
$AUNITS
 70
     1
  9
$AUPREC
 70
     3
  9
$MENU
  1
ACAD
  9
$ELEVATION
 40
0.0
  9
$PELEVATION
 40
0.0
  9
$THICKNESS
 40
0.0
  9
$LIMCHECK
 70
     0
  9
$BLIPMODE
 70
     0
  9
$CHAMFERA
 40
0.0
  9
$CHAMFERB
 40
0.0
  9
$SKPOLY
 70
     0
  9
$TDCREATE
 40
2449761.4949420029
  9
$TDUPDATE
 40
2455616.7326872689
  9
$TDINDWG
 40
0.1599503241
  9
$TDUSRTIMER
 40
0.1599492477
  9
$USRTIMER
 70
     1
  9
$ANGBASE
 50
0.0
  9
$ANGDIR
 70
     0
  9
$PDMODE
 70
     3
  9
$PDSIZE
 40
-2.0
  9
$PLINEWID
 40
0.0
  9
$COORDS
 70
     0
  9
$SPLFRAME
 70
     0
  9
$SPLINETYPE
 70
     6
  9
$SPLINESEGS
 70
     8
  9
$ATTDIA
 70
     0
  9
$ATTREQ
 70
     1
  9
$HANDLING
 70
     1
  9
$HANDSEED
  5
13F3
  9
$SURFTAB1
 70
     6
  9
$SURFTAB2
 70
     6
  9
$SURFTYPE
 70
     6
  9
$SURFU
 70
     6
  9
$SURFV
 70
     6
  9
$UCSNAME
  2

  9
$UCSORG
 10
0.0
 20
0.0
 30
0.0
  9
$UCSXDIR
 10
1.0
 20
0.0
 30
0.0
  9
$UCSYDIR
 10
0.0
 20
1.0
 30
0.0
  9
$PUCSNAME
  2

  9
$PUCSORG
 10
0.0
 20
0.0
 30
0.0
  9
$PUCSXDIR
 10
1.0
 20
0.0
 30
0.0
  9
$PUCSYDIR
 10
0.0
 20
1.0
 30
0.0
  9
$USERI1
 70
     0
  9
$USERI2
 70
     0
  9
$USERI3
 70
     0
  9
$USERI4
 70
     0
  9
$USERI5
 70
     0
  9
$USERR1
 40
20.0
  9
$USERR2
 40
0.0
  9
$USERR3
 40
0.0
  9
$USERR4
 40
0.0
  9
$USERR5
 40
0.0
  9
$WORLDVIEW
 70
     1
  9
$SHADEDGE
 70
     3
  9
$SHADEDIF
 70
    70
  9
$TILEMODE
 70
     1
  9
$MAXACTVP
 70
    48
  9
$PLIMCHECK
 70
     0
  9
$PEXTMIN
 10
1.0000000000000000E+020
 20
1.0000000000000000E+020
 30
1.0000000000000000E+020
  9
$PEXTMAX
 10
-1.0000000000000000E+020
 20
-1.0000000000000000E+020
 30
-1.0000000000000000E+020
  9
$PLIMMIN
 10
0.0
 20
0.0
  9
$PLIMMAX
 10
12.0
 20
9.0
  9
$UNITMODE
 70
     0
  9
$VISRETAIN
 70
     1
  9
$PLINEGEN
 70
     0
  9
$PSLTSCALE
 70
     1
  0
ENDSEC
  0
SECTION
  2
TABLES
  0
TABLE
  2
VPORT
 70
     1
  0
VPORT
  2
*ACTIVE
 70
     0
 10
0.0
 20
0.0
 11
1.0
 21
1.0
 12
0.0000000000003411
 22
0.0
 13
0.0
 23
0.0
 14
50.0
 24
50.0
 15
100.0
 25
100.0
 16
0.0
 26
0.0
 36
1.0
 17
0.0
 27
0.0
 37
0.0
 40
5985.5172413793098
 41
1.5639386189258311
 42
50.0
 43
0.0
 44
0.0
 50
0.0
 51
0.0
 71
     0
 72
  1000
 73
     1
 74
     0
 75
     0
 76
     0
 77
     0
 78
     0
  0
ENDTAB
  0
TABLE
  2
LTYPE
 70
     2
  0
LTYPE
  2
CONTINUOUS
 70
     0
  3
実線
 72
    65
 73
     0
 40
0.0
  0
LTYPE
  2
DASHDOT
 70
     0
  3
____ _ ____ _ ____ _ ____ _ ____ _ ____ _ ____
 72
    65
 73
     4
 40
5.5
 49
4.0
 49
-0.6
 49
0.3
 49
-0.6
  0
ENDTAB
  0
TABLE
  2
LAYER
 70
    12
  0
LAYER
  2
0
 70
     0
 62
     7
  6
CONTINUOUS
  0
LAYER
  2
SYMBOLLINE
 70
     0
 62
    15
  6
CONTINUOUS
  0
LAYER
  2
OUTLINE
 70
     0
 62
     3
  6
CONTINUOUS
  0
LAYER
  2
DETAIL
 70
     0
 62
     5
  6
CONTINUOUS
  0
LAYER
  2
BASIS
 70
     0
 62
     6
  6
DASHDOT
  0
LAYER
  2
SIZE
 70
     0
 62
    30
  6
CONTINUOUS
  0
LAYER
  2
NOTE
 70
     0
 62
     4
  6
CONTINUOUS
  0
LAYER
  2
ARRANGE
 70
     0
 62
     1
  6
CONTINUOUS
  0
LAYER
  2
FIX
 70
     0
 62
    11
  6
CONTINUOUS
  0
LAYER
  2
SERVICESPACE
 70
     0
 62
     2
  6
DASHDOT
  0
LAYER
  2
ETC
 70
     0
 62
    61
  6
CONTINUOUS
  0
LAYER
  2
DEFPOINTS
 70
     0
 62
     7
  6
CONTINUOUS
  0
ENDTAB
  0
TABLE
  2
STYLE
 70
     3
  0
STYLE
  2
STANDARD
 70
     0
 40
0.0
 41
0.9
 50
0.0
 71
     0
 42
64.0
  3
SIMPLEX
  4
BIGFONT
  0
STYLE
  2
ANNOTATIVE
 70
     0
 40
0.0
 41
1.0
 50
0.0
 71
     0
 42
0.2
  3
txt
  4

  0
STYLE
  2
STANDARD1
 70
     0
 40
0.0
 41
1.0
 50
0.0
 71
     0
 42
64.0
  3
MONOTXT
  4
BIGFONT
  0
ENDTAB
  0
TABLE
  2
VIEW
 70
     4
  0
VIEW
  2
ALL
 70
     0
 40
6056.2299999999987
 10
0.0
 20
58.11501599999999
 41
8400.0
 11
0.0
 21
0.0
 31
1.0
 12
0.0
 22
0.0
 32
0.0
 42
50.0
 43
0.0
 44
0.0
 50
0.0
 71
     0
  0
ENDTAB
  0
TABLE
  2
UCS
 70
     0
  0
ENDTAB
  0
TABLE
  2
APPID
 70
     6
  0
APPID
  2
ACAD
 70
     0
  0
APPID
  2
ACADANNOTATIVE
 70
     0
  0
APPID
  2
ACAD_MLEADERVER
 70
     0
  0
APPID
  2
ACAD_EXEMPT_FROM_CAD_STANDARDS
 70
     0
  0
APPID
  2
ACAD_DSTYLE_DIMJAG
 70
     0
  0
APPID
  2
ACAD_DSTYLE_DIMTALN
 70
     0
  0
ENDTAB
  0
TABLE
  2
DIMSTYLE
 70
     2
  0
DIMSTYLE
  2
STANDARD
 70
     0
  3

  4

  5

  6

  7

 40
1.0
 41
0.18
 42
0.0625
 43
0.38
 44
0.18
 45
0.0
 46
0.0
 47
0.0
 48
0.0
140
0.18
141
0.09
142
0.0
143
25.399999999999999
144
1.0
145
0.0
146
1.0
147
0.09
 71
     0
 72
     0
 73
     1
 74
     1
 75
     0
 76
     0
 77
     0
 78
     0
170
     0
171
     2
172
     0
173
     0
174
     0
175
     0
176
     0
177
     0
178
     0
  0
DIMSTYLE
  2
ANNOTATIVE
 70
     0
  3

  4

  5

  6

  7

 40
1.0
 41
0.18
 42
0.0625
 43
0.38
 44
0.18
 45
0.0
 46
0.0
 47
0.0
 48
0.0
140
0.18
141
0.09
142
0.0
143
25.399999999999999
144
1.0
145
0.0
146
1.0
147
0.09
 71
     0
 72
     0
 73
     1
 74
     1
 75
     0
 76
     0
 77
     0
 78
     0
170
     0
171
     2
172
     0
173
     0
174
     0
175
     0
176
     0
177
     0
178
     0
  0
ENDTAB
  0
ENDSEC
  0
SECTION
  2
BLOCKS
  0
BLOCK
  8
0
  2
$MODEL_SPACE
 70
     0
 10
0.0
 20
0.0
 30
0.0
  3
$MODEL_SPACE
  1

  0
ENDBLK
  5
131A
  8
0
  0
BLOCK
 67
     1
  8
0
  2
$PAPER_SPACE
 70
     0
 10
0.0
 20
0.0
 30
0.0
  3
$PAPER_SPACE
  1

  0
ENDBLK
  5
1316
 67
     1
  8
0
  0
BLOCK
  8
0
  2
_DOTBLANK
 70
     0
 10
0.0
 20
0.0
 30
0.0
  3
_DOTBLANK
  1

  0
CIRCLE
  5
14D
  8
0
  6
CONTINUOUS
 62
     7
 10
0.0
 20
0.0
 30
0.0
 40
0.5
  0
LINE
  5
14E
  8
0
  6
CONTINUOUS
 62
     7
 10
-0.5
 20
0.0
 30
0.0
 11
-1.0
 21
0.0
 31
0.0
  0
ENDBLK
  5
14F
  8
0
  0
BLOCK
  8
0
 62
     7
  2
*D3
 70
     1
 10
0.0
 20
0.0
 30
0.0
  3
*D3
  1

  0
LINE
  5
53F
  8
SIZE
  6
CONTINUOUS
 62
     0
 10
-0.000011364121748
 20
65.000001361881004
 30
0.0
 11
-0.0000113641217734
 21
-350.63966726298167
 31
0.0
  0
LINE
  5
540
  8
SIZE
  6
CONTINUOUS
 62
     0
 10
-95.0
 20
-51.597782499999987
 30
0.0
 11
-95.0
 21
-350.63966726298167
 31
0.0
  0
LINE
  5
541
  8
SIZE
  6
CONTINUOUS
 62
     0
 10
-10.00001136412177
 20
-330.63966726298167
 30
0.0
 11
-85.000000000000014
 21
-330.63966726298167
 31
0.0
  0
INSERT
  5
542
  8
SIZE
  6
CONTINUOUS
 62
     0
  2
_DOTBLANK
 10
-0.0000113641217722
 20
-330.63966726298167
 30
0.0
 41
10.0
 42
10.0
 43
10.0
  0
INSERT
  5
543
  8
SIZE
  6
CONTINUOUS
 62
     0
  2
_DOTBLANK
 10
-95.0
 20
-330.63966726298167
 30
0.0
 41
10.0
 42
10.0
 43
10.0
 50
180.0
  0
INSERT
  5
544
  8
SYMBOLLINE
  6
CONTINUOUS
 62
     7
  2
*U4
 10
0.0
 20
0.0
 30
0.0
  0
POINT
  5
545
  8
DEFPOINTS
  6
CONTINUOUS
 62
     0
 10
-0.0000113641217467
 20
85.00000136188099
 30
0.0
  0
POINT
  5
546
  8
DEFPOINTS
  6
CONTINUOUS
 62
     0
 10
-95.0
 20
-31.597782500000001
 30
0.0
  0
POINT
  5
547
  8
DEFPOINTS
  6
CONTINUOUS
 62
     0
 10
-95.0
 20
-330.63966726298167
 30
0.0
  0
ENDBLK
  5
365
  8
0
 62
     7
  0
BLOCK
  8
0
 62
     7
  2
*U4
 70
     1
 10
0.0
 20
0.0
 30
0.0
  3
*U4
  1

  0
TEXT
  5
6D7
  8
SIZE
  6
CONTINUOUS
 62
     0
 10
-87.571434253489457
 20
-330.5496672629817
 30
0.0
 40
55.0
  1
95
 41
0.9
  0
ENDBLK
  5
6D9
  8
0
 62
     7
  0
BLOCK
  8
0
 62
     7
  2
*D5
 70
     1
 10
0.0
 20
0.0
 30
0.0
  3
*D5
  1

  0
LINE
  5
373
  8
SYMBOLLINE
  6
CONTINUOUS
 62
     0
 10
-95.0
 20
-51.597782499999987
 30
0.0
 11
-95.0
 21
-201.4224301455597
 31
0.0
  0
LINE
  5
374
  8
SYMBOLLINE
  6
CONTINUOUS
 62
     0
 10
-385.0
 20
-51.597782499999987
 30
0.0
 11
-385.0
 21
-201.4224301455597
 31
0.0
  0
LINE
  5
375
  8
SYMBOLLINE
  6
CONTINUOUS
 62
     0
 10
-105.0
 20
-181.4224301455597
 30
0.0
 11
-375.0
 21
-181.4224301455597
 31
0.0
  0
INSERT
  5
376
  8
SYMBOLLINE
  6
CONTINUOUS
 62
     0
  2
_DOTBLANK
 10
-95.0
 20
-181.4224301455597
 30
0.0
 41
10.0
 42
10.0
 43
10.0
  0
INSERT
  5
377
  8
SYMBOLLINE
  6
CONTINUOUS
 62
     0
  2
_DOTBLANK
 10
-385.0
 20
-181.4224301455597
 30
0.0
 41
10.0
 42
10.0
 43
10.0
 50
180.0
  0
INSERT
  5
378
  8
SYMBOLLINE
  6
CONTINUOUS
 62
     7
  2
*U6
 10
0.0
 20
0.0
 30
0.0
  0
POINT
  5
379
  8
DEFPOINTS
  6
CONTINUOUS
 62
     0
 10
-95.0
 20
-31.597782500000001
 30
0.0
  0
POINT
  5
37A
  8
DEFPOINTS
  6
CONTINUOUS
 62
     0
 10
-385.0
 20
-31.597782500000001
 30
0.0
  0
POINT
  5
37B
  8
DEFPOINTS
  6
CONTINUOUS
 62
     0
 10
-385.0
 20
-181.4224301455597
 30
0.0
  0
ENDBLK
  5
372
  8
0
 62
     7
  0
BLOCK
  8
0
 62
     7
  2
*U6
 70
     1
 10
0.0
 20
0.0
 30
0.0
  3
*U6
  1

  0
TEXT
  5
6C3
  8
SYMBOLLINE
  6
CONTINUOUS
 62
     0
 10
-303.64285714285711
 20
-181.3324301455597
 30
0.0
 40
55.0
  1
290
 41
0.9
  0
ENDBLK
  5
6C5
  8
0
 62
     7
  0
BLOCK
  8
0
 62
     7
  2
*D7
 70
     1
 10
0.0
 20
0.0
 30
0.0
  3
*D7
  1

  0
LINE
  5
536
  8
SIZE
  6
CONTINUOUS
 62
     0
 10
-415.0
 20
-51.597780499999928
 30
0.0
 11
-415.0
 21
-350.63966726298167
 31
0.0
  0
LINE
  5
537
  8
SIZE
  6
CONTINUOUS
 62
     0
 10
-95.0
 20
-51.597780499999928
 30
0.0
 11
-95.0
 21
-350.63966726298167
 31
0.0
  0
LINE
  5
538
  8
SIZE
  6
CONTINUOUS
 62
     0
 10
-405.0
 20
-330.63966726298167
 30
0.0
 11
-105.0
 21
-330.63966726298167
 31
0.0
  0
INSERT
  5
539
  8
SIZE
  6
CONTINUOUS
 62
     0
  2
_DOTBLANK
 10
-415.0
 20
-330.63966726298167
 30
0.0
 41
10.0
 42
10.0
 43
10.0
 50
180.0
  0
INSERT
  5
53A
  8
SIZE
  6
CONTINUOUS
 62
     0
  2
_DOTBLANK
 10
-95.0
 20
-330.63966726298167
 30
0.0
 41
10.0
 42
10.0
 43
10.0
  0
INSERT
  5
53B
  8
SYMBOLLINE
  6
CONTINUOUS
 62
     7
  2
*U8
 10
0.0
 20
0.0
 30
0.0
  0
POINT
  5
53C
  8
DEFPOINTS
  6
CONTINUOUS
 62
     0
 10
-415.0
 20
-31.597780499999949
 30
0.0
  0
POINT
  5
53D
  8
DEFPOINTS
  6
CONTINUOUS
 62
     0
 10
-95.0
 20
-31.597780499999949
 30
0.0
  0
POINT
  5
53E
  8
DEFPOINTS
  6
CONTINUOUS
 62
     0
 10
-95.0
 20
-330.63966726298167
 30
0.0
  0
ENDBLK
  5
37F
  8
0
 62
     7
  0
BLOCK
  8
0
 62
     7
  2
*U8
 70
     1
 10
0.0
 20
0.0
 30
0.0
  3
*U8
  1

  0
TEXT
  5
6D3
  8
SIZE
  6
CONTINUOUS
 62
     0
 10
-318.64285714285711
 20
-330.54966726298159
 30
0.0
 40
55.0
  1
320
 41
0.9
  0
ENDBLK
  5
6D5
  8
0
 62
     7
  0
BLOCK
  8
0
 62
     7
  2
*D9
 70
     1
 10
0.0
 20
0.0
 30
0.0
  3
*D9
  1

  0
LINE
  5
3DC
  8
SYMBOLLINE
  6
CONTINUOUS
 62
     0
 10
-244.99999480477109
 20
-10.00000000000005
 30
0.0
 11
-244.99999480477109
 21
-204.68134913719589
 31
0.0
  0
LINE
  5
3DD
  8
SYMBOLLINE
  6
CONTINUOUS
 62
     0
 10
-500.0
 20
65.000001361881004
 30
0.0
 11
-500.0
 21
-204.68134913719589
 31
0.0
  0
LINE
  5
3DE
  8
SYMBOLLINE
  6
CONTINUOUS
 62
     0
 10
-254.99999480477109
 20
-184.68134913719581
 30
0.0
 11
-490.0
 21
-184.68134913719581
 31
0.0
  0
INSERT
  5
3DF
  8
SYMBOLLINE
  6
CONTINUOUS
 62
     0
  2
_DOTBLANK
 10
-244.99999480477109
 20
-184.68134913719581
 30
0.0
 41
10.0
 42
10.0
 43
10.0
  0
INSERT
  5
3E0
  8
SYMBOLLINE
  6
CONTINUOUS
 62
     0
  2
_DOTBLANK
 10
-500.0
 20
-184.68134913719581
 30
0.0
 41
10.0
 42
10.0
 43
10.0
 50
180.0
  0
INSERT
  5
3E1
  8
SYMBOLLINE
  6
CONTINUOUS
 62
     7
  2
*U10
 10
0.0
 20
0.0
 30
0.0
  0
POINT
  5
3E2
  8
DEFPOINTS
  6
CONTINUOUS
 62
     0
 10
-244.99999480477109
 20
9.9999999999999432
 30
0.0
  0
POINT
  5
3E3
  8
DEFPOINTS
  6
CONTINUOUS
 62
     0
 10
-500.0
 20
85.00000136188099
 30
0.0
  0
POINT
  5
3E4
  8
DEFPOINTS
  6
CONTINUOUS
 62
     0
 10
-500.0
 20
-184.68134913719581
 30
0.0
  0
ENDBLK
  5
3DB
  8
0
 62
     7
  0
BLOCK
  8
0
 62
     7
  2
*U10
 70
     1
 10
0.0
 20
0.0
 30
0.0
  3
*U10
  1

  0
TEXT
  5
6C7
  8
SYMBOLLINE
  6
CONTINUOUS
 62
     0
 10
-436.1428545452427
 20
-184.59134913719581
 30
0.0
 40
55.0
  1
255
 41
0.9
  0
ENDBLK
  5
6C9
  8
0
 62
     7
  0
BLOCK
  8
0
 62
     7
  2
*D11
 70
     1
 10
0.0
 20
0.0
 30
0.0
  3
*D11
  1

  0
LINE
  5
564
  8
SIZE
  6
CONTINUOUS
 62
     0
 10
-419.99999999999972
 20
193.50000300000011
 30
0.0
 11
-419.99999999999972
 21
336.77278107971892
 31
0.0
  0
LINE
  5
565
  8
SIZE
  6
CONTINUOUS
 62
     0
 10
-500.00001136412169
 20
105.000001361881
 30
0.0
 11
-500.00001136412169
 21
336.77278107971892
 31
0.0
  0
LINE
  5
566
  8
SIZE
  6
CONTINUOUS
 62
     0
 10
-429.99999999999977
 20
316.77278107971892
 30
0.0
 11
-490.00001136412158
 21
316.77278107971892
 31
0.0
  0
LINE
  5
567
  8
SIZE
  6
CONTINUOUS
 62
     0
 10
-500.00001136412169
 20
316.77278107971892
 30
0.0
 11
-590.32286850697892
 21
316.77278107971892
 31
0.0
  0
INSERT
  5
568
  8
SIZE
  6
CONTINUOUS
 62
     0
  2
_DOTBLANK
 10
-419.99999999999972
 20
316.77278107971892
 30
0.0
 41
10.0
 42
10.0
 43
10.0
  0
INSERT
  5
569
  8
SIZE
  6
CONTINUOUS
 62
     0
  2
_DOTBLANK
 10
-500.00001136412169
 20
316.77278107971892
 30
0.0
 41
10.0
 42
10.0
 43
10.0
 50
180.0
  0
INSERT
  5
56A
  8
SYMBOLLINE
  6
CONTINUOUS
 62
     7
  2
*U12
 10
0.0
 20
0.0
 30
0.0
  0
POINT
  5
56B
  8
DEFPOINTS
  6
CONTINUOUS
 62
     0
 10
-419.99999999999972
 20
173.50000300000011
 30
0.0
  0
POINT
  5
56C
  8
DEFPOINTS
  6
CONTINUOUS
 62
     0
 10
-500.00001136412169
 20
85.00000136188099
 30
0.0
  0
POINT
  5
56D
  8
DEFPOINTS
  6
CONTINUOUS
 62
     0
 10
-500.00001136412169
 20
316.77278107971892
 30
0.0
  0
ENDBLK
  5
3E8
  8
0
 62
     7
  0
BLOCK
  8
0
 62
     7
  2
*U12
 70
     1
 10
0.0
 20
0.0
 30
0.0
  3
*U12
  1

  0
TEXT
  5
6E7
  8
SIZE
  6
CONTINUOUS
 62
     0
 10
-590.23286850697889
 20
316.86278107971901
 30
0.0
 40
55.0
  1
80
 41
0.9
  0
ENDBLK
  5
6E9
  8
0
 62
     7
  0
BLOCK
  8
0
 62
     7
  2
*D13
 70
     1
 10
0.0
 20
0.0
 30
0.0
  3
*D13
  1

  0
LINE
  5
55A
  8
SIZE
  6
CONTINUOUS
 62
     0
 10
-419.99999999999972
 20
193.50000300000011
 30
0.0
 11
-419.99999999999972
 21
336.38469532945612
 31
0.0
  0
LINE
  5
55B
  8
SIZE
  6
CONTINUOUS
 62
     0
 10
-360.0
 20
193.50000299999999
 30
0.0
 11
-360.0
 21
336.38469532945612
 31
0.0
  0
LINE
  5
55C
  8
SIZE
  6
CONTINUOUS
 62
     0
 10
-409.9999999999996
 20
316.38469532945612
 30
0.0
 11
-370.0
 21
316.38469532945612
 31
0.0
  0
LINE
  5
55D
  8
SIZE
  6
CONTINUOUS
 62
     0
 10
-360.0
 20
316.38469532945612
 30
0.0
 11
-269.67714285714288
 21
316.38469532945612
 31
0.0
  0
INSERT
  5
55E
  8
SIZE
  6
CONTINUOUS
 62
     0
  2
_DOTBLANK
 10
-419.99999999999972
 20
316.38469532945612
 30
0.0
 41
10.0
 42
10.0
 43
10.0
 50
180.0
  0
INSERT
  5
55F
  8
SIZE
  6
CONTINUOUS
 62
     0
  2
_DOTBLANK
 10
-360.0
 20
316.38469532945612
 30
0.0
 41
10.0
 42
10.0
 43
10.0
  0
INSERT
  5
560
  8
SYMBOLLINE
  6
CONTINUOUS
 62
     7
  2
*U14
 10
0.0
 20
0.0
 30
0.0
  0
POINT
  5
561
  8
DEFPOINTS
  6
CONTINUOUS
 62
     0
 10
-419.99999999999972
 20
173.50000300000011
 30
0.0
  0
POINT
  5
562
  8
DEFPOINTS
  6
CONTINUOUS
 62
     0
 10
-360.0
 20
173.50000299999999
 30
0.0
  0
POINT
  5
563
  8
DEFPOINTS
  6
CONTINUOUS
 62
     0
 10
-360.0
 20
316.38469532945612
 30
0.0
  0
ENDBLK
  5
3F6
  8
0
 62
     7
  0
BLOCK
  8
0
 62
     7
  2
*U14
 70
     1
 10
0.0
 20
0.0
 30
0.0
  3
*U14
  1

  0
TEXT
  5
6E3
  8
SIZE
  6
CONTINUOUS
 62
     0
 10
-349.91000000000008
 20
316.47469532945621
 30
0.0
 40
55.0
  1
60
 41
0.9
  0
ENDBLK
  5
6E5
  8
0
 62
     7
  0
BLOCK
  8
0
 62
     7
  2
*D15
 70
     1
 10
0.0
 20
0.0
 30
0.0
  3
*D15
  1

  0
LINE
  5
577
  8
SIZE
  6
CONTINUOUS
 62
     0
 10
-473.50000299999988
 20
140.0
 30
0.0
 11
-653.81198502928225
 21
140.0
 31
0.0
  0
LINE
  5
578
  8
SIZE
  6
CONTINUOUS
 62
     0
 10
-500.0
 20
0.00000100000006
 30
0.0
 11
-653.81198502928225
 21
0.0000010000001036
 31
0.0
  0
LINE
  5
579
  8
SIZE
  6
CONTINUOUS
 62
     0
 10
-633.81198502928225
 20
130.0
 30
0.0
 11
-633.81198502928225
 21
10.000001000000101
 31
0.0
  0
INSERT
  5
57A
  8
SIZE
  6
CONTINUOUS
 62
     0
  2
_DOTBLANK
 10
-633.81198502928225
 20
140.0
 30
0.0
 41
10.0
 42
10.0
 43
10.0
 50
90.0
  0
INSERT
  5
57B
  8
SIZE
  6
CONTINUOUS
 62
     0
  2
_DOTBLANK
 10
-633.81198502928225
 20
0.0000010000000979
 30
0.0
 41
10.0
 42
10.0
 43
10.0
 50
270.0
  0
INSERT
  5
57C
  8
SYMBOLLINE
  6
CONTINUOUS
 62
     7
  2
*U16
 10
0.0
 20
0.0
 30
0.0
  0
POINT
  5
57D
  8
DEFPOINTS
  6
CONTINUOUS
 62
     0
 10
-453.50000299999988
 20
140.0
 30
0.0
  0
POINT
  5
57E
  8
DEFPOINTS
  6
CONTINUOUS
 62
     0
 10
-480.0
 20
0.0000010000000543
 30
0.0
  0
POINT
  5
57F
  8
DEFPOINTS
  6
CONTINUOUS
 62
     0
 10
-633.81198502928225
 20
0.0000010000000979
 30
0.0
  0
ENDBLK
  5
40E
  8
0
 62
     7
  0
BLOCK
  8
0
 62
     7
  2
*U16
 70
     1
 10
0.0
 20
0.0
 30
0.0
  3
*U16
  1

  0
TEXT
  5
6EF
  8
SIZE
  6
CONTINUOUS
 62
     0
 10
-633.9019850292824
 20
11.071429071428559
 30
0.0
 40
55.0
  1
140
 50
90.0
 41
0.9
  0
ENDBLK
  5
6F1
  8
0
 62
     7
  0
BLOCK
  8
0
 62
     7
  2
*D17
 70
     1
 10
0.0
 20
0.0
 30
0.0
  3
*D17
  1

  0
LINE
  5
551
  8
SIZE
  6
CONTINUOUS
 62
     0
 10
-500.0
 20
105.0
 30
0.0
 11
-500.0
 21
460.2470240260696
 31
0.0
  0
LINE
  5
552
  8
SIZE
  6
CONTINUOUS
 62
     0
 10
-244.99999480477109
 20
70.0
 30
0.0
 11
-244.99999480477109
 21
460.2470240260696
 31
0.0
  0
LINE
  5
553
  8
SIZE
  6
CONTINUOUS
 62
     0
 10
-490.0
 20
440.24702402606999
 30
0.0
 11
-254.99999480477109
 21
440.24702402606999
 31
0.0
  0
INSERT
  5
554
  8
SIZE
  6
CONTINUOUS
 62
     0
  2
_DOTBLANK
 10
-500.0
 20
440.24702402606999
 30
0.0
 41
10.0
 42
10.0
 43
10.0
 50
180.0
  0
INSERT
  5
555
  8
SIZE
  6
CONTINUOUS
 62
     0
  2
_DOTBLANK
 10
-244.99999480477109
 20
440.24702402606999
 30
0.0
 41
10.0
 42
10.0
 43
10.0
  0
INSERT
  5
556
  8
SYMBOLLINE
  6
CONTINUOUS
 62
     7
  2
*U18
 10
0.0
 20
0.0
 30
0.0
  0
POINT
  5
557
  8
DEFPOINTS
  6
CONTINUOUS
 62
     0
 10
-500.0
 20
85.0
 30
0.0
  0
POINT
  5
558
  8
DEFPOINTS
  6
CONTINUOUS
 62
     0
 10
-244.99999480477109
 20
50.0
 30
0.0
  0
POINT
  5
559
  8
DEFPOINTS
  6
CONTINUOUS
 62
     0
 10
-244.99999480477109
 20
440.24702402606999
 30
0.0
  0
ENDBLK
  5
41B
  8
0
 62
     7
  0
BLOCK
  8
0
 62
     7
  2
*U18
 70
     1
 10
0.0
 20
0.0
 30
0.0
  3
*U18
  1

  0
TEXT
  5
6DF
  8
SIZE
  6
CONTINUOUS
 62
     0
 10
-436.14285454524207
 20
440.33702402607003
 30
0.0
 40
55.0
  1
255
 41
0.9
  0
ENDBLK
  5
6E1
  8
0
 62
     7
  0
BLOCK
  8
0
 62
     7
  2
*D19
 70
     1
 10
0.0
 20
0.0
 30
0.0
  3
*D19
  1

  0
LINE
  5
548
  8
SIZE
  6
CONTINUOUS
 62
     0
 10
20.0
 20
1950.0
 30
0.0
 11
596.42767546512562
 21
1950.0
 31
0.0
  0
LINE
  5
549
  8
SIZE
  6
CONTINUOUS
 62
     0
 10
10.0
 20
0.0000010000000487
 30
0.0
 11
596.4276754651255
 21
0.0000009999998825
 31
0.0
  0
LINE
  5
54A
  8
SIZE
  6
CONTINUOUS
 62
     0
 10
576.42767546512539
 20
1940.0
 30
0.0
 11
576.42767546512539
 21
10.00000099999988
 31
0.0
  0
INSERT
  5
54B
  8
SIZE
  6
CONTINUOUS
 62
     0
  2
_DOTBLANK
 10
576.42767546512539
 20
1950.0
 30
0.0
 41
10.0
 42
10.0
 43
10.0
 50
90.0
  0
INSERT
  5
54C
  8
SIZE
  6
CONTINUOUS
 62
     0
  2
_DOTBLANK
 10
576.42767546512539
 20
0.0000009999998882
 30
0.0
 41
10.0
 42
10.0
 43
10.0
 50
270.0
  0
INSERT
  5
54D
  8
SYMBOLLINE
  6
CONTINUOUS
 62
     7
  2
*U20
 10
0.0
 20
0.0
 30
0.0
  0
POINT
  5
54E
  8
DEFPOINTS
  6
CONTINUOUS
 62
     0
 10
0.0
 20
1950.0
 30
0.0
  0
POINT
  5
54F
  8
DEFPOINTS
  6
CONTINUOUS
 62
     0
 10
-10.0
 20
0.0000010000000543
 30
0.0
  0
POINT
  5
550
  8
DEFPOINTS
  6
CONTINUOUS
 62
     0
 10
576.42767546512539
 20
0.0000009999998882
 30
0.0
  0
ENDBLK
  5
449
  8
0
 62
     7
  0
BLOCK
  8
0
 62
     7
  2
*U20
 70
     1
 10
0.0
 20
0.0
 30
0.0
  3
*U20
  1

  0
TEXT
  5
6DB
  8
SIZE
  6
CONTINUOUS
 62
     0
 10
576.3376754651257
 20
892.50000050000006
 30
0.0
 40
55.0
  1
1950
 50
90.0
 41
0.9
  0
ENDBLK
  5
6DD
  8
0
 62
     7
  0
BLOCK
  8
0
 62
     7
  2
*D21
 70
     1
 10
0.0
 20
0.0
 30
0.0
  3
*D21
  1

  0
LINE
  5
56E
  8
SIZE
  6
CONTINUOUS
 62
     0
 10
-315.0
 20
910.0
 30
0.0
 11
-810.73236526539006
 21
910.0
 31
0.0
  0
LINE
  5
56F
  8
SIZE
  6
CONTINUOUS
 62
     0
 10
-500.0
 20
0.00000100000006
 30
0.0
 11
-810.73236526539029
 21
0.000001000000148
 31
0.0
  0
LINE
  5
570
  8
SIZE
  6
CONTINUOUS
 62
     0
 10
-790.73236526539006
 20
900.00000000000011
 30
0.0
 11
-790.73236526539029
 21
10.00000100000014
 31
0.0
  0
INSERT
  5
571
  8
SIZE
  6
CONTINUOUS
 62
     0
  2
_DOTBLANK
 10
-790.73236526539006
 20
910.0
 30
0.0
 41
10.0
 42
10.0
 43
10.0
 50
90.0
  0
INSERT
  5
572
  8
SIZE
  6
CONTINUOUS
 62
     0
  2
_DOTBLANK
 10
-790.73236526539029
 20
0.0000010000001423
 30
0.0
 41
10.0
 42
10.0
 43
10.0
 50
270.0
  0
INSERT
  5
573
  8
SYMBOLLINE
  6
CONTINUOUS
 62
     7
  2
*U22
 10
0.0
 20
0.0
 30
0.0
  0
POINT
  5
574
  8
DEFPOINTS
  6
CONTINUOUS
 62
     0
 10
-295.0
 20
910.0
 30
0.0
  0
POINT
  5
575
  8
DEFPOINTS
  6
CONTINUOUS
 62
     0
 10
-480.0
 20
0.0000010000000543
 30
0.0
  0
POINT
  5
576
  8
DEFPOINTS
  6
CONTINUOUS
 62
     0
 10
-790.73236526539029
 20
0.0000010000001423
 30
0.0
  0
ENDBLK
  5
456
  8
0
 62
     7
  0
BLOCK
  8
0
 62
     7
  2
*U22
 70
     1
 10
0.0
 20
0.0
 30
0.0
  3
*U22
  1

  0
TEXT
  5
6EB
  8
SIZE
  6
CONTINUOUS
 62
     0
 10
-790.8223652653902
 20
396.07142907142861
 30
0.0
 40
55.0
  1
910
 50
90.0
 41
0.9
  0
ENDBLK
  5
6ED
  8
0
 62
     7
  0
BLOCK
  8
0
 62
     7
  2
*D23
 70
     1
 10
0.0
 20
0.0
 30
0.0
  3
*D23
  1

  0
LINE
  5
58A
  8
SIZE
  6
CONTINUOUS
 62
     0
 10
-375.0
 20
870.0
 30
0.0
 11
-375.0
 21
759.49155181104641
 31
0.0
  0
LINE
  5
58B
  8
SIZE
  6
CONTINUOUS
 62
     0
 10
-500.00001136412169
 20
105.000001361881
 30
0.0
 11
-500.00001136412169
 21
799.49155181104641
 31
0.0
  0
LINE
  5
58C
  8
SIZE
  6
CONTINUOUS
 62
     0
 10
-385.0
 20
779.49155181104641
 30
0.0
 11
-490.00001136412158
 21
779.49155181104641
 31
0.0
  0
INSERT
  5
58D
  8
SIZE
  6
CONTINUOUS
 62
     0
  2
_DOTBLANK
 10
-375.0
 20
779.49155181104641
 30
0.0
 41
10.0
 42
10.0
 43
10.0
  0
INSERT
  5
58E
  8
SIZE
  6
CONTINUOUS
 62
     0
  2
_DOTBLANK
 10
-500.00001136412169
 20
779.49155181104641
 30
0.0
 41
10.0
 42
10.0
 43
10.0
 50
180.0
  0
INSERT
  5
58F
  8
SYMBOLLINE
  6
CONTINUOUS
 62
     7
  2
*U24
 10
0.0
 20
0.0
 30
0.0
  0
POINT
  5
590
  8
DEFPOINTS
  6
CONTINUOUS
 62
     0
 10
-375.0
 20
890.0
 30
0.0
  0
POINT
  5
591
  8
DEFPOINTS
  6
CONTINUOUS
 62
     0
 10
-500.00001136412169
 20
85.00000136188099
 30
0.0
  0
POINT
  5
592
  8
DEFPOINTS
  6
CONTINUOUS
 62
     0
 10
-500.00001136412169
 20
779.49155181104641
 30
0.0
  0
ENDBLK
  5
463
  8
0
 62
     7
  0
BLOCK
  8
0
 62
     7
  2
*U24
 70
     1
 10
0.0
 20
0.0
 30
0.0
  3
*U24
  1

  0
TEXT
  5
6F7
  8
SIZE
  6
CONTINUOUS
 62
     0
 10
-496.42857711063232
 20
779.58155181104644
 30
0.0
 40
55.0
  1
125
 41
0.9
  0
ENDBLK
  5
6F9
  8
0
 62
     7
  0
BLOCK
  8
0
 62
     7
  2
*D25
 70
     1
 10
0.0
 20
0.0
 30
0.0
  3
*D25
  1

  0
LINE
  5
580
  8
SIZE
  6
CONTINUOUS
 62
     0
 10
-375.0
 20
870.0
 30
0.0
 11
-375.0
 21
759.49155181104641
 31
0.0
  0
LINE
  5
581
  8
SIZE
  6
CONTINUOUS
 62
     0
 10
-275.0
 20
870.0
 30
0.0
 11
-275.0
 21
759.49155181104641
 31
0.0
  0
LINE
  5
582
  8
SIZE
  6
CONTINUOUS
 62
     0
 10
-365.0
 20
779.49155181104641
 30
0.0
 11
-285.0
 21
779.49155181104641
 31
0.0
  0
LINE
  5
583
  8
SIZE
  6
CONTINUOUS
 62
     0
 10
-275.0
 20
779.49155181104641
 30
0.0
 11
-146.9628571428571
 21
779.49155181104641
 31
0.0
  0
INSERT
  5
584
  8
SIZE
  6
CONTINUOUS
 62
     0
  2
_DOTBLANK
 10
-375.0
 20
779.49155181104641
 30
0.0
 41
10.0
 42
10.0
 43
10.0
 50
180.0
  0
INSERT
  5
585
  8
SIZE
  6
CONTINUOUS
 62
     0
  2
_DOTBLANK
 10
-275.0
 20
779.49155181104641
 30
0.0
 41
10.0
 42
10.0
 43
10.0
  0
INSERT
  5
586
  8
SYMBOLLINE
  6
CONTINUOUS
 62
     7
  2
*U26
 10
0.0
 20
0.0
 30
0.0
  0
POINT
  5
587
  8
DEFPOINTS
  6
CONTINUOUS
 62
     0
 10
-375.0
 20
890.0
 30
0.0
  0
POINT
  5
588
  8
DEFPOINTS
  6
CONTINUOUS
 62
     0
 10
-275.0
 20
890.0
 30
0.0
  0
POINT
  5
589
  8
DEFPOINTS
  6
CONTINUOUS
 62
     0
 10
-275.0
 20
779.49155181104641
 30
0.0
  0
ENDBLK
  5
470
  8
0
 62
     7
  0
BLOCK
  8
0
 62
     7
  2
*U26
 70
     1
 10
0.0
 20
0.0
 30
0.0
  3
*U26
  1

  0
TEXT
  5
6F3
  8
SIZE
  6
CONTINUOUS
 62
     0
 10
-264.91000000000003
 20
779.58155181104644
 30
0.0
 40
55.0
  1
100
 41
0.9
  0
ENDBLK
  5
6F5
  8
0
 62
     7
  0
BLOCK
  8
0
 62
     7
  2
*D27
 70
     1
 10
0.0
 20
0.0
 30
0.0
  3
*D27
  1

  0
LINE
  5
4AD
  8
SYMBOLLINE
  6
CONTINUOUS
 62
     0
 10
-284.99999480477101
 20
30.0
 30
0.0
 11
-317.78492100057338
 21
30.000000000000021
 31
0.0
  0
LINE
  5
4AE
  8
SYMBOLLINE
  6
CONTINUOUS
 62
     0
 10
-438.1696486818982
 20
0.0000010000000487
 30
0.0
 11
-277.78492100057338
 21
0.0000010000000032
 31
0.0
  0
LINE
  5
4AF
  8
SYMBOLLINE
  6
CONTINUOUS
 62
     0
 10
-297.78492100057338
 20
20.000000000000011
 30
0.0
 11
-297.78492100057338
 21
10.00000100000001
 31
0.0
  0
LINE
  5
4B0
  8
SYMBOLLINE
  6
CONTINUOUS
 62
     0
 10
-297.78492100057338
 20
0.0000010000000089
 30
0.0
 11
-297.78492100057338
 21
-92.543463649192688
 31
0.0
  0
INSERT
  5
4B1
  8
SYMBOLLINE
  6
CONTINUOUS
 62
     0
  2
_DOTBLANK
 10
-297.78492100057338
 20
30.000000000000011
 30
0.0
 41
10.0
 42
10.0
 43
10.0
 50
90.0
  0
INSERT
  5
4B2
  8
SYMBOLLINE
  6
CONTINUOUS
 62
     0
  2
_DOTBLANK
 10
-297.78492100057338
 20
0.0000010000000089
 30
0.0
 41
10.0
 42
10.0
 43
10.0
 50
270.0
  0
INSERT
  5
4B3
  8
SYMBOLLINE
  6
CONTINUOUS
 62
     7
  2
*U28
 10
0.0
 20
0.0
 30
0.0
  0
POINT
  5
4B4
  8
DEFPOINTS
  6
CONTINUOUS
 62
     0
 10
-264.99999480477089
 20
30.0
 30
0.0
  0
POINT
  5
4B5
  8
DEFPOINTS
  6
CONTINUOUS
 62
     0
 10
-458.1696486818982
 20
0.0000010000000543
 30
0.0
  0
POINT
  5
4B6
  8
DEFPOINTS
  6
CONTINUOUS
 62
     0
 10
-297.78492100057338
 20
0.0000010000000089
 30
0.0
  0
ENDBLK
  5
4A2
  8
0
 62
     7
  0
BLOCK
  8
0
 62
     7
  2
*U28
 70
     1
 10
0.0
 20
0.0
 30
0.0
  3
*U28
  1

  0
TEXT
  5
6CB
  8
SYMBOLLINE
  6
CONTINUOUS
 62
     0
 10
-297.87492100057341
 20
-92.453463649192713
 30
0.0
 40
55.0
  1
30
 50
90.0
 41
0.9
  0
ENDBLK
  5
6CD
  8
0
 62
     7
  0
BLOCK
  8
0
 62
     7
  2
*D29
 70
     1
 10
0.0
 20
0.0
 30
0.0
  3
*D29
  1

  0
LINE
  5
52C
  8
SIZE
  6
CONTINUOUS
 62
     0
 10
-284.99999480477101
 20
30.0
 30
0.0
 11
-323.46615804758039
 21
30.000000000000021
 31
0.0
  0
LINE
  5
52D
  8
SIZE
  6
CONTINUOUS
 62
     0
 10
-30.0
 20
0.00000100000006
 30
0.0
 11
-323.46615804758039
 21
0.0000010000001431
 31
0.0
  0
LINE
  5
52E
  8
SIZE
  6
CONTINUOUS
 62
     0
 10
-303.46615804758039
 20
20.000000000000011
 30
0.0
 11
-303.46615804758039
 21
10.00000100000014
 31
0.0
  0
LINE
  5
52F
  8
SIZE
  6
CONTINUOUS
 62
     0
 10
-303.46615804758039
 20
0.0000010000001375
 30
0.0
 11
-303.46615804758039
 21
-90.322856142856992
 31
0.0
  0
INSERT
  5
530
  8
SIZE
  6
CONTINUOUS
 62
     0
  2
_DOTBLANK
 10
-303.46615804758039
 20
30.000000000000011
 30
0.0
 41
10.0
 42
10.0
 43
10.0
 50
90.0
  0
INSERT
  5
531
  8
SIZE
  6
CONTINUOUS
 62
     0
  2
_DOTBLANK
 10
-303.46615804758039
 20
0.0000010000001375
 30
0.0
 41
10.0
 42
10.0
 43
10.0
 50
270.0
  0
INSERT
  5
532
  8
SYMBOLLINE
  6
CONTINUOUS
 62
     7
  2
*U30
 10
0.0
 20
0.0
 30
0.0
  0
POINT
  5
533
  8
DEFPOINTS
  6
CONTINUOUS
 62
     0
 10
-264.99999480477089
 20
30.0
 30
0.0
  0
POINT
  5
534
  8
DEFPOINTS
  6
CONTINUOUS
 62
     0
 10
-10.0
 20
0.0000010000000543
 30
0.0
  0
POINT
  5
535
  8
DEFPOINTS
  6
CONTINUOUS
 62
     0
 10
-303.46615804758039
 20
0.0000010000001375
 30
0.0
  0
ENDBLK
  5
4BA
  8
0
 62
     7
  0
BLOCK
  8
0
 62
     7
  2
*U30
 70
     1
 10
0.0
 20
0.0
 30
0.0
  3
*U30
  1

  0
TEXT
  5
6CF
  8
SIZE
  6
CONTINUOUS
 62
     0
 10
-303.55615804758042
 20
-90.232856142857003
 30
0.0
 40
55.0
  1
30
 50
90.0
 41
0.9
  0
ENDBLK
  5
6D1
  8
0
 62
     7
  0
BLOCK
  8
0
 62
     7
  2
*D31
 70
     1
 10
0.0
 20
0.0
 30
0.0
  3
*D31
  1

  0
LINE
  5
628
  8
SIZE
  6
CONTINUOUS
 62
     0
 10
-500.0
 20
1970.0
 30
0.0
 11
-500.0
 21
2070.2410070154442
 31
0.0
  0
LINE
  5
629
  8
SIZE
  6
CONTINUOUS
 62
     0
 10
0.0000000000000012
 20
1970.0
 30
0.0
 11
0.0000000000000074
 21
2070.2410070154442
 31
0.0
  0
LINE
  5
62A
  8
SIZE
  6
CONTINUOUS
 62
     0
 10
-490.0
 20
2050.2410070154428
 30
0.0
 11
-9.9999999999999911
 21
2050.2410070154428
 31
0.0
  0
INSERT
  5
62B
  8
SIZE
  6
CONTINUOUS
 62
     0
  2
_DOTBLANK
 10
-500.0
 20
2050.2410070154428
 30
0.0
 41
10.0
 42
10.0
 43
10.0
 50
180.0
  0
INSERT
  5
62C
  8
SIZE
  6
CONTINUOUS
 62
     0
  2
_DOTBLANK
 10
0.0000000000000061
 20
2050.2410070154428
 30
0.0
 41
10.0
 42
10.0
 43
10.0
  0
INSERT
  5
62D
  8
SYMBOLLINE
  6
CONTINUOUS
 62
     7
  2
*U32
 10
0.0
 20
0.0
 30
0.0
  0
POINT
  5
62E
  8
DEFPOINTS
  6
CONTINUOUS
 62
     0
 10
-500.0
 20
1950.0
 30
0.0
  0
POINT
  5
62F
  8
DEFPOINTS
  6
CONTINUOUS
 62
     0
 10
0.0
 20
1950.0
 30
0.0
  0
POINT
  5
630
  8
DEFPOINTS
  6
CONTINUOUS
 62
     0
 10
0.0000000000000061
 20
2050.2410070154428
 30
0.0
  0
ENDBLK
  5
615
  8
0
 62
     7
  0
BLOCK
  8
0
 62
     7
  2
*U32
 70
     1
 10
0.0
 20
0.0
 30
0.0
  3
*U32
  1

  0
TEXT
  5
6FB
  8
SIZE
  6
CONTINUOUS
 62
     0
 10
-313.64285714285711
 20
2060.2410070154442
 30
0.0
 40
55.0
  1
500
 41
0.9
  0
ENDBLK
  5
6FD
  8
0
 62
     7
  0
BLOCK
  8
0
 62
     7
  2
A$C500B109A
 70
     0
 10
0.0
 20
0.0
 30
0.0
  3
A$C500B109A
  1

  0
TEXT
  5
C18
  8
ETC
  6
CONTINUOUS
 62
    61
 10
0.0000053167459555
 20
2329.798438264937
 30
0.0
 40
64.0
  1
PF-RP224BA5_3
 50
0.000003
 41
0.659722
  7
STANDARD1
  0
LINE
  5
C19
  8
NOTE
  6
CONTINUOUS
 62
     4
 10
231.87674157152961
 20
20.00000287948933
 30
0.0
 11
271.87674157152969
 21
20.00000287948933
 31
0.0
  0
LINE
  5
C1A
  8
NOTE
  6
CONTINUOUS
 62
     4
 10
251.87674157152961
 20
0.0000028794893367
 30
0.0
 11
251.87674157152961
 21
40.000002879489337
 31
0.0
  0
ENDBLK
  5
C1C
  8
0
 62
     7
  0
BLOCK
  8
0
 62
     7
  2
A$C1E2B3DA0
 70
     0
 10
0.0
 20
0.0
 30
0.0
  3
A$C1E2B3DA0
  1

  0
LINE
  5
C75
  8
NOTE
  6
CONTINUOUS
 62
     4
 10
888.81197876806061
 20
820.96578541296185
 30
0.0
 11
527.12020584186007
 21
820.96578541296185
 31
0.0
  0
TEXT
  5
C76
  8
NOTE
  6
CONTINUOUS
 62
     4
 10
555.53728524588757
 20
841.44564158062008
 30
0.0
 40
55.0
  1
RL %%C9.52
 41
0.9
  0
LINE
  5
C77
  8
NOTE
  6
CONTINUOUS
 62
     4
 10
863.65818788886907
 20
965.92015408630084
 30
0.0
 11
497.14427910104439
 21
965.92015408630084
 31
0.0
  0
TEXT
  5
C78
  8
NOTE
  6
CONTINUOUS
 62
     4
 10
518.59778008098283
 20
986.40001025395838
 30
0.0
 40
55.0
  1
RG %%C25.4
 41
0.9
  0
TEXT
  5
C79
  8
NOTE
  6
CONTINUOUS
 62
     4
 10
18.676334846677491
 20
17.869828119739388
 30
0.0
 40
55.0
  1
D VP-20
 41
0.9
  0
LINE
  5
C7A
  8
NOTE
  6
CONTINUOUS
 62
     4
 10
351.70171834820218
 20
0.0000000000000284
 30
0.0
 11
0.0000023876564228
 21
0.0000000000000284
 31
0.0
  0
ENDBLK
  5
C7C
  8
0
 62
     7
  0
BLOCK
  8
0
 62
     7
  2
*D35
 70
     1
 10
0.0
 20
0.0
 30
0.0
  3
*D35
  1

  0
LINE
  5
F12
  8
SIZE
  6
CONTINUOUS
 62
     0
 10
0.0000000000000012
 20
1870.0
 30
0.0
 11
0.0000000000000106
 21
2023.38151356248
 31
0.0
  0
LINE
  5
F13
  8
SIZE
  6
CONTINUOUS
 62
     0
 10
-400.0
 20
1870.0
 30
0.0
 11
-400.0
 21
2023.38151356248
 31
0.0
  0
LINE
  5
F14
  8
SIZE
  6
CONTINUOUS
 62
     0
 10
-9.9999999999999911
 20
2003.3815135624791
 30
0.0
 11
-390.0
 21
2003.3815135624791
 31
0.0
  0
INSERT
  5
F15
  8
SIZE
  6
CONTINUOUS
 62
     0
  2
_DOTBLANK
 10
0.0000000000000094
 20
2003.3815135624791
 30
0.0
 41
10.0
 42
10.0
 43
10.0
  0
INSERT
  5
F16
  8
SIZE
  6
CONTINUOUS
 62
     0
  2
_DOTBLANK
 10
-400.0
 20
2003.3815135624791
 30
0.0
 41
10.0
 42
10.0
 43
10.0
 50
180.0
  0
INSERT
  5
F17
  8
SYMBOLLINE
  6
CONTINUOUS
 62
     7
  2
*U36
 10
0.0
 20
0.0
 30
0.0
  0
POINT
  5
F18
  8
DEFPOINTS
  6
CONTINUOUS
 62
     0
 10
0.0
 20
1850.0
 30
0.0
  0
POINT
  5
F19
  8
DEFPOINTS
  6
CONTINUOUS
 62
     0
 10
-400.0
 20
1850.0
 30
0.0
  0
POINT
  5
F1A
  8
DEFPOINTS
  6
CONTINUOUS
 62
     0
 10
-400.0
 20
2003.3815135624791
 30
0.0
  0
ENDBLK
  5
CF2
  8
0
 62
     7
  0
BLOCK
  8
0
 62
     7
  2
*U36
 70
     1
 10
0.0
 20
0.0
 30
0.0
  3
*U36
  1

  0
TEXT
  5
1276
  8
SIZE
  6
CONTINUOUS
 62
     0
 10
-263.64285714285711
 20
2013.3815135624791
 30
0.0
 40
55.0
  1
400
 41
0.9
  0
ENDBLK
  5
1278
  8
0
 62
     7
  0
BLOCK
  8
0
 62
     7
  2
*D37
 70
     1
 10
0.0
 20
0.0
 30
0.0
  3
*D37
  1

  0
LINE
  5
F08
  8
SIZE
  6
CONTINUOUS
 62
     0
 10
0.0000000000000012
 20
1870.0
 30
0.0
 11
0.0000000000000106
 21
2023.38151356248
 31
0.0
  0
LINE
  5
F09
  8
SIZE
  6
CONTINUOUS
 62
     0
 10
50.0
 20
1900.5000030000001
 30
0.0
 11
50.0
 21
2023.38151356248
 31
0.0
  0
LINE
  5
F0A
  8
SIZE
  6
CONTINUOUS
 62
     0
 10
10.000000000000011
 20
2003.3815135624791
 30
0.0
 11
40.0
 21
2003.3815135624791
 31
0.0
  0
LINE
  5
F0B
  8
SIZE
  6
CONTINUOUS
 62
     0
 10
50.0
 20
2003.3815135624791
 30
0.0
 11
160.14285714285711
 21
2003.3815135624791
 31
0.0
  0
INSERT
  5
F0C
  8
SIZE
  6
CONTINUOUS
 62
     0
  2
_DOTBLANK
 10
0.0000000000000094
 20
2003.3815135624791
 30
0.0
 41
10.0
 42
10.0
 43
10.0
 50
180.0
  0
INSERT
  5
F0D
  8
SIZE
  6
CONTINUOUS
 62
     0
  2
_DOTBLANK
 10
50.0
 20
2003.3815135624791
 30
0.0
 41
10.0
 42
10.0
 43
10.0
  0
INSERT
  5
F0E
  8
SYMBOLLINE
  6
CONTINUOUS
 62
     7
  2
*U38
 10
0.0
 20
0.0
 30
0.0
  0
POINT
  5
F0F
  8
DEFPOINTS
  6
CONTINUOUS
 62
     0
 10
0.0
 20
1850.0
 30
0.0
  0
POINT
  5
F10
  8
DEFPOINTS
  6
CONTINUOUS
 62
     0
 10
50.0
 20
1880.5000030000001
 30
0.0
  0
POINT
  5
F11
  8
DEFPOINTS
  6
CONTINUOUS
 62
     0
 10
50.0
 20
2003.3815135624791
 30
0.0
  0
ENDBLK
  5
CFF
  8
0
 62
     7
  0
BLOCK
  8
0
 62
     7
  2
*U38
 70
     1
 10
0.0
 20
0.0
 30
0.0
  3
*U38
  1

  0
TEXT
  5
1272
  8
SIZE
  6
CONTINUOUS
 62
     0
 10
70.0
 20
2013.3815135624791
 30
0.0
 40
55.0
  1
50
 41
0.9
  0
ENDBLK
  5
1274
  8
0
 62
     7
  0
BLOCK
  8
0
 62
     7
  2
*D39
 70
     1
 10
0.0
 20
0.0
 30
0.0
  3
*D39
  1

  0
LINE
  5
F24
  8
SIZE
  6
CONTINUOUS
 62
     0
 10
-400.0
 20
90.0
 30
0.0
 11
-400.0
 21
663.41119128420723
 31
0.0
  0
LINE
  5
F25
  8
SIZE
  6
CONTINUOUS
 62
     0
 10
-282.0
 20
233.0
 30
0.0
 11
-282.0
 21
663.41119128420723
 31
0.0
  0
LINE
  5
F26
  8
SIZE
  6
CONTINUOUS
 62
     0
 10
-292.0
 20
643.41119128420723
 30
0.0
 11
-390.0
 21
643.41119128420723
 31
0.0
  0
LINE
  5
F27
  8
SIZE
  6
CONTINUOUS
 62
     0
 10
-400.0
 20
643.41119128420723
 30
0.0
 11
-538.42857142857122
 21
643.41119128420723
 31
0.0
  0
INSERT
  5
F28
  8
SIZE
  6
CONTINUOUS
 62
     0
  2
_DOTBLANK
 10
-282.0
 20
643.41119128420723
 30
0.0
 41
10.0
 42
10.0
 43
10.0
  0
INSERT
  5
F29
  8
SIZE
  6
CONTINUOUS
 62
     0
  2
_DOTBLANK
 10
-400.0
 20
643.41119128420723
 30
0.0
 41
10.0
 42
10.0
 43
10.0
 50
180.0
  0
INSERT
  5
F2A
  8
SYMBOLLINE
  6
CONTINUOUS
 62
     7
  2
*U40
 10
0.0
 20
0.0
 30
0.0
  0
POINT
  5
F2B
  8
DEFPOINTS
  6
CONTINUOUS
 62
     0
 10
-400.0
 20
70.0
 30
0.0
  0
POINT
  5
F2C
  8
DEFPOINTS
  6
CONTINUOUS
 62
     0
 10
-282.0
 20
213.0
 30
0.0
  0
POINT
  5
F2D
  8
DEFPOINTS
  6
CONTINUOUS
 62
     0
 10
-282.0
 20
643.41119128420723
 30
0.0
  0
ENDBLK
  5
D0D
  8
0
 62
     7
  0
BLOCK
  8
0
 62
     7
  2
*U40
 70
     1
 10
0.0
 20
0.0
 30
0.0
  3
*U40
  1

  0
TEXT
  5
127E
  8
SIZE
  6
CONTINUOUS
 62
     0
 10
-528.42857142857122
 20
653.41119128420723
 30
0.0
 40
55.0
  1
118
 41
0.9
  0
ENDBLK
  5
1280
  8
0
 62
     7
  0
BLOCK
  8
0
 62
     7
  2
*D41
 70
     1
 10
0.0
 20
0.0
 30
0.0
  3
*D41
  1

  0
LINE
  5
F37
  8
SIZE
  6
CONTINUOUS
 62
     0
 10
-390.0
 20
0.0000000000000057
 30
0.0
 11
-692.67332533381341
 21
0.0000000000000914
 31
0.0
  0
LINE
  5
F38
  8
SIZE
  6
CONTINUOUS
 62
     0
 10
-322.0
 20
193.0
 30
0.0
 11
-692.67332533381341
 21
193.00000000000011
 31
0.0
  0
LINE
  5
F39
  8
SIZE
  6
CONTINUOUS
 62
     0
 10
-672.67332533381318
 20
10.00000000000008
 30
0.0
 11
-672.67332533381318
 21
183.00000000000011
 31
0.0
  0
INSERT
  5
F3A
  8
SIZE
  6
CONTINUOUS
 62
     0
  2
_DOTBLANK
 10
-672.67332533381318
 20
0.0000000000000857
 30
0.0
 41
10.0
 42
10.0
 43
10.0
 50
270.0
  0
INSERT
  5
F3B
  8
SIZE
  6
CONTINUOUS
 62
     0
  2
_DOTBLANK
 10
-672.67332533381318
 20
193.00000000000011
 30
0.0
 41
10.0
 42
10.0
 43
10.0
 50
90.0
  0
INSERT
  5
F3C
  8
SYMBOLLINE
  6
CONTINUOUS
 62
     7
  2
*U42
 10
0.0
 20
0.0
 30
0.0
  0
POINT
  5
F3D
  8
DEFPOINTS
  6
CONTINUOUS
 62
     0
 10
-370.0
 20
0.0
 30
0.0
  0
POINT
  5
F3E
  8
DEFPOINTS
  6
CONTINUOUS
 62
     0
 10
-302.0
 20
193.0
 30
0.0
  0
POINT
  5
F3F
  8
DEFPOINTS
  6
CONTINUOUS
 62
     0
 10
-672.67332533381318
 20
193.00000000000011
 30
0.0
  0
ENDBLK
  5
D1B
  8
0
 62
     7
  0
BLOCK
  8
0
 62
     7
  2
*U42
 70
     1
 10
0.0
 20
0.0
 30
0.0
  3
*U42
  1

  0
TEXT
  5
1286
  8
SIZE
  6
CONTINUOUS
 62
     0
 10
-682.67332533381352
 20
31.095986677278368
 30
0.0
 40
55.0
  1
193
 50
90.0
 41
0.9
  0
ENDBLK
  5
1288
  8
0
 62
     7
  0
BLOCK
  8
0
 62
     7
  2
*D43
 70
     1
 10
0.0
 20
0.0
 30
0.0
  3
*D43
  1

  0
LINE
  5
F2E
  8
SIZE
  6
CONTINUOUS
 62
     0
 10
-390.0
 20
0.0000000000000057
 30
0.0
 11
-810.1566310176604
 21
0.0000000000001247
 31
0.0
  0
LINE
  5
F2F
  8
SIZE
  6
CONTINUOUS
 62
     0
 10
-322.0
 20
242.0
 30
0.0
 11
-810.1566310176604
 21
242.00000000000011
 31
0.0
  0
LINE
  5
F30
  8
SIZE
  6
CONTINUOUS
 62
     0
 10
-790.1566310176604
 20
10.000000000000121
 30
0.0
 11
-790.1566310176604
 21
232.0000000000002
 31
0.0
  0
INSERT
  5
F31
  8
SIZE
  6
CONTINUOUS
 62
     0
  2
_DOTBLANK
 10
-790.1566310176604
 20
0.000000000000119
 30
0.0
 41
10.0
 42
10.0
 43
10.0
 50
270.0
  0
INSERT
  5
F32
  8
SIZE
  6
CONTINUOUS
 62
     0
  2
_DOTBLANK
 10
-790.1566310176604
 20
242.00000000000011
 30
0.0
 41
10.0
 42
10.0
 43
10.0
 50
90.0
  0
INSERT
  5
F33
  8
SYMBOLLINE
  6
CONTINUOUS
 62
     7
  2
*U44
 10
0.0
 20
0.0
 30
0.0
  0
POINT
  5
F34
  8
DEFPOINTS
  6
CONTINUOUS
 62
     0
 10
-370.0
 20
0.0
 30
0.0
  0
POINT
  5
F35
  8
DEFPOINTS
  6
CONTINUOUS
 62
     0
 10
-302.0
 20
242.0
 30
0.0
  0
POINT
  5
F36
  8
DEFPOINTS
  6
CONTINUOUS
 62
     0
 10
-790.1566310176604
 20
242.00000000000011
 30
0.0
  0
ENDBLK
  5
D28
  8
0
 62
     7
  0
BLOCK
  8
0
 62
     7
  2
*U44
 70
     1
 10
0.0
 20
0.0
 30
0.0
  3
*U44
  1

  0
TEXT
  5
1282
  8
SIZE
  6
CONTINUOUS
 62
     0
 10
-800.1566310176604
 20
48.188632334453096
 30
0.0
 40
55.0
  1
242
 50
90.0
 41
0.9
  0
ENDBLK
  5
1284
  8
0
 62
     7
  0
BLOCK
  8
0
 62
     7
  2
*D45
 70
     1
 10
0.0
 20
0.0
 30
0.0
  3
*D45
  1

  0
LINE
  5
D7A
  8
SYMBOLLINE
  6
CONTINUOUS
 62
     0
 10
40.0
 20
73.999999999999986
 30
0.0
 11
172.43992901152521
 21
73.999999999999929
 31
0.0
  0
LINE
  5
D7B
  8
SYMBOLLINE
  6
CONTINUOUS
 62
     0
 10
10.0
 20
0.0000010000000486
 30
0.0
 11
172.43992901152521
 21
0.0000010000000026
 31
0.0
  0
LINE
  5
D7C
  8
SYMBOLLINE
  6
CONTINUOUS
 62
     0
 10
152.43992901152529
 20
63.99999999999995
 30
0.0
 11
152.43992901152529
 21
10.00000100000001
 31
0.0
  0
INSERT
  5
D7D
  8
SYMBOLLINE
  6
CONTINUOUS
 62
     0
  2
_DOTBLANK
 10
152.43992901152529
 20
73.999999999999929
 30
0.0
 41
10.0
 42
10.0
 43
10.0
 50
90.0
  0
INSERT
  5
D7E
  8
SYMBOLLINE
  6
CONTINUOUS
 62
     0
  2
_DOTBLANK
 10
152.43992901152529
 20
0.0000010000000083
 30
0.0
 41
10.0
 42
10.0
 43
10.0
 50
270.0
  0
INSERT
  5
D7F
  8
SYMBOLLINE
  6
CONTINUOUS
 62
     7
  2
*U46
 10
0.0
 20
0.0
 30
0.0
  0
POINT
  5
D80
  8
DEFPOINTS
  6
CONTINUOUS
 62
     0
 10
20.0
 20
74.0
 30
0.0
  0
POINT
  5
D81
  8
DEFPOINTS
  6
CONTINUOUS
 62
     0
 10
-10.0
 20
0.0000010000000543
 30
0.0
  0
POINT
  5
D82
  8
DEFPOINTS
  6
CONTINUOUS
 62
     0
 10
152.43992901152529
 20
0.0000010000000083
 30
0.0
  0
ENDBLK
  5
D5B
  8
0
 62
     7
  0
BLOCK
  8
0
 62
     7
  2
*U46
 70
     1
 10
0.0
 20
0.0
 30
0.0
  3
*U46
  1

  0
TEXT
  5
126A
  8
SYMBOLLINE
  6
CONTINUOUS
 62
     0
 10
142.43992901152529
 20
32.749999999999972
 30
0.0
 40
55.0
  1
74
 50
90.0
 41
0.9
  0
ENDBLK
  5
126C
  8
0
 62
     7
  0
BLOCK
  8
0
 62
     7
  2
*D47
 70
     1
 10
0.0
 20
0.0
 30
0.0
  3
*D47
  1

  0
LINE
  5
F7C
  8
SIZE
  6
CONTINUOUS
 62
     0
 10
10.0
 20
0.0000010000000486
 30
0.0
 11
373.20158017230642
 21
0.0000009999999457
 31
0.0
  0
LINE
  5
F7D
  8
SIZE
  6
CONTINUOUS
 62
     0
 10
40.0
 20
73.999999999999986
 30
0.0
 11
373.20158017230642
 21
73.999999999999872
 31
0.0
  0
LINE
  5
F7E
  8
SIZE
  6
CONTINUOUS
 62
     0
 10
353.20158017230642
 20
10.00000099999995
 30
0.0
 11
353.20158017230642
 21
63.999999999999908
 31
0.0
  0
LINE
  5
F7F
  8
SIZE
  6
CONTINUOUS
 62
     0
 10
353.20158017230642
 20
73.999999999999901
 30
0.0
 11
353.20158017230659
 21
186.49999999999989
 31
0.0
  0
INSERT
  5
F80
  8
SIZE
  6
CONTINUOUS
 62
     0
  2
_DOTBLANK
 10
353.20158017230642
 20
0.0000009999999514
 30
0.0
 41
10.0
 42
10.0
 43
10.0
 50
270.0
  0
INSERT
  5
F81
  8
SIZE
  6
CONTINUOUS
 62
     0
  2
_DOTBLANK
 10
353.20158017230642
 20
73.999999999999901
 30
0.0
 41
10.0
 42
10.0
 43
10.0
 50
90.0
  0
INSERT
  5
F82
  8
SYMBOLLINE
  6
CONTINUOUS
 62
     7
  2
*U48
 10
0.0
 20
0.0
 30
0.0
  0
POINT
  5
F83
  8
DEFPOINTS
  6
CONTINUOUS
 62
     0
 10
-10.0
 20
0.0000010000000543
 30
0.0
  0
POINT
  5
F84
  8
DEFPOINTS
  6
CONTINUOUS
 62
     0
 10
20.0
 20
74.0
 30
0.0
  0
POINT
  5
F85
  8
DEFPOINTS
  6
CONTINUOUS
 62
     0
 10
353.20158017230642
 20
73.999999999999901
 30
0.0
  0
ENDBLK
  5
D86
  8
0
 62
     7
  0
BLOCK
  8
0
 62
     7
  2
*U48
 70
     1
 10
0.0
 20
0.0
 30
0.0
  3
*U48
  1

  0
TEXT
  5
12A2
  8
SIZE
  6
CONTINUOUS
 62
     0
 10
343.20158017230642
 20
93.999999999999957
 30
0.0
 40
55.0
  1
74
 50
90.0
 41
0.9
  0
ENDBLK
  5
12A4
  8
0
 62
     7
  0
BLOCK
  8
0
 62
     7
  2
*D49
 70
     1
 10
0.0
 20
0.0
 30
0.0
  3
*D49
  1

  0
LINE
  5
F40
  8
SIZE
  6
CONTINUOUS
 62
     0
 10
-390.0
 20
0.00000100000006
 30
0.0
 11
-524.84002215892906
 21
0.0000010000000982
 31
0.0
  0
LINE
  5
F41
  8
SIZE
  6
CONTINUOUS
 62
     0
 10
-420.0
 20
70.000000000000014
 30
0.0
 11
-524.84002215892906
 21
70.000000000000043
 31
0.0
  0
LINE
  5
F42
  8
SIZE
  6
CONTINUOUS
 62
     0
 10
-504.840022158929
 20
10.00000100000009
 30
0.0
 11
-504.840022158929
 21
60.000000000000021
 31
0.0
  0
LINE
  5
F43
  8
SIZE
  6
CONTINUOUS
 62
     0
 10
-504.840022158929
 20
70.000000000000014
 30
0.0
 11
-504.840022158929
 21
180.14285714285711
 31
0.0
  0
INSERT
  5
F44
  8
SIZE
  6
CONTINUOUS
 62
     0
  2
_DOTBLANK
 10
-504.840022158929
 20
0.0000010000000925
 30
0.0
 41
10.0
 42
10.0
 43
10.0
 50
270.0
  0
INSERT
  5
F45
  8
SIZE
  6
CONTINUOUS
 62
     0
  2
_DOTBLANK
 10
-504.840022158929
 20
70.000000000000014
 30
0.0
 41
10.0
 42
10.0
 43
10.0
 50
90.0
  0
INSERT
  5
F46
  8
SYMBOLLINE
  6
CONTINUOUS
 62
     7
  2
*U50
 10
0.0
 20
0.0
 30
0.0
  0
POINT
  5
F47
  8
DEFPOINTS
  6
CONTINUOUS
 62
     0
 10
-370.0
 20
0.0000010000000543
 30
0.0
  0
POINT
  5
F48
  8
DEFPOINTS
  6
CONTINUOUS
 62
     0
 10
-400.0
 20
70.0
 30
0.0
  0
POINT
  5
F49
  8
DEFPOINTS
  6
CONTINUOUS
 62
     0
 10
-504.840022158929
 20
70.000000000000014
 30
0.0
  0
ENDBLK
  5
D94
  8
0
 62
     7
  0
BLOCK
  8
0
 62
     7
  2
*U50
 70
     1
 10
0.0
 20
0.0
 30
0.0
  3
*U50
  1

  0
TEXT
  5
128A
  8
SIZE
  6
CONTINUOUS
 62
     0
 10
-514.84002215892895
 20
89.999999999999957
 30
0.0
 40
55.0
  1
70
 50
90.0
 41
0.9
  0
ENDBLK
  5
128C
  8
0
 62
     7
  0
BLOCK
  8
0
 62
     7
  2
*D51
 70
     1
 10
0.0
 20
0.0
 30
0.0
  3
*D51
  1

  0
LINE
  5
F55
  8
SIZE
  6
CONTINUOUS
 62
     0
 10
-0.0000000000000012
 20
50.0
 30
0.0
 11
-0.0000000000000158
 21
-187.7158674976308
 31
0.0
  0
LINE
  5
F56
  8
SIZE
  6
CONTINUOUS
 62
     0
 10
-190.0
 20
-20.50000300000011
 30
0.0
 11
-190.0
 21
-187.7158674976308
 31
0.0
  0
LINE
  5
F57
  8
SIZE
  6
CONTINUOUS
 62
     0
 10
-10.000000000000011
 20
-167.7158674976308
 30
0.0
 11
-180.0
 21
-167.7158674976308
 31
0.0
  0
INSERT
  5
F58
  8
SIZE
  6
CONTINUOUS
 62
     0
  2
_DOTBLANK
 10
-0.0000000000000146
 20
-167.7158674976308
 30
0.0
 41
10.0
 42
10.0
 43
10.0
  0
INSERT
  5
F59
  8
SIZE
  6
CONTINUOUS
 62
     0
  2
_DOTBLANK
 10
-190.0
 20
-167.7158674976308
 30
0.0
 41
10.0
 42
10.0
 43
10.0
 50
180.0
  0
INSERT
  5
F5A
  8
SYMBOLLINE
  6
CONTINUOUS
 62
     7
  2
*U52
 10
0.0
 20
0.0
 30
0.0
  0
POINT
  5
F5B
  8
DEFPOINTS
  6
CONTINUOUS
 62
     0
 10
0.0
 20
70.0
 30
0.0
  0
POINT
  5
F5C
  8
DEFPOINTS
  6
CONTINUOUS
 62
     0
 10
-190.0
 20
-0.5000030000001062
 30
0.0
  0
POINT
  5
F5D
  8
DEFPOINTS
  6
CONTINUOUS
 62
     0
 10
-190.0
 20
-167.7158674976308
 30
0.0
  0
ENDBLK
  5
DC6
  8
0
 62
     7
  0
BLOCK
  8
0
 62
     7
  2
*U52
 70
     1
 10
0.0
 20
0.0
 30
0.0
  3
*U52
  1

  0
TEXT
  5
1292
  8
SIZE
  6
CONTINUOUS
 62
     0
 10
-153.92857142857139
 20
-157.7158674976308
 30
0.0
 40
55.0
  1
190
 41
0.9
  0
ENDBLK
  5
1294
  8
0
 62
     7
  0
BLOCK
  8
0
 62
     7
  2
*D53
 70
     1
 10
0.0
 20
0.0
 30
0.0
  3
*D53
  1

  0
LINE
  5
F5E
  8
SIZE
  6
CONTINUOUS
 62
     0
 10
-110.0
 20
156.50000299999999
 30
0.0
 11
-110.0
 21
396.75764247906778
 31
0.0
  0
LINE
  5
F5F
  8
SIZE
  6
CONTINUOUS
 62
     0
 10
0.0000000000000088
 20
94.000000000000028
 30
0.0
 11
0.0000000000000273
 21
396.75764247906778
 31
0.0
  0
LINE
  5
F60
  8
SIZE
  6
CONTINUOUS
 62
     0
 10
-100.0
 20
376.75764247906773
 30
0.0
 11
-9.9999999999999716
 21
376.75764247906773
 31
0.0
  0
LINE
  5
F61
  8
SIZE
  6
CONTINUOUS
 62
     0
 10
0.0000000000000261
 20
376.75764247906773
 30
0.0
 11
141.18967846742399
 21
376.75764247906773
 31
0.0
  0
INSERT
  5
F62
  8
SIZE
  6
CONTINUOUS
 62
     0
  2
_DOTBLANK
 10
-110.0
 20
376.75764247906773
 30
0.0
 41
10.0
 42
10.0
 43
10.0
 50
180.0
  0
INSERT
  5
F63
  8
SIZE
  6
CONTINUOUS
 62
     0
  2
_DOTBLANK
 10
0.0000000000000261
 20
376.75764247906773
 30
0.0
 41
10.0
 42
10.0
 43
10.0
  0
INSERT
  5
F64
  8
SYMBOLLINE
  6
CONTINUOUS
 62
     7
  2
*U54
 10
0.0
 20
0.0
 30
0.0
  0
POINT
  5
F65
  8
DEFPOINTS
  6
CONTINUOUS
 62
     0
 10
-110.0
 20
136.50000299999999
 30
0.0
  0
POINT
  5
F66
  8
DEFPOINTS
  6
CONTINUOUS
 62
     0
 10
0.0000000000000075
 20
74.000000000000043
 30
0.0
  0
POINT
  5
F67
  8
DEFPOINTS
  6
CONTINUOUS
 62
     0
 10
0.0000000000000261
 20
376.75764247906773
 30
0.0
  0
ENDBLK
  5
DD3
  8
0
 62
     7
  0
BLOCK
  8
0
 62
     7
  2
*U54
 70
     1
 10
0.0
 20
0.0
 30
0.0
  3
*U54
  1

  0
TEXT
  5
1296
  8
SIZE
  6
CONTINUOUS
 62
     0
 10
22.76110703885259
 20
386.75764247906773
 30
0.0
 40
55.0
  1
110
 41
0.9
  0
ENDBLK
  5
1298
  8
0
 62
     7
  0
BLOCK
  8
0
 62
     7
  2
*D55
 70
     1
 10
0.0
 20
0.0
 30
0.0
  3
*D55
  1

  0
LINE
  5
F4A
  8
SIZE
  6
CONTINUOUS
 62
     0
 10
-370.0
 20
-19.999998999999931
 30
0.0
 11
-370.0
 21
-133.12389721919311
 31
0.0
  0
LINE
  5
F4B
  8
SIZE
  6
CONTINUOUS
 62
     0
 10
-400.0
 20
50.0
 30
0.0
 11
-400.0
 21
-133.12389721919311
 31
0.0
  0
LINE
  5
F4C
  8
SIZE
  6
CONTINUOUS
 62
     0
 10
-360.0
 20
-113.1238972191932
 30
0.0
 11
-350.0
 21
-113.1238972191932
 31
0.0
  0
LINE
  5
F4D
  8
SIZE
  6
CONTINUOUS
 62
     0
 10
-410.0
 20
-113.1238972191932
 30
0.0
 11
-520.14285714285711
 21
-113.1238972191932
 31
0.0
  0
LINE
  5
F4E
  8
SIZE
  6
CONTINUOUS
 62
     0
 10
-370.0
 20
-113.1238972191932
 30
0.0
 11
-400.0
 21
-113.1238972191932
 31
0.0
  0
INSERT
  5
F4F
  8
SIZE
  6
CONTINUOUS
 62
     0
  2
_DOTBLANK
 10
-370.0
 20
-113.1238972191932
 30
0.0
 41
10.0
 42
10.0
 43
10.0
 50
180.0
  0
INSERT
  5
F50
  8
SIZE
  6
CONTINUOUS
 62
     0
  2
_DOTBLANK
 10
-400.0
 20
-113.1238972191932
 30
0.0
 41
10.0
 42
10.0
 43
10.0
  0
INSERT
  5
F51
  8
SYMBOLLINE
  6
CONTINUOUS
 62
     7
  2
*U56
 10
0.0
 20
0.0
 30
0.0
  0
POINT
  5
F52
  8
DEFPOINTS
  6
CONTINUOUS
 62
     0
 10
-370.0
 20
0.0000010000000543
 30
0.0
  0
POINT
  5
F53
  8
DEFPOINTS
  6
CONTINUOUS
 62
     0
 10
-400.0
 20
70.0
 30
0.0
  0
POINT
  5
F54
  8
DEFPOINTS
  6
CONTINUOUS
 62
     0
 10
-400.0
 20
-113.1238972191932
 30
0.0
  0
ENDBLK
  5
DE1
  8
0
 62
     7
  0
BLOCK
  8
0
 62
     7
  2
*U56
 70
     1
 10
0.0
 20
0.0
 30
0.0
  3
*U56
  1

  0
TEXT
  5
128E
  8
SIZE
  6
CONTINUOUS
 62
     0
 10
-510.14285714285711
 20
-103.1238972191931
 30
0.0
 40
55.0
  1
30
 41
0.9
  0
ENDBLK
  5
1290
  8
0
 62
     7
  0
BLOCK
  8
0
 62
     7
  2
*D57
 70
     1
 10
0.0
 20
0.0
 30
0.0
  3
*D57
  1

  0
LINE
  5
F72
  8
SIZE
  6
CONTINUOUS
 62
     0
 10
10.0
 20
0.0000010000000486
 30
0.0
 11
257.69664964278132
 21
0.0000009999999785
 31
0.0
  0
LINE
  5
F73
  8
SIZE
  6
CONTINUOUS
 62
     0
 10
-56.499997000000342
 20
103.0
 30
0.0
 11
257.69664964278132
 21
102.9999999999999
 31
0.0
  0
LINE
  5
F74
  8
SIZE
  6
CONTINUOUS
 62
     0
 10
237.69664964278121
 20
10.00000099999998
 30
0.0
 11
237.69664964278121
 21
92.999999999999929
 31
0.0
  0
LINE
  5
F75
  8
SIZE
  6
CONTINUOUS
 62
     0
 10
237.69664964278121
 20
102.9999999999999
 30
0.0
 11
237.6966496427813
 21
250.8571428571428
 31
0.0
  0
INSERT
  5
F76
  8
SIZE
  6
CONTINUOUS
 62
     0
  2
_DOTBLANK
 10
237.69664964278121
 20
0.0000009999999841
 30
0.0
 41
10.0
 42
10.0
 43
10.0
 50
270.0
  0
INSERT
  5
F77
  8
SIZE
  6
CONTINUOUS
 62
     0
  2
_DOTBLANK
 10
237.69664964278121
 20
102.9999999999999
 30
0.0
 41
10.0
 42
10.0
 43
10.0
 50
90.0
  0
INSERT
  5
F78
  8
SYMBOLLINE
  6
CONTINUOUS
 62
     7
  2
*U58
 10
0.0
 20
0.0
 30
0.0
  0
POINT
  5
F79
  8
DEFPOINTS
  6
CONTINUOUS
 62
     0
 10
-10.0
 20
0.0000010000000543
 30
0.0
  0
POINT
  5
F7A
  8
DEFPOINTS
  6
CONTINUOUS
 62
     0
 10
-76.499997000000349
 20
103.0
 30
0.0
  0
POINT
  5
F7B
  8
DEFPOINTS
  6
CONTINUOUS
 62
     0
 10
237.69664964278121
 20
102.9999999999999
 30
0.0
  0
ENDBLK
  5
E19
  8
0
 62
     7
  0
BLOCK
  8
0
 62
     7
  2
*U58
 70
     1
 10
0.0
 20
0.0
 30
0.0
  3
*U58
  1

  0
TEXT
  5
129E
  8
SIZE
  6
CONTINUOUS
 62
     0
 10
227.69664964278121
 20
122.9999999999999
 30
0.0
 40
55.0
  1
103
 50
90.0
 41
0.9
  0
ENDBLK
  5
12A0
  8
0
 62
     7
  0
BLOCK
  8
0
 62
     7
  2
*D59
 70
     1
 10
0.0
 20
0.0
 30
0.0
  3
*D59
  1

  0
LINE
  5
F68
  8
SIZE
  6
CONTINUOUS
 62
     0
 10
10.0
 20
0.0000010000000486
 30
0.0
 11
145.18130496545561
 21
0.0000010000000103
 31
0.0
  0
LINE
  5
F69
  8
SIZE
  6
CONTINUOUS
 62
     0
 10
-136.49999700000029
 20
93.999999999999943
 30
0.0
 11
145.18130496545561
 21
93.999999999999872
 31
0.0
  0
LINE
  5
F6A
  8
SIZE
  6
CONTINUOUS
 62
     0
 10
125.1813049654556
 20
10.00000100000001
 30
0.0
 11
125.1813049654556
 21
83.999999999999872
 31
0.0
  0
LINE
  5
F6B
  8
SIZE
  6
CONTINUOUS
 62
     0
 10
125.1813049654556
 20
93.999999999999872
 30
0.0
 11
125.1813049654556
 21
206.49999999999989
 31
0.0
  0
INSERT
  5
F6C
  8
SIZE
  6
CONTINUOUS
 62
     0
  2
_DOTBLANK
 10
125.1813049654556
 20
0.000001000000016
 30
0.0
 41
10.0
 42
10.0
 43
10.0
 50
270.0
  0
INSERT
  5
F6D
  8
SIZE
  6
CONTINUOUS
 62
     0
  2
_DOTBLANK
 10
125.1813049654556
 20
93.999999999999872
 30
0.0
 41
10.0
 42
10.0
 43
10.0
 50
90.0
  0
INSERT
  5
F6E
  8
SYMBOLLINE
  6
CONTINUOUS
 62
     7
  2
*U60
 10
0.0
 20
0.0
 30
0.0
  0
POINT
  5
F6F
  8
DEFPOINTS
  6
CONTINUOUS
 62
     0
 10
-10.0
 20
0.0000010000000543
 30
0.0
  0
POINT
  5
F70
  8
DEFPOINTS
  6
CONTINUOUS
 62
     0
 10
-156.49999700000029
 20
93.999999999999943
 30
0.0
  0
POINT
  5
F71
  8
DEFPOINTS
  6
CONTINUOUS
 62
     0
 10
125.1813049654556
 20
93.999999999999872
 30
0.0
  0
ENDBLK
  5
E31
  8
0
 62
     7
  0
BLOCK
  8
0
 62
     7
  2
*U60
 70
     1
 10
0.0
 20
0.0
 30
0.0
  3
*U60
  1

  0
TEXT
  5
129A
  8
SIZE
  6
CONTINUOUS
 62
     0
 10
115.1813049654556
 20
113.9999999999999
 30
0.0
 40
55.0
  1
94
 50
90.0
 41
0.9
  0
ENDBLK
  5
129C
  8
0
 62
     7
  0
BLOCK
  8
0
 62
     7
  2
*D61
 70
     1
 10
0.0
 20
0.0
 30
0.0
  3
*D61
  1

  0
LINE
  5
E4D
  8
SYMBOLLINE
  6
CONTINUOUS
 62
     0
 10
-420.0
 20
1850.0
 30
0.0
 11
-969.81574078547362
 21
1850.0
 31
0.0
  0
LINE
  5
E4E
  8
SYMBOLLINE
  6
CONTINUOUS
 62
     0
 10
-390.0
 20
0.0000000000000057
 30
0.0
 11
-969.81574078547396
 21
0.0000000000001699
 31
0.0
  0
LINE
  5
E4F
  8
SYMBOLLINE
  6
CONTINUOUS
 62
     0
 10
-949.81574078547351
 20
1840.0
 30
0.0
 11
-949.81574078547408
 21
10.00000000000016
 31
0.0
  0
INSERT
  5
E50
  8
SYMBOLLINE
  6
CONTINUOUS
 62
     0
  2
_DOTBLANK
 10
-949.81574078547351
 20
1850.0
 30
0.0
 41
10.0
 42
10.0
 43
10.0
 50
90.0
  0
INSERT
  5
E51
  8
SYMBOLLINE
  6
CONTINUOUS
 62
     0
  2
_DOTBLANK
 10
-949.81574078547408
 20
0.0000000000001642
 30
0.0
 41
10.0
 42
10.0
 43
10.0
 50
270.0
  0
INSERT
  5
E52
  8
SYMBOLLINE
  6
CONTINUOUS
 62
     7
  2
*U62
 10
0.0
 20
0.0
 30
0.0
  0
POINT
  5
E53
  8
DEFPOINTS
  6
CONTINUOUS
 62
     0
 10
-400.0
 20
1850.0
 30
0.0
  0
POINT
  5
E54
  8
DEFPOINTS
  6
CONTINUOUS
 62
     0
 10
-370.0
 20
0.0
 30
0.0
  0
POINT
  5
E55
  8
DEFPOINTS
  6
CONTINUOUS
 62
     0
 10
-949.81574078547408
 20
0.0000000000001642
 30
0.0
  0
ENDBLK
  5
E4C
  8
0
 62
     7
  0
BLOCK
  8
0
 62
     7
  2
*U62
 70
     1
 10
0.0
 20
0.0
 30
0.0
  3
*U62
  1

  0
TEXT
  5
126E
  8
SYMBOLLINE
  6
CONTINUOUS
 62
     0
 10
-959.81574078547396
 20
842.5
 30
0.0
 40
55.0
  1
1850
 50
90.0
 41
0.9
  0
ENDBLK
  5
1270
  8
0
 62
     7
  0
BLOCK
  8
0
 62
     7
  2
*D63
 70
     1
 10
0.0
 20
0.0
 30
0.0
  3
*D63
  1

  0
LINE
  5
F1B
  8
SIZE
  6
CONTINUOUS
 62
     0
 10
20.0
 20
1850.0
 30
0.0
 11
480.4659072178041
 21
1850.0
 31
0.0
  0
LINE
  5
F1C
  8
SIZE
  6
CONTINUOUS
 62
     0
 10
10.0
 20
0.0000010000000486
 30
0.0
 11
480.46590721780359
 21
0.0000009999999154
 31
0.0
  0
LINE
  5
F1D
  8
SIZE
  6
CONTINUOUS
 62
     0
 10
460.46590721780422
 20
1840.0
 30
0.0
 11
460.46590721780359
 21
10.000000999999919
 31
0.0
  0
INSERT
  5
F1E
  8
SIZE
  6
CONTINUOUS
 62
     0
  2
_DOTBLANK
 10
460.46590721780422
 20
1850.0
 30
0.0
 41
10.0
 42
10.0
 43
10.0
 50
90.0
  0
INSERT
  5
F1F
  8
SIZE
  6
CONTINUOUS
 62
     0
  2
_DOTBLANK
 10
460.46590721780359
 20
0.000000999999921
 30
0.0
 41
10.0
 42
10.0
 43
10.0
 50
270.0
  0
INSERT
  5
F20
  8
SYMBOLLINE
  6
CONTINUOUS
 62
     7
  2
*U64
 10
0.0
 20
0.0
 30
0.0
  0
POINT
  5
F21
  8
DEFPOINTS
  6
CONTINUOUS
 62
     0
 10
0.0
 20
1850.0
 30
0.0
  0
POINT
  5
F22
  8
DEFPOINTS
  6
CONTINUOUS
 62
     0
 10
-10.0
 20
0.0000010000000543
 30
0.0
  0
POINT
  5
F23
  8
DEFPOINTS
  6
CONTINUOUS
 62
     0
 10
460.46590721780359
 20
0.000000999999921
 30
0.0
  0
ENDBLK
  5
E5C
  8
0
 62
     7
  0
BLOCK
  8
0
 62
     7
  2
*U64
 70
     1
 10
0.0
 20
0.0
 30
0.0
  3
*U64
  1

  0
TEXT
  5
127A
  8
SIZE
  6
CONTINUOUS
 62
     0
 10
450.46590721780359
 20
842.50000050000006
 30
0.0
 40
55.0
  1
1850
 50
90.0
 41
0.9
  0
ENDBLK
  5
127C
  8
0
 62
     7
  0
ENDSEC
  0
SECTION
  2
ENTITIES
  0
CIRCLE
  5
55
  8
ARRANGE
  6
CONTINUOUS
 62
     1
 10
0.0
 20
0.0
 30
0.0
 40
40.0
  0
TEXT
  5
BE0
  8
ETC
  6
CONTINUOUS
 62
    61
 10
-26.22547451972423
 20
2192.7211430602729
 30
0.0
 40
64.0
  1
PF-RP224BA5_5
 50
0.000003
 41
0.659722
  7
STANDARD1
  0
POINT
  5
1194
  8
ARRANGE
  6
CONTINUOUS
 62
     1
 10
0.0
 20
0.0
 30
0.0
 50
180.0
  0
LINE
  5
1195
  8
NOTE
  6
CONTINUOUS
 62
     4
 10
371.77488982390793
 20
-226.8118797320549
 30
0.0
 11
299.9999981951733
 21
-0.0000009999999406
 31
0.0
  0
LINE
  5
1196
  8
NOTE
  6
CONTINUOUS
 62
     4
 10
299.99999724158721
 20
-0.0000029999999924
 30
0.0
 11
301.48746321992479
 21
-31.96571507316094
 31
0.0
  0
LINE
  5
1197
  8
NOTE
  6
CONTINUOUS
 62
     4
 10
299.99999724158721
 20
-0.0000029999999924
 30
0.0
 11
317.27097530952722
 21
-26.93971159976229
 31
0.0
  0
LINE
  5
1198
  8
NOTE
  6
CONTINUOUS
 62
     4
 10
190.0
 20
94.000000000000213
 30
0.0
 11
329.94560815986551
 21
-331.6192520073256
 31
0.0
  0
TEXT
  5
1199
  8
NOTE
  6
CONTINUOUS
 62
     4
 10
329.61658577970638
 20
-317.5854131122403
 30
0.0
 40
55.0
  1
EL2 %%C27
 50
359.99999699999978
 41
0.8
  7
STANDARD1
  0
LINE
  5
119A
  8
NOTE
  6
CONTINUOUS
 62
     4
 10
329.94560815986551
 20
-331.61925200732537
 30
0.0
 11
616.83498287455211
 21
-331.61925200732537
 31
0.0
  0
LINE
  5
119B
  8
DETAIL
  6
CONTINUOUS
 62
     5
 10
10.0
 20
0.0000010000000543
 30
0.0
 11
10.0
 21
70.0
 31
0.0
  0
LINE
  5
119C
  8
DETAIL
  6
CONTINUOUS
 62
     5
 10
0.0
 20
70.0
 30
0.0
 11
0.0
 21
1850.0
 31
0.0
  0
LINE
  5
119D
  8
DETAIL
  6
CONTINUOUS
 62
     5
 10
370.0
 20
0.0000010000000543
 30
0.0
 11
10.0
 21
0.0000010000000543
 31
0.0
  0
LINE
  5
119E
  8
DETAIL
  6
CONTINUOUS
 62
     5
 10
370.0
 20
0.0
 30
0.0
 11
370.0
 21
70.0
 31
0.0
  0
LINE
  5
119F
  8
OUTLINE
  6
CONTINUOUS
 62
     3
 10
0.0
 20
70.0
 30
0.0
 11
0.0
 21
1850.0
 31
0.0
  0
LINE
  5
11A0
  8
OUTLINE
  6
CONTINUOUS
 62
     3
 10
370.0
 20
0.0
 30
0.0
 11
370.0
 21
70.0
 31
0.0
  0
LINE
  5
11A1
  8
OUTLINE
  6
CONTINUOUS
 62
     3
 10
370.0
 20
0.0000010000000543
 30
0.0
 11
10.0
 21
0.0000010000000543
 31
0.0
  0
LINE
  5
11A2
  8
OUTLINE
  6
CONTINUOUS
 62
     3
 10
10.0
 20
0.0000010000000543
 30
0.0
 11
10.0
 21
70.0
 31
0.0
  0
CIRCLE
  5
11A3
  8
FIX
  6
CONTINUOUS
 62
    11
 10
300.0
 20
0.0000010000001112
 30
0.0
 40
15.0
  0
LINE
  5
11A4
  8
DETAIL
  6
CONTINUOUS
 62
     5
 10
400.0
 20
1850.0
 30
0.0
 11
0.0
 21
1850.0
 31
0.0
  0
LINE
  5
11A5
  8
OUTLINE
  6
CONTINUOUS
 62
     3
 10
400.0
 20
1850.0
 30
0.0
 11
0.0
 21
1850.0
 31
0.0
  0
LINE
  5
11A6
  8
DETAIL
  6
CONTINUOUS
 62
     5
 10
400.0
 20
70.0
 30
0.0
 11
400.0
 21
1850.0
 31
0.0
  0
LINE
  5
11A7
  8
OUTLINE
  6
CONTINUOUS
 62
     3
 10
400.0
 20
70.0
 30
0.0
 11
400.0
 21
1850.0
 31
0.0
  0
LINE
  5
11A8
  8
NOTE
  6
CONTINUOUS
 62
     4
 10
-150.0105450871269
 20
-118.2130610394706
 30
0.0
 11
0.0
 21
74.0
 31
0.0
  0
TEXT
  5
11A9
  8
NOTE
  6
CONTINUOUS
 62
     4
 10
382.32541034725
 20
-214.0123424042537
 30
0.0
 40
55.0
  1
AH 4-%%C12
 50
359.99999749558327
 41
0.7
  7
STANDARD1
  0
LINE
  5
11AA
  8
NOTE
  6
CONTINUOUS
 62
     4
 10
371.77488982390793
 20
-226.8118797320549
 30
0.0
 11
668.43962829524753
 21
-226.7003155439551
 31
0.0
  0
LINE
  5
11AB
  8
DETAIL
  6
CONTINUOUS
 62
     5
 10
325.0
 20
34.999996193836068
 30
0.0
 11
275.0
 21
34.999996193836068
 31
0.0
  0
LINE
  5
11AC
  8
DETAIL
  6
CONTINUOUS
 62
     5
 10
275.0
 20
-0.0000068061638672
 30
0.0
 11
275.0
 21
34.999996193836068
 31
0.0
  0
LINE
  5
11AD
  8
DETAIL
  6
CONTINUOUS
 62
     5
 10
325.0
 20
-0.0000068061638672
 30
0.0
 11
325.0
 21
34.999996193836068
 31
0.0
  0
LINE
  5
11AE
  8
DETAIL
  6
CONTINUOUS
 62
     5
 10
325.0
 20
4.4999931938361311
 30
0.0
 11
275.0
 21
4.4999931938361311
 31
0.0
  0
LINE
  5
11AF
  8
DETAIL
  6
CONTINUOUS
 62
     5
 10
400.0
 20
70.0
 30
0.0
 11
0.0
 21
70.0
 31
0.0
  0
LINE
  5
11B0
  8
OUTLINE
  6
CONTINUOUS
 62
     3
 10
400.0
 20
70.0
 30
0.0
 11
0.0
 21
70.0
 31
0.0
  0
LINE
  5
11B1
  8
NOTE
  6
CONTINUOUS
 62
     4
 10
110.0000002553106
 20
102.999994165229
 30
0.0
 11
91.443939663933165
 21
85.614580546825891
 31
0.0
  0
LINE
  5
11B2
  8
NOTE
  6
CONTINUOUS
 62
     4
 10
110.0000002553106
 20
102.999994165229
 30
0.0
 11
103.9492818872304
 21
78.044468716208712
 31
0.0
  0
LINE
  5
11B3
  8
NOTE
  6
CONTINUOUS
 62
     4
 10
190.0
 20
93.999999999999872
 30
0.0
 11
191.7363876319659
 21
68.631417889445402
 31
0.0
  0
LINE
  5
11B4
  8
NOTE
  6
CONTINUOUS
 62
     4
 10
190.0
 20
93.999999999999872
 30
0.0
 11
205.5081660989336
 21
73.533288946671732
 31
0.0
  0
LINE
  5
11B5
  8
NOTE
  6
CONTINUOUS
 62
     4
 10
320.0
 20
0.0000010000001112
 30
0.0
 11
280.0
 21
0.0000010000001112
 31
0.0
  0
LINE
  5
11B6
  8
NOTE
  6
CONTINUOUS
 62
     4
 10
300.0
 20
-19.999998999999882
 30
0.0
 11
300.0
 21
20.000001000000111
 31
0.0
  0
CIRCLE
  5
11B7
  8
FIX
  6
CONTINUOUS
 62
    11
 10
100.0000018048267
 20
0.0000010000000543
 30
0.0
 40
15.0
  0
LINE
  5
11B8
  8
DETAIL
  6
CONTINUOUS
 62
     5
 10
125.0000018048267
 20
34.999996193836068
 30
0.0
 11
75.000001804826752
 21
34.999996193836068
 31
0.0
  0
LINE
  5
11B9
  8
DETAIL
  6
CONTINUOUS
 62
     5
 10
75.000001804826752
 20
-0.000006806163924
 30
0.0
 11
75.000001804826752
 21
34.999996193836068
 31
0.0
  0
LINE
  5
11BA
  8
DETAIL
  6
CONTINUOUS
 62
     5
 10
125.0000018048267
 20
-0.000006806163924
 30
0.0
 11
125.0000018048267
 21
34.999996193836068
 31
0.0
  0
LINE
  5
11BB
  8
DETAIL
  6
CONTINUOUS
 62
     5
 10
125.0000018048267
 20
4.4999931938360751
 30
0.0
 11
75.000001804826752
 21
4.4999931938360751
 31
0.0
  0
LINE
  5
11BC
  8
NOTE
  6
CONTINUOUS
 62
     4
 10
120.0000018048267
 20
0.0000010000000543
 30
0.0
 11
80.000001804826752
 21
0.0000010000000543
 31
0.0
  0
LINE
  5
11BD
  8
NOTE
  6
CONTINUOUS
 62
     4
 10
100.0000018048267
 20
-19.999998999999931
 30
0.0
 11
100.0000018048267
 21
20.000001000000111
 31
0.0
  0
LINE
  5
11BE
  8
NOTE
  6
CONTINUOUS
 62
     4
 10
20.0
 20
74.0
 30
0.0
 11
-20.0
 21
74.0
 31
0.0
  0
LINE
  5
11BF
  8
NOTE
  6
CONTINUOUS
 62
     4
 10
0.0
 20
54.0
 30
0.0
 11
0.0
 21
94.0
 31
0.0
  0
LINE
  5
11C0
  8
NOTE
  6
CONTINUOUS
 62
     4
 10
-15.07913684983032
 20
36.951118140098181
 30
0.0
 11
0.0
 21
74.000000000000099
 31
0.0
  0
LINE
  5
11C1
  8
NOTE
  6
CONTINUOUS
 62
     4
 10
0.0
 20
74.000000000000099
 30
0.0
 11
-31.58335622370624
 21
49.45429571045895
 31
0.0
  0
LINE
  5
11C2
  8
DETAIL
  6
CONTINUOUS
 62
     5
 10
-50.0
 20
1850.0
 30
0.0
 11
-50.0
 21
1880.5000030000001
 31
0.0
  0
LINE
  5
11C3
  8
DETAIL
  6
CONTINUOUS
 62
     5
 10
0.0
 20
1850.0
 30
0.0
 11
-50.0
 21
1850.0
 31
0.0
  0
LINE
  5
11C4
  8
NOTE
  6
CONTINUOUS
 62
     4
 10
514.86319241810247
 20
346.76439828532227
 30
0.0
 11
282.0
 21
193.0
 31
0.0
  0
LINE
  5
11C5
  8
NOTE
  6
CONTINUOUS
 62
     4
 10
282.0
 20
173.0
 30
0.0
 11
282.0
 21
213.0
 31
0.0
  0
LINE
  5
11C6
  8
NOTE
  6
CONTINUOUS
 62
     4
 10
262.0
 20
193.0
 30
0.0
 11
302.0
 21
193.0
 31
0.0
  0
LINE
  5
11C7
  8
NOTE
  6
CONTINUOUS
 62
     4
 10
282.0
 20
193.0
 30
0.0
 11
308.47333809855348
 21
222.9860362196271
 31
0.0
  0
LINE
  5
11C8
  8
NOTE
  6
CONTINUOUS
 62
     4
 10
282.0
 20
193.0
 30
0.0
 11
319.91960156134883
 21
205.7319992308507
 31
0.0
  0
LINE
  5
11C9
  8
NOTE
  6
CONTINUOUS
 62
     4
 10
495.44625465731951
 20
468.7500013975876
 30
0.0
 11
282.0
 21
242.0
 31
0.0
  0
LINE
  5
11CA
  8
NOTE
  6
CONTINUOUS
 62
     4
 10
282.0
 20
222.0
 30
0.0
 11
282.0
 21
262.0
 31
0.0
  0
LINE
  5
11CB
  8
NOTE
  6
CONTINUOUS
 62
     4
 10
262.0
 20
242.0
 30
0.0
 11
302.0
 21
242.0
 31
0.0
  0
LINE
  5
11CC
  8
NOTE
  6
CONTINUOUS
 62
     4
 10
282.0
 20
242.0
 30
0.0
 11
301.24133232221448
 21
277.06809274413467
 31
0.0
  0
LINE
  5
11CD
  8
NOTE
  6
CONTINUOUS
 62
     4
 10
282.0
 20
242.0
 30
0.0
 11
316.1975292832289
 21
262.74919222303629
 31
0.0
  0
LINE
  5
11CE
  8
NOTE
  6
CONTINUOUS
 62
     4
 10
495.44625465731951
 20
468.7500013975876
 30
0.0
 11
857.13802758351994
 21
468.7500013975876
 31
0.0
  0
TEXT
  5
11CF
  8
NOTE
  6
CONTINUOUS
 62
     4
 10
513.80666246520695
 20
489.22985756524588
 30
0.0
 40
55.0
  1
RL %%C9.52
 41
0.9
  0
LINE
  5
11D0
  8
NOTE
  6
CONTINUOUS
 62
     4
 10
514.86319241810247
 20
346.76439828532227
 30
0.0
 11
881.37710120592715
 21
346.76439828532227
 31
0.0
  0
TEXT
  5
11D1
  8
NOTE
  6
CONTINUOUS
 62
     4
 10
533.223600225989
 20
367.24425445297999
 30
0.0
 40
55.0
  1
RG %%C25.4
 41
0.9
  0
LINE
  5
11D2
  8
NOTE
  6
CONTINUOUS
 62
     4
 10
156.49999700000029
 20
94.0
 30
0.0
 11
223.50000300000011
 21
94.0
 31
0.0
  0
LINE
  5
11D3
  8
NOTE
  6
CONTINUOUS
 62
     4
 10
190.0
 20
127.50000300000011
 30
0.0
 11
190.0
 21
60.499996999999901
 31
0.0
  0
LINE
  5
11D4
  8
NOTE
  6
CONTINUOUS
 62
     4
 10
76.499997000000349
 20
103.0
 30
0.0
 11
143.50000300000011
 21
103.0
 31
0.0
  0
LINE
  5
11D5
  8
NOTE
  6
CONTINUOUS
 62
     4
 10
110.0
 20
136.50000299999999
 30
0.0
 11
110.0
 21
69.499997000000008
 31
0.0
  0
CIRCLE
  5
11D6
  8
DETAIL
  6
CONTINUOUS
 62
     5
 10
110.0
 20
103.0
 30
0.0
 40
13.5
  0
CIRCLE
  5
11D7
  8
DETAIL
  6
CONTINUOUS
 62
     5
 10
190.0
 20
94.0
 30
0.0
 40
13.5
  0
TEXT
  5
11D8
  8
NOTE
  6
CONTINUOUS
 62
     4
 10
-485.95830611757668
 20
-100.34323291973119
 30
0.0
 40
55.0
  1
D VP-20
 41
0.9
  0
LINE
  5
11D9
  8
NOTE
  6
CONTINUOUS
 62
     4
 10
-501.7122610476726
 20
-118.2130610394706
 30
0.0
 11
-150.0105450871269
 21
-118.2130610394706
 31
0.0
  0
TEXT
  5
11DA
  8
NOTE
  6
CONTINUOUS
 62
     4
 10
-371.48346728753631
 20
-225.14109194009211
 30
0.0
 40
55.0
  1
CL2 %%C27
 50
359.99999699999978
 41
0.8
  7
STANDARD1
  0
LINE
  5
11DB
  8
NOTE
  6
CONTINUOUS
 62
     4
 10
-387.58135994838813
 20
-239.96662778150679
 30
0.0
 11
-76.975392753138294
 21
-239.96662778150679
 31
0.0
  0
LINE
  5
11DC
  8
NOTE
  6
CONTINUOUS
 62
     4
 10
156.49999700000029
 20
32.999999999999901
 30
0.0
 11
223.50000300000011
 21
32.999999999999901
 31
0.0
  0
LINE
  5
11DD
  8
NOTE
  6
CONTINUOUS
 62
     4
 10
190.0
 20
66.500002999999992
 30
0.0
 11
190.0
 21
-0.5000030000001062
 31
0.0
  0
CIRCLE
  5
11DE
  8
DETAIL
  6
CONTINUOUS
 62
     5
 10
190.0
 20
33.0
 30
0.0
 40
15.0
  0
LINE
  5
11DF
  8
NOTE
  6
CONTINUOUS
 62
     4
 10
129.9999985000004
 20
168.0
 30
0.0
 11
250.0000014999996
 21
168.0
 31
0.0
  0
LINE
  5
11E0
  8
NOTE
  6
CONTINUOUS
 62
     4
 10
190.0
 20
228.00000150000011
 30
0.0
 11
190.0
 21
107.9999984999999
 31
0.0
  0
CIRCLE
  5
11E1
  8
DETAIL
  6
CONTINUOUS
 62
     5
 10
190.0
 20
168.0
 30
0.0
 40
50.0
  0
LINE
  5
11E2
  8
NOTE
  6
CONTINUOUS
 62
     4
 10
236.49999700000029
 20
153.0
 30
0.0
 11
303.50000299999999
 21
153.0
 31
0.0
  0
LINE
  5
11E3
  8
NOTE
  6
CONTINUOUS
 62
     4
 10
270.0
 20
186.50000300000011
 30
0.0
 11
270.0
 21
119.49999699999979
 31
0.0
  0
CIRCLE
  5
11E4
  8
DETAIL
  6
CONTINUOUS
 62
     5
 10
270.0
 20
153.0
 30
0.0
 40
15.0
  0
LINE
  5
11E5
  8
NOTE
  6
CONTINUOUS
 62
     4
 10
109.99999610278969
 20
102.9999969064995
 30
0.0
 11
-76.975392753138294
 21
-239.96662778150679
 31
0.0
  0
LINE
  5
11E6
  8
SIZE
  6
CONTINUOUS
 62
    30
 10
0.0
 20
1870.0
 30
0.0
 11
0.0
 21
2023.38151356248
 31
0.0
  0
LINE
  5
11E7
  8
SIZE
  6
CONTINUOUS
 62
    30
 10
400.0
 20
1870.0
 30
0.0
 11
400.0
 21
2023.38151356248
 31
0.0
  0
LINE
  5
11E8
  8
SIZE
  6
CONTINUOUS
 62
    30
 10
10.0
 20
2003.3815135624791
 30
0.0
 11
390.0
 21
2003.3815135624791
 31
0.0
  0
CIRCLE
  5
11E9
  8
SIZE
  6
CONTINUOUS
 62
    30
 10
0.0
 20
2003.3815135624791
 30
0.0
 40
5.0
  0
LINE
  5
11EA
  8
SIZE
  6
CONTINUOUS
 62
    30
 10
5.0
 20
2003.3815135624791
 30
0.0
 11
10.0
 21
2003.3815135624791
 31
0.0
  0
CIRCLE
  5
11EB
  8
SIZE
  6
CONTINUOUS
 62
    30
 10
400.0
 20
2003.3815135624791
 30
0.0
 40
5.0
  0
LINE
  5
11EC
  8
SIZE
  6
CONTINUOUS
 62
    30
 10
395.0
 20
2003.3815135624791
 30
0.0
 11
390.0
 21
2003.3815135624791
 31
0.0
  0
TEXT
  5
11ED
  8
SIZE
  6
CONTINUOUS
 62
    30
 10
136.35714285714329
 20
2013.3815135624791
 30
0.0
 40
55.0
  1
400
 41
0.9
 72
     1
 11
200.0000000000004
 21
2013.3815135624791
 31
0.0
  0
LINE
  5
11EE
  8
SIZE
  6
CONTINUOUS
 62
    30
 10
0.0
 20
1870.0
 30
0.0
 11
0.0
 21
2023.38151356248
 31
0.0
  0
LINE
  5
11EF
  8
SIZE
  6
CONTINUOUS
 62
    30
 10
-50.0
 20
1900.5000030000001
 30
0.0
 11
-50.0
 21
2023.38151356248
 31
0.0
  0
LINE
  5
11F0
  8
SIZE
  6
CONTINUOUS
 62
    30
 10
-10.0
 20
2003.3815135624791
 30
0.0
 11
-40.0
 21
2003.3815135624791
 31
0.0
  0
LINE
  5
11F1
  8
SIZE
  6
CONTINUOUS
 62
    30
 10
-50.0
 20
2003.3815135624791
 30
0.0
 11
-410.79579024547991
 21
2003.3815135624791
 31
0.0
  0
CIRCLE
  5
11F2
  8
SIZE
  6
CONTINUOUS
 62
    30
 10
0.0
 20
2003.3815135624791
 30
0.0
 40
5.0
  0
LINE
  5
11F3
  8
SIZE
  6
CONTINUOUS
 62
    30
 10
-5.0
 20
2003.3815135624791
 30
0.0
 11
-10.0
 21
2003.3815135624791
 31
0.0
  0
CIRCLE
  5
11F4
  8
SIZE
  6
CONTINUOUS
 62
    30
 10
-50.0
 20
2003.3815135624791
 30
0.0
 40
5.0
  0
LINE
  5
11F5
  8
SIZE
  6
CONTINUOUS
 62
    30
 10
-45.0
 20
2003.3815135624791
 30
0.0
 11
-40.0
 21
2003.3815135624791
 31
0.0
  0
TEXT
  5
11F6
  8
SIZE
  6
CONTINUOUS
 62
    30
 10
-374.4193236941681
 20
2025.9597394030311
 30
0.0
 40
55.0
  1
(0～100)
 41
0.9
 72
     1
 11
-230.39789512273961
 21
2025.9597394030311
 31
0.0
  0
LINE
  5
11F7
  8
SIZE
  6
CONTINUOUS
 62
    30
 10
400.0
 20
90.0
 30
0.0
 11
400.0
 21
663.41119128420723
 31
0.0
  0
LINE
  5
11F8
  8
SIZE
  6
CONTINUOUS
 62
    30
 10
282.0
 20
233.0
 30
0.0
 11
282.0
 21
663.41119128420723
 31
0.0
  0
LINE
  5
11F9
  8
SIZE
  6
CONTINUOUS
 62
    30
 10
292.0
 20
643.41119128420723
 30
0.0
 11
390.0
 21
643.41119128420723
 31
0.0
  0
LINE
  5
11FA
  8
SIZE
  6
CONTINUOUS
 62
    30
 10
400.0
 20
643.41119128420723
 30
0.0
 11
538.42857142857167
 21
643.41119128420723
 31
0.0
  0
CIRCLE
  5
11FB
  8
SIZE
  6
CONTINUOUS
 62
    30
 10
282.0
 20
643.41119128420723
 30
0.0
 40
5.0
  0
LINE
  5
11FC
  8
SIZE
  6
CONTINUOUS
 62
    30
 10
287.0
 20
643.41119128420723
 30
0.0
 11
292.0
 21
643.41119128420723
 31
0.0
  0
CIRCLE
  5
11FD
  8
SIZE
  6
CONTINUOUS
 62
    30
 10
400.0
 20
643.41119128420723
 30
0.0
 40
5.0
  0
LINE
  5
11FE
  8
SIZE
  6
CONTINUOUS
 62
    30
 10
395.0
 20
643.41119128420723
 30
0.0
 11
390.0
 21
643.41119128420723
 31
0.0
  0
TEXT
  5
11FF
  8
SIZE
  6
CONTINUOUS
 62
    30
 10
414.99999999999989
 20
653.41119128420723
 30
0.0
 40
55.0
  1
118
 41
0.9
 72
     1
 11
469.21428571428561
 21
653.41119128420723
 31
0.0
  0
LINE
  5
1200
  8
SIZE
  6
CONTINUOUS
 62
    30
 10
390.0
 20
0.0
 30
0.0
 11
692.67332533381341
 21
0.0000000000001137
 31
0.0
  0
LINE
  5
1201
  8
SIZE
  6
CONTINUOUS
 62
    30
 10
322.0
 20
193.0
 30
0.0
 11
692.67332533381341
 21
193.00000000000011
 31
0.0
  0
LINE
  5
1202
  8
SIZE
  6
CONTINUOUS
 62
    30
 10
672.67332533381318
 20
10.00000000000011
 30
0.0
 11
672.67332533381318
 21
183.00000000000011
 31
0.0
  0
CIRCLE
  5
1203
  8
SIZE
  6
CONTINUOUS
 62
    30
 10
672.67332533381318
 20
0.0000000000001137
 30
0.0
 40
5.0
  0
LINE
  5
1204
  8
SIZE
  6
CONTINUOUS
 62
    30
 10
672.67332533381318
 20
5.0000000000001119
 30
0.0
 11
672.67332533381318
 21
10.00000000000011
 31
0.0
  0
CIRCLE
  5
1205
  8
SIZE
  6
CONTINUOUS
 62
    30
 10
672.67332533381318
 20
193.00000000000011
 30
0.0
 40
5.0
  0
LINE
  5
1206
  8
SIZE
  6
CONTINUOUS
 62
    30
 10
672.67332533381318
 20
188.0
 30
0.0
 11
672.67332533381318
 21
183.00000000000011
 31
0.0
  0
TEXT
  5
1207
  8
SIZE
  6
CONTINUOUS
 62
    30
 10
660.28717701779715
 20
37.571428571428712
 30
0.0
 40
55.0
  1
193
 50
90.0
 41
0.9
 72
     1
 11
660.28717701779715
 21
96.500000000000114
 31
0.0
  0
LINE
  5
1208
  8
SIZE
  6
CONTINUOUS
 62
    30
 10
390.0
 20
0.0
 30
0.0
 11
810.1566310176604
 21
0.0000000000001137
 31
0.0
  0
LINE
  5
1209
  8
SIZE
  6
CONTINUOUS
 62
    30
 10
322.0
 20
242.0
 30
0.0
 11
810.1566310176604
 21
242.00000000000011
 31
0.0
  0
LINE
  5
120A
  8
SIZE
  6
CONTINUOUS
 62
    30
 10
790.1566310176604
 20
10.00000000000011
 30
0.0
 11
790.1566310176604
 21
232.00000000000011
 31
0.0
  0
CIRCLE
  5
120B
  8
SIZE
  6
CONTINUOUS
 62
    30
 10
790.1566310176604
 20
0.0000000000001137
 30
0.0
 40
5.0
  0
LINE
  5
120C
  8
SIZE
  6
CONTINUOUS
 62
    30
 10
790.1566310176604
 20
5.0000000000001119
 30
0.0
 11
790.1566310176604
 21
10.00000000000011
 31
0.0
  0
CIRCLE
  5
120D
  8
SIZE
  6
CONTINUOUS
 62
    30
 10
790.1566310176604
 20
242.00000000000011
 30
0.0
 40
5.0
  0
LINE
  5
120E
  8
SIZE
  6
CONTINUOUS
 62
    30
 10
790.1566310176604
 20
237.00000000000011
 30
0.0
 11
790.1566310176604
 21
232.00000000000011
 31
0.0
  0
TEXT
  5
120F
  8
SIZE
  6
CONTINUOUS
 62
    30
 10
777.77048270164414
 20
57.357142857142939
 30
0.0
 40
55.0
  1
242
 50
90.0
 41
0.9
 72
     1
 11
777.77048270164414
 21
121.0000000000001
 31
0.0
  0
LINE
  5
1210
  8
SIZE
  6
CONTINUOUS
 62
    30
 10
-10.0
 20
0.0000010000000543
 30
0.0
 11
-373.20158017230642
 21
0.0000009999999406
 31
0.0
  0
LINE
  5
1211
  8
SIZE
  6
CONTINUOUS
 62
    30
 10
-40.0
 20
74.0
 30
0.0
 11
-373.20158017230642
 21
73.999999999999872
 31
0.0
  0
LINE
  5
1212
  8
SIZE
  6
CONTINUOUS
 62
    30
 10
-353.20158017230642
 20
10.000000999999941
 30
0.0
 11
-353.20158017230642
 21
63.999999999999879
 31
0.0
  0
LINE
  5
1213
  8
SIZE
  6
CONTINUOUS
 62
    30
 10
-353.20158017230642
 20
73.999999999999872
 30
0.0
 11
-353.20158017230642
 21
186.49999999999989
 31
0.0
  0
CIRCLE
  5
1214
  8
SIZE
  6
CONTINUOUS
 62
    30
 10
-353.20158017230642
 20
0.0000009999999406
 30
0.0
 40
5.0
  0
LINE
  5
1215
  8
SIZE
  6
CONTINUOUS
 62
    30
 10
-353.20158017230642
 20
5.0000009999999389
 30
0.0
 11
-353.20158017230642
 21
10.000000999999941
 31
0.0
  0
CIRCLE
  5
1216
  8
SIZE
  6
CONTINUOUS
 62
    30
 10
-353.20158017230642
 20
73.999999999999872
 30
0.0
 40
5.0
  0
LINE
  5
1217
  8
SIZE
  6
CONTINUOUS
 62
    30
 10
-353.20158017230642
 20
68.999999999999901
 30
0.0
 11
-353.20158017230642
 21
63.999999999999879
 31
0.0
  0
TEXT
  5
1218
  8
SIZE
  6
CONTINUOUS
 62
    30
 10
-363.04114724438841
 20
88.999999999999858
 30
0.0
 40
55.0
  1
74
 50
90.0
 41
0.9
 72
     1
 11
-363.04114724438841
 21
130.2499999999998
 31
0.0
  0
LINE
  5
1219
  8
SIZE
  6
CONTINUOUS
 62
    30
 10
390.0
 20
0.0000010000000543
 30
0.0
 11
524.84002215892906
 21
0.0000010000001112
 31
0.0
  0
LINE
  5
121A
  8
SIZE
  6
CONTINUOUS
 62
    30
 10
420.0
 20
70.0
 30
0.0
 11
524.84002215892906
 21
70.0
 31
0.0
  0
LINE
  5
121B
  8
SIZE
  6
CONTINUOUS
 62
    30
 10
504.840022158929
 20
10.000001000000101
 30
0.0
 11
504.840022158929
 21
60.0
 31
0.0
  0
LINE
  5
121C
  8
SIZE
  6
CONTINUOUS
 62
    30
 10
504.840022158929
 20
70.0
 30
0.0
 11
504.840022158929
 21
180.14285714285711
 31
0.0
  0
CIRCLE
  5
121D
  8
SIZE
  6
CONTINUOUS
 62
    30
 10
504.840022158929
 20
0.0000010000001112
 30
0.0
 40
5.0
  0
LINE
  5
121E
  8
SIZE
  6
CONTINUOUS
 62
    30
 10
504.840022158929
 20
5.0000010000001112
 30
0.0
 11
504.840022158929
 21
10.000001000000101
 31
0.0
  0
CIRCLE
  5
121F
  8
SIZE
  6
CONTINUOUS
 62
    30
 10
504.840022158929
 20
70.0
 30
0.0
 40
5.0
  0
LINE
  5
1220
  8
SIZE
  6
CONTINUOUS
 62
    30
 10
504.840022158929
 20
65.0
 30
0.0
 11
504.840022158929
 21
60.0
 31
0.0
  0
TEXT
  5
1221
  8
SIZE
  6
CONTINUOUS
 62
    30
 10
492.45387384291263
 20
85.000000000000014
 30
0.0
 40
55.0
  1
70
 50
90.0
 41
0.9
 72
     1
 11
492.45387384291263
 21
125.0714285714286
 31
0.0
  0
LINE
  5
1222
  8
SIZE
  6
CONTINUOUS
 62
    30
 10
0.0
 20
50.0
 30
0.0
 11
0.0
 21
-187.7158674976308
 31
0.0
  0
LINE
  5
1223
  8
SIZE
  6
CONTINUOUS
 62
    30
 10
190.0
 20
-20.50000300000011
 30
0.0
 11
190.0
 21
-187.7158674976308
 31
0.0
  0
LINE
  5
1224
  8
SIZE
  6
CONTINUOUS
 62
    30
 10
10.0
 20
-167.7158674976308
 30
0.0
 11
180.0
 21
-167.7158674976308
 31
0.0
  0
CIRCLE
  5
1225
  8
SIZE
  6
CONTINUOUS
 62
    30
 10
0.0
 20
-167.7158674976308
 30
0.0
 40
5.0
  0
LINE
  5
1226
  8
SIZE
  6
CONTINUOUS
 62
    30
 10
5.0
 20
-167.7158674976308
 30
0.0
 11
10.0
 21
-167.7158674976308
 31
0.0
  0
CIRCLE
  5
1227
  8
SIZE
  6
CONTINUOUS
 62
    30
 10
190.0
 20
-167.7158674976308
 30
0.0
 40
5.0
  0
LINE
  5
1228
  8
SIZE
  6
CONTINUOUS
 62
    30
 10
185.0
 20
-167.7158674976308
 30
0.0
 11
180.0
 21
-167.7158674976308
 31
0.0
  0
TEXT
  5
1229
  8
SIZE
  6
CONTINUOUS
 62
    30
 10
36.071428571429031
 20
-157.7158674976308
 30
0.0
 40
55.0
  1
190
 41
0.9
 72
     1
 11
95.000000000000441
 21
-157.7158674976308
 31
0.0
  0
LINE
  5
122A
  8
SIZE
  6
CONTINUOUS
 62
    30
 10
110.0
 20
156.50000299999999
 30
0.0
 11
110.0
 21
396.75764247906778
 31
0.0
  0
LINE
  5
122B
  8
SIZE
  6
CONTINUOUS
 62
    30
 10
0.0
 20
94.0
 30
0.0
 11
0.0
 21
396.75764247906778
 31
0.0
  0
LINE
  5
122C
  8
SIZE
  6
CONTINUOUS
 62
    30
 10
100.0
 20
376.75764247906773
 30
0.0
 11
10.0
 21
376.75764247906773
 31
0.0
  0
LINE
  5
122D
  8
SIZE
  6
CONTINUOUS
 62
    30
 10
0.0
 20
376.75764247906773
 30
0.0
 11
-141.18967846742399
 21
376.75764247906773
 31
0.0
  0
CIRCLE
  5
122E
  8
SIZE
  6
CONTINUOUS
 62
    30
 10
110.0
 20
376.75764247906773
 30
0.0
 40
5.0
  0
LINE
  5
122F
  8
SIZE
  6
CONTINUOUS
 62
    30
 10
105.0
 20
376.75764247906773
 30
0.0
 11
100.0
 21
376.75764247906773
 31
0.0
  0
CIRCLE
  5
1230
  8
SIZE
  6
CONTINUOUS
 62
    30
 10
0.0
 20
376.75764247906773
 30
0.0
 40
5.0
  0
LINE
  5
1231
  8
SIZE
  6
CONTINUOUS
 62
    30
 10
5.0
 20
376.75764247906773
 30
0.0
 11
10.0
 21
376.75764247906773
 31
0.0
  0
TEXT
  5
1232
  8
SIZE
  6
CONTINUOUS
 62
    30
 10
-124.8091249479977
 20
386.75764247906773
 30
0.0
 40
55.0
  1
110
 41
0.9
 72
     1
 11
-70.594839233712037
 21
386.75764247906773
 31
0.0
  0
LINE
  5
1233
  8
SIZE
  6
CONTINUOUS
 62
    30
 10
370.0
 20
-19.999998999999931
 30
0.0
 11
370.0
 21
-133.12389721919311
 31
0.0
  0
LINE
  5
1234
  8
SIZE
  6
CONTINUOUS
 62
    30
 10
400.0
 20
50.0
 30
0.0
 11
400.0
 21
-133.12389721919311
 31
0.0
  0
LINE
  5
1235
  8
SIZE
  6
CONTINUOUS
 62
    30
 10
360.0
 20
-113.1238972191932
 30
0.0
 11
350.0
 21
-113.1238972191932
 31
0.0
  0
LINE
  5
1236
  8
SIZE
  6
CONTINUOUS
 62
    30
 10
410.0
 20
-113.1238972191932
 30
0.0
 11
520.14285714285688
 21
-113.1238972191932
 31
0.0
  0
LINE
  5
1237
  8
SIZE
  6
CONTINUOUS
 62
    30
 10
370.0
 20
-113.1238972191932
 30
0.0
 11
400.0
 21
-113.1238972191932
 31
0.0
  0
CIRCLE
  5
1238
  8
SIZE
  6
CONTINUOUS
 62
    30
 10
370.0
 20
-113.1238972191932
 30
0.0
 40
5.0
  0
LINE
  5
1239
  8
SIZE
  6
CONTINUOUS
 62
    30
 10
365.0
 20
-113.1238972191932
 30
0.0
 11
360.0
 21
-113.1238972191932
 31
0.0
  0
CIRCLE
  5
123A
  8
SIZE
  6
CONTINUOUS
 62
    30
 10
400.0
 20
-113.1238972191932
 30
0.0
 40
5.0
  0
LINE
  5
123B
  8
SIZE
  6
CONTINUOUS
 62
    30
 10
405.0
 20
-113.1238972191932
 30
0.0
 11
410.0
 21
-113.1238972191932
 31
0.0
  0
TEXT
  5
123C
  8
SIZE
  6
CONTINUOUS
 62
    30
 10
424.99999999999932
 20
-103.1238972191931
 30
0.0
 40
55.0
  1
30
 41
0.9
 72
     1
 11
465.07142857142787
 21
-103.1238972191931
 31
0.0
  0
LINE
  5
123D
  8
SIZE
  6
CONTINUOUS
 62
    30
 10
-10.0
 20
0.0000010000000543
 30
0.0
 11
-257.69664964278132
 21
0.0000009999999975
 31
0.0
  0
LINE
  5
123E
  8
SIZE
  6
CONTINUOUS
 62
    30
 10
56.499997000000342
 20
103.0
 30
0.0
 11
-257.69664964278132
 21
102.9999999999999
 31
0.0
  0
LINE
  5
123F
  8
SIZE
  6
CONTINUOUS
 62
    30
 10
-237.69664964278121
 20
10.000000999999999
 30
0.0
 11
-237.69664964278121
 21
92.999999999999886
 31
0.0
  0
LINE
  5
1240
  8
SIZE
  6
CONTINUOUS
 62
    30
 10
-237.69664964278121
 20
102.9999999999999
 30
0.0
 11
-237.69664964278121
 21
250.8571428571428
 31
0.0
  0
CIRCLE
  5
1241
  8
SIZE
  6
CONTINUOUS
 62
    30
 10
-237.69664964278121
 20
0.0000009999999975
 30
0.0
 40
5.0
  0
LINE
  5
1242
  8
SIZE
  6
CONTINUOUS
 62
    30
 10
-237.69664964278121
 20
5.0000009999999957
 30
0.0
 11
-237.69664964278121
 21
10.000000999999999
 31
0.0
  0
CIRCLE
  5
1243
  8
SIZE
  6
CONTINUOUS
 62
    30
 10
-237.69664964278121
 20
102.9999999999999
 30
0.0
 40
5.0
  0
LINE
  5
1244
  8
SIZE
  6
CONTINUOUS
 62
    30
 10
-237.69664964278121
 20
97.999999999999901
 30
0.0
 11
-237.69664964278121
 21
92.999999999999886
 31
0.0
  0
TEXT
  5
1245
  8
SIZE
  6
CONTINUOUS
 62
    30
 10
-247.5362167148632
 20
117.9999999999999
 30
0.0
 40
55.0
  1
103
 50
90.0
 41
0.9
 72
     1
 11
-247.5362167148632
 21
176.9285714285713
 31
0.0
  0
LINE
  5
1246
  8
SIZE
  6
CONTINUOUS
 62
    30
 10
-10.0
 20
0.0000010000000543
 30
0.0
 11
-145.18130496545561
 21
0.0000009999999975
 31
0.0
  0
LINE
  5
1247
  8
SIZE
  6
CONTINUOUS
 62
    30
 10
136.49999700000029
 20
94.0
 30
0.0
 11
-145.18130496545561
 21
93.999999999999872
 31
0.0
  0
LINE
  5
1248
  8
SIZE
  6
CONTINUOUS
 62
    30
 10
-125.1813049654556
 20
10.000000999999999
 30
0.0
 11
-125.1813049654556
 21
83.999999999999872
 31
0.0
  0
LINE
  5
1249
  8
SIZE
  6
CONTINUOUS
 62
    30
 10
-125.1813049654556
 20
93.999999999999872
 30
0.0
 11
-125.1813049654556
 21
206.49999999999989
 31
0.0
  0
CIRCLE
  5
124A
  8
SIZE
  6
CONTINUOUS
 62
    30
 10
-125.1813049654556
 20
0.0000009999999975
 30
0.0
 40
5.0
  0
LINE
  5
124B
  8
SIZE
  6
CONTINUOUS
 62
    30
 10
-125.1813049654556
 20
5.0000009999999957
 30
0.0
 11
-125.1813049654556
 21
10.000000999999999
 31
0.0
  0
CIRCLE
  5
124C
  8
SIZE
  6
CONTINUOUS
 62
    30
 10
-125.1813049654556
 20
93.999999999999872
 30
0.0
 40
5.0
  0
LINE
  5
124D
  8
SIZE
  6
CONTINUOUS
 62
    30
 10
-125.1813049654556
 20
88.999999999999872
 30
0.0
 11
-125.1813049654556
 21
83.999999999999872
 31
0.0
  0
TEXT
  5
124E
  8
SIZE
  6
CONTINUOUS
 62
    30
 10
-135.0208720375376
 20
108.9999999999998
 30
0.0
 40
55.0
  1
94
 50
90.0
 41
0.9
 72
     1
 11
-135.0208720375376
 21
150.2499999999998
 31
0.0
  0
LINE
  5
124F
  8
SIZE
  6
CONTINUOUS
 62
    30
 10
-20.0
 20
1850.0
 30
0.0
 11
-480.4659072178041
 21
1850.0
 31
0.0
  0
LINE
  5
1250
  8
SIZE
  6
CONTINUOUS
 62
    30
 10
-10.0
 20
0.0000010000000543
 30
0.0
 11
-480.46590721780359
 21
0.0000009999999406
 31
0.0
  0
LINE
  5
1251
  8
SIZE
  6
CONTINUOUS
 62
    30
 10
-460.46590721780422
 20
1840.0
 30
0.0
 11
-460.46590721780359
 21
10.000000999999941
 31
0.0
  0
CIRCLE
  5
1252
  8
SIZE
  6
CONTINUOUS
 62
    30
 10
-460.46590721780422
 20
1850.0
 30
0.0
 40
5.0
  0
LINE
  5
1253
  8
SIZE
  6
CONTINUOUS
 62
    30
 10
-460.46590721780422
 20
1845.0
 30
0.0
 11
-460.46590721780422
 21
1840.0
 31
0.0
  0
CIRCLE
  5
1254
  8
SIZE
  6
CONTINUOUS
 62
    30
 10
-460.46590721780359
 20
0.0000009999999406
 30
0.0
 40
5.0
  0
LINE
  5
1255
  8
SIZE
  6
CONTINUOUS
 62
    30
 10
-460.46590721780359
 20
5.0000009999999389
 30
0.0
 11
-460.46590721780359
 21
10.000000999999941
 31
0.0
  0
TEXT
  5
1256
  8
SIZE
  6
CONTINUOUS
 62
    30
 10
-395.46590721780382
 20
842.50000050000006
 30
0.0
 40
55.0
  1
1850
 50
90.0
 41
0.9
 72
     1
 11
-395.46590721780382
 21
925.00000050000006
 31
0.0
  0
ENDSEC
  0
EOF
