  0
SECTION
  2
HEADER
  9
$ACADVER
  1
AC1009
  9
$INSBASE
 10
0.0
 20
0.0
 30
0.0
  9
$EXTMIN
 10
-1033.0199916300151
 20
-197.75388319715049
 30
-0.0000000000112498
  9
$EXTMAX
 10
1277.9236029343699
 20
2374.2675948588512
 30
0.0000000000002956
  9
$LIMMIN
 10
-5000.0
 20
-4000.0
  9
$LIMMAX
 10
5000.0
 20
4000.0
  9
$ORTHOMODE
 70
     1
  9
$REGENMODE
 70
     0
  9
$FILLMODE
 70
     1
  9
$QTEXTMODE
 70
     0
  9
$MIRRTEXT
 70
     0
  9
$DRAGMODE
 70
     2
  9
$LTSCALE
 40
20.0
  9
$OSMODE
 70
   431
  9
$ATTMODE
 70
     1
  9
$TEXTSIZE
 40
64.0
  9
$TRACEWID
 40
0.05
  9
$TEXTSTYLE
  7
STANDARD
  9
$CLAYER
  8
SYMBOLLINE
  9
$CELTYPE
  6
CONTINUOUS
  9
$CECOLOR
 62
     4
  9
$DIMSCALE
 40
1.0
  9
$DIMASZ
 40
10.0
  9
$DIMEXO
 40
20.0
  9
$DIMDLI
 40
80.0
  9
$DIMRND
 40
0.0
  9
$DIMDLE
 40
0.0
  9
$DIMEXE
 40
20.0
  9
$DIMTP
 40
0.0
  9
$DIMTM
 40
0.0
  9
$DIMTXT
 40
55.0
  9
$DIMCEN
 40
0.09
  9
$DIMTSZ
 40
0.0
  9
$DIMTOL
 70
     0
  9
$DIMLIM
 70
     0
  9
$DIMTIH
 70
     0
  9
$DIMTOH
 70
     0
  9
$DIMSE1
 70
     0
  9
$DIMSE2
 70
     0
  9
$DIMTAD
 70
     1
  9
$DIMZIN
 70
     8
  9
$DIMBLK
  1
DOTBLANK
  9
$DIMASO
 70
     1
  9
$DIMSHO
 70
     0
  9
$DIMPOST
  1

  9
$DIMAPOST
  1

  9
$DIMALT
 70
     0
  9
$DIMALTD
 70
     2
  9
$DIMALTF
 40
25.399999999999999
  9
$DIMLFAC
 40
1.0
  9
$DIMTOFL
 70
     1
  9
$DIMTVP
 40
0.0
  9
$DIMTIX
 70
     0
  9
$DIMSOXD
 70
     0
  9
$DIMSAH
 70
     0
  9
$DIMBLK1
  1

  9
$DIMBLK2
  1

  9
$DIMSTYLE
  2
STANDARD
  9
$DIMCLRD
 70
     0
  9
$DIMCLRE
 70
     0
  9
$DIMCLRT
 70
     0
  9
$DIMTFAC
 40
1.0
  9
$DIMGAP
 40
10.0
  9
$LUNITS
 70
     2
  9
$LUPREC
 70
     4
  9
$SKETCHINC
 40
0.1
  9
$FILLETRAD
 40
0.0
  9
$AUNITS
 70
     1
  9
$AUPREC
 70
     3
  9
$MENU
  1
ACAD
  9
$ELEVATION
 40
0.0
  9
$PELEVATION
 40
0.0
  9
$THICKNESS
 40
0.0
  9
$LIMCHECK
 70
     0
  9
$BLIPMODE
 70
     0
  9
$CHAMFERA
 40
0.0
  9
$CHAMFERB
 40
0.0
  9
$SKPOLY
 70
     0
  9
$TDCREATE
 40
2450329.821597002
  9
$TDUPDATE
 40
2455866.777923658
  9
$TDINDWG
 40
0.0578365278
  9
$TDUSRTIMER
 40
0.0578361574
  9
$USRTIMER
 70
     1
  9
$ANGBASE
 50
0.0
  9
$ANGDIR
 70
     0
  9
$PDMODE
 70
     3
  9
$PDSIZE
 40
-2.0
  9
$PLINEWID
 40
0.0
  9
$COORDS
 70
     0
  9
$SPLFRAME
 70
     0
  9
$SPLINETYPE
 70
     6
  9
$SPLINESEGS
 70
     8
  9
$ATTDIA
 70
     0
  9
$ATTREQ
 70
     1
  9
$HANDLING
 70
     1
  9
$HANDSEED
  5
A2E
  9
$SURFTAB1
 70
     6
  9
$SURFTAB2
 70
     6
  9
$SURFTYPE
 70
     6
  9
$SURFU
 70
     6
  9
$SURFV
 70
     6
  9
$UCSNAME
  2

  9
$UCSORG
 10
0.0
 20
0.0
 30
0.0
  9
$UCSXDIR
 10
1.0
 20
0.0
 30
0.0
  9
$UCSYDIR
 10
0.0
 20
1.0
 30
0.0
  9
$PUCSNAME
  2

  9
$PUCSORG
 10
0.0
 20
0.0
 30
0.0
  9
$PUCSXDIR
 10
1.0
 20
0.0
 30
0.0
  9
$PUCSYDIR
 10
0.0
 20
1.0
 30
0.0
  9
$USERI1
 70
     0
  9
$USERI2
 70
     0
  9
$USERI3
 70
     0
  9
$USERI4
 70
     0
  9
$USERI5
 70
     0
  9
$USERR1
 40
20.0
  9
$USERR2
 40
0.0
  9
$USERR3
 40
0.0
  9
$USERR4
 40
0.0
  9
$USERR5
 40
0.0
  9
$WORLDVIEW
 70
     1
  9
$SHADEDGE
 70
     3
  9
$SHADEDIF
 70
    70
  9
$TILEMODE
 70
     1
  9
$MAXACTVP
 70
    48
  9
$PLIMCHECK
 70
     0
  9
$PEXTMIN
 10
1.0000000000000000E+020
 20
1.0000000000000000E+020
 30
1.0000000000000000E+020
  9
$PEXTMAX
 10
-1.0000000000000000E+020
 20
-1.0000000000000000E+020
 30
-1.0000000000000000E+020
  9
$PLIMMIN
 10
0.0
 20
0.0
  9
$PLIMMAX
 10
12.0
 20
9.0
  9
$UNITMODE
 70
     0
  9
$VISRETAIN
 70
     1
  9
$PLINEGEN
 70
     0
  9
$PSLTSCALE
 70
     1
  0
ENDSEC
  0
SECTION
  2
TABLES
  0
TABLE
  2
VPORT
 70
     1
  0
VPORT
  2
*ACTIVE
 70
     0
 10
0.0
 20
0.0
 11
1.0
 21
1.0
 12
-0.0000000000006821
 22
0.0
 13
0.0
 23
0.0
 14
50.0
 24
50.0
 15
100.0
 25
100.0
 16
0.0
 26
0.0
 36
1.0
 17
0.0
 27
0.0
 37
0.0
 40
8060.9911054637878
 41
1.555979643765903
 42
50.0
 43
0.0
 44
0.0
 50
0.0
 51
0.0
 71
     0
 72
  1000
 73
     1
 74
     0
 75
     0
 76
     0
 77
     0
 78
     0
  0
ENDTAB
  0
TABLE
  2
LTYPE
 70
     2
  0
LTYPE
  2
CONTINUOUS
 70
     0
  3
実線
 72
    65
 73
     0
 40
0.0
  0
LTYPE
  2
DASHDOT
 70
     0
  3
____ _ ____ _ ____ _ ____ _ ____ _ ____ _ ____
 72
    65
 73
     4
 40
5.5
 49
4.0
 49
-0.6
 49
0.3
 49
-0.6
  0
ENDTAB
  0
TABLE
  2
LAYER
 70
    12
  0
LAYER
  2
0
 70
     0
 62
     7
  6
CONTINUOUS
  0
LAYER
  2
SYMBOLLINE
 70
     0
 62
    15
  6
CONTINUOUS
  0
LAYER
  2
OUTLINE
 70
     0
 62
     3
  6
CONTINUOUS
  0
LAYER
  2
DETAIL
 70
     0
 62
     5
  6
CONTINUOUS
  0
LAYER
  2
BASIS
 70
     0
 62
     6
  6
DASHDOT
  0
LAYER
  2
SIZE
 70
     0
 62
    30
  6
CONTINUOUS
  0
LAYER
  2
NOTE
 70
     0
 62
     4
  6
CONTINUOUS
  0
LAYER
  2
ARRANGE
 70
     0
 62
     1
  6
CONTINUOUS
  0
LAYER
  2
FIX
 70
     0
 62
    11
  6
CONTINUOUS
  0
LAYER
  2
SERVICESPACE
 70
     0
 62
     2
  6
DASHDOT
  0
LAYER
  2
ETC
 70
     0
 62
    61
  6
CONTINUOUS
  0
LAYER
  2
DEFPOINTS
 70
     0
 62
     7
  6
CONTINUOUS
  0
ENDTAB
  0
TABLE
  2
STYLE
 70
     3
  0
STYLE
  2
STANDARD
 70
     0
 40
0.0
 41
0.9
 50
0.0
 71
     0
 42
64.0
  3
SIMPLEX
  4
BIGFONT
  0
STYLE
  2
ANNOTATIVE
 70
     0
 40
0.0
 41
1.0
 50
0.0
 71
     0
 42
0.2
  3
txt
  4

  0
STYLE
  2
STANDARD1
 70
     0
 40
0.0
 41
1.0
 50
0.0
 71
     0
 42
64.0
  3
MONOTXT
  4
BIGFONT
  0
ENDTAB
  0
TABLE
  2
VIEW
 70
     2
  0
VIEW
  2
ALL
 70
     0
 40
8000.0
 10
548.00590799999998
 20
0.0
 41
11096.011817000001
 11
0.0
 21
0.0
 31
1.0
 12
0.0
 22
0.0
 32
0.0
 42
50.0
 43
0.0
 44
0.0
 50
0.0
 71
     0
  0
ENDTAB
  0
TABLE
  2
UCS
 70
     0
  0
ENDTAB
  0
TABLE
  2
APPID
 70
     6
  0
APPID
  2
ACAD
 70
     0
  0
APPID
  2
ACADANNOTATIVE
 70
     0
  0
APPID
  2
ACAD_MLEADERVER
 70
     0
  0
APPID
  2
ACAD_DSTYLE_DIMJAG
 70
     0
  0
APPID
  2
ACAD_DSTYLE_DIMTALN
 70
     0
  0
APPID
  2
ACAD_EXEMPT_FROM_CAD_STANDARDS
 70
     0
  0
ENDTAB
  0
TABLE
  2
DIMSTYLE
 70
     2
  0
DIMSTYLE
  2
STANDARD
 70
     0
  3

  4

  5

  6

  7

 40
1.0
 41
0.18
 42
0.0625
 43
0.38
 44
0.18
 45
0.0
 46
0.0
 47
0.0
 48
0.0
140
0.18
141
0.09
142
0.0
143
25.399999999999999
144
1.0
145
0.0
146
1.0
147
0.09
 71
     0
 72
     0
 73
     1
 74
     1
 75
     0
 76
     0
 77
     0
 78
     0
170
     0
171
     2
172
     0
173
     0
174
     0
175
     0
176
     0
177
     0
178
     0
  0
DIMSTYLE
  2
ANNOTATIVE
 70
     0
  3

  4

  5

  6

  7

 40
1.0
 41
0.18
 42
0.0625
 43
0.38
 44
0.18
 45
0.0
 46
0.0
 47
0.0
 48
0.0
140
0.18
141
0.09
142
0.0
143
25.399999999999999
144
1.0
145
0.0
146
1.0
147
0.09
 71
     0
 72
     0
 73
     1
 74
     1
 75
     0
 76
     0
 77
     0
 78
     0
170
     0
171
     2
172
     0
173
     0
174
     0
175
     0
176
     0
177
     0
178
     0
  0
ENDTAB
  0
ENDSEC
  0
SECTION
  2
BLOCKS
  0
BLOCK
  8
0
  2
$MODEL_SPACE
 70
     0
 10
0.0
 20
0.0
 30
0.0
  3
$MODEL_SPACE
  1

  0
ENDBLK
  5
98C
  8
0
  0
BLOCK
 67
     1
  8
0
  2
$PAPER_SPACE
 70
     0
 10
0.0
 20
0.0
 30
0.0
  3
$PAPER_SPACE
  1

  0
ENDBLK
  5
988
 67
     1
  8
0
  0
BLOCK
  8
0
  2
_DOTBLANK
 70
     0
 10
0.0
 20
0.0
 30
0.0
  3
_DOTBLANK
  1

  0
CIRCLE
  5
1E1
  8
0
  6
CONTINUOUS
 62
     7
 10
0.0
 20
0.0
 30
0.0
 40
0.5
  0
LINE
  5
1E2
  8
0
  6
CONTINUOUS
 62
     7
 10
-0.5
 20
0.0
 30
0.0
 11
-1.0
 21
0.0
 31
0.0
  0
ENDBLK
  5
1E3
  8
0
  0
BLOCK
  8
0
 62
     4
  2
A$C284F3CA5
 70
     0
 10
0.0
 20
0.0
 30
0.0
  3
A$C284F3CA5
  1

  0
TEXT
  5
1E5
  8
NOTE
  6
CONTINUOUS
 62
     4
 10
-0.000002397821163
 20
-0.0000054636239071
 30
0.0
 40
60.0
  1
AH 4-φ12
 50
0.000003
 41
0.635417
  7
STANDARD1
  0
LINE
  5
1E6
  8
NOTE
  6
CONTINUOUS
 62
     4
 10
2169.5598695557242
 20
1004.352754299111
 30
0.0
 11
1961.0163598544091
 21
1004.352754299111
 31
0.0
  0
TEXT
  5
1E7
  8
NOTE
  6
CONTINUOUS
 62
     4
 10
1975.514049854409
 20
1013.98518229911
 30
0.0
 40
60.0
  1
前吸込口
 50
0.000003
 41
0.635417
  7
STANDARD1
  0
CIRCLE
  5
1E8
  8
NOTE
  6
CONTINUOUS
 62
     4
 10
1772.2970046298201
 20
844.55139488449129
 30
0.0
 40
11.161136000000001
  0
SOLID
  5
1E9
  8
NOTE
  6
CONTINUOUS
 62
     4
 10
1783.4581406298209
 20
844.55139488449129
 30
0.0
 11
1781.962831629821
 21
850.13196188449024
 31
0.0
 12
1781.962831629821
 22
838.97082688449143
 32
0.0
 13
1781.962831629821
 23
838.97082688449143
 33
0.0
  0
SOLID
  5
1EA
  8
NOTE
  6
CONTINUOUS
 62
     4
 10
1777.87757262982
 20
854.21722088449155
 30
0.0
 11
1781.962831629821
 21
838.97082688449143
 31
0.0
 12
1781.962831629821
 22
850.13196188449024
 32
0.0
 13
1781.962831629821
 23
850.13196188449024
 33
0.0
  0
SOLID
  5
1EB
  8
NOTE
  6
CONTINUOUS
 62
     4
 10
1781.962831629821
 20
838.97082688449143
 30
0.0
 11
1777.87757262982
 21
854.21722088449155
 31
0.0
 12
1777.87757262982
 22
834.88556788449125
 32
0.0
 13
1777.87757262982
 23
834.88556788449125
 33
0.0
  0
SOLID
  5
1EC
  8
NOTE
  6
CONTINUOUS
 62
     4
 10
1772.2970046298201
 20
855.71252988449135
 30
0.0
 11
1777.87757262982
 21
834.88556788449125
 31
0.0
 12
1777.87757262982
 22
854.21722088449155
 32
0.0
 13
1777.87757262982
 23
854.21722088449155
 33
0.0
  0
SOLID
  5
1ED
  8
NOTE
  6
CONTINUOUS
 62
     4
 10
1777.87757262982
 20
834.88556788449125
 30
0.0
 11
1772.2970046298201
 21
855.71252988449135
 31
0.0
 12
1772.2970046298201
 22
833.39025888449135
 32
0.0
 13
1772.2970046298201
 23
833.39025888449135
 33
0.0
  0
SOLID
  5
1EE
  8
NOTE
  6
CONTINUOUS
 62
     4
 10
1766.71643662982
 20
854.21722088449155
 30
0.0
 11
1772.2970046298201
 21
833.39025888449135
 31
0.0
 12
1772.2970046298201
 22
855.71252988449135
 32
0.0
 13
1772.2970046298201
 23
855.71252988449135
 33
0.0
  0
SOLID
  5
1EF
  8
NOTE
  6
CONTINUOUS
 62
     4
 10
1772.2970046298201
 20
833.39025888449135
 30
0.0
 11
1766.71643662982
 21
854.21722088449155
 31
0.0
 12
1766.71643662982
 22
834.88556788449125
 32
0.0
 13
1766.71643662982
 23
834.88556788449125
 33
0.0
  0
SOLID
  5
1F0
  8
NOTE
  6
CONTINUOUS
 62
     4
 10
1762.6311776298201
 20
850.13196188449024
 30
0.0
 11
1766.71643662982
 21
834.88556788449125
 31
0.0
 12
1766.71643662982
 22
854.21722088449155
 32
0.0
 13
1766.71643662982
 23
854.21722088449155
 33
0.0
  0
SOLID
  5
1F1
  8
NOTE
  6
CONTINUOUS
 62
     4
 10
1766.71643662982
 20
834.88556788449125
 30
0.0
 11
1762.6311776298201
 21
850.13196188449024
 31
0.0
 12
1762.6311776298201
 22
838.97082688449143
 32
0.0
 13
1762.6311776298201
 23
838.97082688449143
 33
0.0
  0
SOLID
  5
1F2
  8
NOTE
  6
CONTINUOUS
 62
     4
 10
1761.1358696298209
 20
844.55139488449129
 30
0.0
 11
1762.6311776298201
 21
838.97082688449143
 31
0.0
 12
1762.6311776298201
 22
850.13196188449024
 32
0.0
 13
1762.6311776298201
 23
850.13196188449024
 33
0.0
  0
LINE
  5
1F3
  8
NOTE
  6
CONTINUOUS
 62
     4
 10
1961.0163598544091
 20
1004.352754299111
 30
0.0
 11
1772.2970046298201
 21
844.55139488449129
 31
0.0
  0
ENDBLK
  5
1F5
  8
0
 62
     4
  0
BLOCK
  8
0
 62
     4
  2
A$C242B6CB5
 70
     0
 10
0.0
 20
0.0
 30
0.0
  3
A$C242B6CB5
  1

  0
TEXT
  5
1F7
  8
NOTE
  6
CONTINUOUS
 62
     4
 10
-0.000002397821163
 20
-0.0000054636239071
 30
0.0
 40
60.0
  1
AH 4-φ12
 50
0.000003
 41
0.635417
  7
STANDARD1
  0
LINE
  5
1F8
  8
NOTE
  6
CONTINUOUS
 62
     4
 10
2169.5598695557242
 20
1004.352754299111
 30
0.0
 11
1961.0163598544091
 21
1004.352754299111
 31
0.0
  0
TEXT
  5
1F9
  8
NOTE
  6
CONTINUOUS
 62
     4
 10
1975.514049854409
 20
1013.98518229911
 30
0.0
 40
60.0
  1
前吸込口
 50
0.000003
 41
0.635417
  7
STANDARD1
  0
CIRCLE
  5
1FA
  8
NOTE
  6
CONTINUOUS
 62
     4
 10
1772.2970046298201
 20
844.55139488449129
 30
0.0
 40
11.161136000000001
  0
SOLID
  5
1FB
  8
NOTE
  6
CONTINUOUS
 62
     4
 10
1783.4581406298209
 20
844.55139488449129
 30
0.0
 11
1781.962831629821
 21
850.13196188449024
 31
0.0
 12
1781.962831629821
 22
838.97082688449143
 32
0.0
 13
1781.962831629821
 23
838.97082688449143
 33
0.0
  0
SOLID
  5
1FC
  8
NOTE
  6
CONTINUOUS
 62
     4
 10
1777.87757262982
 20
854.21722088449155
 30
0.0
 11
1781.962831629821
 21
838.97082688449143
 31
0.0
 12
1781.962831629821
 22
850.13196188449024
 32
0.0
 13
1781.962831629821
 23
850.13196188449024
 33
0.0
  0
SOLID
  5
1FD
  8
NOTE
  6
CONTINUOUS
 62
     4
 10
1781.962831629821
 20
838.97082688449143
 30
0.0
 11
1777.87757262982
 21
854.21722088449155
 31
0.0
 12
1777.87757262982
 22
834.88556788449125
 32
0.0
 13
1777.87757262982
 23
834.88556788449125
 33
0.0
  0
SOLID
  5
1FE
  8
NOTE
  6
CONTINUOUS
 62
     4
 10
1772.2970046298201
 20
855.71252988449135
 30
0.0
 11
1777.87757262982
 21
834.88556788449125
 31
0.0
 12
1777.87757262982
 22
854.21722088449155
 32
0.0
 13
1777.87757262982
 23
854.21722088449155
 33
0.0
  0
SOLID
  5
1FF
  8
NOTE
  6
CONTINUOUS
 62
     4
 10
1777.87757262982
 20
834.88556788449125
 30
0.0
 11
1772.2970046298201
 21
855.71252988449135
 31
0.0
 12
1772.2970046298201
 22
833.39025888449135
 32
0.0
 13
1772.2970046298201
 23
833.39025888449135
 33
0.0
  0
SOLID
  5
200
  8
NOTE
  6
CONTINUOUS
 62
     4
 10
1766.71643662982
 20
854.21722088449155
 30
0.0
 11
1772.2970046298201
 21
833.39025888449135
 31
0.0
 12
1772.2970046298201
 22
855.71252988449135
 32
0.0
 13
1772.2970046298201
 23
855.71252988449135
 33
0.0
  0
SOLID
  5
201
  8
NOTE
  6
CONTINUOUS
 62
     4
 10
1772.2970046298201
 20
833.39025888449135
 30
0.0
 11
1766.71643662982
 21
854.21722088449155
 31
0.0
 12
1766.71643662982
 22
834.88556788449125
 32
0.0
 13
1766.71643662982
 23
834.88556788449125
 33
0.0
  0
SOLID
  5
202
  8
NOTE
  6
CONTINUOUS
 62
     4
 10
1762.6311776298201
 20
850.13196188449024
 30
0.0
 11
1766.71643662982
 21
834.88556788449125
 31
0.0
 12
1766.71643662982
 22
854.21722088449155
 32
0.0
 13
1766.71643662982
 23
854.21722088449155
 33
0.0
  0
SOLID
  5
203
  8
NOTE
  6
CONTINUOUS
 62
     4
 10
1766.71643662982
 20
834.88556788449125
 30
0.0
 11
1762.6311776298201
 21
850.13196188449024
 31
0.0
 12
1762.6311776298201
 22
838.97082688449143
 32
0.0
 13
1762.6311776298201
 23
838.97082688449143
 33
0.0
  0
SOLID
  5
204
  8
NOTE
  6
CONTINUOUS
 62
     4
 10
1761.1358696298209
 20
844.55139488449129
 30
0.0
 11
1762.6311776298201
 21
838.97082688449143
 31
0.0
 12
1762.6311776298201
 22
850.13196188449024
 32
0.0
 13
1762.6311776298201
 23
850.13196188449024
 33
0.0
  0
LINE
  5
205
  8
NOTE
  6
CONTINUOUS
 62
     4
 10
1961.0163598544091
 20
1004.352754299111
 30
0.0
 11
1772.2970046298201
 21
844.55139488449129
 31
0.0
  0
ENDBLK
  5
207
  8
0
 62
     4
  0
BLOCK
  8
0
 62
     4
  2
A$C45F246A4
 70
     0
 10
0.0
 20
0.0
 30
0.0
  3
A$C45F246A4
  1

  0
CIRCLE
  5
273
  8
FIX
  6
CONTINUOUS
 62
    11
 10
25.999944969164751
 20
31.59778152810031
 30
0.0
 40
20.0
  0
LINE
  5
274
  8
NOTE
  6
CONTINUOUS
 62
     4
 10
25.999944969164751
 20
0.0000000281003132
 30
0.0
 11
25.999944969164751
 21
63.19556302810031
 31
0.0
  0
LINE
  5
275
  8
NOTE
  6
CONTINUOUS
 62
     4
 10
48.674691969164769
 20
31.59778152810031
 30
0.0
 11
3.325197969164718
 21
31.59778152810031
 31
0.0
  0
ARC
  5
276
  8
DETAIL
  6
CONTINUOUS
 62
     5
 10
9.2000059691650904
 20
40.597781528100313
 30
0.0
 40
4.5
 50
180.0
 51
270.0
  0
ARC
  5
277
  8
DETAIL
  6
CONTINUOUS
 62
     5
 10
9.3452814578763501
 20
40.948507583227702
 30
0.0
 40
9.3518545072973573
 50
182.14928882107631
 51
269.109908395746
  0
LINE
  5
278
  8
DETAIL
  6
CONTINUOUS
 62
     5
 10
4.7000059691650877
 20
40.597781528100313
 30
0.0
 11
4.7000059691650877
 21
66.597781528100313
 31
0.0
  0
LINE
  5
279
  8
DETAIL
  6
CONTINUOUS
 62
     5
 10
39.999968969164911
 20
31.59778152810031
 30
0.0
 11
39.999968969164911
 21
36.09778152810032
 31
0.0
  0
LINE
  5
27A
  8
DETAIL
  6
CONTINUOUS
 62
     5
 10
9.2000059691650904
 20
36.09778152810032
 30
0.0
 11
39.999968969164911
 21
36.09778152810032
 31
0.0
  0
LINE
  5
27B
  8
DETAIL
  6
CONTINUOUS
 62
     5
 10
9.2000059691650904
 20
31.59778152810031
 30
0.0
 11
39.999968969164911
 21
31.59778152810031
 31
0.0
  0
LINE
  5
27C
  8
DETAIL
  6
CONTINUOUS
 62
     5
 10
4.7000059691650877
 20
66.597781528100313
 30
0.0
 11
0.0000059691649312
 21
66.597781528100313
 31
0.0
  0
LINE
  5
27D
  8
DETAIL
  6
CONTINUOUS
 62
     5
 10
0.0000059691649312
 20
31.59778152810031
 30
0.0
 11
0.0000059691649312
 21
71.597780528100316
 31
0.0
  0
ENDBLK
  5
27F
  8
0
 62
     4
  0
BLOCK
  8
0
 62
     4
  2
*D6
 70
     1
 10
0.0
 20
0.0
 30
0.0
  3
*D6
  1

  0
LINE
  5
5C2
  8
SIZE
  6
CONTINUOUS
 62
     0
 10
-492.49999999999989
 20
1870.0
 30
0.0
 11
-492.49999999999989
 21
2251.5482755848639
 31
0.0
  0
LINE
  5
5C3
  8
SIZE
  6
CONTINUOUS
 62
     0
 10
492.49999999999989
 20
1870.0
 30
0.0
 11
492.49999999999989
 21
2251.5482755848639
 31
0.0
  0
LINE
  5
5C4
  8
SIZE
  6
CONTINUOUS
 62
     0
 10
-482.5
 20
2231.5482755848652
 30
0.0
 11
482.5
 21
2231.5482755848652
 31
0.0
  0
INSERT
  5
5C5
  8
SIZE
  6
CONTINUOUS
 62
     0
  2
_DOTBLANK
 10
-492.49999999999989
 20
2231.5482755848652
 30
0.0
 41
10.0
 42
10.0
 43
10.0
 50
180.0
  0
INSERT
  5
5C6
  8
SIZE
  6
CONTINUOUS
 62
     0
  2
_DOTBLANK
 10
492.49999999999989
 20
2231.5482755848652
 30
0.0
 41
10.0
 42
10.0
 43
10.0
  0
INSERT
  5
5C7
  8
SYMBOLLINE
  6
CONTINUOUS
 62
     4
  2
*U7
 10
0.0
 20
0.0
 30
0.0
  0
POINT
  5
5C8
  8
DEFPOINTS
  6
CONTINUOUS
 62
     0
 10
-492.49999999999989
 20
1850.0
 30
0.0
  0
POINT
  5
5C9
  8
DEFPOINTS
  6
CONTINUOUS
 62
     0
 10
492.49999999999989
 20
1850.0
 30
0.0
  0
POINT
  5
5CA
  8
DEFPOINTS
  6
CONTINUOUS
 62
     0
 10
492.49999999999989
 20
2231.5482755848652
 30
0.0
  0
ENDBLK
  5
2A3
  8
0
 62
     4
  0
BLOCK
  8
0
 62
     4
  2
*U7
 70
     1
 10
0.0
 20
0.0
 30
0.0
  3
*U7
  1

  0
TEXT
  5
7B4
  8
SIZE
  6
CONTINUOUS
 62
     0
 10
-63.64285714285711
 20
2241.5482755848652
 30
0.0
 40
55.0
  1
985
 41
0.9
  0
ENDBLK
  5
7B6
  8
0
 62
     4
  0
BLOCK
  8
0
 62
     4
  2
A$C04F23BEA
 70
     0
 10
0.0
 20
0.0
 30
0.0
  3
A$C04F23BEA
  1

  0
TEXT
  5
327
  8
ETC
  6
CONTINUOUS
 62
    61
 10
1517.036992107496
 20
705.42965953987346
 30
0.0
 40
64.0
  1
PF-RP224BA5_1
 50
0.000003
 41
0.659722
  7
STANDARD1
  0
LINE
  5
328
  8
NOTE
  6
CONTINUOUS
 62
     4
 10
11.133197242566659
 20
0.0000024767359577
 30
0.0
 11
372.82497016876738
 21
0.0000024767359577
 31
0.0
  0
TEXT
  5
329
  8
NOTE
  6
CONTINUOUS
 62
     4
 10
29.493605050454558
 20
20.479858644394199
 30
0.0
 40
55.0
  1
RL %%C9.52
 41
0.9
  0
LINE
  5
32A
  8
NOTE
  6
CONTINUOUS
 62
     4
 10
-0.0000080492004599
 20
154.53239448389641
 30
0.0
 11
366.51390073862422
 21
154.53239448389641
 31
0.0
  0
TEXT
  5
32B
  8
NOTE
  6
CONTINUOUS
 62
     4
 10
18.36039975868562
 20
175.0122506515543
 30
0.0
 40
55.0
  1
RG %%C25.4
 41
0.9
  0
ENDBLK
  5
32D
  8
0
 62
     4
  0
BLOCK
  8
0
 62
     4
  2
*D9
 70
     1
 10
0.0
 20
0.0
 30
0.0
  3
*D9
  1

  0
LINE
  5
5B8
  8
SIZE
  6
CONTINUOUS
 62
     0
 10
-407.5
 20
1920.0000026347991
 30
0.0
 11
-407.5
 21
1984.1313860229241
 31
0.0
  0
LINE
  5
5B9
  8
SIZE
  6
CONTINUOUS
 62
     0
 10
-492.49999999999989
 20
1870.0
 30
0.0
 11
-492.49999999999989
 21
1984.1313860229241
 31
0.0
  0
LINE
  5
5BA
  8
SIZE
  6
CONTINUOUS
 62
     0
 10
-417.49999999999989
 20
1964.1313860229241
 30
0.0
 11
-482.5
 21
1964.1313860229241
 31
0.0
  0
LINE
  5
5BB
  8
SIZE
  6
CONTINUOUS
 62
     0
 10
-492.49999999999989
 20
1964.1313860229241
 30
0.0
 11
-602.64285714285711
 21
1964.1313860229241
 31
0.0
  0
INSERT
  5
5BC
  8
SIZE
  6
CONTINUOUS
 62
     0
  2
_DOTBLANK
 10
-407.5
 20
1964.1313860229241
 30
0.0
 41
10.0
 42
10.0
 43
10.0
  0
INSERT
  5
5BD
  8
SIZE
  6
CONTINUOUS
 62
     0
  2
_DOTBLANK
 10
-492.49999999999989
 20
1964.1313860229241
 30
0.0
 41
10.0
 42
10.0
 43
10.0
 50
180.0
  0
INSERT
  5
5BE
  8
SYMBOLLINE
  6
CONTINUOUS
 62
     4
  2
*U10
 10
0.0
 20
0.0
 30
0.0
  0
POINT
  5
5BF
  8
DEFPOINTS
  6
CONTINUOUS
 62
     0
 10
-407.5
 20
1900.0000026347991
 30
0.0
  0
POINT
  5
5C0
  8
DEFPOINTS
  6
CONTINUOUS
 62
     0
 10
-492.49999999999989
 20
1850.0
 30
0.0
  0
POINT
  5
5C1
  8
DEFPOINTS
  6
CONTINUOUS
 62
     0
 10
-492.49999999999989
 20
1964.1313860229241
 30
0.0
  0
ENDBLK
  5
3AF
  8
0
 62
     4
  0
BLOCK
  8
0
 62
     4
  2
*U10
 70
     1
 10
0.0
 20
0.0
 30
0.0
  3
*U10
  1

  0
TEXT
  5
7B0
  8
SIZE
  6
CONTINUOUS
 62
     0
 10
-592.64285714285711
 20
1974.131386022922
 30
0.0
 40
55.0
  1
85
 41
0.9
  0
ENDBLK
  5
7B2
  8
0
 62
     4
  0
BLOCK
  8
0
 62
     4
  2
*D11
 70
     1
 10
0.0
 20
0.0
 30
0.0
  3
*D11
  1

  0
LINE
  5
5AE
  8
SIZE
  6
CONTINUOUS
 62
     0
 10
-407.5
 20
1920.0000026347991
 30
0.0
 11
-407.5
 21
1984.1313860229241
 31
0.0
  0
LINE
  5
5AF
  8
SIZE
  6
CONTINUOUS
 62
     0
 10
-357.5
 20
1920.0000026347991
 30
0.0
 11
-357.5
 21
1984.1313860229241
 31
0.0
  0
LINE
  5
5B0
  8
SIZE
  6
CONTINUOUS
 62
     0
 10
-397.5
 20
1964.1313860229241
 30
0.0
 11
-367.5
 21
1964.1313860229241
 31
0.0
  0
LINE
  5
5B1
  8
SIZE
  6
CONTINUOUS
 62
     0
 10
-357.5
 20
1964.1313860229241
 30
0.0
 11
-247.35714285714289
 21
1964.1313860229241
 31
0.0
  0
INSERT
  5
5B2
  8
SIZE
  6
CONTINUOUS
 62
     0
  2
_DOTBLANK
 10
-407.5
 20
1964.1313860229241
 30
0.0
 41
10.0
 42
10.0
 43
10.0
 50
180.0
  0
INSERT
  5
5B3
  8
SIZE
  6
CONTINUOUS
 62
     0
  2
_DOTBLANK
 10
-357.5
 20
1964.1313860229241
 30
0.0
 41
10.0
 42
10.0
 43
10.0
  0
INSERT
  5
5B4
  8
SYMBOLLINE
  6
CONTINUOUS
 62
     4
  2
*U12
 10
0.0
 20
0.0
 30
0.0
  0
POINT
  5
5B5
  8
DEFPOINTS
  6
CONTINUOUS
 62
     0
 10
-407.5
 20
1900.0000026347991
 30
0.0
  0
POINT
  5
5B6
  8
DEFPOINTS
  6
CONTINUOUS
 62
     0
 10
-357.5
 20
1900.0000026347991
 30
0.0
  0
POINT
  5
5B7
  8
DEFPOINTS
  6
CONTINUOUS
 62
     0
 10
-357.5
 20
1964.1313860229241
 30
0.0
  0
ENDBLK
  5
3BD
  8
0
 62
     4
  0
BLOCK
  8
0
 62
     4
  2
*U12
 70
     1
 10
0.0
 20
0.0
 30
0.0
  3
*U12
  1

  0
TEXT
  5
7AC
  8
SIZE
  6
CONTINUOUS
 62
     0
 10
-337.5
 20
1974.131386022922
 30
0.0
 40
55.0
  1
50
 41
0.9
  0
ENDBLK
  5
7AE
  8
0
 62
     4
  0
BLOCK
  8
0
 62
     4
  2
*D13
 70
     1
 10
0.0
 20
0.0
 30
0.0
  3
*D13
  1

  0
LINE
  5
5A5
  8
SIZE
  6
CONTINUOUS
 62
     0
 10
357.5
 20
1920.0000026347991
 30
0.0
 11
357.5
 21
2082.4544503239999
 31
0.0
  0
LINE
  5
5A6
  8
SIZE
  6
CONTINUOUS
 62
     0
 10
-357.5
 20
1920.0
 30
0.0
 11
-357.5
 21
2082.4544503239999
 31
0.0
  0
LINE
  5
5A7
  8
SIZE
  6
CONTINUOUS
 62
     0
 10
347.5
 20
2062.4544503239999
 30
0.0
 11
-347.5
 21
2062.4544503239999
 31
0.0
  0
INSERT
  5
5A8
  8
SIZE
  6
CONTINUOUS
 62
     0
  2
_DOTBLANK
 10
357.5
 20
2062.4544503239999
 30
0.0
 41
10.0
 42
10.0
 43
10.0
  0
INSERT
  5
5A9
  8
SIZE
  6
CONTINUOUS
 62
     0
  2
_DOTBLANK
 10
-357.5
 20
2062.4544503239999
 30
0.0
 41
10.0
 42
10.0
 43
10.0
 50
180.0
  0
INSERT
  5
5AA
  8
SYMBOLLINE
  6
CONTINUOUS
 62
     4
  2
*U14
 10
0.0
 20
0.0
 30
0.0
  0
POINT
  5
5AB
  8
DEFPOINTS
  6
CONTINUOUS
 62
     0
 10
357.5
 20
1900.0000026347991
 30
0.0
  0
POINT
  5
5AC
  8
DEFPOINTS
  6
CONTINUOUS
 62
     0
 10
-357.5
 20
1900.0
 30
0.0
  0
POINT
  5
5AD
  8
DEFPOINTS
  6
CONTINUOUS
 62
     0
 10
-357.5
 20
2062.4544503239999
 30
0.0
  0
ENDBLK
  5
3CB
  8
0
 62
     4
  0
BLOCK
  8
0
 62
     4
  2
*U14
 70
     1
 10
0.0
 20
0.0
 30
0.0
  3
*U14
  1

  0
TEXT
  5
7A8
  8
SIZE
  6
CONTINUOUS
 62
     0
 10
-58.928571428571423
 20
2072.454450323999
 30
0.0
 40
55.0
  1
715
 41
0.9
  0
ENDBLK
  5
7AA
  8
0
 62
     4
  0
BLOCK
  8
0
 62
     4
  2
*D15
 70
     1
 10
0.0
 20
0.0
 30
0.0
  3
*D15
  1

  0
LINE
  5
61E
  8
SIZE
  6
CONTINUOUS
 62
     0
 10
-482.49999632344719
 20
-20.0
 30
0.0
 11
-482.49999632344719
 21
-197.350977602211
 31
0.0
  0
LINE
  5
61F
  8
SIZE
  6
CONTINUOUS
 62
     0
 10
-492.49999999999989
 20
50.0
 30
0.0
 11
-492.49999999999989
 21
-197.350977602211
 31
0.0
  0
LINE
  5
620
  8
SIZE
  6
CONTINUOUS
 62
     0
 10
-472.49999632344731
 20
-177.350977602211
 30
0.0
 11
-462.49999632344731
 21
-177.350977602211
 31
0.0
  0
LINE
  5
621
  8
SIZE
  6
CONTINUOUS
 62
     0
 10
-502.5
 20
-177.350977602211
 30
0.0
 11
-603.21428571428555
 21
-177.350977602211
 31
0.0
  0
LINE
  5
622
  8
SIZE
  6
CONTINUOUS
 62
     0
 10
-482.49999632344719
 20
-177.350977602211
 30
0.0
 11
-492.49999999999989
 21
-177.350977602211
 31
0.0
  0
INSERT
  5
623
  8
SIZE
  6
CONTINUOUS
 62
     0
  2
_DOTBLANK
 10
-482.49999632344719
 20
-177.350977602211
 30
0.0
 41
10.0
 42
10.0
 43
10.0
 50
180.0
  0
INSERT
  5
624
  8
SIZE
  6
CONTINUOUS
 62
     0
  2
_DOTBLANK
 10
-492.49999999999989
 20
-177.350977602211
 30
0.0
 41
10.0
 42
10.0
 43
10.0
  0
INSERT
  5
625
  8
SYMBOLLINE
  6
CONTINUOUS
 62
     4
  2
*U16
 10
0.0
 20
0.0
 30
0.0
  0
POINT
  5
626
  8
DEFPOINTS
  6
CONTINUOUS
 62
     0
 10
-482.49999632344719
 20
0.0
 30
0.0
  0
POINT
  5
627
  8
DEFPOINTS
  6
CONTINUOUS
 62
     0
 10
-492.49999999999989
 20
70.0
 30
0.0
  0
POINT
  5
628
  8
DEFPOINTS
  6
CONTINUOUS
 62
     0
 10
-492.49999999999989
 20
-177.350977602211
 30
0.0
  0
ENDBLK
  5
3FE
  8
0
 62
     4
  0
BLOCK
  8
0
 62
     4
  2
*U16
 70
     1
 10
0.0
 20
0.0
 30
0.0
  3
*U16
  1

  0
TEXT
  5
7DC
  8
SIZE
  6
CONTINUOUS
 62
     0
 10
-593.21428571428555
 20
-167.350977602211
 30
0.0
 40
55.0
  1
10
 41
0.9
  0
ENDBLK
  5
7DE
  8
0
 62
     4
  0
BLOCK
  8
0
 62
     4
  2
*D17
 70
     1
 10
0.0
 20
0.0
 30
0.0
  3
*D17
  1

  0
LINE
  5
615
  8
SIZE
  6
CONTINUOUS
 62
     0
 10
-482.49999632344719
 20
-20.0
 30
0.0
 11
-482.49999632344719
 21
-197.350977602211
 31
0.0
  0
LINE
  5
616
  8
SIZE
  6
CONTINUOUS
 62
     0
 10
482.50000367654962
 20
-19.99994931609924
 30
0.0
 11
482.50000367654962
 21
-197.350977602211
 31
0.0
  0
LINE
  5
617
  8
SIZE
  6
CONTINUOUS
 62
     0
 10
-472.49999632344731
 20
-177.350977602211
 30
0.0
 11
472.50000367654962
 21
-177.350977602211
 31
0.0
  0
INSERT
  5
618
  8
SIZE
  6
CONTINUOUS
 62
     0
  2
_DOTBLANK
 10
-482.49999632344719
 20
-177.350977602211
 30
0.0
 41
10.0
 42
10.0
 43
10.0
 50
180.0
  0
INSERT
  5
619
  8
SIZE
  6
CONTINUOUS
 62
     0
  2
_DOTBLANK
 10
482.50000367654962
 20
-177.350977602211
 30
0.0
 41
10.0
 42
10.0
 43
10.0
  0
INSERT
  5
61A
  8
SYMBOLLINE
  6
CONTINUOUS
 62
     4
  2
*U18
 10
0.0
 20
0.0
 30
0.0
  0
POINT
  5
61B
  8
DEFPOINTS
  6
CONTINUOUS
 62
     0
 10
-482.49999632344719
 20
0.0
 30
0.0
  0
POINT
  5
61C
  8
DEFPOINTS
  6
CONTINUOUS
 62
     0
 10
482.50000367654962
 20
0.0000506839007551
 30
0.0
  0
POINT
  5
61D
  8
DEFPOINTS
  6
CONTINUOUS
 62
     0
 10
482.50000367654962
 20
-177.350977602211
 30
0.0
  0
ENDBLK
  5
40D
  8
0
 62
     4
  0
BLOCK
  8
0
 62
     4
  2
*U18
 70
     1
 10
0.0
 20
0.0
 30
0.0
  3
*U18
  1

  0
TEXT
  5
7D8
  8
SIZE
  6
CONTINUOUS
 62
     0
 10
-63.642853466306001
 20
-167.350977602211
 30
0.0
 40
55.0
  1
965
 41
0.9
  0
ENDBLK
  5
7DA
  8
0
 62
     4
  0
BLOCK
  8
0
 62
     4
  2
*D19
 70
     1
 10
0.0
 20
0.0
 30
0.0
  3
*D19
  1

  0
LINE
  5
629
  8
SIZE
  6
CONTINUOUS
 62
     0
 10
482.50000367654962
 20
-19.99994931609924
 30
0.0
 11
482.50000367654962
 21
-197.350977602211
 31
0.0
  0
LINE
  5
62A
  8
SIZE
  6
CONTINUOUS
 62
     0
 10
492.49999999999989
 20
50.0
 30
0.0
 11
492.49999999999989
 21
-197.350977602211
 31
0.0
  0
LINE
  5
62B
  8
SIZE
  6
CONTINUOUS
 62
     0
 10
472.50000367654962
 20
-177.350977602211
 30
0.0
 11
462.50000367654968
 21
-177.350977602211
 31
0.0
  0
LINE
  5
62C
  8
SIZE
  6
CONTINUOUS
 62
     0
 10
502.5
 20
-177.350977602211
 30
0.0
 11
603.21428571428555
 21
-177.350977602211
 31
0.0
  0
LINE
  5
62D
  8
SIZE
  6
CONTINUOUS
 62
     0
 10
482.50000367654962
 20
-177.350977602211
 30
0.0
 11
492.49999999999989
 21
-177.350977602211
 31
0.0
  0
INSERT
  5
62E
  8
SIZE
  6
CONTINUOUS
 62
     0
  2
_DOTBLANK
 10
482.50000367654962
 20
-177.350977602211
 30
0.0
 41
10.0
 42
10.0
 43
10.0
  0
INSERT
  5
62F
  8
SIZE
  6
CONTINUOUS
 62
     0
  2
_DOTBLANK
 10
492.49999999999989
 20
-177.350977602211
 30
0.0
 41
10.0
 42
10.0
 43
10.0
 50
180.0
  0
INSERT
  5
630
  8
SYMBOLLINE
  6
CONTINUOUS
 62
     4
  2
*U20
 10
0.0
 20
0.0
 30
0.0
  0
POINT
  5
631
  8
DEFPOINTS
  6
CONTINUOUS
 62
     0
 10
482.50000367654962
 20
0.0000506839007551
 30
0.0
  0
POINT
  5
632
  8
DEFPOINTS
  6
CONTINUOUS
 62
     0
 10
492.49999999999989
 20
70.0
 30
0.0
  0
POINT
  5
633
  8
DEFPOINTS
  6
CONTINUOUS
 62
     0
 10
492.49999999999989
 20
-177.350977602211
 30
0.0
  0
ENDBLK
  5
41A
  8
0
 62
     4
  0
BLOCK
  8
0
 62
     4
  2
*U20
 70
     1
 10
0.0
 20
0.0
 30
0.0
  3
*U20
  1

  0
TEXT
  5
7E0
  8
SIZE
  6
CONTINUOUS
 62
     0
 10
522.5
 20
-167.350977602211
 30
0.0
 40
55.0
  1
10
 41
0.9
  0
ENDBLK
  5
7E2
  8
0
 62
     4
  0
BLOCK
  8
0
 62
     4
  2
*D21
 70
     1
 10
0.0
 20
0.0
 30
0.0
  3
*D21
  1

  0
LINE
  5
63E
  8
SIZE
  6
CONTINUOUS
 62
     0
 10
-362.5
 20
282.0
 30
0.0
 11
-362.5
 21
379.98734364557822
 31
0.0
  0
LINE
  5
63F
  8
SIZE
  6
CONTINUOUS
 62
     0
 10
-492.49999999999989
 20
90.0
 30
0.0
 11
-492.49999999999989
 21
379.98734364557822
 31
0.0
  0
LINE
  5
640
  8
SIZE
  6
CONTINUOUS
 62
     0
 10
-372.5
 20
359.98734364557822
 30
0.0
 11
-482.5
 21
359.98734364557822
 31
0.0
  0
LINE
  5
641
  8
SIZE
  6
CONTINUOUS
 62
     0
 10
-492.49999999999989
 20
359.98734364557822
 30
0.0
 11
-640.35714285714289
 21
359.98734364557822
 31
0.0
  0
INSERT
  5
642
  8
SIZE
  6
CONTINUOUS
 62
     0
  2
_DOTBLANK
 10
-362.5
 20
359.98734364557822
 30
0.0
 41
10.0
 42
10.0
 43
10.0
  0
INSERT
  5
643
  8
SIZE
  6
CONTINUOUS
 62
     0
  2
_DOTBLANK
 10
-492.49999999999989
 20
359.98734364557822
 30
0.0
 41
10.0
 42
10.0
 43
10.0
 50
180.0
  0
INSERT
  5
644
  8
SYMBOLLINE
  6
CONTINUOUS
 62
     4
  2
*U22
 10
0.0
 20
0.0
 30
0.0
  0
POINT
  5
645
  8
DEFPOINTS
  6
CONTINUOUS
 62
     0
 10
-362.5
 20
262.0
 30
0.0
  0
POINT
  5
646
  8
DEFPOINTS
  6
CONTINUOUS
 62
     0
 10
-492.49999999999989
 20
70.0
 30
0.0
  0
POINT
  5
647
  8
DEFPOINTS
  6
CONTINUOUS
 62
     0
 10
-492.49999999999989
 20
359.98734364557822
 30
0.0
  0
ENDBLK
  5
435
  8
0
 62
     4
  0
BLOCK
  8
0
 62
     4
  2
*U22
 70
     1
 10
0.0
 20
0.0
 30
0.0
  3
*U22
  1

  0
TEXT
  5
7E8
  8
SIZE
  6
CONTINUOUS
 62
     0
 10
-630.35714285714266
 20
369.98734364557822
 30
0.0
 40
55.0
  1
130
 41
0.9
  0
ENDBLK
  5
7EA
  8
0
 62
     4
  0
BLOCK
  8
0
 62
     4
  2
*D23
 70
     1
 10
0.0
 20
0.0
 30
0.0
  3
*D23
  1

  0
LINE
  5
60C
  8
SIZE
  6
CONTINUOUS
 62
     0
 10
-548.49999632344725
 20
0.0000026156522267
 30
0.0
 11
-685.71471328546613
 21
0.0000026156522656
 31
0.0
  0
LINE
  5
60D
  8
SIZE
  6
CONTINUOUS
 62
     0
 10
-347.5
 20
193.0
 30
0.0
 11
-685.71471328546613
 21
193.00000000000011
 31
0.0
  0
LINE
  5
60E
  8
SIZE
  6
CONTINUOUS
 62
     0
 10
-665.71471328546613
 20
10.00000261565226
 30
0.0
 11
-665.71471328546613
 21
183.00000000000011
 31
0.0
  0
INSERT
  5
60F
  8
SIZE
  6
CONTINUOUS
 62
     0
  2
_DOTBLANK
 10
-665.71471328546613
 20
0.0000026156522599
 30
0.0
 41
10.0
 42
10.0
 43
10.0
 50
270.0
  0
INSERT
  5
610
  8
SIZE
  6
CONTINUOUS
 62
     0
  2
_DOTBLANK
 10
-665.71471328546613
 20
193.00000000000011
 30
0.0
 41
10.0
 42
10.0
 43
10.0
 50
90.0
  0
INSERT
  5
611
  8
SYMBOLLINE
  6
CONTINUOUS
 62
     4
  2
*U24
 10
0.0
 20
0.0
 30
0.0
  0
POINT
  5
612
  8
DEFPOINTS
  6
CONTINUOUS
 62
     0
 10
-528.49999632344725
 20
0.000002615652221
 30
0.0
  0
POINT
  5
613
  8
DEFPOINTS
  6
CONTINUOUS
 62
     0
 10
-327.5
 20
193.0
 30
0.0
  0
POINT
  5
614
  8
DEFPOINTS
  6
CONTINUOUS
 62
     0
 10
-665.71471328546613
 20
193.00000000000011
 30
0.0
  0
ENDBLK
  5
443
  8
0
 62
     4
  0
BLOCK
  8
0
 62
     4
  2
*U24
 70
     1
 10
0.0
 20
0.0
 30
0.0
  3
*U24
  1

  0
TEXT
  5
7D4
  8
SIZE
  6
CONTINUOUS
 62
     0
 10
-675.71471328546613
 20
53.86723302841088
 30
0.0
 40
55.0
  1
193
 50
90.0
 41
0.9
  0
ENDBLK
  5
7D6
  8
0
 62
     4
  0
BLOCK
  8
0
 62
     4
  2
*D25
 70
     1
 10
0.0
 20
0.0
 30
0.0
  3
*D25
  1

  0
LINE
  5
451
  8
0
  6
CONTINUOUS
 62
     0
 10
-347.5
 20
193.0
 30
0.0
 11
-832.01257053825213
 21
193.00000000000011
 31
0.0
  0
LINE
  5
452
  8
0
  6
CONTINUOUS
 62
     0
 10
-402.5
 20
242.0
 30
0.0
 11
-832.01257053825213
 21
242.00000000000011
 31
0.0
  0
LINE
  5
453
  8
0
  6
CONTINUOUS
 62
     0
 10
-812.01257053825248
 20
203.00000000000011
 30
0.0
 11
-812.01257053825248
 21
232.00000000000011
 31
0.0
  0
LINE
  5
454
  8
0
  6
CONTINUOUS
 62
     0
 10
-812.01257053825248
 20
242.00000000000011
 30
0.0
 11
-812.01257053825213
 21
349.78571428571428
 31
0.0
  0
INSERT
  5
455
  8
0
  6
CONTINUOUS
 62
     0
  2
_DOTBLANK
 10
-812.01257053825248
 20
193.00000000000011
 30
0.0
 41
10.0
 42
10.0
 43
10.0
 50
270.0
  0
INSERT
  5
456
  8
0
  6
CONTINUOUS
 62
     0
  2
_DOTBLANK
 10
-812.01257053825248
 20
242.00000000000011
 30
0.0
 41
10.0
 42
10.0
 43
10.0
 50
90.0
  0
INSERT
  5
457
  8
SYMBOLLINE
  6
CONTINUOUS
 62
     4
  2
*U26
 10
0.0
 20
0.0
 30
0.0
  0
POINT
  5
458
  8
DEFPOINTS
  6
CONTINUOUS
 62
     0
 10
-327.5
 20
193.0
 30
0.0
  0
POINT
  5
459
  8
DEFPOINTS
  6
CONTINUOUS
 62
     0
 10
-382.5
 20
242.0
 30
0.0
  0
POINT
  5
45A
  8
DEFPOINTS
  6
CONTINUOUS
 62
     0
 10
-812.01257053825248
 20
242.00000000000011
 30
0.0
  0
ENDBLK
  5
450
  8
0
 62
     4
  0
BLOCK
  8
0
 62
     4
  2
*U26
 70
     1
 10
0.0
 20
0.0
 30
0.0
  3
*U26
  1

  0
TEXT
  5
7A0
  8
0
  6
CONTINUOUS
 62
     0
 10
-822.01257053825248
 20
262.0
 30
0.0
 40
55.0
  1
49
 50
90.0
 41
0.9
  0
ENDBLK
  5
7A2
  8
0
 62
     4
  0
BLOCK
  8
0
 62
     4
  2
*D27
 70
     1
 10
0.0
 20
0.0
 30
0.0
  3
*D27
  1

  0
LINE
  5
603
  8
SIZE
  6
CONTINUOUS
 62
     0
 10
-548.49999632344725
 20
0.0000026156522267
 30
0.0
 11
-787.26576296251699
 21
0.0000026156522943
 31
0.0
  0
LINE
  5
604
  8
SIZE
  6
CONTINUOUS
 62
     0
 10
-402.5
 20
242.0
 30
0.0
 11
-787.26576296251699
 21
242.00000000000011
 31
0.0
  0
LINE
  5
605
  8
SIZE
  6
CONTINUOUS
 62
     0
 10
-767.26576296251699
 20
10.00000261565229
 30
0.0
 11
-767.26576296251699
 21
232.00000000000011
 31
0.0
  0
INSERT
  5
606
  8
SIZE
  6
CONTINUOUS
 62
     0
  2
_DOTBLANK
 10
-767.26576296251699
 20
0.0000026156522887
 30
0.0
 41
10.0
 42
10.0
 43
10.0
 50
270.0
  0
INSERT
  5
607
  8
SIZE
  6
CONTINUOUS
 62
     0
  2
_DOTBLANK
 10
-767.26576296251699
 20
242.00000000000011
 30
0.0
 41
10.0
 42
10.0
 43
10.0
 50
90.0
  0
INSERT
  5
608
  8
SYMBOLLINE
  6
CONTINUOUS
 62
     4
  2
*U28
 10
0.0
 20
0.0
 30
0.0
  0
POINT
  5
609
  8
DEFPOINTS
  6
CONTINUOUS
 62
     0
 10
-528.49999632344725
 20
0.000002615652221
 30
0.0
  0
POINT
  5
60A
  8
DEFPOINTS
  6
CONTINUOUS
 62
     0
 10
-382.5
 20
242.0
 30
0.0
  0
POINT
  5
60B
  8
DEFPOINTS
  6
CONTINUOUS
 62
     0
 10
-767.26576296251699
 20
242.00000000000011
 30
0.0
  0
ENDBLK
  5
470
  8
0
 62
     4
  0
BLOCK
  8
0
 62
     4
  2
*U28
 70
     1
 10
0.0
 20
0.0
 30
0.0
  3
*U28
  1

  0
TEXT
  5
7D0
  8
SIZE
  6
CONTINUOUS
 62
     0
 10
-777.2657629625171
 20
57.357144164968901
 30
0.0
 40
55.0
  1
242
 50
90.0
 41
0.9
  0
ENDBLK
  5
7D2
  8
0
 62
     4
  0
BLOCK
  8
0
 62
     4
  2
*D29
 70
     1
 10
0.0
 20
0.0
 30
0.0
  3
*D29
  1

  0
LINE
  5
634
  8
SIZE
  6
CONTINUOUS
 62
     0
 10
-362.5
 20
282.0
 30
0.0
 11
-362.5
 21
379.98734364557822
 31
0.0
  0
LINE
  5
635
  8
SIZE
  6
CONTINUOUS
 62
     0
 10
-307.5
 20
233.0
 30
0.0
 11
-307.5
 21
379.98734364557822
 31
0.0
  0
LINE
  5
636
  8
SIZE
  6
CONTINUOUS
 62
     0
 10
-352.5
 20
359.98734364557822
 30
0.0
 11
-317.5
 21
359.98734364557822
 31
0.0
  0
LINE
  5
637
  8
SIZE
  6
CONTINUOUS
 62
     0
 10
-307.5
 20
359.98734364557822
 30
0.0
 11
-197.3571428571428
 21
359.98734364557822
 31
0.0
  0
INSERT
  5
638
  8
SIZE
  6
CONTINUOUS
 62
     0
  2
_DOTBLANK
 10
-362.5
 20
359.98734364557822
 30
0.0
 41
10.0
 42
10.0
 43
10.0
 50
180.0
  0
INSERT
  5
639
  8
SIZE
  6
CONTINUOUS
 62
     0
  2
_DOTBLANK
 10
-307.5
 20
359.98734364557822
 30
0.0
 41
10.0
 42
10.0
 43
10.0
  0
INSERT
  5
63A
  8
SYMBOLLINE
  6
CONTINUOUS
 62
     4
  2
*U30
 10
0.0
 20
0.0
 30
0.0
  0
POINT
  5
63B
  8
DEFPOINTS
  6
CONTINUOUS
 62
     0
 10
-362.5
 20
262.0
 30
0.0
  0
POINT
  5
63C
  8
DEFPOINTS
  6
CONTINUOUS
 62
     0
 10
-307.5
 20
213.0
 30
0.0
  0
POINT
  5
63D
  8
DEFPOINTS
  6
CONTINUOUS
 62
     0
 10
-307.5
 20
359.98734364557822
 30
0.0
  0
ENDBLK
  5
487
  8
0
 62
     4
  0
BLOCK
  8
0
 62
     4
  2
*U30
 70
     1
 10
0.0
 20
0.0
 30
0.0
  3
*U30
  1

  0
TEXT
  5
7E4
  8
SIZE
  6
CONTINUOUS
 62
     0
 10
-287.5
 20
369.98734364557822
 30
0.0
 40
55.0
  1
55
 41
0.9
  0
ENDBLK
  5
7E6
  8
0
 62
     4
  0
BLOCK
  8
0
 62
     4
  2
*D31
 70
     1
 10
0.0
 20
0.0
 30
0.0
  3
*D31
  1

  0
LINE
  5
5FA
  8
SIZE
  6
CONTINUOUS
 62
     0
 10
548.5
 20
-0.0000000000000057
 30
0.0
 11
889.28498667947099
 21
-0.0000000000001022
 31
0.0
  0
LINE
  5
5FB
  8
SIZE
  6
CONTINUOUS
 62
     0
 10
512.5
 20
915.0
 30
0.0
 11
889.28498667947144
 21
914.99999999999955
 31
0.0
  0
LINE
  5
5FC
  8
SIZE
  6
CONTINUOUS
 62
     0
 10
869.2849866794711
 20
9.9999999999999023
 30
0.0
 11
869.28498667947144
 21
904.99999999999966
 31
0.0
  0
INSERT
  5
5FD
  8
SIZE
  6
CONTINUOUS
 62
     0
  2
_DOTBLANK
 10
869.2849866794711
 20
-0.0000000000000965
 30
0.0
 41
10.0
 42
10.0
 43
10.0
 50
270.0
  0
INSERT
  5
5FE
  8
SIZE
  6
CONTINUOUS
 62
     0
  2
_DOTBLANK
 10
869.28498667947144
 20
914.99999999999955
 30
0.0
 41
10.0
 42
10.0
 43
10.0
 50
90.0
  0
INSERT
  5
5FF
  8
SYMBOLLINE
  6
CONTINUOUS
 62
     4
  2
*U32
 10
0.0
 20
0.0
 30
0.0
  0
POINT
  5
600
  8
DEFPOINTS
  6
CONTINUOUS
 62
     0
 10
528.5
 20
0.0
 30
0.0
  0
POINT
  5
601
  8
DEFPOINTS
  6
CONTINUOUS
 62
     0
 10
492.49999999999989
 20
915.0
 30
0.0
  0
POINT
  5
602
  8
DEFPOINTS
  6
CONTINUOUS
 62
     0
 10
869.28498667947144
 20
914.99999999999955
 30
0.0
  0
ENDBLK
  5
498
  8
0
 62
     4
  0
BLOCK
  8
0
 62
     4
  2
*U32
 70
     1
 10
0.0
 20
0.0
 30
0.0
  3
*U32
  1

  0
TEXT
  5
7CC
  8
SIZE
  6
CONTINUOUS
 62
     0
 10
859.2849866794711
 20
398.57142857142878
 30
0.0
 40
55.0
  1
915
 50
90.0
 41
0.9
  0
ENDBLK
  5
7CE
  8
0
 62
     4
  0
BLOCK
  8
0
 62
     4
  2
*D33
 70
     1
 10
0.0
 20
0.0
 30
0.0
  3
*D33
  1

  0
LINE
  5
5F1
  8
SIZE
  6
CONTINUOUS
 62
     0
 10
512.5
 20
915.0
 30
0.0
 11
889.28498667947144
 21
914.99999999999955
 31
0.0
  0
LINE
  5
5F2
  8
SIZE
  6
CONTINUOUS
 62
     0
 10
512.5
 20
1000.0
 30
0.0
 11
889.28498667947144
 21
999.99999999999955
 31
0.0
  0
LINE
  5
5F3
  8
SIZE
  6
CONTINUOUS
 62
     0
 10
869.28498667947144
 20
924.99999999999955
 30
0.0
 11
869.28498667947144
 21
989.99999999999955
 31
0.0
  0
INSERT
  5
5F4
  8
SIZE
  6
CONTINUOUS
 62
     0
  2
_DOTBLANK
 10
869.28498667947144
 20
914.99999999999955
 30
0.0
 41
10.0
 42
10.0
 43
10.0
 50
270.0
  0
INSERT
  5
5F5
  8
SIZE
  6
CONTINUOUS
 62
     0
  2
_DOTBLANK
 10
869.28498667947144
 20
999.99999999999955
 30
0.0
 41
10.0
 42
10.0
 43
10.0
 50
90.0
  0
INSERT
  5
5F6
  8
SYMBOLLINE
  6
CONTINUOUS
 62
     4
  2
*U34
 10
0.0
 20
0.0
 30
0.0
  0
POINT
  5
5F7
  8
DEFPOINTS
  6
CONTINUOUS
 62
     0
 10
492.49999999999989
 20
915.0
 30
0.0
  0
POINT
  5
5F8
  8
DEFPOINTS
  6
CONTINUOUS
 62
     0
 10
492.49999999999989
 20
1000.0
 30
0.0
  0
POINT
  5
5F9
  8
DEFPOINTS
  6
CONTINUOUS
 62
     0
 10
869.28498667947144
 20
999.99999999999955
 30
0.0
  0
ENDBLK
  5
4A5
  8
0
 62
     4
  0
BLOCK
  8
0
 62
     4
  2
*U34
 70
     1
 10
0.0
 20
0.0
 30
0.0
  3
*U34
  1

  0
TEXT
  5
7C8
  8
SIZE
  6
CONTINUOUS
 62
     0
 10
859.28498667947144
 20
917.42857142857144
 30
0.0
 40
55.0
  1
85
 50
90.0
 41
0.9
  0
ENDBLK
  5
7CA
  8
0
 62
     4
  0
BLOCK
  8
0
 62
     4
  2
*D35
 70
     1
 10
0.0
 20
0.0
 30
0.0
  3
*D35
  1

  0
LINE
  5
4BD
  8
0
  6
CONTINUOUS
 62
     0
 10
512.5
 20
1849.9999999999991
 30
0.0
 11
854.99278497317584
 21
1849.9999999999991
 31
0.0
  0
LINE
  5
4BE
  8
0
  6
CONTINUOUS
 62
     0
 10
512.5
 20
1545.0
 30
0.0
 11
854.99278497317573
 21
1545.0
 31
0.0
  0
LINE
  5
4BF
  8
0
  6
CONTINUOUS
 62
     0
 10
834.99278497317562
 20
1840.0
 30
0.0
 11
834.99278497317562
 21
1555.0
 31
0.0
  0
INSERT
  5
4C0
  8
0
  6
CONTINUOUS
 62
     0
  2
_DOTBLANK
 10
834.99278497317562
 20
1849.9999999999991
 30
0.0
 41
10.0
 42
10.0
 43
10.0
 50
90.0
  0
INSERT
  5
4C1
  8
0
  6
CONTINUOUS
 62
     0
  2
_DOTBLANK
 10
834.99278497317562
 20
1545.0
 30
0.0
 41
10.0
 42
10.0
 43
10.0
 50
270.0
  0
INSERT
  5
4C2
  8
SYMBOLLINE
  6
CONTINUOUS
 62
     4
  2
*U36
 10
0.0
 20
0.0
 30
0.0
  0
POINT
  5
4C3
  8
DEFPOINTS
  6
CONTINUOUS
 62
     0
 10
492.49999999999989
 20
1850.0
 30
0.0
  0
POINT
  5
4C4
  8
DEFPOINTS
  6
CONTINUOUS
 62
     0
 10
492.49999999999989
 20
1545.0
 30
0.0
  0
POINT
  5
4C5
  8
DEFPOINTS
  6
CONTINUOUS
 62
     0
 10
834.99278497317562
 20
1545.0
 30
0.0
  0
ENDBLK
  5
4BC
  8
0
 62
     4
  0
BLOCK
  8
0
 62
     4
  2
*U36
 70
     1
 10
0.0
 20
0.0
 30
0.0
  3
*U36
  1

  0
TEXT
  5
7A4
  8
0
  6
CONTINUOUS
 62
     0
 10
824.99278497317539
 20
1633.8571428571429
 30
0.0
 40
55.0
  1
305
 50
90.0
 41
0.9
  0
ENDBLK
  5
7A6
  8
0
 62
     4
  0
BLOCK
  8
0
 62
     4
  2
*D37
 70
     1
 10
0.0
 20
0.0
 30
0.0
  3
*D37
  1

  0
LINE
  5
5E8
  8
SIZE
  6
CONTINUOUS
 62
     0
 10
512.5
 20
1000.0
 30
0.0
 11
889.28498667947144
 21
999.99999999999955
 31
0.0
  0
LINE
  5
5E9
  8
SIZE
  6
CONTINUOUS
 62
     0
 10
512.5
 20
1545.0
 30
0.0
 11
889.28498667947144
 21
1545.0
 31
0.0
  0
LINE
  5
5EA
  8
SIZE
  6
CONTINUOUS
 62
     0
 10
869.28498667947144
 20
1010.0
 30
0.0
 11
869.28498667947144
 21
1535.0
 31
0.0
  0
INSERT
  5
5EB
  8
SIZE
  6
CONTINUOUS
 62
     0
  2
_DOTBLANK
 10
869.28498667947144
 20
999.99999999999955
 30
0.0
 41
10.0
 42
10.0
 43
10.0
 50
270.0
  0
INSERT
  5
5EC
  8
SIZE
  6
CONTINUOUS
 62
     0
  2
_DOTBLANK
 10
869.28498667947144
 20
1545.0
 30
0.0
 41
10.0
 42
10.0
 43
10.0
 50
90.0
  0
INSERT
  5
5ED
  8
SYMBOLLINE
  6
CONTINUOUS
 62
     4
  2
*U38
 10
0.0
 20
0.0
 30
0.0
  0
POINT
  5
5EE
  8
DEFPOINTS
  6
CONTINUOUS
 62
     0
 10
492.49999999999989
 20
1000.0
 30
0.0
  0
POINT
  5
5EF
  8
DEFPOINTS
  6
CONTINUOUS
 62
     0
 10
492.49999999999989
 20
1545.0
 30
0.0
  0
POINT
  5
5F0
  8
DEFPOINTS
  6
CONTINUOUS
 62
     0
 10
869.28498667947144
 20
1545.0
 30
0.0
  0
ENDBLK
  5
4C9
  8
0
 62
     4
  0
BLOCK
  8
0
 62
     4
  2
*U38
 70
     1
 10
0.0
 20
0.0
 30
0.0
  3
*U38
  1

  0
TEXT
  5
7C4
  8
SIZE
  6
CONTINUOUS
 62
     0
 10
859.28498667947144
 20
1208.8571428571429
 30
0.0
 40
55.0
  1
545
 50
90.0
 41
0.9
  0
ENDBLK
  5
7C6
  8
0
 62
     4
  0
BLOCK
  8
0
 62
     4
  2
*D39
 70
     1
 10
0.0
 20
0.0
 30
0.0
  3
*D39
  1

  0
LINE
  5
5DF
  8
SIZE
  6
CONTINUOUS
 62
     0
 10
512.5
 20
1825.0
 30
0.0
 11
889.28498667947144
 21
1825.0
 31
0.0
  0
LINE
  5
5E0
  8
SIZE
  6
CONTINUOUS
 62
     0
 10
512.5
 20
1545.0
 30
0.0
 11
889.28498667947144
 21
1545.0
 31
0.0
  0
LINE
  5
5E1
  8
SIZE
  6
CONTINUOUS
 62
     0
 10
869.28498667947144
 20
1815.0
 30
0.0
 11
869.28498667947144
 21
1555.0
 31
0.0
  0
INSERT
  5
5E2
  8
SIZE
  6
CONTINUOUS
 62
     0
  2
_DOTBLANK
 10
869.28498667947144
 20
1825.0
 30
0.0
 41
10.0
 42
10.0
 43
10.0
 50
90.0
  0
INSERT
  5
5E3
  8
SIZE
  6
CONTINUOUS
 62
     0
  2
_DOTBLANK
 10
869.28498667947144
 20
1545.0
 30
0.0
 41
10.0
 42
10.0
 43
10.0
 50
270.0
  0
INSERT
  5
5E4
  8
SYMBOLLINE
  6
CONTINUOUS
 62
     4
  2
*U40
 10
0.0
 20
0.0
 30
0.0
  0
POINT
  5
5E5
  8
DEFPOINTS
  6
CONTINUOUS
 62
     0
 10
492.49999999999989
 20
1825.0
 30
0.0
  0
POINT
  5
5E6
  8
DEFPOINTS
  6
CONTINUOUS
 62
     0
 10
492.49999999999989
 20
1545.0
 30
0.0
  0
POINT
  5
5E7
  8
DEFPOINTS
  6
CONTINUOUS
 62
     0
 10
869.28498667947144
 20
1545.0
 30
0.0
  0
ENDBLK
  5
4D6
  8
0
 62
     4
  0
BLOCK
  8
0
 62
     4
  2
*U40
 70
     1
 10
0.0
 20
0.0
 30
0.0
  3
*U40
  1

  0
TEXT
  5
7C0
  8
SIZE
  6
CONTINUOUS
 62
     0
 10
859.28498667947144
 20
1621.357142857142
 30
0.0
 40
55.0
  1
280
 50
90.0
 41
0.9
  0
ENDBLK
  5
7C2
  8
0
 62
     4
  0
BLOCK
  8
0
 62
     4
  2
*D41
 70
     1
 10
0.0
 20
0.0
 30
0.0
  3
*D41
  1

  0
LINE
  5
5D4
  8
SIZE
  6
CONTINUOUS
 62
     0
 10
512.5
 20
1825.0
 30
0.0
 11
889.28498667947144
 21
1825.0
 31
0.0
  0
LINE
  5
5D5
  8
SIZE
  6
CONTINUOUS
 62
     0
 10
512.5
 20
1849.9999999999991
 30
0.0
 11
889.28498667947144
 21
1849.9999999999991
 31
0.0
  0
LINE
  5
5D6
  8
SIZE
  6
CONTINUOUS
 62
     0
 10
869.28498667947144
 20
1815.0
 30
0.0
 11
869.28498667947144
 21
1804.9999999999991
 31
0.0
  0
LINE
  5
5D7
  8
SIZE
  6
CONTINUOUS
 62
     0
 10
869.28498667947144
 20
1860.0
 30
0.0
 11
869.28498667947144
 21
1970.1428571428571
 31
0.0
  0
LINE
  5
5D8
  8
SIZE
  6
CONTINUOUS
 62
     0
 10
869.28498667947144
 20
1825.0
 30
0.0
 11
869.28498667947144
 21
1849.9999999999991
 31
0.0
  0
INSERT
  5
5D9
  8
SIZE
  6
CONTINUOUS
 62
     0
  2
_DOTBLANK
 10
869.28498667947144
 20
1825.0
 30
0.0
 41
10.0
 42
10.0
 43
10.0
 50
90.0
  0
INSERT
  5
5DA
  8
SIZE
  6
CONTINUOUS
 62
     0
  2
_DOTBLANK
 10
869.28498667947144
 20
1849.9999999999991
 30
0.0
 41
10.0
 42
10.0
 43
10.0
 50
270.0
  0
INSERT
  5
5DB
  8
SYMBOLLINE
  6
CONTINUOUS
 62
     4
  2
*U42
 10
0.0
 20
0.0
 30
0.0
  0
POINT
  5
5DC
  8
DEFPOINTS
  6
CONTINUOUS
 62
     0
 10
492.49999999999989
 20
1825.0
 30
0.0
  0
POINT
  5
5DD
  8
DEFPOINTS
  6
CONTINUOUS
 62
     0
 10
492.49999999999989
 20
1850.0
 30
0.0
  0
POINT
  5
5DE
  8
DEFPOINTS
  6
CONTINUOUS
 62
     0
 10
869.28498667947144
 20
1849.9999999999991
 30
0.0
  0
ENDBLK
  5
4E3
  8
0
 62
     4
  0
BLOCK
  8
0
 62
     4
  2
*U42
 70
     1
 10
0.0
 20
0.0
 30
0.0
  3
*U42
  1

  0
TEXT
  5
7BC
  8
SIZE
  6
CONTINUOUS
 62
     0
 10
859.28498667947144
 20
1880.0
 30
0.0
 40
55.0
  1
25
 50
90.0
 41
0.9
  0
ENDBLK
  5
7BE
  8
0
 62
     4
  0
BLOCK
  8
0
 62
     4
  2
*D43
 70
     1
 10
0.0
 20
0.0
 30
0.0
  3
*D43
  1

  0
LINE
  5
5CB
  8
SIZE
  6
CONTINUOUS
 62
     0
 10
512.5
 20
1849.9999999999991
 30
0.0
 11
1073.7972970529811
 21
1849.9999999999991
 31
0.0
  0
LINE
  5
5CC
  8
SIZE
  6
CONTINUOUS
 62
     0
 10
548.5
 20
-0.0000000000000057
 30
0.0
 11
1073.7972970529811
 21
-0.0000000000001545
 31
0.0
  0
LINE
  5
5CD
  8
SIZE
  6
CONTINUOUS
 62
     0
 10
1053.7972970529811
 20
1840.0
 30
0.0
 11
1053.7972970529811
 21
9.9999999999998472
 31
0.0
  0
INSERT
  5
5CE
  8
SIZE
  6
CONTINUOUS
 62
     0
  2
_DOTBLANK
 10
1053.7972970529811
 20
1849.9999999999991
 30
0.0
 41
10.0
 42
10.0
 43
10.0
 50
90.0
  0
INSERT
  5
5CF
  8
SIZE
  6
CONTINUOUS
 62
     0
  2
_DOTBLANK
 10
1053.7972970529811
 20
-0.0000000000001488
 30
0.0
 41
10.0
 42
10.0
 43
10.0
 50
270.0
  0
INSERT
  5
5D0
  8
SYMBOLLINE
  6
CONTINUOUS
 62
     4
  2
*U44
 10
0.0
 20
0.0
 30
0.0
  0
POINT
  5
5D1
  8
DEFPOINTS
  6
CONTINUOUS
 62
     0
 10
492.49999999999989
 20
1850.0
 30
0.0
  0
POINT
  5
5D2
  8
DEFPOINTS
  6
CONTINUOUS
 62
     0
 10
528.5
 20
0.0
 30
0.0
  0
POINT
  5
5D3
  8
DEFPOINTS
  6
CONTINUOUS
 62
     0
 10
1053.7972970529811
 20
-0.0000000000001488
 30
0.0
  0
ENDBLK
  5
4F2
  8
0
 62
     4
  0
BLOCK
  8
0
 62
     4
  2
*U44
 70
     1
 10
0.0
 20
0.0
 30
0.0
  3
*U44
  1

  0
TEXT
  5
7B8
  8
SIZE
  6
CONTINUOUS
 62
     0
 10
1043.7972970529811
 20
842.49999999999966
 30
0.0
 40
55.0
  1
1850
 50
90.0
 41
0.9
  0
ENDBLK
  5
7BA
  8
0
 62
     4
  0
ENDSEC
  0
SECTION
  2
ENTITIES
  0
LINE
  5
45
  8
NOTE
  6
CONTINUOUS
 62
     4
 10
-465.0
 20
1900.0
 30
0.0
 11
-465.0
 21
1860.0
 31
0.0
  0
LINE
  5
46
  8
NOTE
  6
CONTINUOUS
 62
     4
 10
-445.00000000000011
 20
1880.0
 30
0.0
 11
-485.0
 21
1880.0
 31
0.0
  0
LINE
  5
47
  8
NOTE
  6
CONTINUOUS
 62
     4
 10
-515.0
 20
1900.0
 30
0.0
 11
-515.0
 21
1860.0
 31
0.0
  0
LINE
  5
48
  8
NOTE
  6
CONTINUOUS
 62
     4
 10
-495.00000000000011
 20
1880.0
 30
0.0
 11
-535.0
 21
1880.0
 31
0.0
  0
LINE
  5
49
  8
DETAIL
  6
CONTINUOUS
 62
     5
 10
-550.0
 20
1900.0
 30
0.0
 11
-430.0
 21
1900.0
 31
0.0
  0
LINE
  5
4A
  8
DETAIL
  6
CONTINUOUS
 62
     5
 10
-550.0
 20
1900.0
 30
0.0
 11
-550.0
 21
1850.0
 31
0.0
  0
LINE
  5
4B
  8
DETAIL
  6
CONTINUOUS
 62
     5
 10
-430.0
 20
1900.0
 30
0.0
 11
-430.0
 21
1850.0
 31
0.0
  0
LINE
  5
50
  8
NOTE
  6
CONTINUOUS
 62
     4
 10
-413.0
 20
193.0
 30
0.0
 11
-640.91402591977339
 21
754.24415243317094
 31
0.0
  0
LINE
  5
53
  8
NOTE
  6
CONTINUOUS
 62
     4
 10
-471.0
 20
242.0
 30
0.0
 11
-670.88995266058896
 21
609.28978375983218
 31
0.0
  0
LINE
  5
54
  8
NOTE
  6
CONTINUOUS
 62
     4
 10
-451.0
 20
242.0
 30
0.0
 11
-491.0
 21
242.0
 31
0.0
  0
LINE
  5
55
  8
NOTE
  6
CONTINUOUS
 62
     4
 10
-471.0
 20
222.0
 30
0.0
 11
-471.0
 21
262.0
 31
0.0
  0
LINE
  5
56
  8
NOTE
  6
CONTINUOUS
 62
     4
 10
-393.0
 20
193.0
 30
0.0
 11
-433.0
 21
193.0
 31
0.0
  0
LINE
  5
57
  8
NOTE
  6
CONTINUOUS
 62
     4
 10
-413.0
 20
173.0
 30
0.0
 11
-413.0
 21
213.0
 31
0.0
  0
LINE
  5
70
  8
DETAIL
  6
CONTINUOUS
 62
     5
 10
561.99998532307291
 20
1544.9999999999991
 30
0.0
 11
561.99998532307291
 21
69.999999999999318
 31
0.0
  0
LINE
  5
71
  8
DETAIL
  6
CONTINUOUS
 62
     5
 10
-562.0
 20
1545.0
 30
0.0
 11
-562.0
 21
70.0
 31
0.0
  0
LINE
  5
72
  8
DETAIL
  6
CONTINUOUS
 62
     5
 10
-600.0
 20
70.0
 30
0.0
 11
599.99998532307291
 21
70.0
 31
0.0
  0
LINE
  5
73
  8
DETAIL
  6
CONTINUOUS
 62
     5
 10
-562.0
 20
915.0
 30
0.0
 11
561.99998532307291
 21
915.0
 31
0.0
  0
LINE
  5
74
  8
DETAIL
  6
CONTINUOUS
 62
     5
 10
-562.0
 20
1000.0
 30
0.0
 11
561.99998532307291
 21
1000.0
 31
0.0
  0
LINE
  5
75
  8
DETAIL
  6
CONTINUOUS
 62
     5
 10
-600.0
 20
1545.0
 30
0.0
 11
599.99998532307291
 21
1545.0
 31
0.0
  0
LINE
  5
76
  8
DETAIL
  6
CONTINUOUS
 62
     5
 10
-600.0
 20
1825.0
 30
0.0
 11
599.99998532307291
 21
1825.0
 31
0.0
  0
POINT
  5
77
  8
ARRANGE
  6
CONTINUOUS
 62
     1
 10
0.0
 20
0.0
 30
0.0
  0
LINE
  5
78
  8
BASIS
  6
DASHDOT
 62
     6
 10
0.0
 20
1900.0
 30
0.0
 11
0.0
 21
-100.0
 31
0.0
  0
LINE
  5
79
  8
DETAIL
  6
CONTINUOUS
 62
     5
 10
-589.99999632344725
 20
0.0
 30
0.0
 11
589.99998899962543
 21
-0.0000026156529031
 31
0.0
  0
LINE
  5
7A
  8
DETAIL
  6
CONTINUOUS
 62
     5
 10
-600.0
 20
1850.0
 30
0.0
 11
600.0
 21
1850.0
 31
0.0
  0
LINE
  5
7B
  8
DETAIL
  6
CONTINUOUS
 62
     5
 10
599.99998532307291
 20
1849.9999999999991
 30
0.0
 11
599.99998532307291
 21
69.999999999999318
 31
0.0
  0
LINE
  5
7C
  8
DETAIL
  6
CONTINUOUS
 62
     5
 10
-600.0
 20
1850.0
 30
0.0
 11
-600.0
 21
70.0
 31
0.0
  0
CIRCLE
  5
7D
  8
ARRANGE
  6
CONTINUOUS
 62
     1
 10
0.0
 20
0.0
 30
0.0
 40
40.0
  0
CIRCLE
  5
82
  8
FIX
  6
CONTINUOUS
 62
    11
 10
-515.0
 20
1880.0
 30
0.0
 40
15.0
  0
CIRCLE
  5
83
  8
FIX
  6
CONTINUOUS
 62
    11
 10
-465.0
 20
1880.0
 30
0.0
 40
15.0
  0
LINE
  5
86
  8
OUTLINE
  6
CONTINUOUS
 62
     3
 10
-600.0
 20
1850.0
 30
0.0
 11
-600.0
 21
70.0
 31
0.0
  0
LINE
  5
87
  8
OUTLINE
  6
CONTINUOUS
 62
     3
 10
599.99998532307291
 20
1849.9999999999991
 30
0.0
 11
599.99998532307291
 21
69.999999999999318
 31
0.0
  0
LINE
  5
88
  8
OUTLINE
  6
CONTINUOUS
 62
     3
 10
-600.0
 20
1850.0
 30
0.0
 11
600.0
 21
1850.0
 31
0.0
  0
LINE
  5
89
  8
OUTLINE
  6
CONTINUOUS
 62
     3
 10
-589.99999632344725
 20
0.0
 30
0.0
 11
589.99998899962543
 21
-0.0000026156529031
 31
0.0
  0
LINE
  5
8D
  8
OUTLINE
  6
CONTINUOUS
 62
     3
 10
-600.0
 20
70.0
 30
0.0
 11
599.99998532307291
 21
70.0
 31
0.0
  0
LINE
  5
21A
  8
NOTE
  6
CONTINUOUS
 62
     4
 10
796.11238433171434
 20
1741.6557788186831
 30
0.0
 11
652.12237028652044
 21
1741.6557788186831
 31
0.0
  0
TEXT
  5
21B
  8
NOTE
  6
CONTINUOUS
 62
     4
 10
666.62006028652081
 20
1751.2882068186821
 30
0.0
 40
55.0
  1
吹出口
 50
0.000003
 41
0.635417
  7
STANDARD1
  0
CIRCLE
  5
21C
  8
NOTE
  6
CONTINUOUS
 62
     4
 10
487.73071510311132
 20
1649.9005643755111
 30
0.0
 40
11.161136000000001
  0
SOLID
  5
21D
  8
NOTE
  6
CONTINUOUS
 62
     4
 10
498.89185110311132
 20
1649.9005643755111
 30
0.0
 11
497.3965421031113
 21
1655.4811313755099
 31
0.0
 12
497.3965421031113
 22
1644.3199963755101
 32
0.0
 13
497.3965421031113
 23
1644.3199963755101
 33
0.0
  0
SOLID
  5
21E
  8
NOTE
  6
CONTINUOUS
 62
     4
 10
493.31128310311112
 20
1659.5663903755101
 30
0.0
 11
497.3965421031113
 21
1644.3199963755101
 31
0.0
 12
497.3965421031113
 22
1655.4811313755099
 32
0.0
 13
497.3965421031113
 23
1655.4811313755099
 33
0.0
  0
SOLID
  5
21F
  8
NOTE
  6
CONTINUOUS
 62
     4
 10
497.3965421031113
 20
1644.3199963755101
 30
0.0
 11
493.31128310311112
 21
1659.5663903755101
 31
0.0
 12
493.31128310311112
 22
1640.2347373755099
 32
0.0
 13
493.31128310311112
 23
1640.2347373755099
 33
0.0
  0
SOLID
  5
220
  8
NOTE
  6
CONTINUOUS
 62
     4
 10
487.73071510311132
 20
1661.06169937551
 30
0.0
 11
493.31128310311112
 21
1640.2347373755099
 31
0.0
 12
493.31128310311112
 22
1659.5663903755101
 32
0.0
 13
493.31128310311112
 23
1659.5663903755101
 33
0.0
  0
SOLID
  5
221
  8
NOTE
  6
CONTINUOUS
 62
     4
 10
493.31128310311112
 20
1640.2347373755099
 30
0.0
 11
487.73071510311132
 21
1661.06169937551
 31
0.0
 12
487.73071510311132
 22
1638.7394283755109
 32
0.0
 13
487.73071510311132
 23
1638.7394283755109
 33
0.0
  0
SOLID
  5
222
  8
NOTE
  6
CONTINUOUS
 62
     4
 10
482.15014710311129
 20
1659.5663903755101
 30
0.0
 11
487.73071510311132
 21
1638.7394283755109
 31
0.0
 12
487.73071510311132
 22
1661.06169937551
 32
0.0
 13
487.73071510311132
 23
1661.06169937551
 33
0.0
  0
SOLID
  5
223
  8
NOTE
  6
CONTINUOUS
 62
     4
 10
487.73071510311132
 20
1638.7394283755109
 30
0.0
 11
482.15014710311129
 21
1659.5663903755101
 31
0.0
 12
482.15014710311129
 22
1640.2347373755099
 32
0.0
 13
482.15014710311129
 23
1640.2347373755099
 33
0.0
  0
SOLID
  5
224
  8
NOTE
  6
CONTINUOUS
 62
     4
 10
478.06488810311112
 20
1655.4811313755099
 30
0.0
 11
482.15014710311129
 21
1640.2347373755099
 31
0.0
 12
482.15014710311129
 22
1659.5663903755101
 32
0.0
 13
482.15014710311129
 23
1659.5663903755101
 33
0.0
  0
SOLID
  5
225
  8
NOTE
  6
CONTINUOUS
 62
     4
 10
482.15014710311129
 20
1640.2347373755099
 30
0.0
 11
478.06488810311112
 21
1655.4811313755099
 31
0.0
 12
478.06488810311112
 22
1644.3199963755101
 32
0.0
 13
478.06488810311112
 23
1644.3199963755101
 33
0.0
  0
SOLID
  5
226
  8
NOTE
  6
CONTINUOUS
 62
     4
 10
476.56958010311132
 20
1649.9005643755111
 30
0.0
 11
478.06488810311112
 21
1644.3199963755101
 31
0.0
 12
478.06488810311112
 22
1655.4811313755099
 32
0.0
 13
478.06488810311112
 23
1655.4811313755099
 33
0.0
  0
LINE
  5
227
  8
NOTE
  6
CONTINUOUS
 62
     4
 10
652.12237028652044
 20
1741.6557788186831
 30
0.0
 11
487.73071510311132
 21
1649.9005643755111
 31
0.0
  0
CIRCLE
  5
252
  8
FIX
  6
CONTINUOUS
 62
    11
 10
615.99998532307291
 20
-0.0000000000006821
 30
0.0
 40
15.0
  0
ARC
  5
255
  8
DETAIL
  6
CONTINUOUS
 62
     5
 10
599.19998532307295
 20
8.9999999999993179
 30
0.0
 40
4.5
 50
180.0
 51
270.0
  0
ARC
  5
256
  8
DETAIL
  6
CONTINUOUS
 62
     5
 10
599.34526081178399
 20
9.3507260551267173
 30
0.0
 40
9.3518545072973573
 50
182.14928882107631
 51
269.109908395746
  0
LINE
  5
257
  8
DETAIL
  6
CONTINUOUS
 62
     5
 10
594.69998532307295
 20
8.9999999999993179
 30
0.0
 11
594.69998532307295
 21
34.999999999999318
 31
0.0
  0
LINE
  5
258
  8
DETAIL
  6
CONTINUOUS
 62
     5
 10
629.99994832307277
 20
-0.0000000000006821
 30
0.0
 11
629.99994832307277
 21
4.4999999999993161
 31
0.0
  0
LINE
  5
259
  8
DETAIL
  6
CONTINUOUS
 62
     5
 10
599.19998532307295
 20
4.4999999999993161
 30
0.0
 11
629.99994832307277
 21
4.4999999999993161
 31
0.0
  0
LINE
  5
25A
  8
DETAIL
  6
CONTINUOUS
 62
     5
 10
599.19998532307295
 20
-0.0000000000006821
 30
0.0
 11
629.99994832307277
 21
-0.0000000000006821
 31
0.0
  0
LINE
  5
25B
  8
DETAIL
  6
CONTINUOUS
 62
     5
 10
594.69998532307295
 20
34.999999999999318
 30
0.0
 11
589.99998532307279
 21
34.999999999999318
 31
0.0
  0
LINE
  5
25C
  8
DETAIL
  6
CONTINUOUS
 62
     5
 10
589.99998532307279
 20
-0.0000000000006821
 30
0.0
 11
589.99998532307279
 21
69.999999999999318
 31
0.0
  0
LINE
  5
292
  8
NOTE
  6
CONTINUOUS
 62
     4
 10
849.63172377258525
 20
806.3300668433285
 30
0.0
 11
705.64170972739134
 21
806.3300668433285
 31
0.0
  0
TEXT
  5
293
  8
NOTE
  6
CONTINUOUS
 62
     4
 10
720.13939972739172
 20
815.96249484332805
 30
0.0
 40
55.0
  1
吸込口
 50
0.000003
 41
0.635417
  7
STANDARD1
  0
CIRCLE
  5
294
  8
NOTE
  6
CONTINUOUS
 62
     4
 10
516.92235450280282
 20
646.52870742870925
 30
0.0
 40
11.161136000000001
  0
SOLID
  5
295
  8
NOTE
  6
CONTINUOUS
 62
     4
 10
528.08349050280253
 20
646.52870742870925
 30
0.0
 11
526.58818150280263
 21
652.10927442870877
 31
0.0
 12
526.58818150280263
 22
640.94813942870906
 32
0.0
 13
526.58818150280263
 23
640.94813942870906
 33
0.0
  0
SOLID
  5
296
  8
NOTE
  6
CONTINUOUS
 62
     4
 10
522.50292250280245
 20
656.19453342870952
 30
0.0
 11
526.58818150280263
 21
640.94813942870906
 31
0.0
 12
526.58818150280263
 22
652.10927442870877
 32
0.0
 13
526.58818150280263
 23
652.10927442870877
 33
0.0
  0
SOLID
  5
297
  8
NOTE
  6
CONTINUOUS
 62
     4
 10
526.58818150280263
 20
640.94813942870906
 30
0.0
 11
522.50292250280245
 21
656.19453342870952
 31
0.0
 12
522.50292250280245
 22
636.86288042870945
 32
0.0
 13
522.50292250280245
 23
636.86288042870945
 33
0.0
  0
SOLID
  5
298
  8
NOTE
  6
CONTINUOUS
 62
     4
 10
516.92235450280282
 20
657.68984242870954
 30
0.0
 11
522.50292250280245
 21
636.86288042870945
 31
0.0
 12
522.50292250280245
 22
656.19453342870952
 32
0.0
 13
522.50292250280245
 23
656.19453342870952
 33
0.0
  0
SOLID
  5
299
  8
NOTE
  6
CONTINUOUS
 62
     4
 10
522.50292250280245
 20
636.86288042870945
 30
0.0
 11
516.92235450280282
 21
657.68984242870954
 31
0.0
 12
516.92235450280282
 22
635.36757142870954
 32
0.0
 13
516.92235450280282
 23
635.36757142870954
 33
0.0
  0
SOLID
  5
29A
  8
NOTE
  6
CONTINUOUS
 62
     4
 10
511.34178650280268
 20
656.19453342870952
 30
0.0
 11
516.92235450280282
 21
635.36757142870954
 31
0.0
 12
516.92235450280282
 22
657.68984242870954
 32
0.0
 13
516.92235450280282
 23
657.68984242870954
 33
0.0
  0
SOLID
  5
29B
  8
NOTE
  6
CONTINUOUS
 62
     4
 10
516.92235450280282
 20
635.36757142870954
 30
0.0
 11
511.34178650280268
 21
656.19453342870952
 31
0.0
 12
511.34178650280268
 22
636.86288042870945
 32
0.0
 13
511.34178650280268
 23
636.86288042870945
 33
0.0
  0
SOLID
  5
29C
  8
NOTE
  6
CONTINUOUS
 62
     4
 10
507.25652750280233
 20
652.10927442870877
 30
0.0
 11
511.34178650280268
 21
636.86288042870945
 31
0.0
 12
511.34178650280268
 22
656.19453342870952
 32
0.0
 13
511.34178650280268
 23
656.19453342870952
 33
0.0
  0
SOLID
  5
29D
  8
NOTE
  6
CONTINUOUS
 62
     4
 10
511.34178650280268
 20
636.86288042870945
 30
0.0
 11
507.25652750280233
 21
652.10927442870877
 31
0.0
 12
507.25652750280233
 22
640.94813942870906
 32
0.0
 13
507.25652750280233
 23
640.94813942870906
 33
0.0
  0
SOLID
  5
29E
  8
NOTE
  6
CONTINUOUS
 62
     4
 10
505.76121950280259
 20
646.52870742870925
 30
0.0
 11
507.25652750280233
 21
640.94813942870906
 31
0.0
 12
507.25652750280233
 22
652.10927442870877
 32
0.0
 13
507.25652750280233
 23
652.10927442870877
 33
0.0
  0
LINE
  5
29F
  8
NOTE
  6
CONTINUOUS
 62
     4
 10
705.64170972739134
 20
806.3300668433285
 30
0.0
 11
516.92235450280282
 21
646.52870742870925
 31
0.0
  0
LINE
  5
2CC
  8
OUTLINE
  6
CONTINUOUS
 62
     3
 10
589.99998899962543
 20
-0.0000026156529031
 30
0.0
 11
589.99998532307279
 21
69.999999999999318
 31
0.0
  0
LINE
  5
2F2
  8
NOTE
  6
CONTINUOUS
 62
     4
 10
595.99998532307291
 20
-0.0000000000006821
 30
0.0
 11
635.99998532307279
 21
-0.0000000000006821
 31
0.0
  0
LINE
  5
2F3
  8
NOTE
  6
CONTINUOUS
 62
     4
 10
615.99998532307291
 20
-20.000000000000679
 30
0.0
 11
615.99998532307291
 21
19.999999999999321
 31
0.0
  0
CIRCLE
  5
305
  8
FIX
  6
CONTINUOUS
 62
    11
 10
-615.99999632344748
 20
0.000002615652221
 30
0.0
 40
15.0
  0
ARC
  5
306
  8
DETAIL
  6
CONTINUOUS
 62
     5
 10
-599.19999632344775
 20
9.000002615652221
 30
0.0
 40
4.5
 50
270.0
 51
0.0
  0
ARC
  5
307
  8
DETAIL
  6
CONTINUOUS
 62
     5
 10
-599.3452718121589
 20
9.3507286707796151
 30
0.0
 40
9.3518545072973573
 50
270.89009160426042
 51
357.85071117892397
  0
LINE
  5
308
  8
DETAIL
  6
CONTINUOUS
 62
     5
 10
-594.69999632344775
 20
9.000002615652221
 30
0.0
 11
-594.69999632344775
 21
35.000002615652221
 31
0.0
  0
LINE
  5
309
  8
DETAIL
  6
CONTINUOUS
 62
     5
 10
-629.99995932344746
 20
0.000002615652221
 30
0.0
 11
-629.99995932344746
 21
4.500002615652221
 31
0.0
  0
LINE
  5
30A
  8
DETAIL
  6
CONTINUOUS
 62
     5
 10
-599.19999632344775
 20
4.500002615652221
 30
0.0
 11
-629.99995932344746
 21
4.500002615652221
 31
0.0
  0
LINE
  5
30B
  8
DETAIL
  6
CONTINUOUS
 62
     5
 10
-599.19999632344775
 20
0.000002615652221
 30
0.0
 11
-629.99995932344746
 21
0.000002615652221
 31
0.0
  0
LINE
  5
30C
  8
DETAIL
  6
CONTINUOUS
 62
     5
 10
-594.69999632344775
 20
35.000002615652221
 30
0.0
 11
-589.99999632344725
 21
35.000002615652221
 31
0.0
  0
LINE
  5
30D
  8
DETAIL
  6
CONTINUOUS
 62
     5
 10
-589.99999632344725
 20
0.000002615652221
 30
0.0
 11
-589.99999632344725
 21
70.000002615652221
 31
0.0
  0
LINE
  5
30E
  8
OUTLINE
  6
CONTINUOUS
 62
     3
 10
-590.0
 20
0.0
 30
0.0
 11
-589.99999632344725
 21
70.000002615652221
 31
0.0
  0
LINE
  5
30F
  8
NOTE
  6
CONTINUOUS
 62
     4
 10
-595.99999632344748
 20
0.000002615652221
 30
0.0
 11
-635.99999632344725
 21
0.000002615652221
 31
0.0
  0
LINE
  5
310
  8
NOTE
  6
CONTINUOUS
 62
     4
 10
-615.99999632344748
 20
-19.999997384347761
 30
0.0
 11
-615.99999632344748
 21
20.000002615652221
 31
0.0
  0
TEXT
  5
322
  8
ETC
  6
CONTINUOUS
 62
    61
 10
742.55956142262914
 20
2309.7984380010998
 30
0.0
 40
64.0
  1
PF-RP280BA6_2
 50
0.000003
 41
0.659722
  7
STANDARD1
  0
LINE
  5
33A
  8
NOTE
  6
CONTINUOUS
 62
     4
 10
-1032.5817255867901
 20
609.28978375983218
 30
0.0
 11
-670.88995266058896
 21
609.28978375983218
 31
0.0
  0
TEXT
  5
33B
  8
NOTE
  6
CONTINUOUS
 62
     4
 10
-1014.2213177789019
 20
629.76963992749029
 30
0.0
 40
55.0
  1
RL %%C12.7
 41
0.9
  0
LINE
  5
33C
  8
NOTE
  6
CONTINUOUS
 62
     4
 10
-1007.427934707598
 20
754.24415243317094
 30
0.0
 11
-640.91402591977339
 21
754.24415243317094
 31
0.0
  0
TEXT
  5
33D
  8
NOTE
  6
CONTINUOUS
 62
     4
 10
-989.06752689971165
 20
774.7240086008286
 30
0.0
 40
55.0
  1
RG %%C25.4
 41
0.9
  0
TEXT
  5
33E
  8
NOTE
  6
CONTINUOUS
 62
     4
 10
796.00821562834835
 20
-97.175660023556475
 30
0.0
 40
55.0
  1
AH 4-%%c12
 50
359.99999600000001
 41
0.8
  7
STANDARD1
  0
LINE
  5
33F
  8
NOTE
  6
CONTINUOUS
 62
     4
 10
778.48356062834853
 20
-117.94197002355629
 30
0.0
 11
1130.7149156453991
 21
-117.9419762562476
 31
0.0
  0
LINE
  5
340
  8
NOTE
  6
CONTINUOUS
 62
     4
 10
615.99998532307291
 20
-0.0000000000006821
 30
0.0
 11
778.48356062834853
 21
-117.94197002355629
 31
0.0
  0
LINE
  5
349
  8
DETAIL
  6
CONTINUOUS
 62
     5
 10
-529.99998816057632
 20
1883.4999962174791
 30
0.0
 11
-499.99998816057638
 21
1883.4999962174791
 31
0.0
  0
LINE
  5
351
  8
DETAIL
  6
CONTINUOUS
 62
     5
 10
-529.99999408028805
 20
1876.4999962174791
 30
0.0
 11
-499.9999940802881
 21
1876.4999962174791
 31
0.0
  0
ARC
  5
35E
  8
DETAIL
  6
CONTINUOUS
 62
     5
 10
-500.01770035511367
 20
1879.999996232455
 30
0.0
 40
3.500044802142332
 50
270.28985318845889
 51
89.710049904544164
  0
ARC
  5
36D
  8
DETAIL
  6
CONTINUOUS
 62
     5
 10
-529.98155266148274
 20
1879.9999962025031
 30
0.0
 40
3.5000448021423312
 50
90.277818711246937
 51
269.698015427332
  0
LINE
  5
376
  8
DETAIL
  6
CONTINUOUS
 62
     5
 10
-479.99998816057638
 20
1883.4999962174791
 30
0.0
 11
-449.99998816057638
 21
1883.4999962174791
 31
0.0
  0
LINE
  5
377
  8
DETAIL
  6
CONTINUOUS
 62
     5
 10
-479.9999940802881
 20
1876.4999962174791
 30
0.0
 11
-449.9999940802881
 21
1876.4999962174791
 31
0.0
  0
ARC
  5
378
  8
DETAIL
  6
CONTINUOUS
 62
     5
 10
-450.01770035511367
 20
1879.999996232455
 30
0.0
 40
3.500044802142332
 50
270.2898531884606
 51
89.710049904544164
  0
ARC
  5
379
  8
DETAIL
  6
CONTINUOUS
 62
     5
 10
-479.98155266148262
 20
1879.9999962025031
 30
0.0
 40
3.5000448021423312
 50
90.277818711246937
 51
269.698015427332
  0
LINE
  5
39B
  8
NOTE
  6
CONTINUOUS
 62
     4
 10
514.99998532307279
 20
1900.000002634798
 30
0.0
 11
514.99998532307279
 21
1860.000002634798
 31
0.0
  0
LINE
  5
39C
  8
NOTE
  6
CONTINUOUS
 62
     4
 10
534.99998532307291
 20
1880.000002634798
 30
0.0
 11
494.99998532307268
 21
1880.000002634798
 31
0.0
  0
LINE
  5
39D
  8
NOTE
  6
CONTINUOUS
 62
     4
 10
464.99998532307279
 20
1900.000002634798
 30
0.0
 11
464.99998532307279
 21
1860.000002634798
 31
0.0
  0
LINE
  5
39E
  8
NOTE
  6
CONTINUOUS
 62
     4
 10
484.99998532307291
 20
1880.000002634798
 30
0.0
 11
444.99998532307268
 21
1880.000002634798
 31
0.0
  0
LINE
  5
39F
  8
DETAIL
  6
CONTINUOUS
 62
     5
 10
429.99998532307291
 20
1900.000002634798
 30
0.0
 11
549.99998532307291
 21
1900.000002634798
 31
0.0
  0
LINE
  5
3A0
  8
DETAIL
  6
CONTINUOUS
 62
     5
 10
429.99998532307291
 20
1900.000002634798
 30
0.0
 11
429.99998532307291
 21
1850.000002634798
 31
0.0
  0
LINE
  5
3A1
  8
DETAIL
  6
CONTINUOUS
 62
     5
 10
549.99998532307291
 20
1900.000002634798
 30
0.0
 11
549.99998532307291
 21
1850.000002634798
 31
0.0
  0
CIRCLE
  5
3A2
  8
FIX
  6
CONTINUOUS
 62
    11
 10
464.99998532307279
 20
1880.000002634798
 30
0.0
 40
15.0
  0
CIRCLE
  5
3A3
  8
FIX
  6
CONTINUOUS
 62
    11
 10
514.99998532307279
 20
1880.000002634798
 30
0.0
 40
15.0
  0
LINE
  5
3A4
  8
DETAIL
  6
CONTINUOUS
 62
     5
 10
449.99999716249658
 20
1883.499998852277
 30
0.0
 11
479.99999716249653
 21
1883.499998852277
 31
0.0
  0
LINE
  5
3A5
  8
DETAIL
  6
CONTINUOUS
 62
     5
 10
449.99999124278469
 20
1876.499998852277
 30
0.0
 11
479.99999124278452
 21
1876.499998852277
 31
0.0
  0
ARC
  5
3A6
  8
DETAIL
  6
CONTINUOUS
 62
     5
 10
479.98228496795917
 20
1879.999998867253
 30
0.0
 40
3.500044802142332
 50
270.2898531884606
 51
89.710049904544164
  0
ARC
  5
3A7
  8
DETAIL
  6
CONTINUOUS
 62
     5
 10
450.01843266159
 20
1879.9999988372999
 30
0.0
 40
3.5000448021423312
 50
90.277818711246937
 51
269.698015427332
  0
LINE
  5
3A8
  8
DETAIL
  6
CONTINUOUS
 62
     5
 10
499.99999716249658
 20
1883.499998852277
 30
0.0
 11
529.99999716249647
 21
1883.499998852277
 31
0.0
  0
LINE
  5
3A9
  8
DETAIL
  6
CONTINUOUS
 62
     5
 10
499.99999124278469
 20
1876.499998852277
 30
0.0
 11
529.99999124278474
 21
1876.499998852277
 31
0.0
  0
ARC
  5
3AA
  8
DETAIL
  6
CONTINUOUS
 62
     5
 10
529.98228496795923
 20
1879.999998867253
 30
0.0
 40
3.500044802142332
 50
270.2898531884606
 51
89.710049904544164
  0
ARC
  5
3AB
  8
DETAIL
  6
CONTINUOUS
 62
     5
 10
500.01843266159
 20
1879.9999988372999
 30
0.0
 40
3.5000448021423312
 50
90.277818711246937
 51
269.698015427332
  0
LINE
  5
648
  8
SIZE
  6
CONTINUOUS
 62
    30
 10
464.99998532307279
 20
1920.000002634798
 30
0.0
 11
464.99998532307279
 21
2082.4544503239999
 31
0.0
  0
LINE
  5
649
  8
SIZE
  6
CONTINUOUS
 62
    30
 10
-465.0
 20
1920.0
 30
0.0
 11
-465.0
 21
2082.4544503239999
 31
0.0
  0
LINE
  5
64A
  8
SIZE
  6
CONTINUOUS
 62
    30
 10
454.99998532307291
 20
2062.4544503239999
 30
0.0
 11
-455.0
 21
2062.4544503239999
 31
0.0
  0
LINE
  5
650
  8
SIZE
  6
CONTINUOUS
 62
    30
 10
-515.0
 20
1920.0000026347991
 30
0.0
 11
-515.0
 21
1984.1313860229241
 31
0.0
  0
LINE
  5
651
  8
SIZE
  6
CONTINUOUS
 62
    30
 10
-465.0
 20
1920.0000026347991
 30
0.0
 11
-465.0
 21
1984.1313860229241
 31
0.0
  0
LINE
  5
652
  8
SIZE
  6
CONTINUOUS
 62
    30
 10
-505.0
 20
1964.1313860229241
 30
0.0
 11
-475.0
 21
1964.1313860229241
 31
0.0
  0
LINE
  5
653
  8
SIZE
  6
CONTINUOUS
 62
    30
 10
-465.0
 20
1964.1313860229241
 30
0.0
 11
-354.85714285714289
 21
1964.1313860229241
 31
0.0
  0
LINE
  5
657
  8
SIZE
  6
CONTINUOUS
 62
    30
 10
-515.0
 20
1920.0000026347991
 30
0.0
 11
-515.0
 21
1984.1313860229241
 31
0.0
  0
LINE
  5
658
  8
SIZE
  6
CONTINUOUS
 62
    30
 10
-600.0
 20
1870.0
 30
0.0
 11
-600.0
 21
1984.1313860229241
 31
0.0
  0
LINE
  5
659
  8
SIZE
  6
CONTINUOUS
 62
    30
 10
-525.0
 20
1964.1313860229241
 30
0.0
 11
-590.0
 21
1964.1313860229241
 31
0.0
  0
LINE
  5
65A
  8
SIZE
  6
CONTINUOUS
 62
    30
 10
-600.0
 20
1964.1313860229241
 30
0.0
 11
-710.14285714285711
 21
1964.1313860229241
 31
0.0
  0
LINE
  5
65E
  8
SIZE
  6
CONTINUOUS
 62
    30
 10
-600.0
 20
1870.0
 30
0.0
 11
-600.0
 21
2251.5482755848639
 31
0.0
  0
LINE
  5
65F
  8
SIZE
  6
CONTINUOUS
 62
    30
 10
599.99998532307291
 20
1869.9999999999991
 30
0.0
 11
599.99998532307291
 21
2251.5482755848629
 31
0.0
  0
LINE
  5
660
  8
SIZE
  6
CONTINUOUS
 62
    30
 10
-590.0
 20
2231.5482755848652
 30
0.0
 11
589.99998532307279
 21
2231.5482755848652
 31
0.0
  0
LINE
  5
664
  8
SIZE
  6
CONTINUOUS
 62
    30
 10
619.99998532307268
 20
1849.999999999998
 30
0.0
 11
1181.297282376054
 21
1849.999999999998
 31
0.0
  0
LINE
  5
665
  8
SIZE
  6
CONTINUOUS
 62
    30
 10
655.99998532307291
 20
-0.0000000000006878
 30
0.0
 11
1181.297282376054
 21
-0.0000000000008366
 31
0.0
  0
LINE
  5
666
  8
SIZE
  6
CONTINUOUS
 62
    30
 10
1161.297282376054
 20
1839.9999999999991
 30
0.0
 11
1161.297282376054
 21
9.9999999999991651
 31
0.0
  0
LINE
  5
66A
  8
SIZE
  6
CONTINUOUS
 62
    30
 10
619.99998532307268
 20
1824.9999999999991
 30
0.0
 11
996.78497200254435
 21
1824.9999999999991
 31
0.0
  0
LINE
  5
66B
  8
SIZE
  6
CONTINUOUS
 62
    30
 10
619.99998532307268
 20
1849.999999999998
 30
0.0
 11
996.78497200254435
 21
1849.999999999998
 31
0.0
  0
LINE
  5
66C
  8
SIZE
  6
CONTINUOUS
 62
    30
 10
976.78497200254435
 20
1814.9999999999991
 30
0.0
 11
976.78497200254435
 21
1804.9999999999991
 31
0.0
  0
LINE
  5
66D
  8
SIZE
  6
CONTINUOUS
 62
    30
 10
976.78497200254435
 20
1859.9999999999991
 30
0.0
 11
976.78497200254435
 21
1970.142857142856
 31
0.0
  0
LINE
  5
66E
  8
SIZE
  6
CONTINUOUS
 62
    30
 10
976.78497200254435
 20
1824.9999999999991
 30
0.0
 11
976.78497200254435
 21
1849.999999999998
 31
0.0
  0
LINE
  5
672
  8
SIZE
  6
CONTINUOUS
 62
    30
 10
619.99998532307268
 20
1824.9999999999991
 30
0.0
 11
996.78497200254435
 21
1824.9999999999991
 31
0.0
  0
LINE
  5
673
  8
SIZE
  6
CONTINUOUS
 62
    30
 10
619.99998532307268
 20
1544.9999999999991
 30
0.0
 11
996.78497200254435
 21
1544.9999999999991
 31
0.0
  0
LINE
  5
674
  8
SIZE
  6
CONTINUOUS
 62
    30
 10
976.78497200254435
 20
1814.9999999999991
 30
0.0
 11
976.78497200254435
 21
1554.9999999999991
 31
0.0
  0
LINE
  5
678
  8
SIZE
  6
CONTINUOUS
 62
    30
 10
619.99998532307268
 20
999.9999999999992
 30
0.0
 11
996.78497200254435
 21
999.99999999999875
 31
0.0
  0
LINE
  5
679
  8
SIZE
  6
CONTINUOUS
 62
    30
 10
619.99998532307268
 20
1544.9999999999991
 30
0.0
 11
996.78497200254435
 21
1544.9999999999991
 31
0.0
  0
LINE
  5
67A
  8
SIZE
  6
CONTINUOUS
 62
    30
 10
976.78497200254435
 20
1009.999999999999
 30
0.0
 11
976.78497200254435
 21
1534.9999999999991
 31
0.0
  0
LINE
  5
67E
  8
SIZE
  6
CONTINUOUS
 62
    30
 10
619.99998532307268
 20
914.99999999999909
 30
0.0
 11
996.78497200254435
 21
914.99999999999875
 31
0.0
  0
LINE
  5
67F
  8
SIZE
  6
CONTINUOUS
 62
    30
 10
619.99998532307268
 20
999.9999999999992
 30
0.0
 11
996.78497200254435
 21
999.99999999999875
 31
0.0
  0
LINE
  5
680
  8
SIZE
  6
CONTINUOUS
 62
    30
 10
976.78497200254435
 20
924.99999999999875
 30
0.0
 11
976.78497200254435
 21
989.99999999999875
 31
0.0
  0
LINE
  5
684
  8
SIZE
  6
CONTINUOUS
 62
    30
 10
655.99998532307291
 20
-0.0000000000006878
 30
0.0
 11
996.7849720025439
 21
-0.0000000000007843
 31
0.0
  0
LINE
  5
685
  8
SIZE
  6
CONTINUOUS
 62
    30
 10
619.99998532307268
 20
914.99999999999909
 30
0.0
 11
996.78497200254435
 21
914.99999999999875
 31
0.0
  0
LINE
  5
686
  8
SIZE
  6
CONTINUOUS
 62
    30
 10
976.78497200254378
 20
9.9999999999992184
 30
0.0
 11
976.78497200254435
 21
904.99999999999875
 31
0.0
  0
LINE
  5
68A
  8
SIZE
  6
CONTINUOUS
 62
    30
 10
-655.99999632344725
 20
0.0000026156522267
 30
0.0
 11
-894.7657629625171
 21
0.0000026156522943
 31
0.0
  0
LINE
  5
68B
  8
SIZE
  6
CONTINUOUS
 62
    30
 10
-510.0
 20
242.0
 30
0.0
 11
-894.7657629625171
 21
242.00000000000011
 31
0.0
  0
LINE
  5
68C
  8
SIZE
  6
CONTINUOUS
 62
    30
 10
-874.7657629625171
 20
10.00000261565229
 30
0.0
 11
-874.7657629625171
 21
232.00000000000011
 31
0.0
  0
LINE
  5
690
  8
SIZE
  6
CONTINUOUS
 62
    30
 10
-655.99999632344725
 20
0.0000026156522267
 30
0.0
 11
-793.21471328546613
 21
0.0000026156522656
 31
0.0
  0
LINE
  5
691
  8
SIZE
  6
CONTINUOUS
 62
    30
 10
-455.0
 20
193.0
 30
0.0
 11
-793.21471328546613
 21
193.00000000000011
 31
0.0
  0
LINE
  5
692
  8
SIZE
  6
CONTINUOUS
 62
    30
 10
-773.21471328546613
 20
10.00000261565226
 30
0.0
 11
-773.21471328546613
 21
183.00000000000011
 31
0.0
  0
LINE
  5
696
  8
SIZE
  6
CONTINUOUS
 62
    30
 10
-589.99999632344725
 20
-20.0
 30
0.0
 11
-589.99999632344725
 21
-197.350977602211
 31
0.0
  0
LINE
  5
697
  8
SIZE
  6
CONTINUOUS
 62
    30
 10
589.99998899962236
 20
-19.999949316099919
 30
0.0
 11
589.99998899962236
 21
-197.35097760221171
 31
0.0
  0
LINE
  5
698
  8
SIZE
  6
CONTINUOUS
 62
    30
 10
-569.99999632344725
 20
-177.350977602211
 30
0.0
 11
569.99998899962247
 21
-177.35097760221171
 31
0.0
  0
LINE
  5
69C
  8
SIZE
  6
CONTINUOUS
 62
    30
 10
-589.99999632344725
 20
-20.0
 30
0.0
 11
-589.99999632344725
 21
-197.350977602211
 31
0.0
  0
LINE
  5
69D
  8
SIZE
  6
CONTINUOUS
 62
    30
 10
-600.0
 20
50.0
 30
0.0
 11
-600.0
 21
-197.350977602211
 31
0.0
  0
LINE
  5
69E
  8
SIZE
  6
CONTINUOUS
 62
    30
 10
-579.99999632344736
 20
-177.350977602211
 30
0.0
 11
-569.99999632344725
 21
-177.350977602211
 31
0.0
  0
LINE
  5
69F
  8
SIZE
  6
CONTINUOUS
 62
    30
 10
-610.0
 20
-177.350977602211
 30
0.0
 11
-710.71428571428555
 21
-177.350977602211
 31
0.0
  0
LINE
  5
6A0
  8
SIZE
  6
CONTINUOUS
 62
    30
 10
-589.99999632344725
 20
-177.350977602211
 30
0.0
 11
-600.0
 21
-177.350977602211
 31
0.0
  0
LINE
  5
6A4
  8
SIZE
  6
CONTINUOUS
 62
    30
 10
589.99998899962236
 20
-19.999949316099919
 30
0.0
 11
589.99998899962236
 21
-197.35097760221171
 31
0.0
  0
LINE
  5
6A5
  8
SIZE
  6
CONTINUOUS
 62
    30
 10
599.99998532307291
 20
49.999999999999318
 30
0.0
 11
599.99998532307291
 21
-197.35097760221171
 31
0.0
  0
LINE
  5
6A6
  8
SIZE
  6
CONTINUOUS
 62
    30
 10
579.99998899962236
 20
-177.35097760221171
 30
0.0
 11
569.99998899962247
 21
-177.35097760221171
 31
0.0
  0
LINE
  5
6A7
  8
SIZE
  6
CONTINUOUS
 62
    30
 10
609.99998532307291
 20
-177.35097760221171
 30
0.0
 11
710.71427103735857
 21
-177.35097760221171
 31
0.0
  0
LINE
  5
6A8
  8
SIZE
  6
CONTINUOUS
 62
    30
 10
589.99998899962236
 20
-177.35097760221171
 30
0.0
 11
599.99998532307291
 21
-177.35097760221171
 31
0.0
  0
LINE
  5
6AC
  8
SIZE
  6
CONTINUOUS
 62
    30
 10
-471.0
 20
282.0
 30
0.0
 11
-471.0
 21
379.98734364557822
 31
0.0
  0
LINE
  5
6AD
  8
SIZE
  6
CONTINUOUS
 62
    30
 10
-413.0
 20
233.0
 30
0.0
 11
-413.0
 21
379.98734364557822
 31
0.0
  0
LINE
  5
6AE
  8
SIZE
  6
CONTINUOUS
 62
    30
 10
-461.0
 20
359.98734364557822
 30
0.0
 11
-423.0
 21
359.98734364557822
 31
0.0
  0
LINE
  5
6AF
  8
SIZE
  6
CONTINUOUS
 62
    30
 10
-413.0
 20
359.98734364557822
 30
0.0
 11
-302.85714285714278
 21
359.98734364557822
 31
0.0
  0
LINE
  5
6B3
  8
SIZE
  6
CONTINUOUS
 62
    30
 10
-471.0
 20
282.0
 30
0.0
 11
-471.0
 21
379.98734364557822
 31
0.0
  0
LINE
  5
6B4
  8
SIZE
  6
CONTINUOUS
 62
    30
 10
-600.0
 20
90.0
 30
0.0
 11
-600.0
 21
379.98734364557822
 31
0.0
  0
LINE
  5
6B5
  8
SIZE
  6
CONTINUOUS
 62
    30
 10
-481.0
 20
359.98734364557822
 30
0.0
 11
-590.0
 21
359.98734364557822
 31
0.0
  0
LINE
  5
6B6
  8
SIZE
  6
CONTINUOUS
 62
    30
 10
-600.0
 20
359.98734364557822
 30
0.0
 11
-747.85714285714266
 21
359.98734364557822
 31
0.0
  0
TEXT
  5
6BA
  8
SIZE
  6
CONTINUOUS
 62
    30
 10
-398.0
 20
369.98734364557822
 30
0.0
 40
55.0
  1
58
 41
0.9
 72
     1
 11
-357.92857142857139
 21
369.98734364557822
 31
0.0
  0
CIRCLE
  5
6BB
  8
SIZE
  6
CONTINUOUS
 62
    30
 10
-413.0
 20
359.98734364557822
 30
0.0
 40
5.0
  0
LINE
  5
6BC
  8
SIZE
  6
CONTINUOUS
 62
    30
 10
-418.0
 20
359.98734364557822
 30
0.0
 11
-423.0
 21
359.98734364557822
 31
0.0
  0
CIRCLE
  5
6BD
  8
SIZE
  6
CONTINUOUS
 62
    30
 10
-471.0
 20
359.98734364557822
 30
0.0
 40
5.0
  0
LINE
  5
6BE
  8
SIZE
  6
CONTINUOUS
 62
    30
 10
-466.0
 20
359.98734364557822
 30
0.0
 11
-461.0
 21
359.98734364557822
 31
0.0
  0
TEXT
  5
6BF
  8
SIZE
  6
CONTINUOUS
 62
    30
 10
-884.76576296251733
 20
57.357144164969043
 30
0.0
 40
55.0
  1
242
 50
90.0
 41
0.9
 72
     1
 11
-884.76576296251733
 21
121.0000013078262
 31
0.0
  0
CIRCLE
  5
6C0
  8
SIZE
  6
CONTINUOUS
 62
    30
 10
-874.7657629625171
 20
242.00000000000011
 30
0.0
 40
5.0
  0
LINE
  5
6C1
  8
SIZE
  6
CONTINUOUS
 62
    30
 10
-874.7657629625171
 20
237.00000000000011
 30
0.0
 11
-874.7657629625171
 21
232.00000000000011
 31
0.0
  0
CIRCLE
  5
6C2
  8
SIZE
  6
CONTINUOUS
 62
    30
 10
-874.7657629625171
 20
0.0000026156522887
 30
0.0
 40
5.0
  0
LINE
  5
6C3
  8
SIZE
  6
CONTINUOUS
 62
    30
 10
-874.7657629625171
 20
5.0000026156522859
 30
0.0
 11
-874.7657629625171
 21
10.00000261565229
 31
0.0
  0
TEXT
  5
6C4
  8
SIZE
  6
CONTINUOUS
 62
    30
 10
-783.21471328546613
 20
37.571429879254737
 30
0.0
 40
55.0
  1
193
 50
90.0
 41
0.9
 72
     1
 11
-783.21471328546613
 21
96.500001307826153
 31
0.0
  0
CIRCLE
  5
6C5
  8
SIZE
  6
CONTINUOUS
 62
    30
 10
-773.21471328546613
 20
193.00000000000011
 30
0.0
 40
5.0
  0
LINE
  5
6C6
  8
SIZE
  6
CONTINUOUS
 62
    30
 10
-773.21471328546613
 20
188.0
 30
0.0
 11
-773.21471328546613
 21
183.00000000000011
 31
0.0
  0
CIRCLE
  5
6C7
  8
SIZE
  6
CONTINUOUS
 62
    30
 10
-773.21471328546613
 20
0.0000026156522599
 30
0.0
 40
5.0
  0
LINE
  5
6C8
  8
SIZE
  6
CONTINUOUS
 62
    30
 10
-773.21471328546613
 20
5.0000026156522601
 30
0.0
 11
-773.21471328546613
 21
10.00000261565226
 31
0.0
  0
TEXT
  5
6C9
  8
SIZE
  6
CONTINUOUS
 62
    30
 10
-731.67857142857144
 20
369.98734364557822
 30
0.0
 40
55.0
  1
129
 41
0.9
 72
     1
 11
-673.92857142857144
 21
369.98734364557822
 31
0.0
  0
CIRCLE
  5
6CA
  8
SIZE
  6
CONTINUOUS
 62
    30
 10
-600.0
 20
359.98734364557822
 30
0.0
 40
5.0
  0
LINE
  5
6CB
  8
SIZE
  6
CONTINUOUS
 62
    30
 10
-595.0
 20
359.98734364557822
 30
0.0
 11
-590.0
 21
359.98734364557822
 31
0.0
  0
CIRCLE
  5
6CC
  8
SIZE
  6
CONTINUOUS
 62
    30
 10
-471.0
 20
359.98734364557822
 30
0.0
 40
5.0
  0
LINE
  5
6CD
  8
SIZE
  6
CONTINUOUS
 62
    30
 10
-476.0
 20
359.98734364557822
 30
0.0
 11
-481.0
 21
359.98734364557822
 31
0.0
  0
CIRCLE
  5
6CE
  8
SIZE
  6
CONTINUOUS
 62
    30
 10
-589.99999632344725
 20
-177.350977602211
 30
0.0
 40
5.0
  0
LINE
  5
6CF
  8
SIZE
  6
CONTINUOUS
 62
    30
 10
-584.99999632344725
 20
-177.350977602211
 30
0.0
 11
-579.99999632344736
 21
-177.350977602211
 31
0.0
  0
TEXT
  5
6D0
  8
SIZE
  6
CONTINUOUS
 62
    30
 10
-695.71428571428555
 20
-167.350977602211
 30
0.0
 40
55.0
  1
10
 41
0.9
 72
     1
 11
-660.35714285714255
 21
-167.350977602211
 31
0.0
  0
CIRCLE
  5
6D1
  8
SIZE
  6
CONTINUOUS
 62
    30
 10
-600.0
 20
-177.350977602211
 30
0.0
 40
5.0
  0
LINE
  5
6D2
  8
SIZE
  6
CONTINUOUS
 62
    30
 10
-605.0
 20
-177.350977602211
 30
0.0
 11
-610.0
 21
-177.350977602211
 31
0.0
  0
CIRCLE
  5
6D3
  8
SIZE
  6
CONTINUOUS
 62
    30
 10
-589.99999632344725
 20
-177.350977602211
 30
0.0
 40
5.0
  0
LINE
  5
6D4
  8
SIZE
  6
CONTINUOUS
 62
    30
 10
-584.99999632344725
 20
-177.350977602211
 30
0.0
 11
-579.99999632344736
 21
-177.350977602211
 31
0.0
  0
LINE
  5
6D5
  8
NOTE
  6
CONTINUOUS
 62
     4
 10
-437.81219145267289
 20
224.37443498329171
 30
0.0
 11
-413.0
 21
193.0
 31
0.0
  0
LINE
  5
6D6
  8
NOTE
  6
CONTINUOUS
 62
     4
 10
-413.0
 20
193.0
 30
0.0
 11
-418.80077063298518
 21
232.57715312508751
 31
0.0
  0
LINE
  5
6D7
  8
NOTE
  6
CONTINUOUS
 62
     4
 10
-499.31806247503488
 20
270.2504390215629
 30
0.0
 11
-471.0
 21
242.0
 31
0.0
  0
LINE
  5
6D8
  8
NOTE
  6
CONTINUOUS
 62
     4
 10
-471.0
 20
242.0
 30
0.0
 11
-481.3989417726558
 21
280.62462951243168
 31
0.0
  0
CIRCLE
  5
6D9
  8
SIZE
  6
CONTINUOUS
 62
    30
 10
1161.297282376054
 20
-0.0000000000008309
 30
0.0
 40
5.0
  0
LINE
  5
6DA
  8
SIZE
  6
CONTINUOUS
 62
    30
 10
1161.297282376054
 20
4.999999999999166
 30
0.0
 11
1161.297282376054
 21
9.9999999999991651
 31
0.0
  0
TEXT
  5
6DB
  8
SIZE
  6
CONTINUOUS
 62
    30
 10
966.78497200254378
 20
398.57142857142787
 30
0.0
 40
55.0
  1
915
 50
90.0
 41
0.9
 72
     1
 11
966.78497200254378
 21
457.49999999999932
 31
0.0
  0
CIRCLE
  5
6DC
  8
SIZE
  6
CONTINUOUS
 62
    30
 10
976.78497200254378
 20
-0.0000000000007786
 30
0.0
 40
5.0
  0
LINE
  5
6DD
  8
SIZE
  6
CONTINUOUS
 62
    30
 10
976.78497200254378
 20
4.9999999999992211
 30
0.0
 11
976.78497200254378
 21
9.9999999999992184
 31
0.0
  0
TEXT
  5
6DE
  8
SIZE
  6
CONTINUOUS
 62
    30
 10
624.99998532307291
 20
-167.35097760221171
 30
0.0
 40
55.0
  1
10
 41
0.9
 72
     1
 11
660.3571281802158
 21
-167.35097760221171
 31
0.0
  0
CIRCLE
  5
6DF
  8
SIZE
  6
CONTINUOUS
 62
    30
 10
599.99998532307291
 20
-177.35097760221171
 30
0.0
 40
5.0
  0
LINE
  5
6E0
  8
SIZE
  6
CONTINUOUS
 62
    30
 10
604.99998532307291
 20
-177.35097760221171
 30
0.0
 11
609.99998532307291
 21
-177.35097760221171
 31
0.0
  0
CIRCLE
  5
6E1
  8
SIZE
  6
CONTINUOUS
 62
    30
 10
589.99998899962236
 20
-177.35097760221171
 30
0.0
 40
5.0
  0
LINE
  5
6E2
  8
SIZE
  6
CONTINUOUS
 62
    30
 10
584.99998899962236
 20
-177.35097760221171
 30
0.0
 11
579.99998899962236
 21
-177.35097760221171
 31
0.0
  0
TEXT
  5
6E3
  8
SIZE
  6
CONTINUOUS
 62
    30
 10
-77.785710609163147
 20
-167.350977602211
 30
0.0
 40
55.0
  1
1180
 41
0.9
 72
     1
 11
0.0000036765511311
 21
-167.350977602211
 31
0.0
  0
CIRCLE
  5
6E4
  8
SIZE
  6
CONTINUOUS
 62
    30
 10
589.99998899962236
 20
-177.35097760221171
 30
0.0
 40
5.0
  0
LINE
  5
6E5
  8
SIZE
  6
CONTINUOUS
 62
    30
 10
584.99998899962236
 20
-177.35097760221171
 30
0.0
 11
579.99998899962236
 21
-177.35097760221171
 31
0.0
  0
LINE
  5
6E6
  8
NOTE
  6
CONTINUOUS
 62
     4
 10
652.90562569676945
 20
-15.42639698089843
 30
0.0
 11
615.99998532307291
 21
-0.0000000000006821
 31
0.0
  0
LINE
  5
6E7
  8
NOTE
  6
CONTINUOUS
 62
     4
 10
615.99998532307291
 20
-0.0000000000006821
 30
0.0
 11
640.24800878383735
 21
-31.812471574358678
 31
0.0
  0
TEXT
  5
6E8
  8
SIZE
  6
CONTINUOUS
 62
    30
 10
1151.297282376054
 20
842.49999999999875
 30
0.0
 40
55.0
  1
1850
 50
90.0
 41
0.9
 72
     1
 11
1151.297282376054
 21
924.99999999999875
 31
0.0
  0
CIRCLE
  5
6E9
  8
SIZE
  6
CONTINUOUS
 62
    30
 10
1161.297282376054
 20
1849.999999999998
 30
0.0
 40
5.0
  0
LINE
  5
6EA
  8
SIZE
  6
CONTINUOUS
 62
    30
 10
1161.297282376054
 20
1844.9999999999991
 30
0.0
 11
1161.297282376054
 21
1839.9999999999991
 31
0.0
  0
TEXT
  5
6EB
  8
SIZE
  6
CONTINUOUS
 62
    30
 10
966.78497200254435
 20
1874.999999999998
 30
0.0
 40
55.0
  1
25
 50
90.0
 41
0.9
 72
     1
 11
966.78497200254435
 21
1915.0714285714271
 31
0.0
  0
CIRCLE
  5
6EC
  8
SIZE
  6
CONTINUOUS
 62
    30
 10
976.78497200254435
 20
1849.999999999998
 30
0.0
 40
5.0
  0
LINE
  5
6ED
  8
SIZE
  6
CONTINUOUS
 62
    30
 10
976.78497200254435
 20
1854.9999999999991
 30
0.0
 11
976.78497200254435
 21
1859.9999999999991
 31
0.0
  0
CIRCLE
  5
6EE
  8
SIZE
  6
CONTINUOUS
 62
    30
 10
976.78497200254435
 20
1824.9999999999991
 30
0.0
 40
5.0
  0
LINE
  5
6EF
  8
SIZE
  6
CONTINUOUS
 62
    30
 10
976.78497200254435
 20
1819.9999999999991
 30
0.0
 11
976.78497200254435
 21
1814.9999999999991
 31
0.0
  0
TEXT
  5
6F0
  8
SIZE
  6
CONTINUOUS
 62
    30
 10
966.78497200254435
 20
1621.357142857142
 30
0.0
 40
55.0
  1
280
 50
90.0
 41
0.9
 72
     1
 11
966.78497200254435
 21
1684.9999999999991
 31
0.0
  0
CIRCLE
  5
6F1
  8
SIZE
  6
CONTINUOUS
 62
    30
 10
976.78497200254435
 20
1544.9999999999991
 30
0.0
 40
5.0
  0
LINE
  5
6F2
  8
SIZE
  6
CONTINUOUS
 62
    30
 10
976.78497200254435
 20
1549.9999999999991
 30
0.0
 11
976.78497200254435
 21
1554.9999999999991
 31
0.0
  0
CIRCLE
  5
6F3
  8
SIZE
  6
CONTINUOUS
 62
    30
 10
976.78497200254435
 20
1824.9999999999991
 30
0.0
 40
5.0
  0
LINE
  5
6F4
  8
SIZE
  6
CONTINUOUS
 62
    30
 10
976.78497200254435
 20
1819.9999999999991
 30
0.0
 11
976.78497200254435
 21
1814.9999999999991
 31
0.0
  0
TEXT
  5
6F5
  8
SIZE
  6
CONTINUOUS
 62
    30
 10
966.78497200254435
 20
1208.857142857142
 30
0.0
 40
55.0
  1
545
 50
90.0
 41
0.9
 72
     1
 11
966.78497200254435
 21
1272.4999999999991
 31
0.0
  0
CIRCLE
  5
6F6
  8
SIZE
  6
CONTINUOUS
 62
    30
 10
976.78497200254435
 20
1544.9999999999991
 30
0.0
 40
5.0
  0
LINE
  5
6F7
  8
SIZE
  6
CONTINUOUS
 62
    30
 10
976.78497200254435
 20
1539.9999999999991
 30
0.0
 11
976.78497200254435
 21
1534.9999999999991
 31
0.0
  0
CIRCLE
  5
6F8
  8
SIZE
  6
CONTINUOUS
 62
    30
 10
976.78497200254435
 20
999.99999999999875
 30
0.0
 40
5.0
  0
LINE
  5
6F9
  8
SIZE
  6
CONTINUOUS
 62
    30
 10
976.78497200254435
 20
1004.999999999999
 30
0.0
 11
976.78497200254435
 21
1009.999999999999
 31
0.0
  0
TEXT
  5
6FA
  8
SIZE
  6
CONTINUOUS
 62
    30
 10
966.78497200254435
 20
917.42857142857065
 30
0.0
 40
55.0
  1
85
 50
90.0
 41
0.9
 72
     1
 11
966.78497200254435
 21
957.4999999999992
 31
0.0
  0
CIRCLE
  5
6FB
  8
SIZE
  6
CONTINUOUS
 62
    30
 10
976.78497200254435
 20
999.99999999999875
 30
0.0
 40
5.0
  0
LINE
  5
6FC
  8
SIZE
  6
CONTINUOUS
 62
    30
 10
976.78497200254435
 20
994.9999999999992
 30
0.0
 11
976.78497200254435
 21
989.99999999999875
 31
0.0
  0
CIRCLE
  5
6FD
  8
SIZE
  6
CONTINUOUS
 62
    30
 10
976.78497200254435
 20
914.99999999999875
 30
0.0
 40
5.0
  0
LINE
  5
6FE
  8
SIZE
  6
CONTINUOUS
 62
    30
 10
976.78497200254435
 20
919.9999999999992
 30
0.0
 11
976.78497200254435
 21
924.99999999999875
 31
0.0
  0
CIRCLE
  5
6FF
  8
SIZE
  6
CONTINUOUS
 62
    30
 10
976.78497200254435
 20
914.99999999999875
 30
0.0
 40
5.0
  0
LINE
  5
700
  8
SIZE
  6
CONTINUOUS
 62
    30
 10
976.78497200254435
 20
909.9999999999992
 30
0.0
 11
976.78497200254435
 21
904.99999999999875
 31
0.0
  0
TEXT
  5
701
  8
SIZE
  6
CONTINUOUS
 62
    30
 10
-63.642857142857132
 20
2072.454450323999
 30
0.0
 40
55.0
  1
930
 41
0.9
 72
     1
 11
0.0
 21
2072.454450323999
 31
0.0
  0
CIRCLE
  5
702
  8
SIZE
  6
CONTINUOUS
 62
    30
 10
-465.0
 20
2062.4544503239999
 30
0.0
 40
5.0
  0
LINE
  5
703
  8
SIZE
  6
CONTINUOUS
 62
    30
 10
-460.0
 20
2062.4544503239999
 30
0.0
 11
-455.0
 21
2062.4544503239999
 31
0.0
  0
CIRCLE
  5
704
  8
SIZE
  6
CONTINUOUS
 62
    30
 10
464.99998532307279
 20
2062.4544503239999
 30
0.0
 40
5.0
  0
LINE
  5
705
  8
SIZE
  6
CONTINUOUS
 62
    30
 10
459.99998532307291
 20
2062.4544503239999
 30
0.0
 11
454.99998532307291
 21
2062.4544503239999
 31
0.0
  0
TEXT
  5
706
  8
SIZE
  6
CONTINUOUS
 62
    30
 10
-449.99999999999989
 20
1974.131386022922
 30
0.0
 40
55.0
  1
50
 41
0.9
 72
     1
 11
-409.92857142857139
 21
1974.131386022922
 31
0.0
  0
CIRCLE
  5
707
  8
SIZE
  6
CONTINUOUS
 62
    30
 10
-465.0
 20
1964.1313860229241
 30
0.0
 40
5.0
  0
LINE
  5
708
  8
SIZE
  6
CONTINUOUS
 62
    30
 10
-470.00000000000011
 20
1964.1313860229241
 30
0.0
 11
-475.0
 21
1964.1313860229241
 31
0.0
  0
CIRCLE
  5
709
  8
SIZE
  6
CONTINUOUS
 62
    30
 10
-515.0
 20
1964.1313860229241
 30
0.0
 40
5.0
  0
LINE
  5
70A
  8
SIZE
  6
CONTINUOUS
 62
    30
 10
-510.0
 20
1964.1313860229241
 30
0.0
 11
-505.0
 21
1964.1313860229241
 31
0.0
  0
TEXT
  5
70B
  8
SIZE
  6
CONTINUOUS
 62
    30
 10
-695.14285714285734
 20
1974.131386022922
 30
0.0
 40
55.0
  1
85
 41
0.9
 72
     1
 11
-655.07142857142867
 21
1974.131386022922
 31
0.0
  0
CIRCLE
  5
70C
  8
SIZE
  6
CONTINUOUS
 62
    30
 10
-600.0
 20
1964.1313860229241
 30
0.0
 40
5.0
  0
LINE
  5
70D
  8
SIZE
  6
CONTINUOUS
 62
    30
 10
-595.0
 20
1964.1313860229241
 30
0.0
 11
-590.0
 21
1964.1313860229241
 31
0.0
  0
CIRCLE
  5
70E
  8
SIZE
  6
CONTINUOUS
 62
    30
 10
-515.0
 20
1964.1313860229241
 30
0.0
 40
5.0
  0
LINE
  5
70F
  8
SIZE
  6
CONTINUOUS
 62
    30
 10
-520.0
 20
1964.1313860229241
 30
0.0
 11
-525.0
 21
1964.1313860229241
 31
0.0
  0
TEXT
  5
710
  8
SIZE
  6
CONTINUOUS
 62
    30
 10
-82.5
 20
2241.5482755848652
 30
0.0
 40
55.0
  1
1200
 41
0.9
 72
     1
 11
0.0
 21
2241.5482755848652
 31
0.0
  0
CIRCLE
  5
711
  8
SIZE
  6
CONTINUOUS
 62
    30
 10
599.99998532307291
 20
2231.5482755848652
 30
0.0
 40
5.0
  0
LINE
  5
712
  8
SIZE
  6
CONTINUOUS
 62
    30
 10
594.99998532307268
 20
2231.5482755848652
 30
0.0
 11
589.99998532307279
 21
2231.5482755848652
 31
0.0
  0
CIRCLE
  5
713
  8
SIZE
  6
CONTINUOUS
 62
    30
 10
-600.0
 20
2231.5482755848652
 30
0.0
 40
5.0
  0
LINE
  5
714
  8
SIZE
  6
CONTINUOUS
 62
    30
 10
-595.0
 20
2231.5482755848652
 30
0.0
 11
-590.0
 21
2231.5482755848652
 31
0.0
  0
TEXT
  5
73D
  8
SIZE
  6
CONTINUOUS
 62
    30
 10
-252.2627306737719
 20
2141.9784575267549
 30
0.0
 40
45.0
  1
(転倒防止金具ピッチ) 
 41
0.9
 72
     1
 11
5.5872693262281219
 21
2141.9784575267549
 31
0.0
  0
ENDSEC
  0
EOF
