  0
SECTION
  2
HEADER
  9
$ACADVER
  1
AC1009
  9
$INSBASE
 10
0.0
 20
0.0
 30
0.0
  9
$EXTMIN
 10
-916.96016441465326
 20
-1001.739139567664
 30
-0.0015258207003583
  9
$EXTMAX
 10
2133.9485013934968
 20
2765.3371857626439
 30
0.0000000349246037
  9
$LIMMIN
 10
-4267.1522210604817
 20
-2696.0832101984129
  9
$LIMMAX
 10
7190.7174225864646
 20
5141.155363923066
  9
$ORTHOMODE
 70
     0
  9
$REGENMODE
 70
     1
  9
$FILLMODE
 70
     1
  9
$QTEXTMODE
 70
     0
  9
$MIRRTEXT
 70
     0
  9
$DRAGMODE
 70
     2
  9
$LTSCALE
 40
20.0
  9
$OSMODE
 70
  3071
  9
$ATTMODE
 70
     1
  9
$TEXTSIZE
 40
64.0
  9
$TRACEWID
 40
0.05
  9
$TEXTSTYLE
  7
STANDARD_MODELNAME
  9
$CLAYER
  8
SYMBOLLINE
  9
$CELTYPE
  6
CONTINUOUS
  9
$CECOLOR
 62
     7
  9
$DIMSCALE
 40
1.0
  9
$DIMASZ
 40
30.0
  9
$DIMEXO
 40
20.0
  9
$DIMDLI
 40
80.0
  9
$DIMRND
 40
0.0
  9
$DIMDLE
 40
0.0
  9
$DIMEXE
 40
20.0
  9
$DIMTP
 40
0.0
  9
$DIMTM
 40
0.0
  9
$DIMTXT
 40
60.0
  9
$DIMCEN
 40
0.09
  9
$DIMTSZ
 40
0.0
  9
$DIMTOL
 70
     0
  9
$DIMLIM
 70
     0
  9
$DIMTIH
 70
     0
  9
$DIMTOH
 70
     0
  9
$DIMSE1
 70
     0
  9
$DIMSE2
 70
     0
  9
$DIMTAD
 70
     1
  9
$DIMZIN
 70
     8
  9
$DIMBLK
  1
SMALL
  9
$DIMASO
 70
     1
  9
$DIMSHO
 70
     0
  9
$DIMPOST
  1

  9
$DIMAPOST
  1

  9
$DIMALT
 70
     0
  9
$DIMALTD
 70
     2
  9
$DIMALTF
 40
25.399999999999999
  9
$DIMLFAC
 40
1.0
  9
$DIMTOFL
 70
     1
  9
$DIMTVP
 40
0.0
  9
$DIMTIX
 70
     0
  9
$DIMSOXD
 70
     0
  9
$DIMSAH
 70
     0
  9
$DIMBLK1
  1

  9
$DIMBLK2
  1

  9
$DIMSTYLE
  2
STANDARD
  9
$DIMCLRD
 70
     0
  9
$DIMCLRE
 70
     0
  9
$DIMCLRT
 70
     0
  9
$DIMTFAC
 40
1.0
  9
$DIMGAP
 40
0.09
  9
$LUNITS
 70
     2
  9
$LUPREC
 70
     4
  9
$SKETCHINC
 40
0.1
  9
$FILLETRAD
 40
30.0
  9
$AUNITS
 70
     1
  9
$AUPREC
 70
     3
  9
$MENU
  1
ACAD
  9
$ELEVATION
 40
0.0
  9
$PELEVATION
 40
0.0
  9
$THICKNESS
 40
0.0
  9
$LIMCHECK
 70
     0
  9
$BLIPMODE
 70
     0
  9
$CHAMFERA
 40
0.0
  9
$CHAMFERB
 40
0.0
  9
$SKPOLY
 70
     0
  9
$TDCREATE
 40
2450330.4399309959
  9
$TDUPDATE
 40
2456080.7145061921
  9
$TDINDWG
 40
4.1296331018999997
  9
$TDUSRTIMER
 40
4.1296329282000004
  9
$USRTIMER
 70
     1
  9
$ANGBASE
 50
0.0
  9
$ANGDIR
 70
     0
  9
$PDMODE
 70
     3
  9
$PDSIZE
 40
-2.0
  9
$PLINEWID
 40
0.0
  9
$COORDS
 70
     1
  9
$SPLFRAME
 70
     0
  9
$SPLINETYPE
 70
     6
  9
$SPLINESEGS
 70
     8
  9
$ATTDIA
 70
     0
  9
$ATTREQ
 70
     1
  9
$HANDLING
 70
     1
  9
$HANDSEED
  5
613
  9
$SURFTAB1
 70
     6
  9
$SURFTAB2
 70
     6
  9
$SURFTYPE
 70
     6
  9
$SURFU
 70
     6
  9
$SURFV
 70
     6
  9
$UCSNAME
  2

  9
$UCSORG
 10
0.0
 20
0.0
 30
0.0
  9
$UCSXDIR
 10
1.0
 20
0.0
 30
0.0
  9
$UCSYDIR
 10
0.0
 20
1.0
 30
0.0
  9
$PUCSNAME
  2

  9
$PUCSORG
 10
0.0
 20
0.0
 30
0.0
  9
$PUCSXDIR
 10
1.0
 20
0.0
 30
0.0
  9
$PUCSYDIR
 10
0.0
 20
1.0
 30
0.0
  9
$USERI1
 70
     0
  9
$USERI2
 70
     0
  9
$USERI3
 70
     0
  9
$USERI4
 70
     0
  9
$USERI5
 70
     0
  9
$USERR1
 40
20.0
  9
$USERR2
 40
0.0
  9
$USERR3
 40
0.0
  9
$USERR4
 40
0.0
  9
$USERR5
 40
0.0
  9
$WORLDVIEW
 70
     1
  9
$SHADEDGE
 70
     3
  9
$SHADEDIF
 70
    70
  9
$TILEMODE
 70
     1
  9
$MAXACTVP
 70
    64
  9
$PLIMCHECK
 70
     0
  9
$PEXTMIN
 10
1.0000000000000000E+020
 20
1.0000000000000000E+020
 30
1.0000000000000000E+020
  9
$PEXTMAX
 10
-1.0000000000000000E+020
 20
-1.0000000000000000E+020
 30
-1.0000000000000000E+020
  9
$PLIMMIN
 10
0.0
 20
0.0
  9
$PLIMMAX
 10
12.0
 20
9.0
  9
$UNITMODE
 70
     0
  9
$VISRETAIN
 70
     1
  9
$PLINEGEN
 70
     0
  9
$PSLTSCALE
 70
     1
  0
ENDSEC
  0
SECTION
  2
TABLES
  0
TABLE
  2
VPORT
 70
     1
  0
VPORT
  2
*ACTIVE
 70
     0
 10
0.0
 20
0.0
 11
1.0
 21
1.0
 12
1461.782600762991
 22
1222.536076862327
 13
0.0
 23
0.0
 14
50.0
 24
50.0
 15
100.0
 25
100.0
 16
0.0
 26
0.0
 36
1.0
 17
0.0
 27
0.0
 37
0.0
 40
7896.8373465482591
 41
1.552030456852791
 42
50.0
 43
0.0
 44
0.0
 50
0.0
 51
0.0
 71
     0
 72
  1000
 73
     1
 74
     0
 75
     0
 76
     0
 77
     0
 78
     0
  0
ENDTAB
  0
TABLE
  2
LTYPE
 70
     5
  0
LTYPE
  2
CONTINUOUS
 70
     0
  3
実線
 72
    65
 73
     0
 40
0.0
  0
LTYPE
  2
DASHDOT
 70
     0
  3
____ _ ____ _ ____ _ ____ _ ____ _ ____ _ ____
 72
    65
 73
     4
 40
5.5
 49
4.0
 49
-0.6
 49
0.3
 49
-0.6
  0
LTYPE
  2
CENTER
 70
     0
  3
Center ____ _ ____ _ ____ _ ____ _ ____ _ ____
 72
    65
 73
     4
 40
7.0
 49
4.299999999999998
 49
-0.7
 49
1.3
 49
-0.7
  0
LTYPE
  2
DASHED
 70
     0
  3
Dashed __ __ __ __ __ __ __ __ __ __ __ __ __ _
 72
    65
 73
     2
 40
3.0
 49
2.0
 49
-1.0
  0
ENDTAB
  0
TABLE
  2
LAYER
 70
    12
  0
LAYER
  2
0
 70
     0
 62
     7
  6
CONTINUOUS
  0
LAYER
  2
NOTE
 70
     0
 62
     4
  6
CONTINUOUS
  0
LAYER
  2
OUTLINE
 70
     0
 62
     3
  6
CONTINUOUS
  0
LAYER
  2
DETAIL
 70
     0
 62
     5
  6
CONTINUOUS
  0
LAYER
  2
BASIS
 70
     0
 62
     6
  6
DASHDOT
  0
LAYER
  2
SIZE
 70
     0
 62
    30
  6
CONTINUOUS
  0
LAYER
  2
ARRANGE
 70
     0
 62
     1
  6
CONTINUOUS
  0
LAYER
  2
FIX
 70
     0
 62
    11
  6
CONTINUOUS
  0
LAYER
  2
SERVICESPACE
 70
     0
 62
     2
  6
DASHDOT
  0
LAYER
  2
ETC
 70
     0
 62
    61
  6
CONTINUOUS
  0
LAYER
  2
SYMBOLLINE
 70
     0
 62
    15
  6
CONTINUOUS
  0
LAYER
  2
DEFPOINTS
 70
     0
 62
     7
  6
CONTINUOUS
  0
ENDTAB
  0
TABLE
  2
STYLE
 70
     4
  0
STYLE
  2
STANDARD
 70
     0
 40
0.0
 41
0.9
 50
0.0
 71
     0
 42
64.0
  3
SIMPLEX
  4
BIGFONT
  0
STYLE
  2
ANNOTATIVE
 70
     0
 40
0.0
 41
1.0
 50
0.0
 71
     0
 42
0.2
  3
txt
  4

  0
STYLE
  2
STANDARD_MODELNAME
 70
     0
 40
80.0
 41
0.8
 50
0.0
 71
     0
 42
64.0
  3
MONOTXT.shx
  4
BIGFONT.shx
  0
STYLE
  2
STANDARD1
 70
     0
 40
60.0
 41
0.7
 50
0.0
 71
     0
 42
64.0
  3
MONOTXT.shx
  4
BIGFONT.shx
  0
ENDTAB
  0
TABLE
  2
VIEW
 70
     1
  0
VIEW
  2
ALL
 70
     0
 40
9000.0
 10
241.50664699999999
 20
0.0
 41
12483.01
 11
0.0
 21
0.0
 31
1.0
 12
0.0
 22
0.0
 32
0.0
 42
50.0
 43
0.0
 44
0.0
 50
0.0
 71
     0
  0
ENDTAB
  0
TABLE
  2
UCS
 70
     0
  0
ENDTAB
  0
TABLE
  2
APPID
 70
     4
  0
APPID
  2
ACAD
 70
     0
  0
APPID
  2
ACADANNOTATIVE
 70
     0
  0
APPID
  2
ACAD_MLEADERVER
 70
     0
  0
APPID
  2
ACAD_EXEMPT_FROM_CAD_STANDARDS
 70
     0
  0
ENDTAB
  0
TABLE
  2
DIMSTYLE
 70
     3
  0
DIMSTYLE
  2
STANDARD
 70
     0
  3

  4

  5

  6

  7

 40
1.0
 41
0.18
 42
0.0625
 43
0.38
 44
0.18
 45
0.0
 46
0.0
 47
0.0
 48
0.0
140
0.18
141
0.09
142
0.0
143
25.399999999999999
144
1.0
145
0.0
146
1.0
147
0.09
 71
     0
 72
     0
 73
     1
 74
     1
 75
     0
 76
     0
 77
     0
 78
     0
170
     0
171
     2
172
     0
173
     0
174
     0
175
     0
176
     0
177
     0
178
     0
  0
DIMSTYLE
  2
ANNOTATIVE
 70
     0
  3

  4

  5

  6

  7

 40
1.0
 41
0.18
 42
0.0625
 43
0.38
 44
0.18
 45
0.0
 46
0.0
 47
0.0
 48
0.0
140
0.18
141
0.09
142
0.0
143
25.399999999999999
144
1.0
145
0.0
146
1.0
147
0.09
 71
     0
 72
     0
 73
     1
 74
     1
 75
     0
 76
     0
 77
     0
 78
     0
170
     0
171
     2
172
     0
173
     0
174
     0
175
     0
176
     0
177
     0
178
     0
  0
ENDTAB
  0
ENDSEC
  0
SECTION
  2
BLOCKS
  0
BLOCK
  8
0
  2
$MODEL_SPACE
 70
     0
 10
0.0
 20
0.0
 30
0.0
  3
$MODEL_SPACE
  1

  0
ENDBLK
  5
76
  8
0
  0
BLOCK
 67
     1
  8
0
  2
$PAPER_SPACE
 70
     0
 10
0.0
 20
0.0
 30
0.0
  3
$PAPER_SPACE
  1

  0
ENDBLK
  5
72
 67
     1
  8
0
  0
BLOCK
  8
0
  2
_SMALL
 70
     0
 10
0.0
 20
0.0
 30
0.0
  3
_SMALL
  1

  0
CIRCLE
  5
8F
  8
0
  6
CONTINUOUS
 62
     7
 10
0.0
 20
0.0
 30
0.0
 40
0.25
  0
ENDBLK
  5
90
  8
0
  0
ENDSEC
  0
SECTION
  2
ENTITIES
  0
CIRCLE
  5
97
  8
DETAIL
  6
CONTINUOUS
 62
     5
 10
330.00000088737568
 20
445.0
 30
0.0
 40
16.0
  0
CIRCLE
  5
98
  8
DETAIL
  6
CONTINUOUS
 62
     5
 10
330.00000088737568
 20
395.0
 30
0.0
 40
16.0
  0
CIRCLE
  5
99
  8
DETAIL
  6
CONTINUOUS
 62
     5
 10
330.00000088737568
 20
345.0
 30
0.0
 40
16.0
  0
CIRCLE
  5
9A
  8
DETAIL
  6
CONTINUOUS
 62
     5
 10
330.00000088737568
 20
270.0
 30
0.0
 40
25.0
  0
LINE
  5
9B
  8
DETAIL
  6
CONTINUOUS
 62
     5
 10
-438.9999991126241
 20
1914.0
 30
0.0
 11
-438.9999991126241
 21
1947.0
 31
0.0
  0
LINE
  5
9C
  8
DETAIL
  6
CONTINUOUS
 62
     5
 10
-439.99999911262421
 20
1916.0
 30
0.0
 11
-439.99999911262421
 21
1946.0
 31
0.0
  0
ARC
  5
9E
  8
DETAIL
  6
CONTINUOUS
 62
     5
 10
-438.9999991126241
 20
1946.0
 30
0.0
 40
1.0
 50
90.0
 51
180.0
  0
ARC
  5
9F
  8
DETAIL
  6
CONTINUOUS
 62
     5
 10
-438.9999991126241
 20
1916.0
 30
0.0
 40
1.0
 50
180.0
 51
270.0
  0
ARC
  5
A0
  8
DETAIL
  6
CONTINUOUS
 62
     5
 10
-438.9999991126241
 20
1914.0
 30
0.0
 40
1.0
 50
90.0
 51
180.0
  0
LINE
  5
A1
  8
DETAIL
  6
CONTINUOUS
 62
     5
 10
-439.99999911262421
 20
1914.0
 30
0.0
 11
-438.9999991126241
 21
1914.0
 31
0.0
  0
LINE
  5
A2
  8
DETAIL
  6
CONTINUOUS
 62
     5
 10
439.0000008873767
 20
1915.0
 30
0.0
 11
-438.9999991126241
 21
1915.0
 31
0.0
  0
LINE
  5
A3
  8
DETAIL
  6
CONTINUOUS
 62
     5
 10
-439.99999911262421
 20
1914.0
 30
0.0
 11
-439.99999911262421
 21
101.0
 31
0.0
  0
ARC
  5
A5
  8
DETAIL
  6
CONTINUOUS
 62
     5
 10
439.0000008873767
 20
1946.0
 30
0.0
 40
1.0
 50
0.0
 51
90.0
  0
LINE
  5
A6
  8
DETAIL
  6
CONTINUOUS
 62
     5
 10
440.00000088737647
 20
1946.0
 30
0.0
 11
439.0000008873767
 21
1946.0
 31
0.0
  0
LINE
  5
A7
  8
DETAIL
  6
CONTINUOUS
 62
     5
 10
439.0000008873767
 20
1947.0
 30
0.0
 11
439.0000008873767
 21
1946.0
 31
0.0
  0
ARC
  5
A8
  8
DETAIL
  6
CONTINUOUS
 62
     5
 10
439.0000008873767
 20
1916.0
 30
0.0
 40
1.0
 50
270.0
 51
0.0
  0
LINE
  5
A9
  8
DETAIL
  6
CONTINUOUS
 62
     5
 10
439.0000008873767
 20
1915.0
 30
0.0
 11
439.0000008873767
 21
1914.0
 31
0.0
  0
LINE
  5
AA
  8
DETAIL
  6
CONTINUOUS
 62
     5
 10
439.0000008873767
 20
1914.0
 30
0.0
 11
440.00000088737647
 21
1914.0
 31
0.0
  0
ARC
  5
AB
  8
DETAIL
  6
CONTINUOUS
 62
     5
 10
439.0000008873767
 20
101.0
 30
0.0
 40
1.0
 50
270.0
 51
0.0
  0
LINE
  5
AC
  8
DETAIL
  6
CONTINUOUS
 62
     5
 10
439.0000008873767
 20
100.0
 30
0.0
 11
-438.9999991126241
 21
100.0
 31
0.0
  0
LINE
  5
AD
  8
DETAIL
  6
CONTINUOUS
 62
     5
 10
440.00000088737647
 20
101.0
 30
0.0
 11
439.0000008873767
 21
101.0
 31
0.0
  0
LINE
  5
AE
  8
DETAIL
  6
CONTINUOUS
 62
     5
 10
439.0000008873767
 20
100.0
 30
0.0
 11
439.0000008873767
 21
101.0
 31
0.0
  0
ARC
  5
AF
  8
DETAIL
  6
CONTINUOUS
 62
     5
 10
-438.9999991126241
 20
101.0
 30
0.0
 40
1.0
 50
180.0
 51
270.0
  0
LINE
  5
B0
  8
DETAIL
  6
CONTINUOUS
 62
     5
 10
-438.9999991126241
 20
100.0
 30
0.0
 11
-438.9999991126241
 21
101.0
 31
0.0
  0
LINE
  5
B1
  8
DETAIL
  6
CONTINUOUS
 62
     5
 10
-439.99999911262421
 20
101.0
 30
0.0
 11
-438.9999991126241
 21
101.0
 31
0.0
  0
LINE
  5
B2
  8
DETAIL
  6
CONTINUOUS
 62
     5
 10
440.00000088737647
 20
1946.0
 30
0.0
 11
440.00000088737647
 21
101.0
 31
0.0
  0
LINE
  5
B3
  8
DETAIL
  6
CONTINUOUS
 62
     5
 10
-359.99999911262421
 20
1948.0
 30
0.0
 11
-359.99999911262421
 21
1947.0
 31
0.0
  0
LINE
  5
B4
  8
DETAIL
  6
CONTINUOUS
 62
     5
 10
-359.99999911262421
 20
1948.0
 30
0.0
 11
360.00000088737568
 21
1948.0
 31
0.0
  0
LINE
  5
B5
  8
DETAIL
  6
CONTINUOUS
 62
     5
 10
-354.99999911262421
 20
1948.0
 30
0.0
 11
-354.99999911262421
 21
1947.0
 31
0.0
  0
LINE
  5
B6
  8
DETAIL
  6
CONTINUOUS
 62
     5
 10
439.0000008873767
 20
1947.0
 30
0.0
 11
-438.9999991126241
 21
1947.0
 31
0.0
  0
LINE
  5
B7
  8
DETAIL
  6
CONTINUOUS
 62
     5
 10
355.00000088737568
 20
1948.0
 30
0.0
 11
355.00000088737568
 21
1947.0
 31
0.0
  0
LINE
  5
B8
  8
DETAIL
  6
CONTINUOUS
 62
     5
 10
360.00000088737568
 20
1948.0
 30
0.0
 11
360.00000088737568
 21
1947.0
 31
0.0
  0
LINE
  5
B9
  8
DETAIL
  6
CONTINUOUS
 62
     5
 10
440.00000088737647
 20
1949.0
 30
0.0
 11
421.0000008873767
 21
1949.0
 31
0.0
  0
LINE
  5
BA
  8
DETAIL
  6
CONTINUOUS
 62
     5
 10
421.0000008873767
 20
1950.0
 30
0.0
 11
421.0000008873767
 21
1949.0
 31
0.0
  0
LINE
  5
BB
  8
DETAIL
  6
CONTINUOUS
 62
     5
 10
440.00000088737647
 20
1950.0
 30
0.0
 11
421.0000008873767
 21
1950.0
 31
0.0
  0
ARC
  5
BC
  8
DETAIL
  6
CONTINUOUS
 62
     5
 10
440.00000088737647
 20
1949.0
 30
0.0
 40
1.0
 50
0.0
 51
90.0
  0
LINE
  5
BD
  8
DETAIL
  6
CONTINUOUS
 62
     5
 10
441.00000088737642
 20
1949.0
 30
0.0
 11
441.00000088737642
 21
1913.0
 31
0.0
  0
ARC
  5
BE
  8
DETAIL
  6
CONTINUOUS
 62
     5
 10
440.00000088737647
 20
1913.0
 30
0.0
 40
1.0
 50
270.0
 51
0.0
  0
LINE
  5
BF
  8
DETAIL
  6
CONTINUOUS
 62
     5
 10
440.00000088737647
 20
1949.0
 30
0.0
 11
440.00000088737647
 21
1946.0
 31
0.0
  0
LINE
  5
C0
  8
DETAIL
  6
CONTINUOUS
 62
     5
 10
275.00000088737568
 20
670.0
 30
0.0
 11
270.00000088737568
 21
675.0
 31
0.0
  0
LINE
  5
C1
  8
DETAIL
  6
CONTINUOUS
 62
     5
 10
270.00000088737568
 20
235.0
 30
0.0
 11
275.00000088737568
 21
240.0
 31
0.0
  0
LINE
  5
C2
  8
DETAIL
  6
CONTINUOUS
 62
     5
 10
275.00000088737568
 20
240.0
 30
0.0
 11
275.00000088737568
 21
670.0
 31
0.0
  0
LINE
  5
C3
  8
DETAIL
  6
CONTINUOUS
 62
     5
 10
-274.99999911262421
 20
240.0
 30
0.0
 11
-269.99999911262421
 21
235.0
 31
0.0
  0
LINE
  5
C4
  8
DETAIL
  6
CONTINUOUS
 62
     5
 10
-269.99999911262421
 20
235.0
 30
0.0
 11
270.00000088737568
 21
235.0
 31
0.0
  0
LINE
  5
C5
  8
DETAIL
  6
CONTINUOUS
 62
     5
 10
-274.99999911262421
 20
670.0
 30
0.0
 11
-274.99999911262421
 21
240.0
 31
0.0
  0
LINE
  5
C6
  8
DETAIL
  6
CONTINUOUS
 62
     5
 10
-269.99999911262421
 20
675.0
 30
0.0
 11
-274.99999911262421
 21
670.0
 31
0.0
  0
LINE
  5
C7
  8
DETAIL
  6
CONTINUOUS
 62
     5
 10
270.00000088737568
 20
675.0
 30
0.0
 11
-269.99999911262421
 21
675.0
 31
0.0
  0
LINE
  5
C8
  8
DETAIL
  6
CONTINUOUS
 62
     5
 10
267.00000088737568
 20
459.61880199999979
 30
0.0
 11
263.00000088737568
 21
457.30940099999998
 31
0.0
  0
LINE
  5
C9
  8
DETAIL
  6
CONTINUOUS
 62
     5
 10
271.00000088737568
 20
452.69059899999951
 30
0.0
 11
267.00000088737568
 21
450.38119799999998
 31
0.0
  0
LINE
  5
CA
  8
DETAIL
  6
CONTINUOUS
 62
     5
 10
267.00000088737568
 20
459.61880199999979
 30
0.0
 11
271.00000088737568
 21
457.30940099999998
 31
0.0
  0
LINE
  5
CB
  8
DETAIL
  6
CONTINUOUS
 62
     5
 10
267.00000088737568
 20
450.38119799999998
 30
0.0
 11
263.00000088737568
 21
452.69059899999951
 31
0.0
  0
LINE
  5
CC
  8
DETAIL
  6
CONTINUOUS
 62
     5
 10
263.00000088737568
 20
452.69059899999951
 30
0.0
 11
263.00000088737568
 21
457.30940099999998
 31
0.0
  0
LINE
  5
CD
  8
DETAIL
  6
CONTINUOUS
 62
     5
 10
271.00000088737568
 20
457.30940099999998
 30
0.0
 11
271.00000088737568
 21
452.69059899999951
 31
0.0
  0
CIRCLE
  5
CE
  8
DETAIL
  6
CONTINUOUS
 62
     5
 10
267.00000088737568
 20
455.0
 30
0.0
 40
6.0
  0
LINE
  5
CF
  8
DETAIL
  6
CONTINUOUS
 62
     5
 10
267.00000088737568
 20
671.61880199999985
 30
0.0
 11
263.00000088737568
 21
669.30940099999941
 31
0.0
  0
LINE
  5
D0
  8
DETAIL
  6
CONTINUOUS
 62
     5
 10
271.00000088737568
 20
664.69059899999957
 30
0.0
 11
267.00000088737568
 21
662.38119800000004
 31
0.0
  0
LINE
  5
D1
  8
DETAIL
  6
CONTINUOUS
 62
     5
 10
267.00000088737568
 20
671.61880199999985
 30
0.0
 11
271.00000088737568
 21
669.30940099999941
 31
0.0
  0
LINE
  5
D2
  8
DETAIL
  6
CONTINUOUS
 62
     5
 10
267.00000088737568
 20
662.38119800000004
 30
0.0
 11
263.00000088737568
 21
664.69059899999957
 31
0.0
  0
LINE
  5
D3
  8
DETAIL
  6
CONTINUOUS
 62
     5
 10
263.00000088737568
 20
664.69059899999957
 30
0.0
 11
263.00000088737568
 21
669.30940099999941
 31
0.0
  0
LINE
  5
D4
  8
DETAIL
  6
CONTINUOUS
 62
     5
 10
271.00000088737568
 20
669.30940099999941
 30
0.0
 11
271.00000088737568
 21
664.69059899999957
 31
0.0
  0
CIRCLE
  5
D5
  8
DETAIL
  6
CONTINUOUS
 62
     5
 10
267.00000088737568
 20
667.0
 30
0.0
 40
6.0
  0
LINE
  5
D6
  8
DETAIL
  6
CONTINUOUS
 62
     5
 10
0.0000008873757906
 20
671.61880199999985
 30
0.0
 11
-3.9999991126242089
 21
669.30940099999941
 31
0.0
  0
LINE
  5
D7
  8
DETAIL
  6
CONTINUOUS
 62
     5
 10
4.0000008873757888
 20
664.69059899999957
 30
0.0
 11
0.0000008873757906
 21
662.38119800000004
 31
0.0
  0
LINE
  5
D8
  8
DETAIL
  6
CONTINUOUS
 62
     5
 10
0.0000008873757906
 20
671.61880199999985
 30
0.0
 11
4.0000008873757888
 21
669.30940099999941
 31
0.0
  0
LINE
  5
D9
  8
DETAIL
  6
CONTINUOUS
 62
     5
 10
0.0000008873757906
 20
662.38119800000004
 30
0.0
 11
-3.9999991126242089
 21
664.69059899999957
 31
0.0
  0
LINE
  5
DA
  8
DETAIL
  6
CONTINUOUS
 62
     5
 10
-3.9999991126242089
 20
664.69059899999957
 30
0.0
 11
-3.9999991126242089
 21
669.30940099999941
 31
0.0
  0
LINE
  5
DB
  8
DETAIL
  6
CONTINUOUS
 62
     5
 10
4.0000008873757888
 20
669.30940099999941
 30
0.0
 11
4.0000008873757888
 21
664.69059899999957
 31
0.0
  0
CIRCLE
  5
DC
  8
DETAIL
  6
CONTINUOUS
 62
     5
 10
0.0000008873757906
 20
667.0
 30
0.0
 40
6.0
  0
LINE
  5
DD
  8
DETAIL
  6
CONTINUOUS
 62
     5
 10
267.00000088737568
 20
247.6188019999999
 30
0.0
 11
263.00000088737568
 21
245.30940100000001
 31
0.0
  0
LINE
  5
DE
  8
DETAIL
  6
CONTINUOUS
 62
     5
 10
271.00000088737568
 20
240.69059899999999
 30
0.0
 11
267.00000088737568
 21
238.38119800000001
 31
0.0
  0
LINE
  5
DF
  8
DETAIL
  6
CONTINUOUS
 62
     5
 10
267.00000088737568
 20
247.6188019999999
 30
0.0
 11
271.00000088737568
 21
245.30940100000001
 31
0.0
  0
LINE
  5
E0
  8
DETAIL
  6
CONTINUOUS
 62
     5
 10
267.00000088737568
 20
238.38119800000001
 30
0.0
 11
263.00000088737568
 21
240.69059899999999
 31
0.0
  0
LINE
  5
E1
  8
DETAIL
  6
CONTINUOUS
 62
     5
 10
263.00000088737568
 20
240.69059899999999
 30
0.0
 11
263.00000088737568
 21
245.30940100000001
 31
0.0
  0
LINE
  5
E2
  8
DETAIL
  6
CONTINUOUS
 62
     5
 10
271.00000088737568
 20
245.30940100000001
 30
0.0
 11
271.00000088737568
 21
240.69059899999999
 31
0.0
  0
CIRCLE
  5
E3
  8
DETAIL
  6
CONTINUOUS
 62
     5
 10
267.00000088737568
 20
243.0
 30
0.0
 40
6.0
  0
LINE
  5
E4
  8
DETAIL
  6
CONTINUOUS
 62
     5
 10
0.0000008873757906
 20
247.6188019999999
 30
0.0
 11
-3.9999991126242089
 21
245.30940100000001
 31
0.0
  0
LINE
  5
E5
  8
DETAIL
  6
CONTINUOUS
 62
     5
 10
4.0000008873757888
 20
240.69059899999999
 30
0.0
 11
0.0000008873757906
 21
238.38119800000001
 31
0.0
  0
LINE
  5
E6
  8
DETAIL
  6
CONTINUOUS
 62
     5
 10
0.0000008873757906
 20
247.6188019999999
 30
0.0
 11
4.0000008873757888
 21
245.30940100000001
 31
0.0
  0
LINE
  5
E7
  8
DETAIL
  6
CONTINUOUS
 62
     5
 10
0.0000008873757906
 20
238.38119800000001
 30
0.0
 11
-3.9999991126242089
 21
240.69059899999999
 31
0.0
  0
LINE
  5
E8
  8
DETAIL
  6
CONTINUOUS
 62
     5
 10
-3.9999991126242089
 20
240.69059899999999
 30
0.0
 11
-3.9999991126242089
 21
245.30940100000001
 31
0.0
  0
LINE
  5
E9
  8
DETAIL
  6
CONTINUOUS
 62
     5
 10
4.0000008873757888
 20
245.30940100000001
 30
0.0
 11
4.0000008873757888
 21
240.69059899999999
 31
0.0
  0
CIRCLE
  5
EA
  8
DETAIL
  6
CONTINUOUS
 62
     5
 10
0.0000008873757906
 20
243.0
 30
0.0
 40
6.0
  0
LINE
  5
EB
  8
DETAIL
  6
CONTINUOUS
 62
     5
 10
-266.99999911262421
 20
247.6188019999999
 30
0.0
 11
-270.99999911262421
 21
245.30940100000001
 31
0.0
  0
LINE
  5
EC
  8
DETAIL
  6
CONTINUOUS
 62
     5
 10
-262.99999911262421
 20
240.69059899999999
 30
0.0
 11
-266.99999911262421
 21
238.38119800000001
 31
0.0
  0
LINE
  5
ED
  8
DETAIL
  6
CONTINUOUS
 62
     5
 10
-266.99999911262421
 20
247.6188019999999
 30
0.0
 11
-262.99999911262421
 21
245.30940100000001
 31
0.0
  0
LINE
  5
EE
  8
DETAIL
  6
CONTINUOUS
 62
     5
 10
-266.99999911262421
 20
238.38119800000001
 30
0.0
 11
-270.99999911262421
 21
240.69059899999999
 31
0.0
  0
LINE
  5
EF
  8
DETAIL
  6
CONTINUOUS
 62
     5
 10
-270.99999911262421
 20
240.69059899999999
 30
0.0
 11
-270.99999911262421
 21
245.30940100000001
 31
0.0
  0
LINE
  5
F0
  8
DETAIL
  6
CONTINUOUS
 62
     5
 10
-262.99999911262421
 20
245.30940100000001
 30
0.0
 11
-262.99999911262421
 21
240.69059899999999
 31
0.0
  0
CIRCLE
  5
F1
  8
DETAIL
  6
CONTINUOUS
 62
     5
 10
-266.99999911262421
 20
243.0
 30
0.0
 40
6.0
  0
LINE
  5
F2
  8
DETAIL
  6
CONTINUOUS
 62
     5
 10
-266.99999911262421
 20
459.61880199999979
 30
0.0
 11
-270.99999911262421
 21
457.30940099999998
 31
0.0
  0
LINE
  5
F3
  8
DETAIL
  6
CONTINUOUS
 62
     5
 10
-262.99999911262421
 20
452.69059899999951
 30
0.0
 11
-266.99999911262421
 21
450.38119799999998
 31
0.0
  0
LINE
  5
F4
  8
DETAIL
  6
CONTINUOUS
 62
     5
 10
-266.99999911262421
 20
459.61880199999979
 30
0.0
 11
-262.99999911262421
 21
457.30940099999998
 31
0.0
  0
LINE
  5
F5
  8
DETAIL
  6
CONTINUOUS
 62
     5
 10
-266.99999911262421
 20
450.38119799999998
 30
0.0
 11
-270.99999911262421
 21
452.69059899999951
 31
0.0
  0
LINE
  5
F6
  8
DETAIL
  6
CONTINUOUS
 62
     5
 10
-270.99999911262421
 20
452.69059899999951
 30
0.0
 11
-270.99999911262421
 21
457.30940099999998
 31
0.0
  0
LINE
  5
F7
  8
DETAIL
  6
CONTINUOUS
 62
     5
 10
-262.99999911262421
 20
457.30940099999998
 30
0.0
 11
-262.99999911262421
 21
452.69059899999951
 31
0.0
  0
CIRCLE
  5
F8
  8
DETAIL
  6
CONTINUOUS
 62
     5
 10
-266.99999911262421
 20
455.0
 30
0.0
 40
6.0
  0
LINE
  5
F9
  8
DETAIL
  6
CONTINUOUS
 62
     5
 10
-266.99999911262421
 20
671.61880199999985
 30
0.0
 11
-270.99999911262421
 21
669.30940099999941
 31
0.0
  0
LINE
  5
FA
  8
DETAIL
  6
CONTINUOUS
 62
     5
 10
-262.99999911262421
 20
664.69059899999957
 30
0.0
 11
-266.99999911262421
 21
662.38119800000004
 31
0.0
  0
LINE
  5
FB
  8
DETAIL
  6
CONTINUOUS
 62
     5
 10
-266.99999911262421
 20
671.61880199999985
 30
0.0
 11
-262.99999911262421
 21
669.30940099999941
 31
0.0
  0
LINE
  5
FC
  8
DETAIL
  6
CONTINUOUS
 62
     5
 10
-266.99999911262421
 20
662.38119800000004
 30
0.0
 11
-270.99999911262421
 21
664.69059899999957
 31
0.0
  0
LINE
  5
FD
  8
DETAIL
  6
CONTINUOUS
 62
     5
 10
-270.99999911262421
 20
664.69059899999957
 30
0.0
 11
-270.99999911262421
 21
669.30940099999941
 31
0.0
  0
LINE
  5
FE
  8
DETAIL
  6
CONTINUOUS
 62
     5
 10
-262.99999911262421
 20
669.30940099999941
 30
0.0
 11
-262.99999911262421
 21
664.69059899999957
 31
0.0
  0
CIRCLE
  5
FF
  8
DETAIL
  6
CONTINUOUS
 62
     5
 10
-266.99999911262421
 20
667.0
 30
0.0
 40
6.0
  0
LINE
  5
100
  8
DETAIL
  6
CONTINUOUS
 62
     5
 10
215.00000088737579
 20
1510.0
 30
0.0
 11
210.00000088737579
 21
1515.0
 31
0.0
  0
LINE
  5
101
  8
DETAIL
  6
CONTINUOUS
 62
     5
 10
210.00000088737579
 20
1185.0
 30
0.0
 11
215.00000088737579
 21
1190.0
 31
0.0
  0
LINE
  5
102
  8
DETAIL
  6
CONTINUOUS
 62
     5
 10
215.00000088737579
 20
1190.0
 30
0.0
 11
215.00000088737579
 21
1510.0
 31
0.0
  0
LINE
  5
103
  8
DETAIL
  6
CONTINUOUS
 62
     5
 10
-209.99999911262421
 20
1185.0
 30
0.0
 11
210.00000088737579
 21
1185.0
 31
0.0
  0
LINE
  5
104
  8
DETAIL
  6
CONTINUOUS
 62
     5
 10
210.00000088737579
 20
1515.0
 30
0.0
 11
-209.99999911262421
 21
1515.0
 31
0.0
  0
LINE
  5
105
  8
DETAIL
  6
CONTINUOUS
 62
     5
 10
0.0000008873757906
 20
1511.618802
 30
0.0
 11
-3.9999991126242089
 21
1509.3094009999991
 31
0.0
  0
LINE
  5
106
  8
DETAIL
  6
CONTINUOUS
 62
     5
 10
4.0000008873757888
 20
1504.6905989999991
 30
0.0
 11
0.0000008873757906
 21
1502.381198
 31
0.0
  0
LINE
  5
107
  8
DETAIL
  6
CONTINUOUS
 62
     5
 10
0.0000008873757906
 20
1511.618802
 30
0.0
 11
4.0000008873757888
 21
1509.3094009999991
 31
0.0
  0
LINE
  5
108
  8
DETAIL
  6
CONTINUOUS
 62
     5
 10
0.0000008873757906
 20
1502.381198
 30
0.0
 11
-3.9999991126242089
 21
1504.6905989999991
 31
0.0
  0
LINE
  5
109
  8
DETAIL
  6
CONTINUOUS
 62
     5
 10
-3.9999991126242089
 20
1504.6905989999991
 30
0.0
 11
-3.9999991126242089
 21
1509.3094009999991
 31
0.0
  0
LINE
  5
10A
  8
DETAIL
  6
CONTINUOUS
 62
     5
 10
4.0000008873757888
 20
1509.3094009999991
 30
0.0
 11
4.0000008873757888
 21
1504.6905989999991
 31
0.0
  0
CIRCLE
  5
10B
  8
DETAIL
  6
CONTINUOUS
 62
     5
 10
0.0000008873757906
 20
1507.0
 30
0.0
 40
6.0
  0
LINE
  5
10C
  8
DETAIL
  6
CONTINUOUS
 62
     5
 10
207.00000088737579
 20
1511.618802
 30
0.0
 11
203.00000088737571
 21
1509.3094009999991
 31
0.0
  0
LINE
  5
10D
  8
DETAIL
  6
CONTINUOUS
 62
     5
 10
211.00000088737579
 20
1504.6905989999991
 30
0.0
 11
207.00000088737579
 21
1502.381198
 31
0.0
  0
LINE
  5
10E
  8
DETAIL
  6
CONTINUOUS
 62
     5
 10
207.00000088737579
 20
1511.618802
 30
0.0
 11
211.00000088737579
 21
1509.3094009999991
 31
0.0
  0
LINE
  5
10F
  8
DETAIL
  6
CONTINUOUS
 62
     5
 10
207.00000088737579
 20
1502.381198
 30
0.0
 11
203.00000088737571
 21
1504.6905989999991
 31
0.0
  0
LINE
  5
110
  8
DETAIL
  6
CONTINUOUS
 62
     5
 10
203.00000088737571
 20
1504.6905989999991
 30
0.0
 11
203.00000088737571
 21
1509.3094009999991
 31
0.0
  0
LINE
  5
111
  8
DETAIL
  6
CONTINUOUS
 62
     5
 10
211.00000088737579
 20
1509.3094009999991
 30
0.0
 11
211.00000088737579
 21
1504.6905989999991
 31
0.0
  0
CIRCLE
  5
112
  8
DETAIL
  6
CONTINUOUS
 62
     5
 10
207.00000088737579
 20
1507.0
 30
0.0
 40
6.0
  0
LINE
  5
113
  8
DETAIL
  6
CONTINUOUS
 62
     5
 10
207.00000088737579
 20
1354.618802
 30
0.0
 11
203.00000088737571
 21
1352.3094009999991
 31
0.0
  0
LINE
  5
114
  8
DETAIL
  6
CONTINUOUS
 62
     5
 10
211.00000088737579
 20
1347.6905989999991
 30
0.0
 11
207.00000088737579
 21
1345.381198
 31
0.0
  0
LINE
  5
115
  8
DETAIL
  6
CONTINUOUS
 62
     5
 10
207.00000088737579
 20
1354.618802
 30
0.0
 11
211.00000088737579
 21
1352.3094009999991
 31
0.0
  0
LINE
  5
116
  8
DETAIL
  6
CONTINUOUS
 62
     5
 10
207.00000088737579
 20
1345.381198
 30
0.0
 11
203.00000088737571
 21
1347.6905989999991
 31
0.0
  0
LINE
  5
117
  8
DETAIL
  6
CONTINUOUS
 62
     5
 10
203.00000088737571
 20
1347.6905989999991
 30
0.0
 11
203.00000088737571
 21
1352.3094009999991
 31
0.0
  0
LINE
  5
118
  8
DETAIL
  6
CONTINUOUS
 62
     5
 10
211.00000088737579
 20
1352.3094009999991
 30
0.0
 11
211.00000088737579
 21
1347.6905989999991
 31
0.0
  0
CIRCLE
  5
119
  8
DETAIL
  6
CONTINUOUS
 62
     5
 10
207.00000088737579
 20
1350.0
 30
0.0
 40
6.0
  0
LINE
  5
11A
  8
DETAIL
  6
CONTINUOUS
 62
     5
 10
207.00000088737579
 20
1197.618802
 30
0.0
 11
203.00000088737571
 21
1195.309401
 31
0.0
  0
LINE
  5
11B
  8
DETAIL
  6
CONTINUOUS
 62
     5
 10
211.00000088737579
 20
1190.690599
 30
0.0
 11
207.00000088737579
 21
1188.381198
 31
0.0
  0
LINE
  5
11C
  8
DETAIL
  6
CONTINUOUS
 62
     5
 10
207.00000088737579
 20
1197.618802
 30
0.0
 11
211.00000088737579
 21
1195.309401
 31
0.0
  0
LINE
  5
11D
  8
DETAIL
  6
CONTINUOUS
 62
     5
 10
207.00000088737579
 20
1188.381198
 30
0.0
 11
203.00000088737571
 21
1190.690599
 31
0.0
  0
LINE
  5
11E
  8
DETAIL
  6
CONTINUOUS
 62
     5
 10
203.00000088737571
 20
1190.690599
 30
0.0
 11
203.00000088737571
 21
1195.309401
 31
0.0
  0
LINE
  5
11F
  8
DETAIL
  6
CONTINUOUS
 62
     5
 10
211.00000088737579
 20
1195.309401
 30
0.0
 11
211.00000088737579
 21
1190.690599
 31
0.0
  0
CIRCLE
  5
120
  8
DETAIL
  6
CONTINUOUS
 62
     5
 10
207.00000088737579
 20
1193.0
 30
0.0
 40
6.0
  0
LINE
  5
121
  8
DETAIL
  6
CONTINUOUS
 62
     5
 10
0.0000008873757906
 20
1197.618802
 30
0.0
 11
-3.9999991126242089
 21
1195.309401
 31
0.0
  0
LINE
  5
122
  8
DETAIL
  6
CONTINUOUS
 62
     5
 10
4.0000008873757888
 20
1190.690599
 30
0.0
 11
0.0000008873757906
 21
1188.381198
 31
0.0
  0
LINE
  5
123
  8
DETAIL
  6
CONTINUOUS
 62
     5
 10
0.0000008873757906
 20
1197.618802
 30
0.0
 11
4.0000008873757888
 21
1195.309401
 31
0.0
  0
LINE
  5
124
  8
DETAIL
  6
CONTINUOUS
 62
     5
 10
0.0000008873757906
 20
1188.381198
 30
0.0
 11
-3.9999991126242089
 21
1190.690599
 31
0.0
  0
LINE
  5
125
  8
DETAIL
  6
CONTINUOUS
 62
     5
 10
-3.9999991126242089
 20
1190.690599
 30
0.0
 11
-3.9999991126242089
 21
1195.309401
 31
0.0
  0
LINE
  5
126
  8
DETAIL
  6
CONTINUOUS
 62
     5
 10
4.0000008873757888
 20
1195.309401
 30
0.0
 11
4.0000008873757888
 21
1190.690599
 31
0.0
  0
CIRCLE
  5
127
  8
DETAIL
  6
CONTINUOUS
 62
     5
 10
0.0000008873757906
 20
1193.0
 30
0.0
 40
6.0
  0
LINE
  5
128
  8
DETAIL
  6
CONTINUOUS
 62
     5
 10
-206.99999911262421
 20
1197.618802
 30
0.0
 11
-210.99999911262421
 21
1195.309401
 31
0.0
  0
LINE
  5
129
  8
DETAIL
  6
CONTINUOUS
 62
     5
 10
-202.99999911262421
 20
1190.690599
 30
0.0
 11
-206.99999911262421
 21
1188.381198
 31
0.0
  0
LINE
  5
12A
  8
DETAIL
  6
CONTINUOUS
 62
     5
 10
-206.99999911262421
 20
1197.618802
 30
0.0
 11
-202.99999911262421
 21
1195.309401
 31
0.0
  0
LINE
  5
12B
  8
DETAIL
  6
CONTINUOUS
 62
     5
 10
-206.99999911262421
 20
1188.381198
 30
0.0
 11
-210.99999911262421
 21
1190.690599
 31
0.0
  0
LINE
  5
12C
  8
DETAIL
  6
CONTINUOUS
 62
     5
 10
-202.99999911262421
 20
1195.309401
 30
0.0
 11
-202.99999911262421
 21
1190.690599
 31
0.0
  0
CIRCLE
  5
12D
  8
DETAIL
  6
CONTINUOUS
 62
     5
 10
-206.99999911262421
 20
1193.0
 30
0.0
 40
6.0
  0
LINE
  5
12E
  8
DETAIL
  6
CONTINUOUS
 62
     5
 10
-206.99999911262421
 20
1354.618802
 30
0.0
 11
-210.99999911262421
 21
1352.3094009999991
 31
0.0
  0
LINE
  5
12F
  8
DETAIL
  6
CONTINUOUS
 62
     5
 10
-202.99999911262421
 20
1347.6905989999991
 30
0.0
 11
-206.99999911262421
 21
1345.381198
 31
0.0
  0
LINE
  5
130
  8
DETAIL
  6
CONTINUOUS
 62
     5
 10
-206.99999911262421
 20
1354.618802
 30
0.0
 11
-202.99999911262421
 21
1352.3094009999991
 31
0.0
  0
LINE
  5
131
  8
DETAIL
  6
CONTINUOUS
 62
     5
 10
-206.99999911262421
 20
1345.381198
 30
0.0
 11
-210.99999911262421
 21
1347.6905989999991
 31
0.0
  0
LINE
  5
132
  8
DETAIL
  6
CONTINUOUS
 62
     5
 10
-202.99999911262421
 20
1352.3094009999991
 30
0.0
 11
-202.99999911262421
 21
1347.6905989999991
 31
0.0
  0
CIRCLE
  5
133
  8
DETAIL
  6
CONTINUOUS
 62
     5
 10
-206.99999911262421
 20
1350.0
 30
0.0
 40
6.0
  0
LINE
  5
134
  8
DETAIL
  6
CONTINUOUS
 62
     5
 10
-206.99999911262421
 20
1511.618802
 30
0.0
 11
-210.99999911262421
 21
1509.3094009999991
 31
0.0
  0
LINE
  5
135
  8
DETAIL
  6
CONTINUOUS
 62
     5
 10
-202.99999911262421
 20
1504.6905989999991
 30
0.0
 11
-206.99999911262421
 21
1502.381198
 31
0.0
  0
LINE
  5
136
  8
DETAIL
  6
CONTINUOUS
 62
     5
 10
-206.99999911262421
 20
1511.618802
 30
0.0
 11
-202.99999911262421
 21
1509.3094009999991
 31
0.0
  0
LINE
  5
137
  8
DETAIL
  6
CONTINUOUS
 62
     5
 10
-206.99999911262421
 20
1502.381198
 30
0.0
 11
-210.99999911262421
 21
1504.6905989999991
 31
0.0
  0
LINE
  5
138
  8
DETAIL
  6
CONTINUOUS
 62
     5
 10
-202.99999911262421
 20
1509.3094009999991
 30
0.0
 11
-202.99999911262421
 21
1504.6905989999991
 31
0.0
  0
CIRCLE
  5
139
  8
DETAIL
  6
CONTINUOUS
 62
     5
 10
-206.99999911262421
 20
1507.0
 30
0.0
 40
6.0
  0
LINE
  5
13A
  8
DETAIL
  6
CONTINUOUS
 62
     5
 10
-214.99999911262421
 20
1190.0
 30
0.0
 11
-209.99999911262421
 21
1185.0
 31
0.0
  0
LINE
  5
13B
  8
DETAIL
  6
CONTINUOUS
 62
     5
 10
-214.99999911262421
 20
1510.0
 30
0.0
 11
-214.99999911262421
 21
1190.0
 31
0.0
  0
LINE
  5
13C
  8
DETAIL
  6
CONTINUOUS
 62
     5
 10
-209.99999911262421
 20
1515.0
 30
0.0
 11
-214.99999911262421
 21
1510.0
 31
0.0
  0
LINE
  5
13D
  8
DETAIL
  6
CONTINUOUS
 62
     5
 10
-210.99999911262421
 20
1190.690599
 30
0.0
 11
-210.99999911262421
 21
1195.309401
 31
0.0
  0
LINE
  5
13E
  8
DETAIL
  6
CONTINUOUS
 62
     5
 10
-210.99999911262421
 20
1347.6905989999991
 30
0.0
 11
-210.99999911262421
 21
1352.3094009999991
 31
0.0
  0
LINE
  5
13F
  8
DETAIL
  6
CONTINUOUS
 62
     5
 10
-210.99999911262421
 20
1504.6905989999991
 30
0.0
 11
-210.99999911262421
 21
1509.3094009999991
 31
0.0
  0
LINE
  5
140
  8
DETAIL
  6
CONTINUOUS
 62
     5
 10
266.50000088737568
 20
452.4499999999997
 30
0.0
 11
267.50000088737568
 21
452.4499999999997
 31
0.0
  0
LINE
  5
141
  8
DETAIL
  6
CONTINUOUS
 62
     5
 10
267.50000088737568
 20
457.54999999999973
 30
0.0
 11
266.50000088737568
 21
457.54999999999973
 31
0.0
  0
LINE
  5
142
  8
DETAIL
  6
CONTINUOUS
 62
     5
 10
267.7601408873752
 20
455.76013999999981
 30
0.0
 11
267.50000088737568
 21
457.54999999999973
 31
0.0
  0
LINE
  5
143
  8
DETAIL
  6
CONTINUOUS
 62
     5
 10
269.55000088737597
 20
455.49999999999989
 30
0.0
 11
267.7601408873752
 21
455.76013999999981
 31
0.0
  0
LINE
  5
144
  8
DETAIL
  6
CONTINUOUS
 62
     5
 10
269.55000088737597
 20
454.49999999999989
 30
0.0
 11
269.55000088737597
 21
455.49999999999989
 31
0.0
  0
LINE
  5
145
  8
DETAIL
  6
CONTINUOUS
 62
     5
 10
267.7601408873752
 20
454.23985999999962
 30
0.0
 11
269.55000088737597
 21
454.49999999999989
 31
0.0
  0
LINE
  5
146
  8
DETAIL
  6
CONTINUOUS
 62
     5
 10
267.50000088737568
 20
452.4499999999997
 30
0.0
 11
267.7601408873752
 21
454.23985999999962
 31
0.0
  0
LINE
  5
147
  8
DETAIL
  6
CONTINUOUS
 62
     5
 10
266.23986088737462
 20
454.23985999999962
 30
0.0
 11
266.50000088737568
 21
452.4499999999997
 31
0.0
  0
LINE
  5
148
  8
DETAIL
  6
CONTINUOUS
 62
     5
 10
264.45000088737561
 20
454.49999999999989
 30
0.0
 11
266.23986088737462
 21
454.23985999999962
 31
0.0
  0
LINE
  5
149
  8
DETAIL
  6
CONTINUOUS
 62
     5
 10
264.45000088737561
 20
455.49999999999989
 30
0.0
 11
264.45000088737561
 21
454.49999999999989
 31
0.0
  0
LINE
  5
14A
  8
DETAIL
  6
CONTINUOUS
 62
     5
 10
266.23986088737462
 20
455.76013999999981
 30
0.0
 11
264.45000088737561
 21
455.49999999999989
 31
0.0
  0
LINE
  5
14B
  8
DETAIL
  6
CONTINUOUS
 62
     5
 10
266.50000088737568
 20
457.54999999999973
 30
0.0
 11
266.23986088737462
 21
455.76013999999981
 31
0.0
  0
LINE
  5
14C
  8
DETAIL
  6
CONTINUOUS
 62
     5
 10
266.50000088737568
 20
664.44999999999982
 30
0.0
 11
267.50000088737568
 21
664.44999999999982
 31
0.0
  0
LINE
  5
14D
  8
DETAIL
  6
CONTINUOUS
 62
     5
 10
267.50000088737568
 20
669.54999999999961
 30
0.0
 11
266.50000088737568
 21
669.54999999999961
 31
0.0
  0
LINE
  5
14E
  8
DETAIL
  6
CONTINUOUS
 62
     5
 10
267.7601408873752
 20
667.76013999999975
 30
0.0
 11
267.50000088737568
 21
669.54999999999961
 31
0.0
  0
LINE
  5
14F
  8
DETAIL
  6
CONTINUOUS
 62
     5
 10
269.55000088737597
 20
667.49999999999977
 30
0.0
 11
267.7601408873752
 21
667.76013999999975
 31
0.0
  0
LINE
  5
150
  8
DETAIL
  6
CONTINUOUS
 62
     5
 10
269.55000088737597
 20
666.5
 30
0.0
 11
269.55000088737597
 21
667.49999999999977
 31
0.0
  0
LINE
  5
151
  8
DETAIL
  6
CONTINUOUS
 62
     5
 10
267.7601408873752
 20
666.23985999999945
 30
0.0
 11
269.55000088737597
 21
666.5
 31
0.0
  0
LINE
  5
152
  8
DETAIL
  6
CONTINUOUS
 62
     5
 10
267.50000088737568
 20
664.44999999999982
 30
0.0
 11
267.7601408873752
 21
666.23985999999945
 31
0.0
  0
LINE
  5
153
  8
DETAIL
  6
CONTINUOUS
 62
     5
 10
266.23986088737462
 20
666.23985999999945
 30
0.0
 11
266.50000088737568
 21
664.44999999999982
 31
0.0
  0
LINE
  5
154
  8
DETAIL
  6
CONTINUOUS
 62
     5
 10
264.45000088737561
 20
666.5
 30
0.0
 11
266.23986088737462
 21
666.23985999999945
 31
0.0
  0
LINE
  5
155
  8
DETAIL
  6
CONTINUOUS
 62
     5
 10
264.45000088737561
 20
667.49999999999977
 30
0.0
 11
264.45000088737561
 21
666.5
 31
0.0
  0
LINE
  5
156
  8
DETAIL
  6
CONTINUOUS
 62
     5
 10
266.23986088737462
 20
667.76013999999975
 30
0.0
 11
264.45000088737561
 21
667.49999999999977
 31
0.0
  0
LINE
  5
157
  8
DETAIL
  6
CONTINUOUS
 62
     5
 10
266.50000088737568
 20
669.54999999999961
 30
0.0
 11
266.23986088737462
 21
667.76013999999975
 31
0.0
  0
LINE
  5
158
  8
DETAIL
  6
CONTINUOUS
 62
     5
 10
-0.4999991126242094
 20
664.44999999999982
 30
0.0
 11
0.5000008873757909
 21
664.44999999999982
 31
0.0
  0
LINE
  5
159
  8
DETAIL
  6
CONTINUOUS
 62
     5
 10
0.5000008873757909
 20
669.54999999999961
 30
0.0
 11
-0.4999991126242094
 21
669.54999999999961
 31
0.0
  0
LINE
  5
15A
  8
DETAIL
  6
CONTINUOUS
 62
     5
 10
0.7601408873752007
 20
667.76013999999975
 30
0.0
 11
0.5000008873757909
 21
669.54999999999961
 31
0.0
  0
LINE
  5
15B
  8
DETAIL
  6
CONTINUOUS
 62
     5
 10
2.5500008873759721
 20
667.49999999999977
 30
0.0
 11
0.7601408873752007
 21
667.76013999999975
 31
0.0
  0
LINE
  5
15C
  8
DETAIL
  6
CONTINUOUS
 62
     5
 10
2.5500008873759721
 20
666.5
 30
0.0
 11
2.5500008873759721
 21
667.49999999999977
 31
0.0
  0
LINE
  5
15D
  8
DETAIL
  6
CONTINUOUS
 62
     5
 10
0.7601408873752007
 20
666.23985999999945
 30
0.0
 11
2.5500008873759721
 21
666.5
 31
0.0
  0
LINE
  5
15E
  8
DETAIL
  6
CONTINUOUS
 62
     5
 10
0.5000008873757909
 20
664.44999999999982
 30
0.0
 11
0.7601408873752007
 21
666.23985999999945
 31
0.0
  0
LINE
  5
15F
  8
DETAIL
  6
CONTINUOUS
 62
     5
 10
-0.7601391126245291
 20
666.23985999999945
 30
0.0
 11
-0.4999991126242094
 21
664.44999999999982
 31
0.0
  0
LINE
  5
160
  8
DETAIL
  6
CONTINUOUS
 62
     5
 10
-2.5499991126243899
 20
666.5
 30
0.0
 11
-0.7601391126245291
 21
666.23985999999945
 31
0.0
  0
LINE
  5
161
  8
DETAIL
  6
CONTINUOUS
 62
     5
 10
-2.5499991126243899
 20
667.49999999999977
 30
0.0
 11
-2.5499991126243899
 21
666.5
 31
0.0
  0
LINE
  5
162
  8
DETAIL
  6
CONTINUOUS
 62
     5
 10
-0.7601391126245291
 20
667.76013999999975
 30
0.0
 11
-2.5499991126243899
 21
667.49999999999977
 31
0.0
  0
LINE
  5
163
  8
DETAIL
  6
CONTINUOUS
 62
     5
 10
-0.4999991126242094
 20
669.54999999999961
 30
0.0
 11
-0.7601391126245291
 21
667.76013999999975
 31
0.0
  0
LINE
  5
164
  8
DETAIL
  6
CONTINUOUS
 62
     5
 10
266.50000088737568
 20
240.4499999999997
 30
0.0
 11
267.50000088737568
 21
240.4499999999997
 31
0.0
  0
LINE
  5
165
  8
DETAIL
  6
CONTINUOUS
 62
     5
 10
267.50000088737568
 20
245.5499999999997
 30
0.0
 11
266.50000088737568
 21
245.5499999999997
 31
0.0
  0
LINE
  5
166
  8
DETAIL
  6
CONTINUOUS
 62
     5
 10
267.7601408873752
 20
243.76013999999989
 30
0.0
 11
267.50000088737568
 21
245.5499999999997
 31
0.0
  0
LINE
  5
167
  8
DETAIL
  6
CONTINUOUS
 62
     5
 10
269.55000088737597
 20
243.5
 30
0.0
 11
267.7601408873752
 21
243.76013999999989
 31
0.0
  0
LINE
  5
168
  8
DETAIL
  6
CONTINUOUS
 62
     5
 10
269.55000088737597
 20
242.5
 30
0.0
 11
269.55000088737597
 21
243.5
 31
0.0
  0
LINE
  5
169
  8
DETAIL
  6
CONTINUOUS
 62
     5
 10
267.7601408873752
 20
242.23985999999971
 30
0.0
 11
269.55000088737597
 21
242.5
 31
0.0
  0
LINE
  5
16A
  8
DETAIL
  6
CONTINUOUS
 62
     5
 10
267.50000088737568
 20
240.4499999999997
 30
0.0
 11
267.7601408873752
 21
242.23985999999971
 31
0.0
  0
LINE
  5
16B
  8
DETAIL
  6
CONTINUOUS
 62
     5
 10
266.23986088737462
 20
242.23985999999971
 30
0.0
 11
266.50000088737568
 21
240.4499999999997
 31
0.0
  0
LINE
  5
16C
  8
DETAIL
  6
CONTINUOUS
 62
     5
 10
264.45000088737561
 20
242.5
 30
0.0
 11
266.23986088737462
 21
242.23985999999971
 31
0.0
  0
LINE
  5
16D
  8
DETAIL
  6
CONTINUOUS
 62
     5
 10
264.45000088737561
 20
243.5
 30
0.0
 11
264.45000088737561
 21
242.5
 31
0.0
  0
LINE
  5
16E
  8
DETAIL
  6
CONTINUOUS
 62
     5
 10
266.23986088737462
 20
243.76013999999989
 30
0.0
 11
264.45000088737561
 21
243.5
 31
0.0
  0
LINE
  5
16F
  8
DETAIL
  6
CONTINUOUS
 62
     5
 10
266.50000088737568
 20
245.5499999999997
 30
0.0
 11
266.23986088737462
 21
243.76013999999989
 31
0.0
  0
LINE
  5
170
  8
DETAIL
  6
CONTINUOUS
 62
     5
 10
-0.4999991126242094
 20
240.4499999999997
 30
0.0
 11
0.5000008873757909
 21
240.4499999999997
 31
0.0
  0
LINE
  5
171
  8
DETAIL
  6
CONTINUOUS
 62
     5
 10
0.5000008873757909
 20
245.5499999999997
 30
0.0
 11
-0.4999991126242094
 21
245.5499999999997
 31
0.0
  0
LINE
  5
172
  8
DETAIL
  6
CONTINUOUS
 62
     5
 10
0.7601408873752007
 20
243.76013999999989
 30
0.0
 11
0.5000008873757909
 21
245.5499999999997
 31
0.0
  0
LINE
  5
173
  8
DETAIL
  6
CONTINUOUS
 62
     5
 10
2.5500008873759721
 20
243.5
 30
0.0
 11
0.7601408873752007
 21
243.76013999999989
 31
0.0
  0
LINE
  5
174
  8
DETAIL
  6
CONTINUOUS
 62
     5
 10
2.5500008873759721
 20
242.5
 30
0.0
 11
2.5500008873759721
 21
243.5
 31
0.0
  0
LINE
  5
175
  8
DETAIL
  6
CONTINUOUS
 62
     5
 10
0.7601408873752007
 20
242.23985999999971
 30
0.0
 11
2.5500008873759721
 21
242.5
 31
0.0
  0
LINE
  5
176
  8
DETAIL
  6
CONTINUOUS
 62
     5
 10
0.5000008873757909
 20
240.4499999999997
 30
0.0
 11
0.7601408873752007
 21
242.23985999999971
 31
0.0
  0
LINE
  5
177
  8
DETAIL
  6
CONTINUOUS
 62
     5
 10
-0.7601391126245291
 20
242.23985999999971
 30
0.0
 11
-0.4999991126242094
 21
240.4499999999997
 31
0.0
  0
LINE
  5
178
  8
DETAIL
  6
CONTINUOUS
 62
     5
 10
-2.5499991126243899
 20
242.5
 30
0.0
 11
-0.7601391126245291
 21
242.23985999999971
 31
0.0
  0
LINE
  5
179
  8
DETAIL
  6
CONTINUOUS
 62
     5
 10
-2.5499991126243899
 20
243.5
 30
0.0
 11
-2.5499991126243899
 21
242.5
 31
0.0
  0
LINE
  5
17A
  8
DETAIL
  6
CONTINUOUS
 62
     5
 10
-0.7601391126245291
 20
243.76013999999989
 30
0.0
 11
-2.5499991126243899
 21
243.5
 31
0.0
  0
LINE
  5
17B
  8
DETAIL
  6
CONTINUOUS
 62
     5
 10
-0.4999991126242094
 20
245.5499999999997
 30
0.0
 11
-0.7601391126245291
 21
243.76013999999989
 31
0.0
  0
LINE
  5
17C
  8
DETAIL
  6
CONTINUOUS
 62
     5
 10
-267.49999911262421
 20
240.4499999999997
 30
0.0
 11
-266.49999911262421
 21
240.4499999999997
 31
0.0
  0
LINE
  5
17D
  8
DETAIL
  6
CONTINUOUS
 62
     5
 10
-266.49999911262421
 20
245.5499999999997
 30
0.0
 11
-267.49999911262421
 21
245.5499999999997
 31
0.0
  0
LINE
  5
17E
  8
DETAIL
  6
CONTINUOUS
 62
     5
 10
-266.2398591126248
 20
243.76013999999989
 30
0.0
 11
-266.49999911262421
 21
245.5499999999997
 31
0.0
  0
LINE
  5
17F
  8
DETAIL
  6
CONTINUOUS
 62
     5
 10
-264.44999911262403
 20
243.5
 30
0.0
 11
-266.2398591126248
 21
243.76013999999989
 31
0.0
  0
LINE
  5
180
  8
DETAIL
  6
CONTINUOUS
 62
     5
 10
-264.44999911262403
 20
242.5
 30
0.0
 11
-264.44999911262403
 21
243.5
 31
0.0
  0
LINE
  5
181
  8
DETAIL
  6
CONTINUOUS
 62
     5
 10
-266.2398591126248
 20
242.23985999999971
 30
0.0
 11
-264.44999911262403
 21
242.5
 31
0.0
  0
LINE
  5
182
  8
DETAIL
  6
CONTINUOUS
 62
     5
 10
-266.49999911262421
 20
240.4499999999997
 30
0.0
 11
-266.2398591126248
 21
242.23985999999971
 31
0.0
  0
LINE
  5
183
  8
DETAIL
  6
CONTINUOUS
 62
     5
 10
-267.76013911262447
 20
242.23985999999971
 30
0.0
 11
-267.49999911262421
 21
240.4499999999997
 31
0.0
  0
LINE
  5
184
  8
DETAIL
  6
CONTINUOUS
 62
     5
 10
-269.54999911262439
 20
242.5
 30
0.0
 11
-267.76013911262447
 21
242.23985999999971
 31
0.0
  0
LINE
  5
185
  8
DETAIL
  6
CONTINUOUS
 62
     5
 10
-269.54999911262439
 20
243.5
 30
0.0
 11
-269.54999911262439
 21
242.5
 31
0.0
  0
LINE
  5
186
  8
DETAIL
  6
CONTINUOUS
 62
     5
 10
-267.76013911262447
 20
243.76013999999989
 30
0.0
 11
-269.54999911262439
 21
243.5
 31
0.0
  0
LINE
  5
187
  8
DETAIL
  6
CONTINUOUS
 62
     5
 10
-267.49999911262421
 20
245.5499999999997
 30
0.0
 11
-267.76013911262447
 21
243.76013999999989
 31
0.0
  0
LINE
  5
188
  8
DETAIL
  6
CONTINUOUS
 62
     5
 10
-267.49999911262421
 20
452.4499999999997
 30
0.0
 11
-266.49999911262421
 21
452.4499999999997
 31
0.0
  0
LINE
  5
189
  8
DETAIL
  6
CONTINUOUS
 62
     5
 10
-266.49999911262421
 20
457.54999999999973
 30
0.0
 11
-267.49999911262421
 21
457.54999999999973
 31
0.0
  0
LINE
  5
18A
  8
DETAIL
  6
CONTINUOUS
 62
     5
 10
-266.2398591126248
 20
455.76013999999981
 30
0.0
 11
-266.49999911262421
 21
457.54999999999973
 31
0.0
  0
LINE
  5
18B
  8
DETAIL
  6
CONTINUOUS
 62
     5
 10
-264.44999911262403
 20
455.49999999999989
 30
0.0
 11
-266.2398591126248
 21
455.76013999999981
 31
0.0
  0
LINE
  5
18C
  8
DETAIL
  6
CONTINUOUS
 62
     5
 10
-264.44999911262403
 20
454.49999999999989
 30
0.0
 11
-264.44999911262403
 21
455.49999999999989
 31
0.0
  0
LINE
  5
18D
  8
DETAIL
  6
CONTINUOUS
 62
     5
 10
-266.2398591126248
 20
454.23985999999962
 30
0.0
 11
-264.44999911262403
 21
454.49999999999989
 31
0.0
  0
LINE
  5
18E
  8
DETAIL
  6
CONTINUOUS
 62
     5
 10
-266.49999911262421
 20
452.4499999999997
 30
0.0
 11
-266.2398591126248
 21
454.23985999999962
 31
0.0
  0
LINE
  5
18F
  8
DETAIL
  6
CONTINUOUS
 62
     5
 10
-267.76013911262447
 20
454.23985999999962
 30
0.0
 11
-267.49999911262421
 21
452.4499999999997
 31
0.0
  0
LINE
  5
190
  8
DETAIL
  6
CONTINUOUS
 62
     5
 10
-269.54999911262439
 20
454.49999999999989
 30
0.0
 11
-267.76013911262447
 21
454.23985999999962
 31
0.0
  0
LINE
  5
191
  8
DETAIL
  6
CONTINUOUS
 62
     5
 10
-269.54999911262439
 20
455.49999999999989
 30
0.0
 11
-269.54999911262439
 21
454.49999999999989
 31
0.0
  0
LINE
  5
192
  8
DETAIL
  6
CONTINUOUS
 62
     5
 10
-267.76013911262447
 20
455.76013999999981
 30
0.0
 11
-269.54999911262439
 21
455.49999999999989
 31
0.0
  0
LINE
  5
193
  8
DETAIL
  6
CONTINUOUS
 62
     5
 10
-267.49999911262421
 20
457.54999999999973
 30
0.0
 11
-267.76013911262447
 21
455.76013999999981
 31
0.0
  0
LINE
  5
194
  8
DETAIL
  6
CONTINUOUS
 62
     5
 10
-267.49999911262421
 20
664.44999999999982
 30
0.0
 11
-266.49999911262421
 21
664.44999999999982
 31
0.0
  0
LINE
  5
195
  8
DETAIL
  6
CONTINUOUS
 62
     5
 10
-266.49999911262421
 20
669.54999999999961
 30
0.0
 11
-267.49999911262421
 21
669.54999999999961
 31
0.0
  0
LINE
  5
196
  8
DETAIL
  6
CONTINUOUS
 62
     5
 10
-266.2398591126248
 20
667.76013999999975
 30
0.0
 11
-266.49999911262421
 21
669.54999999999961
 31
0.0
  0
LINE
  5
197
  8
DETAIL
  6
CONTINUOUS
 62
     5
 10
-264.44999911262403
 20
667.49999999999977
 30
0.0
 11
-266.2398591126248
 21
667.76013999999975
 31
0.0
  0
LINE
  5
198
  8
DETAIL
  6
CONTINUOUS
 62
     5
 10
-264.44999911262403
 20
666.5
 30
0.0
 11
-264.44999911262403
 21
667.49999999999977
 31
0.0
  0
LINE
  5
199
  8
DETAIL
  6
CONTINUOUS
 62
     5
 10
-266.2398591126248
 20
666.23985999999945
 30
0.0
 11
-264.44999911262403
 21
666.5
 31
0.0
  0
LINE
  5
19A
  8
DETAIL
  6
CONTINUOUS
 62
     5
 10
-266.49999911262421
 20
664.44999999999982
 30
0.0
 11
-266.2398591126248
 21
666.23985999999945
 31
0.0
  0
LINE
  5
19B
  8
DETAIL
  6
CONTINUOUS
 62
     5
 10
-267.76013911262447
 20
666.23985999999945
 30
0.0
 11
-267.49999911262421
 21
664.44999999999982
 31
0.0
  0
LINE
  5
19C
  8
DETAIL
  6
CONTINUOUS
 62
     5
 10
-269.54999911262439
 20
666.5
 30
0.0
 11
-267.76013911262447
 21
666.23985999999945
 31
0.0
  0
LINE
  5
19D
  8
DETAIL
  6
CONTINUOUS
 62
     5
 10
-269.54999911262439
 20
667.49999999999977
 30
0.0
 11
-269.54999911262439
 21
666.5
 31
0.0
  0
LINE
  5
19E
  8
DETAIL
  6
CONTINUOUS
 62
     5
 10
-267.76013911262447
 20
667.76013999999975
 30
0.0
 11
-269.54999911262439
 21
667.49999999999977
 31
0.0
  0
LINE
  5
19F
  8
DETAIL
  6
CONTINUOUS
 62
     5
 10
-267.49999911262421
 20
669.54999999999961
 30
0.0
 11
-267.76013911262447
 21
667.76013999999975
 31
0.0
  0
LINE
  5
1A0
  8
DETAIL
  6
CONTINUOUS
 62
     5
 10
-0.4999991126242094
 20
1504.45
 30
0.0
 11
0.5000008873757909
 21
1504.45
 31
0.0
  0
LINE
  5
1A1
  8
DETAIL
  6
CONTINUOUS
 62
     5
 10
0.5000008873757909
 20
1509.55
 30
0.0
 11
-0.4999991126242094
 21
1509.55
 31
0.0
  0
LINE
  5
1A2
  8
DETAIL
  6
CONTINUOUS
 62
     5
 10
0.7601408873752007
 20
1507.7601400000001
 30
0.0
 11
0.5000008873757909
 21
1509.55
 31
0.0
  0
LINE
  5
1A3
  8
DETAIL
  6
CONTINUOUS
 62
     5
 10
2.5500008873759721
 20
1507.5
 30
0.0
 11
0.7601408873752007
 21
1507.7601400000001
 31
0.0
  0
LINE
  5
1A4
  8
DETAIL
  6
CONTINUOUS
 62
     5
 10
2.5500008873759721
 20
1506.5
 30
0.0
 11
2.5500008873759721
 21
1507.5
 31
0.0
  0
LINE
  5
1A5
  8
DETAIL
  6
CONTINUOUS
 62
     5
 10
0.7601408873752007
 20
1506.239859999999
 30
0.0
 11
2.5500008873759721
 21
1506.5
 31
0.0
  0
LINE
  5
1A6
  8
DETAIL
  6
CONTINUOUS
 62
     5
 10
0.5000008873757909
 20
1504.45
 30
0.0
 11
0.7601408873752007
 21
1506.239859999999
 31
0.0
  0
LINE
  5
1A7
  8
DETAIL
  6
CONTINUOUS
 62
     5
 10
-0.7601391126245291
 20
1506.239859999999
 30
0.0
 11
-0.4999991126242094
 21
1504.45
 31
0.0
  0
LINE
  5
1A8
  8
DETAIL
  6
CONTINUOUS
 62
     5
 10
-2.5499991126243899
 20
1506.5
 30
0.0
 11
-0.7601391126245291
 21
1506.239859999999
 31
0.0
  0
LINE
  5
1A9
  8
DETAIL
  6
CONTINUOUS
 62
     5
 10
-2.5499991126243899
 20
1507.5
 30
0.0
 11
-2.5499991126243899
 21
1506.5
 31
0.0
  0
LINE
  5
1AA
  8
DETAIL
  6
CONTINUOUS
 62
     5
 10
-0.7601391126245291
 20
1507.7601400000001
 30
0.0
 11
-2.5499991126243899
 21
1507.5
 31
0.0
  0
LINE
  5
1AB
  8
DETAIL
  6
CONTINUOUS
 62
     5
 10
-0.4999991126242094
 20
1509.55
 30
0.0
 11
-0.7601391126245291
 21
1507.7601400000001
 31
0.0
  0
LINE
  5
1AC
  8
DETAIL
  6
CONTINUOUS
 62
     5
 10
206.50000088737579
 20
1504.45
 30
0.0
 11
207.50000088737571
 21
1504.45
 31
0.0
  0
LINE
  5
1AD
  8
DETAIL
  6
CONTINUOUS
 62
     5
 10
207.50000088737571
 20
1509.55
 30
0.0
 11
206.50000088737579
 21
1509.55
 31
0.0
  0
LINE
  5
1AE
  8
DETAIL
  6
CONTINUOUS
 62
     5
 10
207.7601408873752
 20
1507.7601400000001
 30
0.0
 11
207.50000088737571
 21
1509.55
 31
0.0
  0
LINE
  5
1AF
  8
DETAIL
  6
CONTINUOUS
 62
     5
 10
209.550000887376
 20
1507.5
 30
0.0
 11
207.7601408873752
 21
1507.7601400000001
 31
0.0
  0
LINE
  5
1B0
  8
DETAIL
  6
CONTINUOUS
 62
     5
 10
209.550000887376
 20
1506.5
 30
0.0
 11
209.550000887376
 21
1507.5
 31
0.0
  0
LINE
  5
1B1
  8
DETAIL
  6
CONTINUOUS
 62
     5
 10
207.7601408873752
 20
1506.239859999999
 30
0.0
 11
209.550000887376
 21
1506.5
 31
0.0
  0
LINE
  5
1B2
  8
DETAIL
  6
CONTINUOUS
 62
     5
 10
207.50000088737571
 20
1504.45
 30
0.0
 11
207.7601408873752
 21
1506.239859999999
 31
0.0
  0
LINE
  5
1B3
  8
DETAIL
  6
CONTINUOUS
 62
     5
 10
206.23986088737459
 20
1506.239859999999
 30
0.0
 11
206.50000088737579
 21
1504.45
 31
0.0
  0
LINE
  5
1B4
  8
DETAIL
  6
CONTINUOUS
 62
     5
 10
204.45000088737561
 20
1506.5
 30
0.0
 11
206.23986088737459
 21
1506.239859999999
 31
0.0
  0
LINE
  5
1B5
  8
DETAIL
  6
CONTINUOUS
 62
     5
 10
204.45000088737561
 20
1507.5
 30
0.0
 11
204.45000088737561
 21
1506.5
 31
0.0
  0
LINE
  5
1B6
  8
DETAIL
  6
CONTINUOUS
 62
     5
 10
206.23986088737459
 20
1507.7601400000001
 30
0.0
 11
204.45000088737561
 21
1507.5
 31
0.0
  0
LINE
  5
1B7
  8
DETAIL
  6
CONTINUOUS
 62
     5
 10
206.50000088737579
 20
1509.55
 30
0.0
 11
206.23986088737459
 21
1507.7601400000001
 31
0.0
  0
LINE
  5
1B8
  8
DETAIL
  6
CONTINUOUS
 62
     5
 10
206.50000088737579
 20
1347.45
 30
0.0
 11
207.50000088737571
 21
1347.45
 31
0.0
  0
LINE
  5
1B9
  8
DETAIL
  6
CONTINUOUS
 62
     5
 10
207.50000088737571
 20
1352.55
 30
0.0
 11
206.50000088737579
 21
1352.55
 31
0.0
  0
LINE
  5
1BA
  8
DETAIL
  6
CONTINUOUS
 62
     5
 10
207.7601408873752
 20
1350.7601400000001
 30
0.0
 11
207.50000088737571
 21
1352.55
 31
0.0
  0
LINE
  5
1BB
  8
DETAIL
  6
CONTINUOUS
 62
     5
 10
209.550000887376
 20
1350.5
 30
0.0
 11
207.7601408873752
 21
1350.7601400000001
 31
0.0
  0
LINE
  5
1BC
  8
DETAIL
  6
CONTINUOUS
 62
     5
 10
209.550000887376
 20
1349.5
 30
0.0
 11
209.550000887376
 21
1350.5
 31
0.0
  0
LINE
  5
1BD
  8
DETAIL
  6
CONTINUOUS
 62
     5
 10
207.7601408873752
 20
1349.2398599999999
 30
0.0
 11
209.550000887376
 21
1349.5
 31
0.0
  0
LINE
  5
1BE
  8
DETAIL
  6
CONTINUOUS
 62
     5
 10
207.50000088737571
 20
1347.45
 30
0.0
 11
207.7601408873752
 21
1349.2398599999999
 31
0.0
  0
LINE
  5
1BF
  8
DETAIL
  6
CONTINUOUS
 62
     5
 10
206.23986088737459
 20
1349.2398599999999
 30
0.0
 11
206.50000088737579
 21
1347.45
 31
0.0
  0
LINE
  5
1C0
  8
DETAIL
  6
CONTINUOUS
 62
     5
 10
204.45000088737561
 20
1349.5
 30
0.0
 11
206.23986088737459
 21
1349.2398599999999
 31
0.0
  0
LINE
  5
1C1
  8
DETAIL
  6
CONTINUOUS
 62
     5
 10
204.45000088737561
 20
1350.5
 30
0.0
 11
204.45000088737561
 21
1349.5
 31
0.0
  0
LINE
  5
1C2
  8
DETAIL
  6
CONTINUOUS
 62
     5
 10
206.23986088737459
 20
1350.7601400000001
 30
0.0
 11
204.45000088737561
 21
1350.5
 31
0.0
  0
LINE
  5
1C3
  8
DETAIL
  6
CONTINUOUS
 62
     5
 10
206.50000088737579
 20
1352.55
 30
0.0
 11
206.23986088737459
 21
1350.7601400000001
 31
0.0
  0
LINE
  5
1C4
  8
DETAIL
  6
CONTINUOUS
 62
     5
 10
206.50000088737579
 20
1190.45
 30
0.0
 11
207.50000088737571
 21
1190.45
 31
0.0
  0
LINE
  5
1C5
  8
DETAIL
  6
CONTINUOUS
 62
     5
 10
207.50000088737571
 20
1195.549999999999
 30
0.0
 11
206.50000088737579
 21
1195.549999999999
 31
0.0
  0
LINE
  5
1C6
  8
DETAIL
  6
CONTINUOUS
 62
     5
 10
207.7601408873752
 20
1193.7601400000001
 30
0.0
 11
207.50000088737571
 21
1195.549999999999
 31
0.0
  0
LINE
  5
1C7
  8
DETAIL
  6
CONTINUOUS
 62
     5
 10
209.550000887376
 20
1193.5
 30
0.0
 11
207.7601408873752
 21
1193.7601400000001
 31
0.0
  0
LINE
  5
1C8
  8
DETAIL
  6
CONTINUOUS
 62
     5
 10
209.550000887376
 20
1192.5
 30
0.0
 11
209.550000887376
 21
1193.5
 31
0.0
  0
LINE
  5
1C9
  8
DETAIL
  6
CONTINUOUS
 62
     5
 10
207.7601408873752
 20
1192.239859999999
 30
0.0
 11
209.550000887376
 21
1192.5
 31
0.0
  0
LINE
  5
1CA
  8
DETAIL
  6
CONTINUOUS
 62
     5
 10
207.50000088737571
 20
1190.45
 30
0.0
 11
207.7601408873752
 21
1192.239859999999
 31
0.0
  0
LINE
  5
1CB
  8
DETAIL
  6
CONTINUOUS
 62
     5
 10
206.23986088737459
 20
1192.239859999999
 30
0.0
 11
206.50000088737579
 21
1190.45
 31
0.0
  0
LINE
  5
1CC
  8
DETAIL
  6
CONTINUOUS
 62
     5
 10
204.45000088737561
 20
1192.5
 30
0.0
 11
206.23986088737459
 21
1192.239859999999
 31
0.0
  0
LINE
  5
1CD
  8
DETAIL
  6
CONTINUOUS
 62
     5
 10
204.45000088737561
 20
1193.5
 30
0.0
 11
204.45000088737561
 21
1192.5
 31
0.0
  0
LINE
  5
1CE
  8
DETAIL
  6
CONTINUOUS
 62
     5
 10
206.23986088737459
 20
1193.7601400000001
 30
0.0
 11
204.45000088737561
 21
1193.5
 31
0.0
  0
LINE
  5
1CF
  8
DETAIL
  6
CONTINUOUS
 62
     5
 10
206.50000088737579
 20
1195.549999999999
 30
0.0
 11
206.23986088737459
 21
1193.7601400000001
 31
0.0
  0
LINE
  5
1D0
  8
DETAIL
  6
CONTINUOUS
 62
     5
 10
-0.4999991126242094
 20
1190.45
 30
0.0
 11
0.5000008873757909
 21
1190.45
 31
0.0
  0
LINE
  5
1D1
  8
DETAIL
  6
CONTINUOUS
 62
     5
 10
0.5000008873757909
 20
1195.549999999999
 30
0.0
 11
-0.4999991126242094
 21
1195.549999999999
 31
0.0
  0
LINE
  5
1D2
  8
DETAIL
  6
CONTINUOUS
 62
     5
 10
0.7601408873752007
 20
1193.7601400000001
 30
0.0
 11
0.5000008873757909
 21
1195.549999999999
 31
0.0
  0
LINE
  5
1D3
  8
DETAIL
  6
CONTINUOUS
 62
     5
 10
2.5500008873759721
 20
1193.5
 30
0.0
 11
0.7601408873752007
 21
1193.7601400000001
 31
0.0
  0
LINE
  5
1D4
  8
DETAIL
  6
CONTINUOUS
 62
     5
 10
2.5500008873759721
 20
1192.5
 30
0.0
 11
2.5500008873759721
 21
1193.5
 31
0.0
  0
LINE
  5
1D5
  8
DETAIL
  6
CONTINUOUS
 62
     5
 10
0.7601408873752007
 20
1192.239859999999
 30
0.0
 11
2.5500008873759721
 21
1192.5
 31
0.0
  0
LINE
  5
1D6
  8
DETAIL
  6
CONTINUOUS
 62
     5
 10
0.5000008873757909
 20
1190.45
 30
0.0
 11
0.7601408873752007
 21
1192.239859999999
 31
0.0
  0
LINE
  5
1D7
  8
DETAIL
  6
CONTINUOUS
 62
     5
 10
-0.7601391126245291
 20
1192.239859999999
 30
0.0
 11
-0.4999991126242094
 21
1190.45
 31
0.0
  0
LINE
  5
1D8
  8
DETAIL
  6
CONTINUOUS
 62
     5
 10
-2.5499991126243899
 20
1192.5
 30
0.0
 11
-0.7601391126245291
 21
1192.239859999999
 31
0.0
  0
LINE
  5
1D9
  8
DETAIL
  6
CONTINUOUS
 62
     5
 10
-2.5499991126243899
 20
1193.5
 30
0.0
 11
-2.5499991126243899
 21
1192.5
 31
0.0
  0
LINE
  5
1DA
  8
DETAIL
  6
CONTINUOUS
 62
     5
 10
-0.7601391126245291
 20
1193.7601400000001
 30
0.0
 11
-2.5499991126243899
 21
1193.5
 31
0.0
  0
LINE
  5
1DB
  8
DETAIL
  6
CONTINUOUS
 62
     5
 10
-0.4999991126242094
 20
1195.549999999999
 30
0.0
 11
-0.7601391126245291
 21
1193.7601400000001
 31
0.0
  0
LINE
  5
1DC
  8
DETAIL
  6
CONTINUOUS
 62
     5
 10
-207.49999911262421
 20
1190.45
 30
0.0
 11
-206.49999911262421
 21
1190.45
 31
0.0
  0
LINE
  5
1DD
  8
DETAIL
  6
CONTINUOUS
 62
     5
 10
-206.49999911262421
 20
1195.549999999999
 30
0.0
 11
-207.49999911262421
 21
1195.549999999999
 31
0.0
  0
LINE
  5
1DE
  8
DETAIL
  6
CONTINUOUS
 62
     5
 10
-206.2398591126248
 20
1193.7601400000001
 30
0.0
 11
-206.49999911262421
 21
1195.549999999999
 31
0.0
  0
LINE
  5
1DF
  8
DETAIL
  6
CONTINUOUS
 62
     5
 10
-204.449999112624
 20
1193.5
 30
0.0
 11
-206.2398591126248
 21
1193.7601400000001
 31
0.0
  0
LINE
  5
1E0
  8
DETAIL
  6
CONTINUOUS
 62
     5
 10
-204.449999112624
 20
1192.5
 30
0.0
 11
-204.449999112624
 21
1193.5
 31
0.0
  0
LINE
  5
1E1
  8
DETAIL
  6
CONTINUOUS
 62
     5
 10
-206.2398591126248
 20
1192.239859999999
 30
0.0
 11
-204.449999112624
 21
1192.5
 31
0.0
  0
LINE
  5
1E2
  8
DETAIL
  6
CONTINUOUS
 62
     5
 10
-206.49999911262421
 20
1190.45
 30
0.0
 11
-206.2398591126248
 21
1192.239859999999
 31
0.0
  0
LINE
  5
1E3
  8
DETAIL
  6
CONTINUOUS
 62
     5
 10
-207.7601391126245
 20
1192.239859999999
 30
0.0
 11
-207.49999911262421
 21
1190.45
 31
0.0
  0
LINE
  5
1E4
  8
DETAIL
  6
CONTINUOUS
 62
     5
 10
-209.54999911262439
 20
1192.5
 30
0.0
 11
-207.7601391126245
 21
1192.239859999999
 31
0.0
  0
LINE
  5
1E5
  8
DETAIL
  6
CONTINUOUS
 62
     5
 10
-209.54999911262439
 20
1193.5
 30
0.0
 11
-209.54999911262439
 21
1192.5
 31
0.0
  0
LINE
  5
1E6
  8
DETAIL
  6
CONTINUOUS
 62
     5
 10
-207.7601391126245
 20
1193.7601400000001
 30
0.0
 11
-209.54999911262439
 21
1193.5
 31
0.0
  0
LINE
  5
1E7
  8
DETAIL
  6
CONTINUOUS
 62
     5
 10
-207.49999911262421
 20
1195.549999999999
 30
0.0
 11
-207.7601391126245
 21
1193.7601400000001
 31
0.0
  0
LINE
  5
1E8
  8
DETAIL
  6
CONTINUOUS
 62
     5
 10
-207.49999911262421
 20
1347.45
 30
0.0
 11
-206.49999911262421
 21
1347.45
 31
0.0
  0
LINE
  5
1E9
  8
DETAIL
  6
CONTINUOUS
 62
     5
 10
-206.49999911262421
 20
1352.55
 30
0.0
 11
-207.49999911262421
 21
1352.55
 31
0.0
  0
LINE
  5
1EA
  8
DETAIL
  6
CONTINUOUS
 62
     5
 10
-206.2398591126248
 20
1350.7601400000001
 30
0.0
 11
-206.49999911262421
 21
1352.55
 31
0.0
  0
LINE
  5
1EB
  8
DETAIL
  6
CONTINUOUS
 62
     5
 10
-204.449999112624
 20
1350.5
 30
0.0
 11
-206.2398591126248
 21
1350.7601400000001
 31
0.0
  0
LINE
  5
1EC
  8
DETAIL
  6
CONTINUOUS
 62
     5
 10
-204.449999112624
 20
1349.5
 30
0.0
 11
-204.449999112624
 21
1350.5
 31
0.0
  0
LINE
  5
1ED
  8
DETAIL
  6
CONTINUOUS
 62
     5
 10
-206.2398591126248
 20
1349.2398599999999
 30
0.0
 11
-204.449999112624
 21
1349.5
 31
0.0
  0
LINE
  5
1EE
  8
DETAIL
  6
CONTINUOUS
 62
     5
 10
-206.49999911262421
 20
1347.45
 30
0.0
 11
-206.2398591126248
 21
1349.2398599999999
 31
0.0
  0
LINE
  5
1EF
  8
DETAIL
  6
CONTINUOUS
 62
     5
 10
-207.7601391126245
 20
1349.2398599999999
 30
0.0
 11
-207.49999911262421
 21
1347.45
 31
0.0
  0
LINE
  5
1F0
  8
DETAIL
  6
CONTINUOUS
 62
     5
 10
-209.54999911262439
 20
1349.5
 30
0.0
 11
-207.7601391126245
 21
1349.2398599999999
 31
0.0
  0
LINE
  5
1F1
  8
DETAIL
  6
CONTINUOUS
 62
     5
 10
-209.54999911262439
 20
1350.5
 30
0.0
 11
-209.54999911262439
 21
1349.5
 31
0.0
  0
LINE
  5
1F2
  8
DETAIL
  6
CONTINUOUS
 62
     5
 10
-207.7601391126245
 20
1350.7601400000001
 30
0.0
 11
-209.54999911262439
 21
1350.5
 31
0.0
  0
LINE
  5
1F3
  8
DETAIL
  6
CONTINUOUS
 62
     5
 10
-207.49999911262421
 20
1352.55
 30
0.0
 11
-207.7601391126245
 21
1350.7601400000001
 31
0.0
  0
LINE
  5
1F4
  8
DETAIL
  6
CONTINUOUS
 62
     5
 10
-207.49999911262421
 20
1504.45
 30
0.0
 11
-206.49999911262421
 21
1504.45
 31
0.0
  0
LINE
  5
1F5
  8
DETAIL
  6
CONTINUOUS
 62
     5
 10
-206.49999911262421
 20
1509.55
 30
0.0
 11
-207.49999911262421
 21
1509.55
 31
0.0
  0
LINE
  5
1F6
  8
DETAIL
  6
CONTINUOUS
 62
     5
 10
-206.2398591126248
 20
1507.7601400000001
 30
0.0
 11
-206.49999911262421
 21
1509.55
 31
0.0
  0
LINE
  5
1F7
  8
DETAIL
  6
CONTINUOUS
 62
     5
 10
-204.449999112624
 20
1507.5
 30
0.0
 11
-206.2398591126248
 21
1507.7601400000001
 31
0.0
  0
LINE
  5
1F8
  8
DETAIL
  6
CONTINUOUS
 62
     5
 10
-204.449999112624
 20
1506.5
 30
0.0
 11
-204.449999112624
 21
1507.5
 31
0.0
  0
LINE
  5
1F9
  8
DETAIL
  6
CONTINUOUS
 62
     5
 10
-206.2398591126248
 20
1506.239859999999
 30
0.0
 11
-204.449999112624
 21
1506.5
 31
0.0
  0
LINE
  5
1FA
  8
DETAIL
  6
CONTINUOUS
 62
     5
 10
-206.49999911262421
 20
1504.45
 30
0.0
 11
-206.2398591126248
 21
1506.239859999999
 31
0.0
  0
LINE
  5
1FB
  8
DETAIL
  6
CONTINUOUS
 62
     5
 10
-207.7601391126245
 20
1506.239859999999
 30
0.0
 11
-207.49999911262421
 21
1504.45
 31
0.0
  0
LINE
  5
1FC
  8
DETAIL
  6
CONTINUOUS
 62
     5
 10
-209.54999911262439
 20
1506.5
 30
0.0
 11
-207.7601391126245
 21
1506.239859999999
 31
0.0
  0
LINE
  5
1FD
  8
DETAIL
  6
CONTINUOUS
 62
     5
 10
-209.54999911262439
 20
1507.5
 30
0.0
 11
-209.54999911262439
 21
1506.5
 31
0.0
  0
LINE
  5
1FE
  8
DETAIL
  6
CONTINUOUS
 62
     5
 10
-207.7601391126245
 20
1507.7601400000001
 30
0.0
 11
-209.54999911262439
 21
1507.5
 31
0.0
  0
LINE
  5
1FF
  8
DETAIL
  6
CONTINUOUS
 62
     5
 10
-207.49999911262421
 20
1509.55
 30
0.0
 11
-207.7601391126245
 21
1507.7601400000001
 31
0.0
  0
LINE
  5
220
  8
DETAIL
  6
CONTINUOUS
 62
     5
 10
-5.9999991126242094
 20
1948.0
 30
0.0
 11
6.0000008873757888
 21
1948.0
 31
0.0
  0
LINE
  5
223
  8
DETAIL
  6
CONTINUOUS
 62
     5
 10
-422.19999911262403
 20
96.599999999999923
 30
0.0
 11
-422.19999911262403
 21
70.0
 31
0.0
  0
LINE
  5
224
  8
DETAIL
  6
CONTINUOUS
 62
     5
 10
-439.99999911262421
 20
96.799999999999713
 30
0.0
 11
-422.39999911262458
 21
96.799999999999713
 31
0.0
  0
LINE
  5
225
  8
DETAIL
  6
CONTINUOUS
 62
     5
 10
-439.99999911262421
 20
100.0
 30
0.0
 11
-439.99999911262421
 21
96.799999999999713
 31
0.0
  0
LINE
  5
226
  8
DETAIL
  6
CONTINUOUS
 62
     5
 10
-439.99999911262421
 20
100.0
 30
0.0
 11
-422.19999911262403
 21
100.0
 31
0.0
  0
LINE
  5
227
  8
DETAIL
  6
CONTINUOUS
 62
     5
 10
-418.9999991126241
 20
100.0
 30
0.0
 11
-418.9999991126241
 21
70.0
 31
0.0
  0
LINE
  5
228
  8
DETAIL
  6
CONTINUOUS
 62
     5
 10
419.0000008873767
 20
96.799999999999713
 30
0.0
 11
-418.9999991126241
 21
96.799999999999713
 31
0.0
  0
LINE
  5
229
  8
DETAIL
  6
CONTINUOUS
 62
     5
 10
-418.9999991126241
 20
66.799999999999727
 30
0.0
 11
-398.39999911262481
 21
66.799999999999727
 31
0.0
  0
LINE
  5
22A
  8
DETAIL
  6
CONTINUOUS
 62
     5
 10
-398.19999911262403
 20
66.599999999999909
 30
0.0
 11
-398.19999911262403
 21
3.1999999999998181
 31
0.0
  0
LINE
  5
22B
  8
DETAIL
  6
CONTINUOUS
 62
     5
 10
-398.19999911262403
 20
3.1999999999998181
 30
0.0
 11
-439.99999911262421
 21
3.1999999999998181
 31
0.0
  0
LINE
  5
22C
  8
DETAIL
  6
CONTINUOUS
 62
     5
 10
-439.99999911262421
 20
0.0
 30
0.0
 11
-439.99999911262421
 21
3.1999999999998181
 31
0.0
  0
LINE
  5
22D
  8
DETAIL
  6
CONTINUOUS
 62
     5
 10
-398.19999911262403
 20
0.0
 30
0.0
 11
-439.99999911262421
 21
0.0
 31
0.0
  0
LINE
  5
22E
  8
DETAIL
  6
CONTINUOUS
 62
     5
 10
-394.99999911262421
 20
70.0
 30
0.0
 11
-394.99999911262421
 21
0.0
 31
0.0
  0
LINE
  5
22F
  8
DETAIL
  6
CONTINUOUS
 62
     5
 10
395.0000008873767
 20
3.1999999999998181
 30
0.0
 11
-394.99999911262421
 21
3.1999999999998181
 31
0.0
  0
LINE
  5
230
  8
DETAIL
  6
CONTINUOUS
 62
     5
 10
395.0000008873767
 20
0.0
 30
0.0
 11
-394.99999911262421
 21
0.0
 31
0.0
  0
ARC
  5
231
  8
DETAIL
  6
CONTINUOUS
 62
     5
 10
-398.19999911262403
 20
3.1999999999998181
 30
0.0
 40
3.2000000000000002
 50
270.0
 51
0.0
  0
LINE
  5
232
  8
DETAIL
  6
CONTINUOUS
 62
     5
 10
-394.99999911262421
 20
70.0
 30
0.0
 11
-418.9999991126241
 21
70.0
 31
0.0
  0
LINE
  5
233
  8
DETAIL
  6
CONTINUOUS
 62
     5
 10
-394.99999911262421
 20
66.799999999999727
 30
0.0
 11
395.0000008873767
 21
66.799999999999727
 31
0.0
  0
ARC
  5
234
  8
DETAIL
  6
CONTINUOUS
 62
     5
 10
-398.19999911262403
 20
66.799999999999727
 30
0.0
 40
3.2000000000000002
 50
0.0
 51
90.0
  0
ARC
  5
235
  8
DETAIL
  6
CONTINUOUS
 62
     5
 10
-418.9999991126241
 20
70.0
 30
0.0
 40
3.2000000000000002
 50
180.0
 51
270.0
  0
ARC
  5
236
  8
DETAIL
  6
CONTINUOUS
 62
     5
 10
-422.19999911262403
 20
96.799999999999713
 30
0.0
 40
3.2000000000000002
 50
0.0
 51
90.0
  0
LINE
  5
237
  8
DETAIL
  6
CONTINUOUS
 62
     5
 10
419.0000008873767
 20
100.0
 30
0.0
 11
-418.9999991126241
 21
100.0
 31
0.0
  0
LINE
  5
238
  8
DETAIL
  6
CONTINUOUS
 62
     5
 10
395.0000008873767
 20
0.0
 30
0.0
 11
395.0000008873767
 21
70.0
 31
0.0
  0
LINE
  5
239
  8
DETAIL
  6
CONTINUOUS
 62
     5
 10
398.20000088737572
 20
3.1999999999998181
 30
0.0
 11
398.20000088737572
 21
66.799999999999727
 31
0.0
  0
LINE
  5
23A
  8
DETAIL
  6
CONTINUOUS
 62
     5
 10
398.20000088737572
 20
66.799999999999727
 30
0.0
 11
419.0000008873767
 21
66.799999999999727
 31
0.0
  0
LINE
  5
23B
  8
DETAIL
  6
CONTINUOUS
 62
     5
 10
422.20000088737561
 20
70.0
 30
0.0
 11
422.20000088737561
 21
100.0
 31
0.0
  0
LINE
  5
23C
  8
DETAIL
  6
CONTINUOUS
 62
     5
 10
395.0000008873767
 20
70.0
 30
0.0
 11
419.0000008873767
 21
70.0
 31
0.0
  0
LINE
  5
23D
  8
DETAIL
  6
CONTINUOUS
 62
     5
 10
419.0000008873767
 20
70.0
 30
0.0
 11
419.0000008873767
 21
100.0
 31
0.0
  0
ARC
  5
23E
  8
DETAIL
  6
CONTINUOUS
 62
     5
 10
398.20000088737572
 20
66.799999999999727
 30
0.0
 40
3.2000000000000002
 50
90.0
 51
180.0
  0
ARC
  5
23F
  8
DETAIL
  6
CONTINUOUS
 62
     5
 10
419.0000008873767
 20
70.0
 30
0.0
 40
3.2000000000000002
 50
270.0
 51
0.0
  0
LINE
  5
240
  8
DETAIL
  6
CONTINUOUS
 62
     5
 10
419.0000008873767
 20
100.0
 30
0.0
 11
422.20000088737561
 21
100.0
 31
0.0
  0
LINE
  5
241
  8
DETAIL
  6
CONTINUOUS
 62
     5
 10
440.00000088737647
 20
0.0
 30
0.0
 11
440.00000088737647
 21
3.1999999999998181
 31
0.0
  0
LINE
  5
242
  8
DETAIL
  6
CONTINUOUS
 62
     5
 10
440.00000088737647
 20
0.0
 30
0.0
 11
398.20000088737572
 21
0.0
 31
0.0
  0
LINE
  5
243
  8
DETAIL
  6
CONTINUOUS
 62
     5
 10
440.00000088737647
 20
3.1999999999998181
 30
0.0
 11
398.20000088737572
 21
3.1999999999998181
 31
0.0
  0
ARC
  5
244
  8
DETAIL
  6
CONTINUOUS
 62
     5
 10
398.20000088737572
 20
3.1999999999998181
 30
0.0
 40
3.2000000000000002
 50
180.0
 51
270.0
  0
POINT
  5
2B0
  8
DEFPOINTS
  6
CONTINUOUS
 62
     7
 10
440.00000088737647
 20
0.0
 30
0.0
  0
POINT
  5
2B1
  8
DEFPOINTS
  6
CONTINUOUS
 62
     7
 10
-439.99999911262421
 20
0.0
 30
0.0
  0
POINT
  5
2BD
  8
DEFPOINTS
  6
CONTINUOUS
 62
     7
 10
420.00000088737647
 20
-7.3842241312477181
 30
0.0
  0
POINT
  5
2BE
  8
DEFPOINTS
  6
CONTINUOUS
 62
     7
 10
440.00000088737647
 20
0.0
 30
0.0
  0
POINT
  5
2C6
  8
DEFPOINTS
  6
CONTINUOUS
 62
     7
 10
420.00000088737647
 20
-7.3842241312477181
 30
0.0
  0
POINT
  5
2C7
  8
DEFPOINTS
  6
CONTINUOUS
 62
     7
 10
-419.99999911262421
 20
-7.3842241312477181
 30
0.0
  0
POINT
  5
2D1
  8
DEFPOINTS
  6
CONTINUOUS
 62
     7
 10
-419.99999911262421
 20
-7.3842241312477181
 30
0.0
  0
POINT
  5
2D2
  8
DEFPOINTS
  6
CONTINUOUS
 62
     7
 10
-439.99999911262421
 20
0.0
 30
0.0
  0
CIRCLE
  5
2D4
  8
FIX
  6
CONTINUOUS
 62
    11
 10
-419.99999911262421
 20
0.0
 30
0.0
 40
12.42149793872491
  0
CIRCLE
  5
2D5
  8
FIX
  6
CONTINUOUS
 62
    11
 10
420.00000088737647
 20
0.0
 30
0.0
 40
12.42149793872491
  0
LINE
  5
2DA
  8
BASIS
  6
DASHDOT
 62
     6
 10
0.0
 20
2007.647941997257
 30
0.0
 11
0.0
 21
-76.317545955745132
 31
0.0
  0
CIRCLE
  5
2DB
  8
ARRANGE
  6
CONTINUOUS
 62
     1
 10
0.0
 20
0.0
 30
0.0
 40
50.0
  0
LINE
  5
2DC
  8
ARRANGE
  6
CONTINUOUS
 62
     1
 10
50.037350031328963
 20
-49.522353150325202
 30
0.0
 11
-50.037350031328963
 21
49.522353150325202
 31
0.0
  0
LINE
  5
2DD
  8
ARRANGE
  6
CONTINUOUS
 62
     1
 10
49.963763310501221
 20
49.596594797985738
 30
0.0
 11
-49.963763310501221
 21
-49.5965947979821
 31
0.0
  0
POINT
  5
2E4
  8
DEFPOINTS
  6
CONTINUOUS
 62
     7
 10
439.0000008873767
 20
1915.0
 30
0.0
  0
POINT
  5
2E5
  8
DEFPOINTS
  6
CONTINUOUS
 62
     7
 10
1450.000000887386
 20
0.0
 30
0.0
  0
POINT
  5
2EF
  8
DEFPOINTS
  6
CONTINUOUS
 62
     7
 10
439.0000008873767
 20
1915.0
 30
0.0
  0
POINT
  5
2F0
  8
DEFPOINTS
  6
CONTINUOUS
 62
     7
 10
440.00000088737647
 20
1950.0
 30
0.0
  0
POINT
  5
2F8
  8
DEFPOINTS
  6
CONTINUOUS
 62
     7
 10
440.00000088737647
 20
1950.0
 30
0.0
  0
POINT
  5
2F9
  8
DEFPOINTS
  6
CONTINUOUS
 62
     7
 10
1450.000000887386
 20
0.0
 30
0.0
  0
LINE
  5
2FB
  8
OUTLINE
  6
CONTINUOUS
 62
     3
 10
440.00000088737647
 20
1950.0
 30
0.0
 11
421.0000008873767
 21
1950.0
 31
0.0
  0
LINE
  5
2FC
  8
OUTLINE
  6
CONTINUOUS
 62
     3
 10
421.0000008873767
 20
1950.0
 30
0.0
 11
421.0000008873767
 21
1949.0
 31
0.0
  0
LINE
  5
2FD
  8
OUTLINE
  6
CONTINUOUS
 62
     3
 10
440.00000088737647
 20
1949.0
 30
0.0
 11
421.0000008873767
 21
1949.0
 31
0.0
  0
LINE
  5
2FE
  8
OUTLINE
  6
CONTINUOUS
 62
     3
 10
440.00000088737647
 20
1949.0
 30
0.0
 11
440.00000088737647
 21
1946.0
 31
0.0
  0
LINE
  5
2FF
  8
OUTLINE
  6
CONTINUOUS
 62
     3
 10
441.00000088737642
 20
1949.0
 30
0.0
 11
441.00000088737642
 21
1913.0
 31
0.0
  0
ARC
  5
300
  8
OUTLINE
  6
CONTINUOUS
 62
     3
 10
440.00000088737647
 20
1949.0
 30
0.0
 40
1.0
 50
0.0
 51
90.0
  0
ARC
  5
301
  8
OUTLINE
  6
CONTINUOUS
 62
     3
 10
439.0000008873767
 20
1946.0
 30
0.0
 40
1.0
 50
0.0
 51
90.0
  0
LINE
  5
306
  8
OUTLINE
  6
CONTINUOUS
 62
     3
 10
439.0000008873767
 20
1947.0
 30
0.0
 11
360.00000088737568
 21
1947.0
 31
0.0
  0
LINE
  5
308
  8
OUTLINE
  6
CONTINUOUS
 62
     3
 10
360.00000088737568
 20
1948.0
 30
0.0
 11
360.00000088737568
 21
1947.0
 31
0.0
  0
LINE
  5
309
  8
OUTLINE
  6
CONTINUOUS
 62
     3
 10
-359.99999911262421
 20
1948.0
 30
0.0
 11
360.00000088737568
 21
1948.0
 31
0.0
  0
LINE
  5
30B
  8
OUTLINE
  6
CONTINUOUS
 62
     3
 10
-359.99999911262421
 20
1948.0
 30
0.0
 11
-359.99999911262421
 21
1947.0
 31
0.0
  0
ARC
  5
310
  8
OUTLINE
  6
CONTINUOUS
 62
     3
 10
-438.9999991126241
 20
1946.0
 30
0.0
 40
1.0
 50
90.0
 51
180.0
  0
LINE
  5
311
  8
OUTLINE
  6
CONTINUOUS
 62
     3
 10
-439.99999911262421
 20
1916.0
 30
0.0
 11
-439.99999911262421
 21
1946.0
 31
0.0
  0
ARC
  5
312
  8
OUTLINE
  6
CONTINUOUS
 62
     3
 10
-438.9999991126241
 20
1916.0
 30
0.0
 40
1.0
 50
180.0
 51
270.0
  0
ARC
  5
313
  8
OUTLINE
  6
CONTINUOUS
 62
     3
 10
-438.9999991126241
 20
1914.0
 30
0.0
 40
1.0
 50
90.0
 51
180.0
  0
LINE
  5
314
  8
OUTLINE
  6
CONTINUOUS
 62
     3
 10
-439.99999911262421
 20
1914.0
 30
0.0
 11
-439.99999911262421
 21
101.0
 31
0.0
  0
ARC
  5
315
  8
OUTLINE
  6
CONTINUOUS
 62
     3
 10
-438.9999991126241
 20
101.0
 30
0.0
 40
1.0
 50
180.0
 51
270.0
  0
LINE
  5
316
  8
OUTLINE
  6
CONTINUOUS
 62
     3
 10
-439.99999911262421
 20
100.0
 30
0.0
 11
-438.9999991126241
 21
100.0000000000004
 31
0.0
  0
LINE
  5
317
  8
OUTLINE
  6
CONTINUOUS
 62
     3
 10
-439.99999911262421
 20
100.0
 30
0.0
 11
-439.99999911262421
 21
96.799999999999713
 31
0.0
  0
LINE
  5
318
  8
OUTLINE
  6
CONTINUOUS
 62
     3
 10
-439.99999911262421
 20
96.799999999999713
 30
0.0
 11
-422.39999911262458
 21
96.799999999999713
 31
0.0
  0
LINE
  5
319
  8
OUTLINE
  6
CONTINUOUS
 62
     3
 10
-422.19999911262403
 20
96.599999999999923
 30
0.0
 11
-422.19999911262403
 21
70.0
 31
0.0
  0
ARC
  5
31A
  8
OUTLINE
  6
CONTINUOUS
 62
     3
 10
-418.9999991126241
 20
70.0
 30
0.0
 40
3.2000000000000002
 50
180.0
 51
270.0
  0
LINE
  5
31B
  8
OUTLINE
  6
CONTINUOUS
 62
     3
 10
-418.9999991126241
 20
66.799999999999727
 30
0.0
 11
-398.39999911262481
 21
66.799999999999727
 31
0.0
  0
LINE
  5
31C
  8
OUTLINE
  6
CONTINUOUS
 62
     3
 10
-398.19999911262403
 20
66.599999999999909
 30
0.0
 11
-398.19999911262403
 21
3.1999999999998181
 31
0.0
  0
LINE
  5
31D
  8
OUTLINE
  6
CONTINUOUS
 62
     3
 10
-398.19999911262403
 20
3.1999999999998181
 30
0.0
 11
-439.99999911262421
 21
3.1999999999998181
 31
0.0
  0
LINE
  5
31E
  8
OUTLINE
  6
CONTINUOUS
 62
     3
 10
-439.99999911262421
 20
0.0
 30
0.0
 11
-439.99999911262421
 21
3.1999999999998181
 31
0.0
  0
LINE
  5
31F
  8
OUTLINE
  6
CONTINUOUS
 62
     3
 10
-398.19999911262403
 20
0.0
 30
0.0
 11
-439.99999911262421
 21
0.0
 31
0.0
  0
ARC
  5
320
  8
OUTLINE
  6
CONTINUOUS
 62
     3
 10
-398.19999911262403
 20
3.1999999999998181
 30
0.0
 40
3.2000000000000002
 50
270.0
 51
0.0
  0
LINE
  5
321
  8
OUTLINE
  6
CONTINUOUS
 62
     3
 10
-394.99999911262421
 20
3.1999999999998181
 30
0.0
 11
-394.99999911262421
 21
0.0
 31
0.0
  0
LINE
  5
322
  8
OUTLINE
  6
CONTINUOUS
 62
     3
 10
395.0000008873767
 20
0.0
 30
0.0
 11
-394.99999911262421
 21
0.0
 31
0.0
  0
LINE
  5
323
  8
OUTLINE
  6
CONTINUOUS
 62
     3
 10
395.0000008873767
 20
0.0
 30
0.0
 11
395.0000008873767
 21
3.1999999999998181
 31
0.0
  0
ARC
  5
324
  8
OUTLINE
  6
CONTINUOUS
 62
     3
 10
398.20000088737572
 20
3.1999999999998181
 30
0.0
 40
3.2000000000000002
 50
180.0
 51
270.0
  0
LINE
  5
325
  8
OUTLINE
  6
CONTINUOUS
 62
     3
 10
440.00000088737647
 20
0.0
 30
0.0
 11
398.20000088737572
 21
0.0
 31
0.0
  0
LINE
  5
326
  8
OUTLINE
  6
CONTINUOUS
 62
     3
 10
440.00000088737647
 20
0.0
 30
0.0
 11
440.00000088737647
 21
3.1999999999998181
 31
0.0
  0
LINE
  5
327
  8
OUTLINE
  6
CONTINUOUS
 62
     3
 10
440.00000088737647
 20
3.1999999999998181
 30
0.0
 11
398.20000088737572
 21
3.1999999999998181
 31
0.0
  0
LINE
  5
328
  8
OUTLINE
  6
CONTINUOUS
 62
     3
 10
398.20000088737572
 20
3.1999999999998181
 30
0.0
 11
398.20000088737572
 21
66.799999999999727
 31
0.0
  0
LINE
  5
329
  8
OUTLINE
  6
CONTINUOUS
 62
     3
 10
398.20000088737572
 20
66.799999999999727
 30
0.0
 11
419.0000008873767
 21
66.799999999999727
 31
0.0
  0
ARC
  5
32A
  8
OUTLINE
  6
CONTINUOUS
 62
     3
 10
419.0000008873767
 20
70.0
 30
0.0
 40
3.2000000000000002
 50
270.0
 51
0.0
  0
LINE
  5
32B
  8
OUTLINE
  6
CONTINUOUS
 62
     3
 10
422.20000088737561
 20
70.0
 30
0.0
 11
422.20000088737561
 21
100.0
 31
0.0
  0
LINE
  5
32C
  8
OUTLINE
  6
CONTINUOUS
 62
     3
 10
439.0000008873767
 20
100.0
 30
0.0
 11
422.20000088737362
 21
100.0
 31
0.0
  0
ARC
  5
32D
  8
OUTLINE
  6
CONTINUOUS
 62
     3
 10
439.0000008873767
 20
101.0
 30
0.0
 40
1.0
 50
270.0
 51
0.0
  0
LINE
  5
32E
  8
OUTLINE
  6
CONTINUOUS
 62
     3
 10
440.00000088737647
 20
1912.0
 30
0.0
 11
440.00000088737647
 21
101.0
 31
0.0
  0
ARC
  5
32F
  8
OUTLINE
  6
CONTINUOUS
 62
     3
 10
440.00000088737647
 20
1913.0
 30
0.0
 40
1.0
 50
270.0
 51
0.0
  0
LINE
  5
330
  8
OUTLINE
  6
CONTINUOUS
 62
     3
 10
-359.99999911262421
 20
1947.0
 30
0.0
 11
-438.9999991126241
 21
1947.0
 31
0.0
  0
LINE
  5
331
  8
SIZE
  6
CONTINUOUS
 62
    30
 10
1470.000000887386
 20
0.0000000000009038
 30
0.0
 11
1631.3948242657
 21
0.0000000000008581
 31
0.0
  0
LINE
  5
332
  8
SIZE
  6
CONTINUOUS
 62
    30
 10
400.00000088737568
 20
269.99999999999989
 30
0.0
 11
1631.3948242657
 21
269.99999999999972
 31
0.0
  0
LINE
  5
333
  8
SIZE
  6
CONTINUOUS
 62
    30
 10
1611.3948242657
 20
0.0000000000008638
 30
0.0
 11
1611.3948242657
 21
269.99999999999972
 31
0.0
  0
CIRCLE
  5
334
  8
SIZE
  6
CONTINUOUS
 62
    30
 10
1611.3948242657
 20
0.0000000000008638
 30
0.0
 40
7.5
  0
CIRCLE
  5
335
  8
SIZE
  6
CONTINUOUS
 62
    30
 10
1611.3948242657
 20
269.99999999999972
 30
0.0
 40
7.5
  0
TEXT
  5
336
  8
SIZE
  6
CONTINUOUS
 62
    30
 10
1591.3948242657
 20
65.571428571429649
 30
0.0
 40
60.0
  1
270
 50
90.0
 41
0.9
 72
     1
 11
1591.3948242657
 21
135.00000000000099
 31
0.0
  0
POINT
  5
337
  8
DEFPOINTS
  6
CONTINUOUS
 62
     7
 10
1450.000000887386
 20
0.0000000000009095
 30
0.0
  0
POINT
  5
338
  8
DEFPOINTS
  6
CONTINUOUS
 62
     7
 10
380.00000088737568
 20
270.0
 30
0.0
  0
POINT
  5
339
  8
DEFPOINTS
  6
CONTINUOUS
 62
     7
 10
1611.3948242657
 20
269.99999999999972
 30
0.0
  0
LINE
  5
33A
  8
SIZE
  6
CONTINUOUS
 62
    30
 10
391.00000088737568
 20
344.99999999999977
 30
0.0
 11
1750.361944358491
 21
344.9999999999996
 31
0.0
  0
LINE
  5
33B
  8
SIZE
  6
CONTINUOUS
 62
    30
 10
1470.000000887386
 20
-0.0000000000000057
 30
0.0
 11
1750.361944358491
 21
-0.0000000000000851
 31
0.0
  0
LINE
  5
33C
  8
SIZE
  6
CONTINUOUS
 62
    30
 10
1730.361944358491
 20
344.9999999999996
 30
0.0
 11
1730.361944358491
 21
-0.0000000000000794
 31
0.0
  0
CIRCLE
  5
33D
  8
SIZE
  6
CONTINUOUS
 62
    30
 10
1730.361944358491
 20
344.9999999999996
 30
0.0
 40
7.5
  0
CIRCLE
  5
33E
  8
SIZE
  6
CONTINUOUS
 62
    30
 10
1730.361944358491
 20
-0.0000000000000794
 30
0.0
 40
7.5
  0
TEXT
  5
33F
  8
SIZE
  6
CONTINUOUS
 62
    30
 10
1710.361944358491
 20
120.62346156517179
 30
0.0
 40
60.0
  1
345
 50
90.0
 41
0.9
 72
     1
 11
1710.361944358491
 21
190.0520329937433
 31
0.0
  0
POINT
  5
340
  8
DEFPOINTS
  6
CONTINUOUS
 62
     7
 10
371.00000088737568
 20
345.0
 30
0.0
  0
POINT
  5
341
  8
DEFPOINTS
  6
CONTINUOUS
 62
     7
 10
1450.000000887386
 20
0.0
 30
0.0
  0
POINT
  5
342
  8
DEFPOINTS
  6
CONTINUOUS
 62
     7
 10
1730.361944358491
 20
-0.0000000000000794
 30
0.0
  0
LINE
  5
343
  8
SIZE
  6
CONTINUOUS
 62
    30
 10
391.00000088737568
 20
395.0
 30
0.0
 11
1750.361944358491
 21
394.9999999999996
 31
0.0
  0
LINE
  5
344
  8
SIZE
  6
CONTINUOUS
 62
    30
 10
391.00000088737568
 20
344.99999999999977
 30
0.0
 11
1750.361944358491
 21
344.9999999999996
 31
0.0
  0
LINE
  5
345
  8
SIZE
  6
CONTINUOUS
 62
    30
 10
1730.361944358491
 20
394.9999999999996
 30
0.0
 11
1730.361944358491
 21
344.9999999999996
 31
0.0
  0
LINE
  5
346
  8
SIZE
  6
CONTINUOUS
 62
    30
 10
1730.361944358491
 20
369.9999999999996
 30
0.0
 11
1835.471715182837
 21
322.22203567508097
 31
0.0
  0
LINE
  5
347
  8
SIZE
  6
CONTINUOUS
 62
    30
 10
1835.471715182837
 20
322.22203567508097
 30
0.0
 11
1835.471715182837
 21
194.79346424650959
 31
0.0
  0
TEXT
  5
348
  8
SIZE
  6
CONTINUOUS
 62
    30
 10
1815.471715182837
 20
214.7934642465099
 30
0.0
 40
60.0
  1
50
 50
90.0
 41
0.9
 72
     1
 11
1815.471715182837
 21
258.50774996079559
 31
0.0
  0
CIRCLE
  5
349
  8
SIZE
  6
CONTINUOUS
 62
    30
 10
1730.361944358491
 20
394.9999999999996
 30
0.0
 40
7.5
  0
CIRCLE
  5
34A
  8
SIZE
  6
CONTINUOUS
 62
    30
 10
1730.361944358491
 20
344.9999999999996
 30
0.0
 40
7.5
  0
POINT
  5
34B
  8
DEFPOINTS
  6
CONTINUOUS
 62
     7
 10
371.00000088737568
 20
395.0
 30
0.0
  0
POINT
  5
34C
  8
DEFPOINTS
  6
CONTINUOUS
 62
     7
 10
371.00000088737568
 20
345.0
 30
0.0
  0
POINT
  5
34D
  8
DEFPOINTS
  6
CONTINUOUS
 62
     7
 10
1730.361944358491
 20
344.9999999999996
 30
0.0
  0
LINE
  5
34E
  8
SIZE
  6
CONTINUOUS
 62
    30
 10
391.00000088737568
 20
395.0
 30
0.0
 11
1750.361944358491
 21
394.9999999999996
 31
0.0
  0
LINE
  5
34F
  8
SIZE
  6
CONTINUOUS
 62
    30
 10
391.00000088737568
 20
444.99999999999989
 30
0.0
 11
1750.361944358491
 21
444.99999999999937
 31
0.0
  0
LINE
  5
350
  8
SIZE
  6
CONTINUOUS
 62
    30
 10
1730.361944358491
 20
394.9999999999996
 30
0.0
 11
1730.361944358491
 21
444.99999999999937
 31
0.0
  0
LINE
  5
351
  8
SIZE
  6
CONTINUOUS
 62
    30
 10
1730.361944358491
 20
444.99999999999937
 30
0.0
 11
1730.361944358491
 21
602.42857142857099
 31
0.0
  0
CIRCLE
  5
352
  8
SIZE
  6
CONTINUOUS
 62
    30
 10
1730.361944358491
 20
394.9999999999996
 30
0.0
 40
7.5
  0
CIRCLE
  5
353
  8
SIZE
  6
CONTINUOUS
 62
    30
 10
1730.361944358491
 20
444.99999999999937
 30
0.0
 40
7.5
  0
TEXT
  5
354
  8
SIZE
  6
CONTINUOUS
 62
    30
 10
1710.361944358491
 20
494.99999999999989
 30
0.0
 40
60.0
  1
50
 50
90.0
 41
0.9
 72
     1
 11
1710.361944358491
 21
538.71428571428567
 31
0.0
  0
POINT
  5
355
  8
DEFPOINTS
  6
CONTINUOUS
 62
     7
 10
371.00000088737568
 20
395.0
 30
0.0
  0
POINT
  5
356
  8
DEFPOINTS
  6
CONTINUOUS
 62
     7
 10
371.00000088737568
 20
445.0
 30
0.0
  0
POINT
  5
357
  8
DEFPOINTS
  6
CONTINUOUS
 62
     7
 10
1730.361944358491
 20
444.99999999999937
 30
0.0
  0
LINE
  5
358
  8
SERVICESPACE
  6
DASHDOT
 62
     2
 10
440.00000088737647
 20
1950.0
 30
0.0
 11
-439.99999911262421
 21
1950.0
 31
0.0
  0
LINE
  5
359
  8
SERVICESPACE
  6
DASHDOT
 62
     2
 10
1450.0000008873751
 20
2350.0000000000009
 30
0.0
 11
-439.99999911262421
 21
2350.0000000000009
 31
0.0
  0
LINE
  5
35A
  8
SERVICESPACE
  6
DASHDOT
 62
     2
 10
-439.99999911262421
 20
1950.0
 30
0.0
 11
-439.99999911262421
 21
2350.0000000000009
 31
0.0
  0
LINE
  5
35B
  8
SERVICESPACE
  6
DASHDOT
 62
     2
 10
440.0000008873858
 20
0.0000000000009095
 30
0.0
 11
440.00000088737488
 21
2350.0000000000009
 31
0.0
  0
LINE
  5
35C
  8
SERVICESPACE
  6
DASHDOT
 62
     2
 10
-439.99999911262421
 20
2350.0000000000009
 30
0.0
 11
440.00000088737647
 21
1950.0
 31
0.0
  0
LINE
  5
35D
  8
SERVICESPACE
  6
DASHDOT
 62
     2
 10
440.00000088737488
 20
2350.0000000000009
 30
0.0
 11
-439.99999911262421
 21
1950.0
 31
0.0
  0
LINE
  5
35E
  8
SIZE
  6
CONTINUOUS
 62
    30
 10
330.00000088737568
 20
200.0
 30
0.0
 11
330.00000177475209
 21
-260.14679699039698
 31
0.0
  0
LINE
  5
35F
  8
SIZE
  6
CONTINUOUS
 62
    30
 10
440.00000088737647
 20
-20.0
 30
0.0
 11
440.00000088737647
 21
-260.07987492017861
 31
0.0
  0
LINE
  5
360
  8
SIZE
  6
CONTINUOUS
 62
    30
 10
330.00000088737568
 20
-240.74139134740011
 30
0.0
 11
440.00000088737647
 21
-240.74139134740011
 31
0.0
  0
LINE
  5
361
  8
SIZE
  6
CONTINUOUS
 62
    30
 10
182.62927831156409
 20
-240.7413913474002
 30
0.0
 11
329.99999999999937
 21
-240.74139134740011
 31
0.0
  0
CIRCLE
  5
362
  8
SIZE
  6
CONTINUOUS
 62
    30
 10
330.00000088737568
 20
-240.74139134740011
 30
0.0
 40
7.5
  0
CIRCLE
  5
363
  8
SIZE
  6
CONTINUOUS
 62
    30
 10
440.00000088737647
 20
-240.74139134740011
 30
0.0
 40
7.5
  0
TEXT
  5
364
  8
SIZE
  6
CONTINUOUS
 62
    30
 10
191.71428571428521
 20
-220.74139134740011
 30
0.0
 40
60.0
  1
110
 41
0.9
 72
     1
 11
250.85714285714229
 21
-220.74139134740011
 31
0.0
  0
POINT
  5
365
  8
DEFPOINTS
  6
CONTINUOUS
 62
     7
 10
330.00000088737568
 20
220.0
 30
0.0
  0
POINT
  5
366
  8
DEFPOINTS
  6
CONTINUOUS
 62
     7
 10
440.00000088737647
 20
0.0
 30
0.0
  0
POINT
  5
367
  8
DEFPOINTS
  6
CONTINUOUS
 62
     7
 10
440.00000088737647
 20
-240.74139134740011
 30
0.0
  0
LINE
  5
368
  8
SERVICESPACE
  6
DASHDOT
 62
     2
 10
1450.000000887386
 20
0.0000000000009095
 30
0.0
 11
440.0000008873858
 21
0.0000000000009095
 31
0.0
  0
LINE
  5
369
  8
SERVICESPACE
  6
DASHDOT
 62
     2
 10
1450.000000887386
 20
0.0000000000009095
 30
0.0
 11
1450.0000008873751
 21
2350.0000000000009
 31
0.0
  0
LINE
  5
36A
  8
SERVICESPACE
  6
DASHDOT
 62
     2
 10
440.00000088737488
 20
2350.0000000000009
 30
0.0
 11
1450.000000887386
 21
0.0000000000009095
 31
0.0
  0
LINE
  5
36B
  8
SERVICESPACE
  6
DASHDOT
 62
     2
 10
440.0000008873858
 20
0.0000000000009095
 30
0.0
 11
1450.0000008873751
 21
2350.0000000000009
 31
0.0
  0
LINE
  5
36C
  8
SIZE
  6
CONTINUOUS
 62
    30
 10
440.00000088737488
 20
2370.0000000000009
 30
0.0
 11
440.00000088737488
 21
2481.8209397554278
 31
0.0
  0
LINE
  5
36D
  8
SIZE
  6
CONTINUOUS
 62
    30
 10
1450.0000008873751
 20
2370.0000000000009
 30
0.0
 11
1450.0000008873751
 21
2481.8209397554278
 31
0.0
  0
LINE
  5
36E
  8
SIZE
  6
CONTINUOUS
 62
    30
 10
440.00000088737488
 20
2461.8209397554278
 30
0.0
 11
1450.0000008873751
 21
2461.8209397554278
 31
0.0
  0
CIRCLE
  5
36F
  8
SIZE
  6
CONTINUOUS
 62
    30
 10
440.00000088737488
 20
2461.8209397554278
 30
0.0
 40
7.5
  0
CIRCLE
  5
370
  8
SIZE
  6
CONTINUOUS
 62
    30
 10
1450.0000008873751
 20
2461.8209397554278
 30
0.0
 40
7.5
  0
TEXT
  5
371
  8
SIZE
  6
CONTINUOUS
 62
    30
 10
794.82857231594619
 20
2481.8209397554292
 30
0.0
 40
60.0
  1
1010以上
 41
0.9
 72
     1
 11
945.00000088737465
 21
2481.8209397554292
 31
0.0
  0
POINT
  5
372
  8
DEFPOINTS
  6
CONTINUOUS
 62
     7
 10
440.00000088737488
 20
2350.0000000000009
 30
0.0
  0
POINT
  5
373
  8
DEFPOINTS
  6
CONTINUOUS
 62
     7
 10
1450.0000008873751
 20
2350.0000000000009
 30
0.0
  0
POINT
  5
374
  8
DEFPOINTS
  6
CONTINUOUS
 62
     7
 10
1450.0000008873751
 20
2461.8209397554278
 30
0.0
  0
POINT
  5
37B
  8
DEFPOINTS
  6
CONTINUOUS
 62
     7
 10
1450.0000008873751
 20
2350.0000000000009
 30
0.0
  0
POINT
  5
37C
  8
DEFPOINTS
  6
CONTINUOUS
 62
     7
 10
440.00000088737647
 20
1950.0
 30
0.0
  0
TEXT
  5
37E
  8
NOTE
  6
CONTINUOUS
 62
     4
 10
746.77083417324036
 20
1772.3529938499839
 30
0.0
 40
60.0
  1
サービススペース
 50
0.0000025044165917
 41
0.7
  7
STANDARD1
  0
TEXT
  5
37F
  8
NOTE
  6
CONTINUOUS
 62
     4
 10
-186.82899253048069
 20
2251.4037548488809
 30
0.0
 40
60.0
  1
サービススペース
 50
0.0000025044165917
 41
0.7
  7
STANDARD1
  0
TEXT
  5
388
  8
ETC
  6
CONTINUOUS
 62
    61
 10
1002.0078289908701
 20
2684.5409544627041
 30
0.0
 40
80.0
  1
PFD-P560CMD-E-2C_5
 50
0.0000029998804485
 41
0.8
  7
STANDARD_MODELNAME
  0
LINE
  5
41F
  8
NOTE
  6
CONTINUOUS
 62
     4
 10
371.00000088737579
 20
445.0
 30
0.0
 11
289.00000088737579
 21
445.0
 31
0.0
  0
LINE
  5
420
  8
NOTE
  6
CONTINUOUS
 62
     4
 10
371.00000088737579
 20
395.0
 30
0.0
 11
289.00000088737579
 21
395.0
 31
0.0
  0
LINE
  5
421
  8
NOTE
  6
CONTINUOUS
 62
     4
 10
371.00000088737579
 20
345.0
 30
0.0
 11
289.00000088737579
 21
345.0
 31
0.0
  0
LINE
  5
422
  8
NOTE
  6
CONTINUOUS
 62
     4
 10
330.00000088737579
 20
486.0
 30
0.0
 11
330.00000088737579
 21
304.0
 31
0.0
  0
LINE
  5
423
  8
NOTE
  6
CONTINUOUS
 62
     4
 10
380.00000088737579
 20
270.0
 30
0.0
 11
280.00000088737579
 21
270.0
 31
0.0
  0
LINE
  5
424
  8
NOTE
  6
CENTER
 62
     4
 10
330.00000088737579
 20
320.0
 30
0.0
 11
330.00000088737579
 21
220.0
 31
0.0
  0
LINE
  5
425
  8
NOTE
  6
CONTINUOUS
 62
     4
 10
-419.99999911262421
 20
-7.384224131247719
 30
0.0
 11
-419.99999911262421
 21
10.14037423200079
 31
0.0
  0
LINE
  5
426
  8
NOTE
  6
CONTINUOUS
 62
     4
 10
420.00000088737647
 20
-12.421497938724769
 30
0.0
 11
420.00000088737647
 21
12.421497938724769
 31
0.0
  0
LINE
  5
427
  8
NOTE
  6
CONTINUOUS
 62
     4
 10
-419.99999911262421
 20
-12.421497938724769
 30
0.0
 11
-419.99999911262421
 21
12.421497938724769
 31
0.0
  0
TEXT
  5
428
  8
NOTE
  6
CONTINUOUS
 62
     4
 10
934.08380089396451
 20
-740.56666653547381
 30
0.0
 40
60.0
  1
加湿器給水配管穴
 50
0.0000025044165917
 41
0.7
  7
STANDARD1
  0
TEXT
  5
429
  8
NOTE
  6
CONTINUOUS
 62
     4
 10
937.95817831557088
 20
-846.29786849808943
 30
0.0
 40
60.0
  1
(φ50ノックアウト穴)
 50
0.0000025044165917
 41
0.7
  7
STANDARD1
  0
TEXT
  5
42A
  8
NOTE
  6
CONTINUOUS
 62
     4
 10
926.7633242678753
 20
-629.60951497117355
 30
0.0
 40
60.0
  1
(φ32ノックアウト穴)
 50
0.0000025044165917
 41
0.7
  7
STANDARD1
  0
TEXT
  5
42B
  8
NOTE
  6
CONTINUOUS
 62
     4
 10
926.42193005422905
 20
-420.5664418612987
 30
0.0
 40
60.0
  1
(φ32ノックアウト穴)
 50
0.0000025044165917
 41
0.7
  7
STANDARD1
  0
TEXT
  5
42C
  8
NOTE
  6
CONTINUOUS
 62
     4
 10
930.64923628994882
 20
-201.0167919283968
 30
0.0
 40
60.0
  1
(φ32ノックアウト穴)
 50
0.0000025044165917
 41
0.7
  7
STANDARD1
  0
LINE
  5
42D
  8
NOTE
  6
CONTINUOUS
 62
     4
 10
330.00000088737579
 20
445.0
 30
0.0
 11
921.04095639470358
 21
-119.1508753830485
 31
0.0
  0
LINE
  5
42E
  8
NOTE
  6
CONTINUOUS
 62
     4
 10
921.04095639470358
 20
-119.1508753830485
 30
0.0
 11
1477.1965478361899
 21
-119.1508753830485
 31
0.0
  0
LINE
  5
42F
  8
NOTE
  6
CONTINUOUS
 62
     4
 10
346.58486697603621
 20
418.74053868791822
 30
0.0
 11
330.00000088737579
 21
445.0
 31
0.0
  0
LINE
  5
430
  8
NOTE
  6
CONTINUOUS
 62
     4
 10
330.00000088737579
 20
445.0
 30
0.0
 11
357.49264682901139
 21
430.55107233365192
 31
0.0
  0
LINE
  5
431
  8
NOTE
  6
CONTINUOUS
 62
     4
 10
330.00000088737579
 20
395.0
 30
0.0
 11
916.81365015898416
 21
-338.70052531595047
 31
0.0
  0
LINE
  5
432
  8
NOTE
  6
CONTINUOUS
 62
     4
 10
916.81365015898416
 20
-338.70052531595047
 30
0.0
 11
1472.96924160047
 21
-338.70052531595047
 31
0.0
  0
LINE
  5
433
  8
NOTE
  6
CONTINUOUS
 62
     4
 10
343.89750559177349
 20
367.22453502512099
 30
0.0
 11
330.00000088737579
 21
395.0
 31
0.0
  0
LINE
  5
434
  8
NOTE
  6
CONTINUOUS
 62
     4
 10
330.00000088737579
 20
395.0
 30
0.0
 11
355.92332542043818
 21
377.894493964427
 31
0.0
  0
LINE
  5
435
  8
NOTE
  6
CONTINUOUS
 62
     4
 10
330.00000088737579
 20
345.0
 30
0.0
 11
917.15504437263098
 21
-547.74359842582544
 31
0.0
  0
LINE
  5
436
  8
NOTE
  6
CONTINUOUS
 62
     4
 10
917.15504437263098
 20
-547.74359842582544
 30
0.0
 11
1473.3106358141169
 21
-547.74359842582544
 31
0.0
  0
LINE
  5
437
  8
NOTE
  6
CONTINUOUS
 62
     4
 10
341.78040135690571
 20
316.26258090299331
 30
0.0
 11
330.00000088737579
 21
345.0
 31
0.0
  0
LINE
  5
438
  8
NOTE
  6
CONTINUOUS
 62
     4
 10
330.00000088737579
 20
345.0
 30
0.0
 11
354.57083642306497
 21
326.0028651460907
 31
0.0
  0
LINE
  5
439
  8
NOTE
  6
CONTINUOUS
 62
     4
 10
330.00000088737579
 20
270.0
 30
0.0
 11
914.59461273690295
 21
-759.47969815892293
 31
0.0
  0
LINE
  5
43A
  8
NOTE
  6
CONTINUOUS
 62
     4
 10
914.59461273690295
 20
-759.47969815892293
 30
0.0
 11
1484.6638784014799
 21
-759.47969815892293
 31
0.0
  0
LINE
  5
43B
  8
NOTE
  6
CONTINUOUS
 62
     4
 10
340.15400191484599
 20
240.6484522603387
 30
0.0
 11
330.00000088737579
 21
270.0
 31
0.0
  0
LINE
  5
43C
  8
NOTE
  6
CONTINUOUS
 62
     4
 10
330.00000088737579
 20
270.0
 30
0.0
 11
353.46939750476582
 21
249.65781442432669
 31
0.0
  0
LINE
  5
43D
  8
NOTE
  6
CONTINUOUS
 62
     4
 10
-407.5785011738991
 20
0.0
 30
0.0
 11
-432.42149705134869
 21
0.0
 31
0.0
  0
LINE
  5
43E
  8
NOTE
  6
CONTINUOUS
 62
     4
 10
432.42149882610119
 20
0.0
 30
0.0
 11
407.57850294865159
 21
0.0
 31
0.0
  0
TEXT
  5
43F
  8
NOTE
  6
CONTINUOUS
 62
     4
 10
984.82832778147031
 20
-525.91654467279159
 30
0.0
 40
60.0
  1
CL3
 50
0.0000010487279845
 41
0.7
  7
STANDARD1
  0
TEXT
  5
440
  8
NOTE
  6
CONTINUOUS
 62
     4
 10
949.04742351880839
 20
-316.87347154174591
 30
0.0
 40
60.0
  1
EL4 (本体)
 50
0.0000010487279845
 41
0.7
  7
STANDARD1
  0
TEXT
  5
441
  8
NOTE
  6
CONTINUOUS
 62
     4
 10
941.59626450240376
 20
-97.323827303552207
 30
0.0
 40
60.0
  1
EL5 (加湿器)
 50
0.0000010487279845
 41
0.7
  7
STANDARD1
  0
LINE
  5
442
  8
NOTE
  6
CONTINUOUS
 62
     4
 10
-339.99999911262421
 20
-12.421497938724769
 30
0.0
 11
-339.99999911262421
 21
12.421497938724769
 31
0.0
  0
LINE
  5
443
  8
NOTE
  6
CONTINUOUS
 62
     4
 10
-327.5785011738995
 20
0.0
 30
0.0
 11
-352.42149705134898
 21
0.0
 31
0.0
  0
LINE
  5
444
  8
NOTE
  6
CONTINUOUS
 62
     4
 10
340.00000088737579
 20
-12.421497938724769
 30
0.0
 11
340.00000088737579
 21
12.421497938724769
 31
0.0
  0
LINE
  5
445
  8
NOTE
  6
CONTINUOUS
 62
     4
 10
352.42149882610011
 20
0.0
 30
0.0
 11
327.57850294865148
 21
0.0
 31
0.0
  0
LINE
  5
446
  8
NOTE
  6
CONTINUOUS
 62
     4
 10
340.00000086491991
 20
-12.421498553397671
 30
0.0
 11
340.00000090983258
 21
12.42149732405187
 31
0.0
  0
LINE
  5
447
  8
NOTE
  6
CONTINUOUS
 62
     4
 10
327.5785029486517
 20
-0.0000005922165656
 30
0.0
 11
352.42149882610101
 21
-0.0000006371292329
 31
0.0
  0
LINE
  5
448
  8
NOTE
  6
CONTINUOUS
 62
     4
 10
-339.99999913508009
 20
-12.42149732405232
 30
0.0
 11
-339.99999909016742
 21
12.42149855339721
 31
0.0
  0
LINE
  5
449
  8
NOTE
  6
CONTINUOUS
 62
     4
 10
-352.4214970513483
 20
0.0000006371292329
 30
0.0
 11
-327.57850117389899
 21
0.0000005922165656
 31
0.0
  0
LINE
  5
4CC
  8
SIZE
  6
CONTINUOUS
 62
    30
 10
330.00000177475209
 20
200.0
 30
0.0
 11
330.00000177475209
 21
-260.14679699039698
 31
0.0
  0
LINE
  5
4CD
  8
SIZE
  6
CONTINUOUS
 62
    30
 10
440.00000177475272
 20
-20.0
 30
0.0
 11
440.00000088737647
 21
-260.07987492017861
 31
0.0
  0
LINE
  5
4CE
  8
SIZE
  6
CONTINUOUS
 62
    30
 10
330.00000177475209
 20
-240.7413913474002
 30
0.0
 11
440.00000177475272
 21
-240.7413913474002
 31
0.0
  0
LINE
  5
4CF
  8
SIZE
  6
CONTINUOUS
 62
    30
 10
141.7142866016612
 20
-240.7413913474002
 30
0.0
 11
330.00000088737568
 21
-240.7413913474002
 31
0.0
  0
CIRCLE
  5
4D0
  8
SIZE
  6
CONTINUOUS
 62
    30
 10
330.00000177475209
 20
-240.7413913474002
 30
0.0
 40
7.5
  0
CIRCLE
  5
4D1
  8
SIZE
  6
CONTINUOUS
 62
    30
 10
440.00000177475272
 20
-240.7413913474002
 30
0.0
 40
7.5
  0
TEXT
  5
4D2
  8
SIZE
  6
CONTINUOUS
 62
    30
 10
191.7142866016614
 20
-220.7413913474002
 30
0.0
 40
60.0
  1
110
 41
0.9
 72
     1
 11
250.85714374451859
 21
-220.7413913474002
 31
0.0
  0
POINT
  5
4D3
  8
DEFPOINTS
  6
CONTINUOUS
 62
     7
 10
440.00000177475272
 20
-240.7413913474002
 30
0.0
  0
LINE
  5
4D4
  8
SIZE
  6
CONTINUOUS
 62
    30
 10
-459.99999822524791
 20
0.0
 30
0.0
 11
-714.56109389425683
 21
0.0
 31
0.0
  0
LINE
  5
4D5
  8
SIZE
  6
CONTINUOUS
 62
    30
 10
-459.9999991126237
 20
1914.9999999999991
 30
0.0
 11
-714.56109389425683
 21
1914.9999999999991
 31
0.0
  0
LINE
  5
4D6
  8
SIZE
  6
CONTINUOUS
 62
    30
 10
-694.56109389425683
 20
0.0
 30
0.0
 11
-694.56109389425683
 21
1914.9999999999991
 31
0.0
  0
CIRCLE
  5
4D7
  8
SIZE
  6
CONTINUOUS
 62
    30
 10
-694.56109389425683
 20
0.0
 30
0.0
 40
7.5
  0
CIRCLE
  5
4D8
  8
SIZE
  6
CONTINUOUS
 62
    30
 10
-694.56109389425683
 20
1914.9999999999991
 30
0.0
 40
7.5
  0
TEXT
  5
4D9
  8
SIZE
  6
CONTINUOUS
 62
    30
 10
-714.56109389425683
 20
872.64285714285575
 30
0.0
 40
60.0
  1
1915
 50
90.0
 41
0.9
 72
     1
 11
-714.56109389425683
 21
957.49999999999864
 31
0.0
  0
POINT
  5
4DA
  8
DEFPOINTS
  6
CONTINUOUS
 62
     7
 10
-694.56109389425683
 20
1914.9999999999991
 30
0.0
  0
LINE
  5
4DB
  8
SIZE
  6
CONTINUOUS
 62
    30
 10
-459.9999991126237
 20
1914.9999999999991
 30
0.0
 11
-714.56109389425865
 21
1914.9999999999991
 31
0.0
  0
LINE
  5
4DC
  8
SIZE
  6
CONTINUOUS
 62
    30
 10
-459.9999991126237
 20
1949.9999999999991
 30
0.0
 11
-714.56109389425865
 21
1949.9999999999991
 31
0.0
  0
LINE
  5
4DD
  8
SIZE
  6
CONTINUOUS
 62
    30
 10
-694.56109389425774
 20
1914.9999999999991
 30
0.0
 11
-694.56109389425774
 21
1884.9999999999991
 31
0.0
  0
LINE
  5
4DE
  8
SIZE
  6
CONTINUOUS
 62
    30
 10
-694.56109389425774
 20
1949.9999999999991
 30
0.0
 11
-694.56109389425774
 21
2137.4285714285752
 31
0.0
  0
LINE
  5
4DF
  8
SIZE
  6
CONTINUOUS
 62
    30
 10
-694.56109389425774
 20
1914.9999999999991
 30
0.0
 11
-694.56109389425774
 21
1949.9999999999991
 31
0.0
  0
CIRCLE
  5
4E0
  8
SIZE
  6
CONTINUOUS
 62
    30
 10
-694.56109389425774
 20
1914.9999999999991
 30
0.0
 40
7.5
  0
CIRCLE
  5
4E1
  8
SIZE
  6
CONTINUOUS
 62
    30
 10
-694.56109389425774
 20
1949.9999999999991
 30
0.0
 40
7.5
  0
TEXT
  5
4E2
  8
SIZE
  6
CONTINUOUS
 62
    30
 10
-714.56109389425865
 20
2030.000000000002
 30
0.0
 40
60.0
  1
35
 50
90.0
 41
0.9
 72
     1
 11
-714.56109389425865
 21
2073.7142857142871
 31
0.0
  0
POINT
  5
4E3
  8
DEFPOINTS
  6
CONTINUOUS
 62
     7
 10
-694.56109389425774
 20
1949.9999999999991
 30
0.0
  0
LINE
  5
4E4
  8
SIZE
  6
CONTINUOUS
 62
    30
 10
-459.9999991126237
 20
1949.9999999999991
 30
0.0
 11
-841.06379120060626
 21
1949.9999999999991
 31
0.0
  0
LINE
  5
4E5
  8
SIZE
  6
CONTINUOUS
 62
    30
 10
-459.99999822524791
 20
0.0
 30
0.0
 11
-841.06379120060626
 21
0.0
 31
0.0
  0
LINE
  5
4E6
  8
SIZE
  6
CONTINUOUS
 62
    30
 10
-821.06379120060626
 20
1949.9999999999991
 30
0.0
 11
-821.06379120060626
 21
0.0
 31
0.0
  0
CIRCLE
  5
4E7
  8
SIZE
  6
CONTINUOUS
 62
    30
 10
-821.06379120060626
 20
1949.9999999999991
 30
0.0
 40
7.5
  0
CIRCLE
  5
4E8
  8
SIZE
  6
CONTINUOUS
 62
    30
 10
-821.06379120060626
 20
0.0
 30
0.0
 40
7.5
  0
TEXT
  5
4E9
  8
SIZE
  6
CONTINUOUS
 62
    30
 10
-841.06379120060626
 20
884.99999999999955
 30
0.0
 40
60.0
  1
1950
 50
90.0
 41
0.9
 72
     1
 11
-841.06379120060626
 21
974.99999999999955
 31
0.0
  0
POINT
  5
4EA
  8
DEFPOINTS
  6
CONTINUOUS
 62
     7
 10
-821.06379120060626
 20
0.0
 30
0.0
  0
LINE
  5
4EB
  8
SIZE
  6
CONTINUOUS
 62
    30
 10
-459.99999822524609
 20
2350.0
 30
0.0
 11
-841.06379120060819
 21
2350.0
 31
0.0
  0
LINE
  5
4EC
  8
SIZE
  6
CONTINUOUS
 62
    30
 10
-459.9999991126237
 20
1949.9999999999991
 30
0.0
 11
-841.06379120060819
 21
1949.9999999999991
 31
0.0
  0
LINE
  5
4ED
  8
SIZE
  6
CONTINUOUS
 62
    30
 10
-821.06379120060808
 20
2350.0
 30
0.0
 11
-821.06379120060808
 21
1949.9999999999991
 31
0.0
  0
CIRCLE
  5
4EE
  8
SIZE
  6
CONTINUOUS
 62
    30
 10
-821.06379120060808
 20
2350.0
 30
0.0
 40
7.5
  0
CIRCLE
  5
4EF
  8
SIZE
  6
CONTINUOUS
 62
    30
 10
-821.06379120060808
 20
1949.9999999999991
 30
0.0
 40
7.5
  0
TEXT
  5
4F0
  8
SIZE
  6
CONTINUOUS
 62
    30
 10
-841.06379120060819
 20
2015.2571428571459
 30
0.0
 40
60.0
  1
400以上
 50
90.0
 41
0.9
 72
     1
 11
-841.06379120060819
 21
2150.0000000000032
 31
0.0
  0
POINT
  5
4F1
  8
DEFPOINTS
  6
CONTINUOUS
 62
     7
 10
-821.06379120060808
 20
1949.9999999999991
 30
0.0
  0
LINE
  5
4F2
  8
SIZE
  6
CONTINUOUS
 62
    30
 10
-459.9999991126237
 20
0.0
 30
0.0
 11
-602.94328034597811
 21
0.0
 31
0.0
  0
LINE
  5
4F3
  8
SIZE
  6
CONTINUOUS
 62
    30
 10
78.296973892007372
 20
300.0
 30
0.0
 11
-603.45637109725749
 21
299.99999999999977
 31
0.0
  0
LINE
  5
4F4
  8
SIZE
  6
CONTINUOUS
 62
    30
 10
-585.73752174001811
 20
0.0
 30
0.0
 11
-585.73752174001811
 21
299.99999999999977
 31
0.0
  0
CIRCLE
  5
4F5
  8
SIZE
  6
CONTINUOUS
 62
    30
 10
-585.73752174001811
 20
0.0
 30
0.0
 40
7.5
  0
CIRCLE
  5
4F6
  8
SIZE
  6
CONTINUOUS
 62
    30
 10
-585.73752174001811
 20
299.99999999999977
 30
0.0
 40
7.5
  0
TEXT
  5
4F7
  8
SIZE
  6
CONTINUOUS
 62
    30
 10
-605.82910598452099
 20
80.571428571428584
 30
0.0
 40
60.0
  1
300
 50
90.0
 41
0.9
 72
     1
 11
-605.82910598452099
 21
150.0
 31
0.0
  0
POINT
  5
4F8
  8
DEFPOINTS
  6
CONTINUOUS
 62
     7
 10
-585.73752174001811
 20
299.99999999999977
 30
0.0
 50
180.0
  0
TEXT
  5
4F9
  8
NOTE
  6
CONTINUOUS
 62
     4
 10
-837.19049612421759
 20
-128.3775219322961
 30
0.0
 40
60.0
  1
D1
 50
359.99999749558327
 41
0.7
  7
STANDARD1
  0
TEXT
  5
4FA
  8
NOTE
  6
CONTINUOUS
 62
     4
 10
-900.96464070886077
 20
-236.3162031147931
 30
0.0
 40
60.0
  1
<Rp1-1/4>
 50
359.99999749558327
 41
0.7
  7
STANDARD1
  0
LINE
  5
4FB
  8
NOTE
  6
CONTINUOUS
 62
     4
 10
-209.99999911262191
 20
0.0
 30
0.0
 11
-528.96674056958807
 21
-157.02121544666801
 31
0.0
  0
LINE
  5
4FC
  8
NOTE
  6
CONTINUOUS
 62
     4
 10
-528.96674056958807
 20
-157.02121544666801
 30
0.0
 11
-916.70304990423085
 21
-157.02121544666801
 31
0.0
  0
LINE
  5
4FD
  8
NOTE
  6
CONTINUOUS
 62
     4
 10
-243.99999911262199
 20
0.0
 30
0.0
 11
-175.99999911262191
 21
0.0
 31
0.0
  0
LINE
  5
4FE
  8
NOTE
  6
CONTINUOUS
 62
     4
 10
-209.99999911262191
 20
-34.0
 30
0.0
 11
-209.99999911262191
 21
34.0
 31
0.0
  0
LINE
  5
4FF
  8
NOTE
  6
CONTINUOUS
 62
     4
 10
-232.2376167272237
 20
-21.681915376788311
 30
0.0
 11
-209.99999911261651
 21
-0.0000000000045475
 31
0.0
  0
LINE
  5
500
  8
NOTE
  6
CONTINUOUS
 62
     4
 10
-209.99999911261651
 20
-0.0000000000045475
 30
0.0
 11
-240.09929854016011
 21
-7.658280848246477
 31
0.0
  0
LINE
  5
501
  8
SIZE
  6
CONTINUOUS
 62
    30
 10
-209.99999911262191
 20
-54.0
 30
0.0
 11
-209.99999911262191
 21
-317.08325251533819
 31
0.0
  0
LINE
  5
502
  8
SIZE
  6
CONTINUOUS
 62
    30
 10
-439.99999911262188
 20
-20.0
 30
0.0
 11
-439.99999911262188
 21
-317.08325251533819
 31
0.0
  0
LINE
  5
503
  8
SIZE
  6
CONTINUOUS
 62
    30
 10
-209.99999911262191
 20
-297.0832525153383
 30
0.0
 11
-439.99999911262188
 21
-297.0832525153383
 31
0.0
  0
TEXT
  5
504
  8
SIZE
  6
CONTINUOUS
 62
    30
 10
-394.42857054119293
 20
-276.83508330214681
 30
0.0
 40
60.0
  1
230
 41
0.9
 72
     1
 11
-324.99999911262148
 21
-276.83508330214681
 31
0.0
  0
CIRCLE
  5
505
  8
SIZE
  6
CONTINUOUS
 62
    30
 10
-439.99999911262188
 20
-297.0832525153383
 30
0.0
 40
7.5
  0
CIRCLE
  5
506
  8
SIZE
  6
CONTINUOUS
 62
    30
 10
-209.99999911262191
 20
-297.0832525153383
 30
0.0
 40
7.5
  0
CIRCLE
  5
516
  8
FIX
  6
CONTINUOUS
 62
    11
 10
340.00000177475249
 20
-0.0000006146728992
 30
0.0
 40
12.42149793872491
  0
CIRCLE
  5
517
  8
FIX
  6
CONTINUOUS
 62
    11
 10
-339.99999822524751
 20
0.0000006146726719
 30
0.0
 40
12.42149793872491
  0
LINE
  5
518
  8
SIZE
  6
CONTINUOUS
 62
    30
 10
340.00000171613891
 20
-32.421498553397669
 30
0.0
 11
340.00000038777398
 21
-767.19312153766066
 31
0.0
  0
LINE
  5
519
  8
SIZE
  6
CONTINUOUS
 62
    30
 10
-339.99999828386098
 20
-32.421497324052098
 30
0.0
 11
-339.9999996122263
 21
-767.19312030831497
 31
0.0
  0
LINE
  5
51A
  8
SIZE
  6
CONTINUOUS
 62
    30
 10
340.00000042393123
 20
-747.19312153766066
 30
0.0
 11
-339.99999957606877
 21
-747.19312030831486
 31
0.0
  0
CIRCLE
  5
51B
  8
SIZE
  6
CONTINUOUS
 62
    30
 10
340.00000042393123
 20
-747.19312153766066
 30
0.0
 40
7.5
  0
CIRCLE
  5
51C
  8
SIZE
  6
CONTINUOUS
 62
    30
 10
-339.99999957606877
 20
-747.19312030831486
 30
0.0
 40
7.5
  0
TEXT
  5
51D
  8
SIZE
  6
CONTINUOUS
 62
    30
 10
-69.428570981021821
 20
-734.12883999023643
 30
0.0
 40
60.0
  1
680
 50
359.99999989641708
 41
0.9
 72
     1
 11
0.0000004475496098
 21
-734.12884011575375
 31
0.0
  0
LINE
  5
51E
  8
SIZE
  6
CONTINUOUS
 62
    30
 10
340.00000171613891
 20
-32.421498553397669
 30
0.0
 11
340.00000038777398
 21
-767.19312153766066
 31
0.0
  0
LINE
  5
51F
  8
SIZE
  6
CONTINUOUS
 62
    30
 10
440.0000017385953
 20
-20.000000795459069
 30
0.0
 11
440.00000038777398
 21
-767.19312171844695
 31
0.0
  0
LINE
  5
520
  8
SIZE
  6
CONTINUOUS
 62
    30
 10
340.00000042393123
 20
-747.19312153766066
 30
0.0
 11
440.00000042393111
 21
-747.19312171844695
 31
0.0
  0
LINE
  5
521
  8
SIZE
  6
CONTINUOUS
 62
    30
 10
440.00000042393111
 20
-747.19312171844695
 30
0.0
 11
598.75142899535967
 21
-747.19312200544755
 31
0.0
  0
CIRCLE
  5
522
  8
SIZE
  6
CONTINUOUS
 62
    30
 10
340.00000042393123
 20
-747.19312153766066
 30
0.0
 40
7.5
  0
CIRCLE
  5
523
  8
SIZE
  6
CONTINUOUS
 62
    30
 10
440.00000042393111
 20
-747.19312171844695
 30
0.0
 40
7.5
  0
TEXT
  5
524
  8
SIZE
  6
CONTINUOUS
 62
    30
 10
469.02495537576499
 20
-734.1288409636868
 30
0.0
 40
60.0
  1
100
 50
359.99999989641708
 41
0.9
 72
     1
 11
533.31066966147932
 21
-734.12884107990658
 31
0.0
  0
LINE
  5
525
  8
SIZE
  6
CONTINUOUS
 62
    30
 10
420.00000082782702
 20
-32.421498698026433
 30
0.0
 11
419.9999992857264
 21
-885.41883337864124
 31
0.0
  0
LINE
  5
526
  8
SIZE
  6
CONTINUOUS
 62
    30
 10
-419.99999917123881
 20
-32.421497179423113
 30
0.0
 11
-420.00000071333938
 21
-885.41883186003815
 31
0.0
  0
LINE
  5
527
  8
SIZE
  6
CONTINUOUS
 62
    30
 10
419.99999932188348
 20
-865.41883337864135
 30
0.0
 11
-420.00000067718202
 21
-865.41883186003815
 31
0.0
  0
CIRCLE
  5
528
  8
SIZE
  6
CONTINUOUS
 62
    30
 10
419.99999932188348
 20
-865.41883337864135
 30
0.0
 40
7.5
  0
CIRCLE
  5
529
  8
SIZE
  6
CONTINUOUS
 62
    30
 10
-420.00000067718202
 20
-865.41883186003815
 30
0.0
 40
7.5
  0
TEXT
  5
52A
  8
SIZE
  6
CONTINUOUS
 62
    30
 10
-69.428572082602258
 20
-852.35455168658848
 30
0.0
 40
60.0
  1
840
 50
359.99999989641708
 41
0.9
 72
     1
 11
-0.0000006540308277
 21
-852.35455181210591
 31
0.0
  0
LINE
  5
52B
  8
SIZE
  6
CONTINUOUS
 62
    30
 10
-339.99999828386098
 20
-32.421497324052098
 30
0.0
 11
-339.9999996122263
 21
-767.19312030831497
 31
0.0
  0
LINE
  5
52C
  8
SIZE
  6
CONTINUOUS
 62
    30
 10
-439.99999826140441
 20
-19.999999204540241
 30
0.0
 11
-439.99999961222642
 21
-767.19312012752869
 31
0.0
  0
LINE
  5
52D
  8
SIZE
  6
CONTINUOUS
 62
    30
 10
-339.99999957606877
 20
-747.19312030831486
 30
0.0
 11
-439.9999995760686
 21
-747.1931201275288
 31
0.0
  0
LINE
  5
52E
  8
SIZE
  6
CONTINUOUS
 62
    30
 10
-439.9999995760686
 20
-747.1931201275288
 30
0.0
 11
-598.75142814749734
 21
-747.19311984052865
 31
0.0
  0
CIRCLE
  5
52F
  8
SIZE
  6
CONTINUOUS
 62
    30
 10
-339.99999957606877
 20
-747.19312030831486
 30
0.0
 40
7.5
  0
CIRCLE
  5
530
  8
SIZE
  6
CONTINUOUS
 62
    30
 10
-439.9999995760686
 20
-747.1931201275288
 30
0.0
 40
7.5
  0
TEXT
  5
531
  8
SIZE
  6
CONTINUOUS
 62
    30
 10
-590.83880014377701
 20
-734.1288390476002
 30
0.0
 40
60.0
  1
100
 50
359.99999989641708
 41
0.9
 72
     1
 11
-526.55308585806267
 21
-734.12883916381986
 31
0.0
  0
LINE
  5
532
  8
SIZE
  6
CONTINUOUS
 62
    30
 10
420.00000082876318
 20
-32.421498698026433
 30
0.0
 11
419.99999928666227
 21
-885.41883337864124
 31
0.0
  0
LINE
  5
533
  8
SIZE
  6
CONTINUOUS
 62
    30
 10
440.00000085122059
 20
-20.000000795459069
 30
0.0
 11
439.99999928666381
 21
-885.41883341479888
 31
0.0
  0
LINE
  5
534
  8
SIZE
  6
CONTINUOUS
 62
    30
 10
419.99999932281952
 20
-865.41883337864135
 30
0.0
 11
439.99999932282088
 21
-865.41883341479877
 31
0.0
  0
LINE
  5
535
  8
SIZE
  6
CONTINUOUS
 62
    30
 10
439.99999932282088
 20
-865.41883341479877
 30
0.0
 11
557.60857075139234
 21
-865.41883362741839
 31
0.0
  0
CIRCLE
  5
536
  8
SIZE
  6
CONTINUOUS
 62
    30
 10
419.99999932281952
 20
-865.41883337864135
 30
0.0
 40
7.5
  0
CIRCLE
  5
537
  8
SIZE
  6
CONTINUOUS
 62
    30
 10
439.99999932282088
 20
-865.41883341479877
 30
0.0
 40
7.5
  0
TEXT
  5
538
  8
SIZE
  6
CONTINUOUS
 62
    30
 10
461.41850823827332
 20
-852.35455264628638
 30
0.0
 40
60.0
  1
20
 50
359.99999989641708
 41
0.9
 72
     1
 11
505.13279395255898
 21
-852.35455272531578
 31
0.0
  0
LINE
  5
539
  8
SIZE
  6
CONTINUOUS
 62
    30
 10
-419.99999917123881
 20
-32.421497179423113
 30
0.0
 11
-420.00000071333938
 21
-885.41883186003815
 31
0.0
  0
LINE
  5
53A
  8
SIZE
  6
CONTINUOUS
 62
    30
 10
-439.99999826140441
 20
-19.999999204541151
 30
0.0
 11
-439.99999982596182
 21
-885.41883182388085
 31
0.0
  0
LINE
  5
53B
  8
SIZE
  6
CONTINUOUS
 62
    30
 10
-420.00000067718202
 20
-865.41883186003815
 30
0.0
 11
-439.99999978980441
 21
-865.41883182388074
 31
0.0
  0
LINE
  5
53C
  8
SIZE
  6
CONTINUOUS
 62
    30
 10
-439.99999978980441
 20
-865.41883182388074
 30
0.0
 11
-557.6085712183758
 21
-865.41883161126066
 31
0.0
  0
CIRCLE
  5
53D
  8
SIZE
  6
CONTINUOUS
 62
    30
 10
-420.00000067718202
 20
-865.41883186003815
 30
0.0
 40
7.5
  0
CIRCLE
  5
53E
  8
SIZE
  6
CONTINUOUS
 62
    30
 10
-439.99999978980441
 20
-865.41883182388074
 30
0.0
 40
7.5
  0
TEXT
  5
53F
  8
SIZE
  6
CONTINUOUS
 62
    30
 10
-544.27983643948915
 20
-852.35455082812371
 30
0.0
 40
60.0
  1
20
 50
359.99999989641708
 41
0.9
 72
     1
 11
-500.56555072520348
 21
-852.35455090715311
 31
0.0
  0
LINE
  5
540
  8
SIZE
  6
CONTINUOUS
 62
    30
 10
440.0000017385953
 20
-20.000000795459069
 30
0.0
 11
439.99999996384622
 21
-1001.684312681832
 31
0.0
  0
LINE
  5
541
  8
SIZE
  6
CONTINUOUS
 62
    30
 10
-439.99999826140441
 20
-19.999999204541151
 30
0.0
 11
-440.00000003615372
 21
-1001.684311090913
 31
0.0
  0
LINE
  5
542
  8
SIZE
  6
CONTINUOUS
 62
    30
 10
440.00000000000358
 20
-981.68431268183156
 30
0.0
 11
-439.99999999999631
 21
-981.68431109091341
 31
0.0
  0
CIRCLE
  5
543
  8
SIZE
  6
CONTINUOUS
 62
    30
 10
440.00000000000358
 20
-981.68431268183156
 30
0.0
 40
7.5
  0
CIRCLE
  5
544
  8
SIZE
  6
CONTINUOUS
 62
    30
 10
-439.99999999999631
 20
-981.68431109091341
 30
0.0
 40
7.5
  0
TEXT
  5
545
  8
SIZE
  6
CONTINUOUS
 62
    30
 10
-69.428571404265185
 20
-968.24162266419012
 30
0.0
 40
60.0
  1
880
 50
359.99999989641708
 41
0.9
 72
     1
 11
0.0000000243062459
 21
-968.24162278970755
 31
0.0
  0
LINE
  5
585
  8
NOTE
  6
CONTINUOUS
 62
     4
 10
5.999999999998181
 20
300.0
 30
0.0
 11
73.999999999998181
 21
300.0
 31
0.0
  0
LINE
  5
586
  8
NOTE
  6
CONTINUOUS
 62
     4
 10
39.999999999998181
 20
266.0
 30
0.0
 11
39.999999999998181
 21
334.0
 31
0.0
  0
LINE
  5
587
  8
NOTE
  6
CONTINUOUS
 62
     4
 10
-159.00000000000361
 20
300.0
 30
0.0
 11
-91.000000000003624
 21
300.0
 31
0.0
  0
LINE
  5
588
  8
NOTE
  6
CONTINUOUS
 62
     4
 10
-125.0000000000036
 20
266.0
 30
0.0
 11
-125.0000000000036
 21
334.0
 31
0.0
  0
LINE
  5
589
  8
NOTE
  6
CONTINUOUS
 62
     4
 10
90.999999999996376
 20
300.0
 30
0.0
 11
158.99999999999631
 21
300.0
 31
0.0
  0
LINE
  5
58A
  8
NOTE
  6
CONTINUOUS
 62
     4
 10
124.99999999999631
 20
266.0
 30
0.0
 11
124.99999999999631
 21
334.0
 31
0.0
  0
LINE
  5
58B
  8
NOTE
  6
CONTINUOUS
 62
     4
 10
-74.000000000001819
 20
300.0
 30
0.0
 11
-6.0000000000018181
 21
300.0
 31
0.0
  0
LINE
  5
58C
  8
NOTE
  6
CONTINUOUS
 62
     4
 10
-40.000000000001819
 20
266.0
 30
0.0
 11
-40.000000000001819
 21
334.0
 31
0.0
  0
LINE
  5
58D
  8
SIZE
  6
CONTINUOUS
 62
    30
 10
439.99999999999812
 20
-20.0
 30
0.0
 11
439.99999999999812
 21
-431.07547386723581
 31
0.0
  0
LINE
  5
58E
  8
SIZE
  6
CONTINUOUS
 62
    30
 10
124.99999999999631
 20
225.26753993496089
 30
0.0
 11
124.99999999999631
 21
-431.07547386723581
 31
0.0
  0
LINE
  5
58F
  8
SIZE
  6
CONTINUOUS
 62
    30
 10
439.99999999999812
 20
-411.0754738672357
 30
0.0
 11
124.99999999999631
 21
-411.0754738672357
 31
0.0
  0
CIRCLE
  5
590
  8
SIZE
  6
CONTINUOUS
 62
    30
 10
439.99999999999812
 20
-411.0754738672357
 30
0.0
 40
7.5
  0
CIRCLE
  5
591
  8
SIZE
  6
CONTINUOUS
 62
    30
 10
124.99999999999631
 20
-411.0754738672357
 30
0.0
 40
7.5
  0
TEXT
  5
592
  8
SIZE
  6
CONTINUOUS
 62
    30
 10
218.21428571428211
 20
-391.07547386723581
 30
0.0
 40
60.0
  1
315
 41
0.9
 72
     1
 11
282.49999999999642
 21
-391.07547386723581
 31
0.0
  0
LINE
  5
593
  8
SIZE
  6
CONTINUOUS
 62
    30
 10
124.99999999999631
 20
225.26753993496089
 30
0.0
 11
124.99999999999631
 21
-431.07547386723581
 31
0.0
  0
LINE
  5
594
  8
SIZE
  6
CONTINUOUS
 62
    30
 10
39.999999999998181
 20
225.2674999999999
 30
0.0
 11
39.999999999998181
 21
-431.07547386723581
 31
0.0
  0
LINE
  5
595
  8
SIZE
  6
CONTINUOUS
 62
    30
 10
124.99999999999631
 20
-411.0754738672357
 30
0.0
 11
39.999999999998181
 21
-411.0754738672357
 31
0.0
  0
LINE
  5
596
  8
SIZE
  6
CONTINUOUS
 62
    30
 10
82.499999999997286
 20
-411.0754738672357
 30
0.0
 11
147.53680857723879
 21
-520.81683077691105
 31
0.0
  0
LINE
  5
597
  8
SIZE
  6
CONTINUOUS
 62
    30
 10
147.53680857723879
 20
-520.81683077691105
 30
0.0
 11
274.9653800058104
 21
-520.81683077691105
 31
0.0
  0
TEXT
  5
598
  8
SIZE
  6
CONTINUOUS
 62
    30
 10
167.5368085772389
 20
-500.81683077691099
 30
0.0
 40
60.0
  1
85
 41
0.9
 72
     1
 11
211.25109429152459
 21
-500.81683077691099
 31
0.0
  0
CIRCLE
  5
599
  8
SIZE
  6
CONTINUOUS
 62
    30
 10
124.99999999999631
 20
-411.0754738672357
 30
0.0
 40
7.5
  0
CIRCLE
  5
59A
  8
SIZE
  6
CONTINUOUS
 62
    30
 10
39.999999999998181
 20
-411.0754738672357
 30
0.0
 40
7.5
  0
LINE
  5
59B
  8
SIZE
  6
CONTINUOUS
 62
    30
 10
39.999999999998181
 20
225.2674999999999
 30
0.0
 11
39.999999999998181
 21
-431.07547386723581
 31
0.0
  0
LINE
  5
59C
  8
SIZE
  6
CONTINUOUS
 62
    30
 10
-40.000000000001819
 20
225.2674999999999
 30
0.0
 11
-40.000000000001819
 21
-431.07547386723581
 31
0.0
  0
LINE
  5
59D
  8
SIZE
  6
CONTINUOUS
 62
    30
 10
39.999999999998181
 20
-411.0754738672357
 30
0.0
 11
-40.000000000001819
 21
-411.0754738672357
 31
0.0
  0
LINE
  5
59E
  8
SIZE
  6
CONTINUOUS
 62
    30
 10
-0.000000000001819
 20
-411.0754738672357
 30
0.0
 11
-55.640225464489049
 21
-525.36949965363146
 31
0.0
  0
LINE
  5
59F
  8
SIZE
  6
CONTINUOUS
 62
    30
 10
-55.640225464489049
 20
-525.36949965363146
 30
0.0
 11
-183.06879689306061
 21
-525.36949965363146
 31
0.0
  0
TEXT
  5
5A0
  8
SIZE
  6
CONTINUOUS
 62
    30
 10
-163.06879689306049
 20
-505.36949965363141
 30
0.0
 40
60.0
  1
80
 41
0.9
 72
     1
 11
-119.3545111787748
 21
-505.36949965363141
 31
0.0
  0
CIRCLE
  5
5A1
  8
SIZE
  6
CONTINUOUS
 62
    30
 10
39.999999999998181
 20
-411.0754738672357
 30
0.0
 40
7.5
  0
CIRCLE
  5
5A2
  8
SIZE
  6
CONTINUOUS
 62
    30
 10
-40.000000000001819
 20
-411.0754738672357
 30
0.0
 40
7.5
  0
LINE
  5
5A3
  8
SIZE
  6
CONTINUOUS
 62
    30
 10
-40.000000000001819
 20
225.2674999999999
 30
0.0
 11
-40.000000000001819
 21
-431.07547386723581
 31
0.0
  0
LINE
  5
5A4
  8
SIZE
  6
CONTINUOUS
 62
    30
 10
-125.0000000000036
 20
225.2674999999999
 30
0.0
 11
-125.0000000000036
 21
-431.07547386723581
 31
0.0
  0
LINE
  5
5A5
  8
SIZE
  6
CONTINUOUS
 62
    30
 10
-40.000000000001819
 20
-411.0754738672357
 30
0.0
 11
-125.0000000000036
 21
-411.0754738672357
 31
0.0
  0
LINE
  5
5A6
  8
SIZE
  6
CONTINUOUS
 62
    30
 10
-125.0000000000036
 20
-411.0754738672357
 30
0.0
 11
-282.4285714285752
 21
-411.0754738672357
 31
0.0
  0
CIRCLE
  5
5A7
  8
SIZE
  6
CONTINUOUS
 62
    30
 10
-40.000000000001819
 20
-411.0754738672357
 30
0.0
 40
7.5
  0
CIRCLE
  5
5A8
  8
SIZE
  6
CONTINUOUS
 62
    30
 10
-125.0000000000036
 20
-411.0754738672357
 30
0.0
 40
7.5
  0
TEXT
  5
5A9
  8
SIZE
  6
CONTINUOUS
 62
    30
 10
-262.42857142857508
 20
-391.07547386723581
 30
0.0
 40
60.0
  1
85
 41
0.9
 72
     1
 11
-218.71428571428939
 21
-391.07547386723581
 31
0.0
  0
LINE
  5
5AA
  8
NOTE
  6
CONTINUOUS
 62
     4
 10
-125.0000000000036
 20
300.0
 30
0.0
 11
-204.01783118736239
 21
787.91904888030695
 31
0.0
  0
LINE
  5
5AB
  8
NOTE
  6
CONTINUOUS
 62
     4
 10
-138.15531829148219
 20
328.13458178522251
 30
0.0
 11
-125.00000000000369
 21
299.99999999999989
 31
0.0
  0
LINE
  5
5AC
  8
NOTE
  6
CONTINUOUS
 62
     4
 10
-125.00000000000369
 20
299.99999999999989
 30
0.0
 11
-122.3255490830559
 21
330.94292170872592
 31
0.0
  0
LINE
  5
5AD
  8
NOTE
  6
CONTINUOUS
 62
     4
 10
39.999999999998181
 20
300.0
 30
0.0
 11
470.58180473627539
 21
1102.1298297168671
 31
0.0
  0
LINE
  5
5AE
  8
NOTE
  6
CONTINUOUS
 62
     4
 10
46.528832790611879
 20
330.36431184749148
 30
0.0
 11
39.999999999998181
 21
300.0
 31
0.0
  0
LINE
  5
5AF
  8
NOTE
  6
CONTINUOUS
 62
     4
 10
39.999999999998181
 20
300.0
 30
0.0
 11
60.836290872991412
 21
323.03184912757803
 31
0.0
  0
LINE
  5
5B0
  8
NOTE
  6
CONTINUOUS
 62
     4
 10
-39.999990933367371
 20
299.9999953767765
 30
0.0
 11
-195.03907137974051
 21
991.60954539551335
 31
0.0
  0
LINE
  5
5B1
  8
NOTE
  6
CONTINUOUS
 62
     4
 10
124.99999999999631
 20
300.0
 30
0.0
 11
594.55463865118554
 21
898.02276509168212
 31
0.0
  0
TEXT
  5
5B2
  8
NOTE
  6
CONTINUOUS
 62
     4
 10
-577.0201710931733
 20
1018.067157277363
 30
0.0
 40
60.0
  1
RL2 φ9.52
 50
359.99999749558339
 41
0.7
  7
STANDARD1
  0
TEXT
  5
5B3
  8
NOTE
  6
CONTINUOUS
 62
     4
 10
-568.14134272217859
 20
807.09154253594352
 30
0.0
 40
60.0
  1
RG2 φ22.2
 50
359.99999749558339
 41
0.7
  7
STANDARD1
  0
LINE
  5
5B4
  8
NOTE
  6
CONTINUOUS
 62
     4
 10
-204.01783118736239
 20
787.91904888030695
 30
0.0
 11
-601.04480959911052
 21
787.91904888030695
 31
0.0
  0
LINE
  5
5B5
  8
NOTE
  6
CONTINUOUS
 62
     4
 10
-603.43813588841465
 20
991.60954539551335
 30
0.0
 11
-195.03907137974051
 21
991.60954539551335
 31
0.0
  0
TEXT
  5
5B6
  8
NOTE
  6
CONTINUOUS
 62
     4
 10
496.99976953151639
 20
1128.5874415987159
 30
0.0
 40
60.0
  1
RL1 φ9.52
 50
359.99999749558339
 41
0.7
  7
STANDARD1
  0
TEXT
  5
5B7
  8
NOTE
  6
CONTINUOUS
 62
     4
 10
627.45810552811724
 20
917.19525874731835
 30
0.0
 40
60.0
  1
RG1 φ22.2
 50
359.99999749558339
 41
0.7
  7
STANDARD1
  0
LINE
  5
5B8
  8
NOTE
  6
CONTINUOUS
 62
     4
 10
991.58161706293367
 20
898.02276509168212
 30
0.0
 11
594.55463865118554
 21
898.02276509168212
 31
0.0
  0
LINE
  5
5B9
  8
NOTE
  6
CONTINUOUS
 62
     4
 10
470.58180473627539
 20
1102.1298297168671
 30
0.0
 11
878.98086924494953
 21
1102.1298297168671
 31
0.0
  0
LINE
  5
5BA
  8
NOTE
  6
CONTINUOUS
 62
     4
 10
137.51790919148331
 20
328.42391670852538
 30
0.0
 11
124.99999999999631
 21
300.0
 31
0.0
  0
LINE
  5
5BB
  8
NOTE
  6
CONTINUOUS
 62
     4
 10
124.99999999999631
 20
300.0
 30
0.0
 11
150.05278563307641
 21
318.35687946254581
 31
0.0
  0
LINE
  5
5BC
  8
NOTE
  6
CONTINUOUS
 62
     4
 10
-55.307249254740057
 20
327.02415075654648
 30
0.0
 11
-39.999991559236882
 21
299.99999575730641
 31
0.0
  0
LINE
  5
5BD
  8
NOTE
  6
CONTINUOUS
 62
     4
 10
-39.999991559236882
 20
299.99999575730641
 30
0.0
 11
-39.744388227089161
 21
331.05722935136799
 31
0.0
  0
ENDSEC
  0
EOF
