  0
SECTION
  2
HEADER
  9
$ACADVER
  1
AC1009
  9
$INSBASE
 10
0.0
 20
0.0
 30
0.0
  9
$EXTMIN
 10
-2228.0723938242149
 20
-1310.3116968543941
 30
-0.0000000000112498
  9
$EXTMAX
 10
2166.3604820633668
 20
2721.5562571888622
 30
0.0000000000002956
  9
$LIMMIN
 10
-4267.1522210604817
 20
-2696.0832101984129
  9
$LIMMAX
 10
7190.7174225864646
 20
5141.155363923066
  9
$ORTHOMODE
 70
     1
  9
$REGENMODE
 70
     1
  9
$FILLMODE
 70
     1
  9
$QTEXTMODE
 70
     0
  9
$MIRRTEXT
 70
     0
  9
$DRAGMODE
 70
     2
  9
$LTSCALE
 40
20.0
  9
$OSMODE
 70
  3071
  9
$ATTMODE
 70
     1
  9
$TEXTSIZE
 40
64.0
  9
$TRACEWID
 40
0.05
  9
$TEXTSTYLE
  7
STANDARD_MODELNAME
  9
$CLAYER
  8
SYMBOLLINE
  9
$CELTYPE
  6
CONTINUOUS
  9
$CECOLOR
 62
     7
  9
$DIMSCALE
 40
1.0
  9
$DIMASZ
 40
30.0
  9
$DIMEXO
 40
20.0
  9
$DIMDLI
 40
80.0
  9
$DIMRND
 40
0.0
  9
$DIMDLE
 40
0.0
  9
$DIMEXE
 40
20.0
  9
$DIMTP
 40
0.0
  9
$DIMTM
 40
0.0
  9
$DIMTXT
 40
60.0
  9
$DIMCEN
 40
0.09
  9
$DIMTSZ
 40
0.0
  9
$DIMTOL
 70
     0
  9
$DIMLIM
 70
     0
  9
$DIMTIH
 70
     0
  9
$DIMTOH
 70
     0
  9
$DIMSE1
 70
     0
  9
$DIMSE2
 70
     0
  9
$DIMTAD
 70
     1
  9
$DIMZIN
 70
     8
  9
$DIMBLK
  1
SMALL
  9
$DIMASO
 70
     1
  9
$DIMSHO
 70
     0
  9
$DIMPOST
  1

  9
$DIMAPOST
  1

  9
$DIMALT
 70
     0
  9
$DIMALTD
 70
     2
  9
$DIMALTF
 40
25.399999999999999
  9
$DIMLFAC
 40
1.0
  9
$DIMTOFL
 70
     1
  9
$DIMTVP
 40
0.0
  9
$DIMTIX
 70
     0
  9
$DIMSOXD
 70
     0
  9
$DIMSAH
 70
     0
  9
$DIMBLK1
  1

  9
$DIMBLK2
  1

  9
$DIMSTYLE
  2
STANDARD
  9
$DIMCLRD
 70
     0
  9
$DIMCLRE
 70
     0
  9
$DIMCLRT
 70
     0
  9
$DIMTFAC
 40
1.0
  9
$DIMGAP
 40
0.09
  9
$LUNITS
 70
     2
  9
$LUPREC
 70
     4
  9
$SKETCHINC
 40
0.1
  9
$FILLETRAD
 40
30.0
  9
$AUNITS
 70
     1
  9
$AUPREC
 70
     3
  9
$MENU
  1
ACAD
  9
$ELEVATION
 40
0.0
  9
$PELEVATION
 40
0.0
  9
$THICKNESS
 40
0.0
  9
$LIMCHECK
 70
     0
  9
$BLIPMODE
 70
     0
  9
$CHAMFERA
 40
0.0
  9
$CHAMFERB
 40
0.0
  9
$SKPOLY
 70
     0
  9
$TDCREATE
 40
2450330.4399309959
  9
$TDUPDATE
 40
2456080.7263327781
  9
$TDINDWG
 40
4.1353962962999997
  9
$TDUSRTIMER
 40
4.1353941319
  9
$USRTIMER
 70
     1
  9
$ANGBASE
 50
0.0
  9
$ANGDIR
 70
     0
  9
$PDMODE
 70
     3
  9
$PDSIZE
 40
-2.0
  9
$PLINEWID
 40
0.0
  9
$COORDS
 70
     1
  9
$SPLFRAME
 70
     0
  9
$SPLINETYPE
 70
     6
  9
$SPLINESEGS
 70
     8
  9
$ATTDIA
 70
     0
  9
$ATTREQ
 70
     1
  9
$HANDLING
 70
     1
  9
$HANDSEED
  5
748
  9
$SURFTAB1
 70
     6
  9
$SURFTAB2
 70
     6
  9
$SURFTYPE
 70
     6
  9
$SURFU
 70
     6
  9
$SURFV
 70
     6
  9
$UCSNAME
  2

  9
$UCSORG
 10
0.0
 20
0.0
 30
0.0
  9
$UCSXDIR
 10
1.0
 20
0.0
 30
0.0
  9
$UCSYDIR
 10
0.0
 20
1.0
 30
0.0
  9
$PUCSNAME
  2

  9
$PUCSORG
 10
0.0
 20
0.0
 30
0.0
  9
$PUCSXDIR
 10
1.0
 20
0.0
 30
0.0
  9
$PUCSYDIR
 10
0.0
 20
1.0
 30
0.0
  9
$USERI1
 70
     0
  9
$USERI2
 70
     0
  9
$USERI3
 70
     0
  9
$USERI4
 70
     0
  9
$USERI5
 70
     0
  9
$USERR1
 40
20.0
  9
$USERR2
 40
0.0
  9
$USERR3
 40
0.0
  9
$USERR4
 40
0.0
  9
$USERR5
 40
0.0
  9
$WORLDVIEW
 70
     1
  9
$SHADEDGE
 70
     3
  9
$SHADEDIF
 70
    70
  9
$TILEMODE
 70
     1
  9
$MAXACTVP
 70
    64
  9
$PLIMCHECK
 70
     0
  9
$PEXTMIN
 10
1.0000000000000000E+020
 20
1.0000000000000000E+020
 30
1.0000000000000000E+020
  9
$PEXTMAX
 10
-1.0000000000000000E+020
 20
-1.0000000000000000E+020
 30
-1.0000000000000000E+020
  9
$PLIMMIN
 10
0.0
 20
0.0
  9
$PLIMMAX
 10
12.0
 20
9.0
  9
$UNITMODE
 70
     0
  9
$VISRETAIN
 70
     1
  9
$PLINEGEN
 70
     0
  9
$PSLTSCALE
 70
     1
  0
ENDSEC
  0
SECTION
  2
TABLES
  0
TABLE
  2
VPORT
 70
     1
  0
VPORT
  2
*ACTIVE
 70
     0
 10
0.0
 20
0.0
 11
1.0
 21
1.0
 12
1461.782600762991
 22
1222.536076862327
 13
0.0
 23
0.0
 14
50.0
 24
50.0
 15
100.0
 25
100.0
 16
0.0
 26
0.0
 36
1.0
 17
0.0
 27
0.0
 37
0.0
 40
7896.8373465482591
 41
1.552030456852791
 42
50.0
 43
0.0
 44
0.0
 50
0.0
 51
0.0
 71
     0
 72
  1000
 73
     1
 74
     0
 75
     0
 76
     0
 77
     0
 78
     0
  0
ENDTAB
  0
TABLE
  2
LTYPE
 70
     4
  0
LTYPE
  2
CONTINUOUS
 70
     0
  3
実線
 72
    65
 73
     0
 40
0.0
  0
LTYPE
  2
DASHDOT
 70
     0
  3
____ _ ____ _ ____ _ ____ _ ____ _ ____ _ ____
 72
    65
 73
     4
 40
5.5
 49
4.0
 49
-0.6
 49
0.3
 49
-0.6
  0
LTYPE
  2
CENTER
 70
     0
  3
Center ____ _ ____ _ ____ _ ____ _ ____ _ ____
 72
    65
 73
     4
 40
7.0
 49
4.299999999999998
 49
-0.7
 49
1.3
 49
-0.7
  0
LTYPE
  2
DASHED
 70
     0
  3
Dashed __ __ __ __ __ __ __ __ __ __ __ __ __ _
 72
    65
 73
     2
 40
3.0
 49
2.0
 49
-1.0
  0
ENDTAB
  0
TABLE
  2
LAYER
 70
    12
  0
LAYER
  2
0
 70
     0
 62
     7
  6
CONTINUOUS
  0
LAYER
  2
SYMBOLLINE
 70
     0
 62
    15
  6
CONTINUOUS
  0
LAYER
  2
NOTE
 70
     0
 62
     4
  6
CONTINUOUS
  0
LAYER
  2
OUTLINE
 70
     0
 62
     3
  6
CONTINUOUS
  0
LAYER
  2
DETAIL
 70
     0
 62
     5
  6
CONTINUOUS
  0
LAYER
  2
BASIS
 70
     0
 62
     6
  6
DASHDOT
  0
LAYER
  2
SIZE
 70
     0
 62
    30
  6
CONTINUOUS
  0
LAYER
  2
ARRANGE
 70
     0
 62
     1
  6
CONTINUOUS
  0
LAYER
  2
FIX
 70
     0
 62
    11
  6
CONTINUOUS
  0
LAYER
  2
SERVICESPACE
 70
     0
 62
     2
  6
DASHDOT
  0
LAYER
  2
ETC
 70
     0
 62
    61
  6
CONTINUOUS
  0
LAYER
  2
DEFPOINTS
 70
     0
 62
     7
  6
CONTINUOUS
  0
ENDTAB
  0
TABLE
  2
STYLE
 70
     4
  0
STYLE
  2
STANDARD
 70
     0
 40
0.0
 41
0.9
 50
0.0
 71
     0
 42
64.0
  3
SIMPLEX
  4
BIGFONT
  0
STYLE
  2
ANNOTATIVE
 70
     0
 40
0.0
 41
1.0
 50
0.0
 71
     0
 42
0.2
  3
txt
  4

  0
STYLE
  2
STANDARD_MODELNAME
 70
     0
 40
80.0
 41
0.8
 50
0.0
 71
     0
 42
64.0
  3
MONOTXT.shx
  4
BIGFONT.shx
  0
STYLE
  2
STANDARD1
 70
     0
 40
60.0
 41
0.7
 50
0.0
 71
     0
 42
64.0
  3
MONOTXT.shx
  4
BIGFONT.shx
  0
ENDTAB
  0
TABLE
  2
VIEW
 70
     1
  0
VIEW
  2
ALL
 70
     0
 40
9000.0
 10
241.50664699999999
 20
0.0
 41
12483.01
 11
0.0
 21
0.0
 31
1.0
 12
0.0
 22
0.0
 32
0.0
 42
50.0
 43
0.0
 44
0.0
 50
0.0
 71
     0
  0
ENDTAB
  0
TABLE
  2
UCS
 70
     0
  0
ENDTAB
  0
TABLE
  2
APPID
 70
     4
  0
APPID
  2
ACAD
 70
     0
  0
APPID
  2
ACADANNOTATIVE
 70
     0
  0
APPID
  2
ACAD_MLEADERVER
 70
     0
  0
APPID
  2
ACAD_EXEMPT_FROM_CAD_STANDARDS
 70
     0
  0
ENDTAB
  0
TABLE
  2
DIMSTYLE
 70
     2
  0
DIMSTYLE
  2
STANDARD
 70
     0
  3

  4

  5

  6

  7

 40
1.0
 41
0.18
 42
0.0625
 43
0.38
 44
0.18
 45
0.0
 46
0.0
 47
0.0
 48
0.0
140
0.18
141
0.09
142
0.0
143
25.399999999999999
144
1.0
145
0.0
146
1.0
147
0.09
 71
     0
 72
     0
 73
     1
 74
     1
 75
     0
 76
     0
 77
     0
 78
     0
170
     0
171
     2
172
     0
173
     0
174
     0
175
     0
176
     0
177
     0
178
     0
  0
DIMSTYLE
  2
ANNOTATIVE
 70
     0
  3

  4

  5

  6

  7

 40
1.0
 41
0.18
 42
0.0625
 43
0.38
 44
0.18
 45
0.0
 46
0.0
 47
0.0
 48
0.0
140
0.18
141
0.09
142
0.0
143
25.399999999999999
144
1.0
145
0.0
146
1.0
147
0.09
 71
     0
 72
     0
 73
     1
 74
     1
 75
     0
 76
     0
 77
     0
 78
     0
170
     0
171
     2
172
     0
173
     0
174
     0
175
     0
176
     0
177
     0
178
     0
  0
ENDTAB
  0
ENDSEC
  0
SECTION
  2
BLOCKS
  0
BLOCK
  8
0
  2
$MODEL_SPACE
 70
     0
 10
0.0
 20
0.0
 30
0.0
  3
$MODEL_SPACE
  1

  0
ENDBLK
  5
6FC
  8
0
  0
BLOCK
 67
     1
  8
0
  2
$PAPER_SPACE
 70
     0
 10
0.0
 20
0.0
 30
0.0
  3
$PAPER_SPACE
  1

  0
ENDBLK
  5
6F8
 67
     1
  8
0
  0
BLOCK
  8
0
  2
_SMALL
 70
     0
 10
0.0
 20
0.0
 30
0.0
  3
_SMALL
  1

  0
CIRCLE
  5
8F
  8
0
  6
CONTINUOUS
 62
     7
 10
0.0
 20
0.0
 30
0.0
 40
0.25
  0
ENDBLK
  5
90
  8
0
  0
ENDSEC
  0
SECTION
  2
ENTITIES
  0
LINE
  5
91
  8
DETAIL
  6
CONTINUOUS
 62
     5
 10
453.0
 20
996.0
 30
0.0
 11
477.0
 21
996.0
 31
0.0
  0
LINE
  5
92
  8
DETAIL
  6
CONTINUOUS
 62
     5
 10
477.0
 20
996.0
 30
0.0
 11
477.0
 21
1016.0
 31
0.0
  0
LINE
  5
93
  8
DETAIL
  6
CONTINUOUS
 62
     5
 10
477.0
 20
1016.0
 30
0.0
 11
453.0
 21
1016.0
 31
0.0
  0
LINE
  5
94
  8
DETAIL
  6
CONTINUOUS
 62
     5
 10
453.0
 20
1016.0
 30
0.0
 11
453.0
 21
996.0
 31
0.0
  0
LINE
  5
95
  8
DETAIL
  6
CONTINUOUS
 62
     5
 10
541.0
 20
996.0
 30
0.0
 11
565.0
 21
996.0
 31
0.0
  0
LINE
  5
96
  8
DETAIL
  6
CONTINUOUS
 62
     5
 10
565.0
 20
1016.0
 30
0.0
 11
541.0
 21
1016.0
 31
0.0
  0
LINE
  5
97
  8
DETAIL
  6
CONTINUOUS
 62
     5
 10
541.0
 20
1016.0
 30
0.0
 11
541.0
 21
996.0
 31
0.0
  0
LINE
  5
98
  8
DETAIL
  6
CONTINUOUS
 62
     5
 10
521.0
 20
996.0
 30
0.0
 11
521.0
 21
1016.0
 31
0.0
  0
LINE
  5
99
  8
DETAIL
  6
CONTINUOUS
 62
     5
 10
497.0
 20
996.0
 30
0.0
 11
521.0
 21
996.0
 31
0.0
  0
LINE
  5
9A
  8
DETAIL
  6
CONTINUOUS
 62
     5
 10
497.0
 20
1016.0
 30
0.0
 11
497.0
 21
996.0
 31
0.0
  0
LINE
  5
9B
  8
DETAIL
  6
CONTINUOUS
 62
     5
 10
521.0
 20
1016.0
 30
0.0
 11
497.0
 21
1016.0
 31
0.0
  0
LINE
  5
9C
  8
DETAIL
  6
CONTINUOUS
 62
     5
 10
585.0
 20
996.0
 30
0.0
 11
609.0
 21
996.0
 31
0.0
  0
LINE
  5
9D
  8
DETAIL
  6
CONTINUOUS
 62
     5
 10
609.0
 20
996.0
 30
0.0
 11
609.0
 21
1016.0
 31
0.0
  0
LINE
  5
9E
  8
DETAIL
  6
CONTINUOUS
 62
     5
 10
609.0
 20
1016.0
 30
0.0
 11
585.0
 21
1016.0
 31
0.0
  0
LINE
  5
9F
  8
DETAIL
  6
CONTINUOUS
 62
     5
 10
585.0
 20
1016.0
 30
0.0
 11
585.0
 21
996.0
 31
0.0
  0
LINE
  5
A0
  8
DETAIL
  6
CONTINUOUS
 62
     5
 10
565.0
 20
996.0
 30
0.0
 11
565.0
 21
1016.0
 31
0.0
  0
LINE
  5
A1
  8
NOTE
  6
CONTINUOUS
 62
     4
 10
-255.0
 20
-100.0
 30
0.0
 11
-280.0
 21
-100.0
 31
0.0
  0
LINE
  5
A2
  8
NOTE
  6
CONTINUOUS
 62
     4
 10
-255.0
 20
2038.432010902296
 30
0.0
 11
-280.0
 21
2038.432010902296
 31
0.0
  0
LINE
  5
A3
  8
NOTE
  6
CONTINUOUS
 62
     4
 10
205.0
 20
-100.0
 30
0.0
 11
180.0
 21
-100.0
 31
0.0
  0
LINE
  5
A4
  8
NOTE
  6
CONTINUOUS
 62
     4
 10
205.0
 20
2038.432010902296
 30
0.0
 11
180.0
 21
2038.432010902296
 31
0.0
  0
LINE
  5
A5
  8
NOTE
  6
CONTINUOUS
 62
     4
 10
-230.0
 20
-150.0
 30
0.0
 11
-180.0
 21
-100.0
 31
0.0
  0
LINE
  5
A6
  8
NOTE
  6
CONTINUOUS
 62
     4
 10
-230.0
 20
1988.4320109022949
 30
0.0
 11
-180.0
 21
2038.432010902296
 31
0.0
  0
LINE
  5
A7
  8
NOTE
  6
CONTINUOUS
 62
     4
 10
230.0
 20
-150.0
 30
0.0
 11
280.0
 21
-100.0
 31
0.0
  0
LINE
  5
A8
  8
NOTE
  6
CONTINUOUS
 62
     4
 10
230.0
 20
1988.4320109022949
 30
0.0
 11
280.0
 21
2038.432010902296
 31
0.0
  0
LINE
  5
A9
  8
NOTE
  6
CONTINUOUS
 62
     4
 10
-280.0
 20
-100.0
 30
0.0
 11
-230.0
 21
-150.0
 31
0.0
  0
LINE
  5
AA
  8
NOTE
  6
CONTINUOUS
 62
     4
 10
-280.0
 20
2038.432010902296
 30
0.0
 11
-230.0
 21
1988.4320109022949
 31
0.0
  0
LINE
  5
AB
  8
NOTE
  6
CONTINUOUS
 62
     4
 10
180.0
 20
-100.0
 30
0.0
 11
230.0
 21
-150.0
 31
0.0
  0
LINE
  5
AC
  8
NOTE
  6
CONTINUOUS
 62
     4
 10
180.0
 20
2038.432010902296
 30
0.0
 11
230.0
 21
1988.4320109022949
 31
0.0
  0
LINE
  5
AD
  8
NOTE
  6
CONTINUOUS
 62
     4
 10
-255.0
 20
-100.0
 30
0.0
 11
-255.0
 21
-50.0
 31
0.0
  0
LINE
  5
AE
  8
NOTE
  6
CONTINUOUS
 62
     4
 10
-255.0
 20
2038.432010902296
 30
0.0
 11
-255.0
 21
2088.432010902296
 31
0.0
  0
LINE
  5
AF
  8
NOTE
  6
CONTINUOUS
 62
     4
 10
205.0
 20
-100.0
 30
0.0
 11
205.0
 21
-50.0
 31
0.0
  0
LINE
  5
B0
  8
NOTE
  6
CONTINUOUS
 62
     4
 10
205.0
 20
2038.432010902296
 30
0.0
 11
205.0
 21
2088.432010902296
 31
0.0
  0
LINE
  5
B1
  8
NOTE
  6
CONTINUOUS
 62
     4
 10
-205.0
 20
-100.0
 30
0.0
 11
-205.0
 21
-50.0
 31
0.0
  0
LINE
  5
B2
  8
NOTE
  6
CONTINUOUS
 62
     4
 10
-205.0
 20
2038.432010902296
 30
0.0
 11
-205.0
 21
2088.432010902296
 31
0.0
  0
LINE
  5
B3
  8
NOTE
  6
CONTINUOUS
 62
     4
 10
255.0
 20
-100.0
 30
0.0
 11
255.0
 21
-50.0
 31
0.0
  0
LINE
  5
B4
  8
NOTE
  6
CONTINUOUS
 62
     4
 10
255.0
 20
2038.432010902296
 30
0.0
 11
255.0
 21
2088.432010902296
 31
0.0
  0
LINE
  5
B5
  8
NOTE
  6
CONTINUOUS
 62
     4
 10
-180.0
 20
-100.0
 30
0.0
 11
-205.0
 21
-100.0
 31
0.0
  0
LINE
  5
B6
  8
NOTE
  6
CONTINUOUS
 62
     4
 10
-180.0
 20
2038.432010902296
 30
0.0
 11
-205.0
 21
2038.432010902296
 31
0.0
  0
LINE
  5
B7
  8
NOTE
  6
CONTINUOUS
 62
     4
 10
280.0
 20
-100.0
 30
0.0
 11
255.0
 21
-100.0
 31
0.0
  0
LINE
  5
B8
  8
NOTE
  6
CONTINUOUS
 62
     4
 10
280.0
 20
2038.432010902296
 30
0.0
 11
255.0
 21
2038.432010902296
 31
0.0
  0
LINE
  5
B9
  8
NOTE
  6
CONTINUOUS
 62
     4
 10
-205.0
 20
-50.0
 30
0.0
 11
-255.0
 21
-50.0
 31
0.0
  0
LINE
  5
BA
  8
NOTE
  6
CONTINUOUS
 62
     4
 10
-205.0
 20
2088.432010902296
 30
0.0
 11
-255.0
 21
2088.432010902296
 31
0.0
  0
LINE
  5
BB
  8
NOTE
  6
CONTINUOUS
 62
     4
 10
255.0
 20
-50.0
 30
0.0
 11
205.0
 21
-50.0
 31
0.0
  0
LINE
  5
BC
  8
NOTE
  6
CONTINUOUS
 62
     4
 10
255.0
 20
2088.432010902296
 30
0.0
 11
205.0
 21
2088.432010902296
 31
0.0
  0
ARC
  5
BD
  8
DETAIL
  6
CONTINUOUS
 62
     5
 10
-1049.0
 20
1914.0
 30
0.0
 40
1.0
 50
90.0
 51
180.0
  0
ARC
  5
BE
  8
DETAIL
  6
CONTINUOUS
 62
     5
 10
-1049.0
 20
1916.0
 30
0.0
 40
1.0
 50
180.0
 51
270.0
  0
LINE
  5
BF
  8
DETAIL
  6
CONTINUOUS
 62
     5
 10
-1050.0
 20
1916.0
 30
0.0
 11
-1049.0
 21
1916.0
 31
0.0
  0
LINE
  5
C0
  8
DETAIL
  6
CONTINUOUS
 62
     5
 10
-1049.0
 20
1914.0
 30
0.0
 11
-1049.0
 21
1916.0
 31
0.0
  0
LINE
  5
C1
  8
DETAIL
  6
CONTINUOUS
 62
     5
 10
-1050.0
 20
1946.0
 30
0.0
 11
-1050.0
 21
1916.0
 31
0.0
  0
ARC
  5
C2
  8
DETAIL
  6
CONTINUOUS
 62
     5
 10
-1049.0
 20
1946.0
 30
0.0
 40
1.0
 50
90.0
 51
180.0
  0
LINE
  5
C3
  8
DETAIL
  6
CONTINUOUS
 62
     5
 10
-1050.0
 20
1946.0
 30
0.0
 11
-1049.0
 21
1946.0
 31
0.0
  0
LINE
  5
C4
  8
DETAIL
  6
CONTINUOUS
 62
     5
 10
-1049.0
 20
1947.0
 30
0.0
 11
-1049.0
 21
1946.0
 31
0.0
  0
LINE
  5
C5
  8
DETAIL
  6
CONTINUOUS
 62
     5
 10
-1049.0
 20
1947.0
 30
0.0
 11
-1000.0
 21
1947.0
 31
0.0
  0
LINE
  5
C6
  8
DETAIL
  6
CONTINUOUS
 62
     5
 10
-1015.0
 20
1915.0
 30
0.0
 11
-1015.0
 21
1914.0
 31
0.0
  0
LINE
  5
C7
  8
DETAIL
  6
CONTINUOUS
 62
     5
 10
-1048.799999999999
 20
1915.0
 30
0.0
 11
-1000.0
 21
1915.0
 31
0.0
  0
LINE
  5
C8
  8
DETAIL
  6
CONTINUOUS
 62
     5
 10
-1000.0
 20
1914.0
 30
0.0
 11
-1050.0
 21
1914.0
 31
0.0
  0
CIRCLE
  5
CA
  8
DETAIL
  6
CONTINUOUS
 62
     5
 10
710.0
 20
1931.0
 30
0.0
 40
2.299999999999998
  0
LINE
  5
CB
  8
DETAIL
  6
CONTINUOUS
 62
     5
 10
1015.0
 20
1915.0
 30
0.0
 11
1015.0
 21
1914.0
 31
0.0
  0
ARC
  5
CC
  8
DETAIL
  6
CONTINUOUS
 62
     5
 10
1049.0
 20
1916.0
 30
0.0
 40
1.0
 50
270.0
 51
0.0
  0
ARC
  5
CD
  8
DETAIL
  6
CONTINUOUS
 62
     5
 10
1049.0
 20
1914.0
 30
0.0
 40
1.0
 50
0.0
 51
90.0
  0
LINE
  5
CE
  8
DETAIL
  6
CONTINUOUS
 62
     5
 10
1050.0
 20
1916.0
 30
0.0
 11
1049.0
 21
1916.0
 31
0.0
  0
LINE
  5
CF
  8
DETAIL
  6
CONTINUOUS
 62
     5
 10
1049.0
 20
1916.0
 30
0.0
 11
1049.0
 21
1914.0
 31
0.0
  0
LINE
  5
D0
  8
DETAIL
  6
CONTINUOUS
 62
     5
 10
730.0
 20
1914.0
 30
0.0
 11
1050.0
 21
1914.0
 31
0.0
  0
LINE
  5
D1
  8
DETAIL
  6
CONTINUOUS
 62
     5
 10
1049.0
 20
1915.0
 30
0.0
 11
730.0
 21
1915.0
 31
0.0
  0
LINE
  5
D2
  8
DETAIL
  6
CONTINUOUS
 62
     5
 10
993.0
 20
1909.0
 30
0.0
 11
998.0
 21
1914.0
 31
0.0
  0
LINE
  5
D3
  8
DETAIL
  6
CONTINUOUS
 62
     5
 10
993.89999999999975
 20
1906.0
 30
0.0
 11
992.89999999999975
 21
1906.0
 31
0.0
  0
LINE
  5
D4
  8
DETAIL
  6
CONTINUOUS
 62
     5
 10
992.89999999999975
 20
1906.0
 30
0.0
 11
992.89999999999975
 21
1907.0
 31
0.0
  0
LINE
  5
D5
  8
DETAIL
  6
CONTINUOUS
 62
     5
 10
993.0
 20
1909.0
 30
0.0
 11
993.0
 21
1906.0
 31
0.0
  0
LINE
  5
D6
  8
DETAIL
  6
CONTINUOUS
 62
     5
 10
935.0
 20
1907.0
 30
0.0
 11
935.0
 21
1915.0
 31
0.0
  0
LINE
  5
D7
  8
DETAIL
  6
CONTINUOUS
 62
     5
 10
937.60000000000014
 20
1907.0
 30
0.0
 11
937.60000000000014
 21
1911.6999999999989
 31
0.0
  0
ARC
  5
D8
  8
DETAIL
  6
CONTINUOUS
 62
     5
 10
939.89999999999975
 20
1911.6999999999989
 30
0.0
 40
2.299999999999998
 50
90.0
 51
180.0
  0
LINE
  5
D9
  8
DETAIL
  6
CONTINUOUS
 62
     5
 10
939.89999999999975
 20
1907.0
 30
0.0
 11
939.89999999999975
 21
1911.6999999999989
 31
0.0
  0
LINE
  5
DA
  8
DETAIL
  6
CONTINUOUS
 62
     5
 10
995.70000000000073
 20
1911.6999999999989
 30
0.0
 11
939.89999999999975
 21
1911.6999999999989
 31
0.0
  0
LINE
  5
DB
  8
DETAIL
  6
CONTINUOUS
 62
     5
 10
992.89999999999975
 20
1907.0
 30
0.0
 11
-992.89999999999975
 21
1907.0
 31
0.0
  0
LINE
  5
DC
  8
DETAIL
  6
CONTINUOUS
 62
     5
 10
-992.89999999999975
 20
1907.0
 30
0.0
 11
-992.89999999999975
 21
1906.0
 31
0.0
  0
LINE
  5
DD
  8
DETAIL
  6
CONTINUOUS
 62
     5
 10
-992.89999999999975
 20
1906.0
 30
0.0
 11
-993.89999999999975
 21
1906.0
 31
0.0
  0
LINE
  5
DE
  8
DETAIL
  6
CONTINUOUS
 62
     5
 10
-993.0
 20
1909.0
 30
0.0
 11
-993.0
 21
1906.0
 31
0.0
  0
LINE
  5
DF
  8
DETAIL
  6
CONTINUOUS
 62
     5
 10
-993.0
 20
1909.0
 30
0.0
 11
-996.0
 21
1912.0
 31
0.0
  0
LINE
  5
E0
  8
DETAIL
  6
CONTINUOUS
 62
     5
 10
-935.0
 20
1912.0
 30
0.0
 11
-935.0
 21
1907.0
 31
0.0
  0
LINE
  5
E1
  8
DETAIL
  6
CONTINUOUS
 62
     5
 10
-939.89999999999975
 20
1907.0
 30
0.0
 11
-939.89999999999975
 21
1911.6999999999989
 31
0.0
  0
LINE
  5
E2
  8
DETAIL
  6
CONTINUOUS
 62
     5
 10
-995.69999999999902
 20
1911.6999999999989
 30
0.0
 11
-939.89999999999975
 21
1911.6999999999989
 31
0.0
  0
LINE
  5
E3
  8
DETAIL
  6
CONTINUOUS
 62
     5
 10
-937.60000000000014
 20
1907.0
 30
0.0
 11
-937.60000000000014
 21
1912.0
 31
0.0
  0
LINE
  5
E4
  8
DETAIL
  6
CONTINUOUS
 62
     5
 10
-1049.0
 20
101.0
 30
0.0
 11
-1050.0
 21
101.0
 31
0.0
  0
LINE
  5
E5
  8
DETAIL
  6
CONTINUOUS
 62
     5
 10
-1049.0
 20
100.0
 30
0.0
 11
-1049.0
 21
101.0
 31
0.0
  0
LINE
  5
E6
  8
DETAIL
  6
CONTINUOUS
 62
     5
 10
-1050.0
 20
101.0
 30
0.0
 11
-1050.0
 21
1914.0
 31
0.0
  0
ARC
  5
E7
  8
DETAIL
  6
CONTINUOUS
 62
     5
 10
-1049.0
 20
101.0
 30
0.0
 40
1.0
 50
180.0
 51
270.0
  0
LINE
  5
E8
  8
DETAIL
  6
CONTINUOUS
 62
     5
 10
-1015.0
 20
101.0
 30
0.0
 11
-1015.0
 21
100.0
 31
0.0
  0
LINE
  5
E9
  8
DETAIL
  6
CONTINUOUS
 62
     5
 10
-1014.0
 20
1914.0
 30
0.0
 11
-1014.0
 21
101.0
 31
0.0
  0
LINE
  5
EA
  8
DETAIL
  6
CONTINUOUS
 62
     5
 10
-988.0
 20
101.0
 30
0.0
 11
-1015.0
 21
101.0
 31
0.0
  0
LINE
  5
EB
  8
DETAIL
  6
CONTINUOUS
 62
     5
 10
-988.0
 20
101.0
 30
0.0
 11
-984.0
 21
105.0
 31
0.0
  0
LINE
  5
EC
  8
DETAIL
  6
CONTINUOUS
 62
     5
 10
-993.89999999999975
 20
106.0
 30
0.0
 11
-992.89999999999975
 21
106.0
 31
0.0
  0
LINE
  5
ED
  8
DETAIL
  6
CONTINUOUS
 62
     5
 10
-992.89999999999975
 20
106.0
 30
0.0
 11
-992.89999999999975
 21
105.0
 31
0.0
  0
LINE
  5
EE
  8
DETAIL
  6
CONTINUOUS
 62
     5
 10
-992.89999999999975
 20
105.0
 30
0.0
 11
-6.3999999999996362
 21
105.0
 31
0.0
  0
LINE
  5
EF
  8
DETAIL
  6
CONTINUOUS
 62
     5
 10
-6.3999999999996362
 20
105.0
 30
0.0
 11
-6.3999999999996362
 21
106.0
 31
0.0
  0
LINE
  5
F0
  8
DETAIL
  6
CONTINUOUS
 62
     5
 10
-6.3999999999996362
 20
1109.0
 30
0.0
 11
-6.3999999999996362
 21
1110.2
 31
0.0
  0
LINE
  5
F1
  8
DETAIL
  6
CONTINUOUS
 62
     5
 10
-6.3999999999996362
 20
106.0
 30
0.0
 11
5.3999999999996362
 21
106.0
 31
0.0
  0
LINE
  5
F2
  8
DETAIL
  6
CONTINUOUS
 62
     5
 10
-6.3999999999996362
 20
1110.2
 30
0.0
 11
5.3999999999996362
 21
1110.2
 31
0.0
  0
LINE
  5
F3
  8
DETAIL
  6
CONTINUOUS
 62
     5
 10
5.3999999999996362
 20
106.0
 30
0.0
 11
5.3999999999996362
 21
105.0
 31
0.0
  0
LINE
  5
F4
  8
DETAIL
  6
CONTINUOUS
 62
     5
 10
5.3999999999996362
 20
1110.2
 30
0.0
 11
5.3999999999996362
 21
1109.0
 31
0.0
  0
LINE
  5
F5
  8
DETAIL
  6
CONTINUOUS
 62
     5
 10
5.3999999999996362
 20
105.0
 30
0.0
 11
992.89999999999975
 21
105.0
 31
0.0
  0
LINE
  5
F6
  8
DETAIL
  6
CONTINUOUS
 62
     5
 10
992.89999999999975
 20
106.0
 30
0.0
 11
993.89999999999975
 21
106.0
 31
0.0
  0
LINE
  5
F7
  8
DETAIL
  6
CONTINUOUS
 62
     5
 10
992.89999999999975
 20
105.0
 30
0.0
 11
992.89999999999975
 21
106.0
 31
0.0
  0
LINE
  5
F8
  8
DETAIL
  6
CONTINUOUS
 62
     5
 10
1049.0
 20
101.0
 30
0.0
 11
1049.0
 21
100.0
 31
0.0
  0
LINE
  5
F9
  8
DETAIL
  6
CONTINUOUS
 62
     5
 10
1050.0
 20
101.0
 30
0.0
 11
1049.0
 21
101.0
 31
0.0
  0
LINE
  5
FA
  8
DETAIL
  6
CONTINUOUS
 62
     5
 10
1050.0
 20
1914.0
 30
0.0
 11
1050.0
 21
101.0
 31
0.0
  0
ARC
  5
FB
  8
DETAIL
  6
CONTINUOUS
 62
     5
 10
1049.0
 20
101.0
 30
0.0
 40
1.0
 50
270.0
 51
0.0
  0
LINE
  5
FC
  8
DETAIL
  6
CONTINUOUS
 62
     5
 10
1014.0
 20
1914.0
 30
0.0
 11
1014.0
 21
101.0
 31
0.0
  0
LINE
  5
FD
  8
DETAIL
  6
CONTINUOUS
 62
     5
 10
1015.0
 20
101.0
 30
0.0
 11
1015.0
 21
100.0
 31
0.0
  0
LINE
  5
FE
  8
DETAIL
  6
CONTINUOUS
 62
     5
 10
1015.0
 20
101.0
 30
0.0
 11
988.0
 21
101.0
 31
0.0
  0
LINE
  5
FF
  8
DETAIL
  6
CONTINUOUS
 62
     5
 10
988.0
 20
101.0
 30
0.0
 11
984.0
 21
105.0
 31
0.0
  0
CIRCLE
  5
100
  8
DETAIL
  6
CONTINUOUS
 62
     5
 10
-58.399999999999643
 20
260.0
 30
0.0
 40
5.0
  0
CIRCLE
  5
101
  8
DETAIL
  6
CONTINUOUS
 62
     5
 10
-58.399999999999643
 20
260.0
 30
0.0
 40
8.5
  0
CIRCLE
  5
102
  8
DETAIL
  6
CONTINUOUS
 62
     5
 10
-58.399999999999643
 20
260.0
 30
0.0
 40
11.0
  0
LINE
  5
103
  8
DETAIL
  6
CONTINUOUS
 62
     5
 10
-56.667948999998771
 20
257.0
 30
0.0
 11
-54.93589900000007
 21
260.0
 31
0.0
  0
LINE
  5
104
  8
DETAIL
  6
CONTINUOUS
 62
     5
 10
-60.132050999998683
 20
263.0
 30
0.0
 11
-61.864101999999541
 21
260.0
 31
0.0
  0
LINE
  5
105
  8
DETAIL
  6
CONTINUOUS
 62
     5
 10
-54.93589900000007
 20
260.0
 30
0.0
 11
-56.667948999998771
 21
263.0
 31
0.0
  0
LINE
  5
106
  8
DETAIL
  6
CONTINUOUS
 62
     5
 10
-61.864101999999541
 20
260.0
 30
0.0
 11
-60.132050999998683
 21
257.0
 31
0.0
  0
LINE
  5
107
  8
DETAIL
  6
CONTINUOUS
 62
     5
 10
-56.667948999998771
 20
263.0
 30
0.0
 11
-60.132050999998683
 21
263.0
 31
0.0
  0
LINE
  5
108
  8
DETAIL
  6
CONTINUOUS
 62
     5
 10
-60.132050999998683
 20
257.0
 30
0.0
 11
-56.667948999998771
 21
257.0
 31
0.0
  0
CIRCLE
  5
109
  8
DETAIL
  6
CONTINUOUS
 62
     5
 10
-58.399999999999643
 20
710.0
 30
0.0
 40
5.0
  0
CIRCLE
  5
10A
  8
DETAIL
  6
CONTINUOUS
 62
     5
 10
-58.399999999999643
 20
710.0
 30
0.0
 40
8.5
  0
CIRCLE
  5
10B
  8
DETAIL
  6
CONTINUOUS
 62
     5
 10
-58.399999999999643
 20
710.0
 30
0.0
 40
11.0
  0
LINE
  5
10C
  8
DETAIL
  6
CONTINUOUS
 62
     5
 10
-56.667948999998771
 20
707.0
 30
0.0
 11
-54.93589900000007
 21
710.0
 31
0.0
  0
LINE
  5
10D
  8
DETAIL
  6
CONTINUOUS
 62
     5
 10
-60.132050999998683
 20
713.0
 30
0.0
 11
-61.864101999999541
 21
710.0
 31
0.0
  0
LINE
  5
10E
  8
DETAIL
  6
CONTINUOUS
 62
     5
 10
-54.93589900000007
 20
710.0
 30
0.0
 11
-56.667948999998771
 21
713.0
 31
0.0
  0
LINE
  5
10F
  8
DETAIL
  6
CONTINUOUS
 62
     5
 10
-61.864101999999541
 20
710.0
 30
0.0
 11
-60.132050999998683
 21
707.0
 31
0.0
  0
LINE
  5
110
  8
DETAIL
  6
CONTINUOUS
 62
     5
 10
-56.667948999998771
 20
713.0
 30
0.0
 11
-60.132050999998683
 21
713.0
 31
0.0
  0
LINE
  5
111
  8
DETAIL
  6
CONTINUOUS
 62
     5
 10
-60.132050999998683
 20
707.0
 30
0.0
 11
-56.667948999998771
 21
707.0
 31
0.0
  0
LINE
  5
112
  8
DETAIL
  6
CONTINUOUS
 62
     5
 10
-6.3999999999996362
 20
864.0
 30
0.0
 11
-6.3999999999996362
 21
865.0
 31
0.0
  0
LINE
  5
113
  8
DETAIL
  6
CONTINUOUS
 62
     5
 10
5.3999999999996362
 20
864.0
 30
0.0
 11
-6.3999999999996362
 21
864.0
 31
0.0
  0
LINE
  5
114
  8
DETAIL
  6
CONTINUOUS
 62
     5
 10
5.3999999999996362
 20
865.0
 30
0.0
 11
5.3999999999996362
 21
864.0
 31
0.0
  0
LINE
  5
115
  8
DETAIL
  6
CONTINUOUS
 62
     5
 10
-5.3999999999996362
 20
106.0
 30
0.0
 11
-5.3999999999996362
 21
864.0
 31
0.0
  0
LINE
  5
116
  8
DETAIL
  6
CONTINUOUS
 62
     5
 10
4.3999999999996362
 20
864.0
 30
0.0
 11
4.3999999999996362
 21
106.0
 31
0.0
  0
LINE
  5
117
  8
DETAIL
  6
CONTINUOUS
 62
     5
 10
959.49946900000032
 20
1099.2
 30
0.0
 11
959.49946900000032
 21
1109.0
 31
0.0
  0
LINE
  5
118
  8
DETAIL
  6
CONTINUOUS
 62
     5
 10
963.0
 20
1099.0
 30
0.0
 11
963.0
 21
1109.0
 31
0.0
  0
LINE
  5
119
  8
DETAIL
  6
CONTINUOUS
 62
     5
 10
959.49946900000032
 20
874.79999999999973
 30
0.0
 11
959.49946900000032
 21
865.0
 31
0.0
  0
LINE
  5
11A
  8
DETAIL
  6
CONTINUOUS
 62
     5
 10
963.0
 20
865.0
 30
0.0
 11
963.0
 21
875.0
 31
0.0
  0
LINE
  5
11B
  8
DETAIL
  6
CONTINUOUS
 62
     5
 10
993.89999999999975
 20
106.0
 30
0.0
 11
993.89999999999975
 21
864.0
 31
0.0
  0
LINE
  5
11C
  8
DETAIL
  6
CONTINUOUS
 62
     5
 10
992.89999999999975
 20
865.0
 30
0.0
 11
5.3999999999996362
 21
865.0
 31
0.0
  0
LINE
  5
11D
  8
DETAIL
  6
CONTINUOUS
 62
     5
 10
992.89999999999975
 20
864.0
 30
0.0
 11
992.89999999999975
 21
865.0
 31
0.0
  0
LINE
  5
11E
  8
DETAIL
  6
CONTINUOUS
 62
     5
 10
993.89999999999975
 20
864.0
 30
0.0
 11
992.89999999999975
 21
864.0
 31
0.0
  0
LINE
  5
11F
  8
DETAIL
  6
CONTINUOUS
 62
     5
 10
992.89999999999975
 20
876.0
 30
0.0
 11
993.89999999999975
 21
876.0
 31
0.0
  0
LINE
  5
120
  8
DETAIL
  6
CONTINUOUS
 62
     5
 10
992.89999999999975
 20
875.0
 30
0.0
 11
992.89999999999975
 21
876.0
 31
0.0
  0
LINE
  5
121
  8
DETAIL
  6
CONTINUOUS
 62
     5
 10
993.89999999999975
 20
1110.0
 30
0.0
 11
993.89999999999975
 21
1906.0
 31
0.0
  0
LINE
  5
122
  8
DETAIL
  6
CONTINUOUS
 62
     5
 10
5.3999999999996362
 20
1109.0
 30
0.0
 11
992.89999999999975
 21
1109.0
 31
0.0
  0
LINE
  5
123
  8
DETAIL
  6
CONTINUOUS
 62
     5
 10
992.89999999999975
 20
1110.0
 30
0.0
 11
993.89999999999975
 21
1110.0
 31
0.0
  0
LINE
  5
124
  8
DETAIL
  6
CONTINUOUS
 62
     5
 10
992.89999999999975
 20
1109.0
 30
0.0
 11
992.89999999999975
 21
1110.0
 31
0.0
  0
LINE
  5
125
  8
DETAIL
  6
CONTINUOUS
 62
     5
 10
993.89999999999975
 20
876.0
 30
0.0
 11
993.89999999999975
 21
1098.0
 31
0.0
  0
LINE
  5
126
  8
DETAIL
  6
CONTINUOUS
 62
     5
 10
993.89999999999975
 20
1098.0
 30
0.0
 11
992.89999999999975
 21
1098.0
 31
0.0
  0
LINE
  5
127
  8
DETAIL
  6
CONTINUOUS
 62
     5
 10
992.89999999999975
 20
1098.0
 30
0.0
 11
992.89999999999975
 21
1099.0
 31
0.0
  0
LINE
  5
128
  8
DETAIL
  6
CONTINUOUS
 62
     5
 10
-959.49946999999827
 20
874.79999999999973
 30
0.0
 11
-959.49946999999827
 21
865.0
 31
0.0
  0
LINE
  5
129
  8
DETAIL
  6
CONTINUOUS
 62
     5
 10
-963.0
 20
865.0
 30
0.0
 11
-963.0
 21
875.0
 31
0.0
  0
LINE
  5
12A
  8
DETAIL
  6
CONTINUOUS
 62
     5
 10
-6.3999999999996362
 20
865.0
 30
0.0
 11
-992.89999999999975
 21
865.0
 31
0.0
  0
LINE
  5
12B
  8
DETAIL
  6
CONTINUOUS
 62
     5
 10
-993.89999999999975
 20
864.0
 30
0.0
 11
-993.89999999999975
 21
106.0
 31
0.0
  0
LINE
  5
12C
  8
DETAIL
  6
CONTINUOUS
 62
     5
 10
-992.89999999999975
 20
865.0
 30
0.0
 11
-992.89999999999975
 21
864.0
 31
0.0
  0
LINE
  5
12D
  8
DETAIL
  6
CONTINUOUS
 62
     5
 10
-992.89999999999975
 20
864.0
 30
0.0
 11
-993.89999999999975
 21
864.0
 31
0.0
  0
LINE
  5
12E
  8
DETAIL
  6
CONTINUOUS
 62
     5
 10
-992.89999999999975
 20
875.0
 30
0.0
 11
992.89999999999975
 21
875.0
 31
0.0
  0
LINE
  5
12F
  8
DETAIL
  6
CONTINUOUS
 62
     5
 10
-993.89999999999975
 20
876.0
 30
0.0
 11
-992.89999999999975
 21
876.0
 31
0.0
  0
LINE
  5
130
  8
DETAIL
  6
CONTINUOUS
 62
     5
 10
-992.89999999999975
 20
876.0
 30
0.0
 11
-992.89999999999975
 21
875.0
 31
0.0
  0
LINE
  5
131
  8
DETAIL
  6
CONTINUOUS
 62
     5
 10
-959.49946999999827
 20
1099.2
 30
0.0
 11
-959.49946999999827
 21
1109.0
 31
0.0
  0
LINE
  5
132
  8
DETAIL
  6
CONTINUOUS
 62
     5
 10
-963.0
 20
1099.0
 30
0.0
 11
-963.0
 21
1109.0
 31
0.0
  0
LINE
  5
133
  8
DETAIL
  6
CONTINUOUS
 62
     5
 10
-992.89999999999975
 20
1109.0
 30
0.0
 11
-6.3999999999996362
 21
1109.0
 31
0.0
  0
LINE
  5
134
  8
DETAIL
  6
CONTINUOUS
 62
     5
 10
-993.89999999999975
 20
1906.0
 30
0.0
 11
-993.89999999999975
 21
1110.0
 31
0.0
  0
LINE
  5
135
  8
DETAIL
  6
CONTINUOUS
 62
     5
 10
992.89999999999975
 20
1099.0
 30
0.0
 11
-992.89999999999975
 21
1099.0
 31
0.0
  0
LINE
  5
136
  8
DETAIL
  6
CONTINUOUS
 62
     5
 10
-993.89999999999975
 20
1098.0
 30
0.0
 11
-993.89999999999975
 21
876.0
 31
0.0
  0
LINE
  5
137
  8
DETAIL
  6
CONTINUOUS
 62
     5
 10
-993.89999999999975
 20
1110.0
 30
0.0
 11
-992.89999999999975
 21
1110.0
 31
0.0
  0
LINE
  5
138
  8
DETAIL
  6
CONTINUOUS
 62
     5
 10
-992.89999999999975
 20
1110.0
 30
0.0
 11
-992.89999999999975
 21
1109.0
 31
0.0
  0
LINE
  5
139
  8
DETAIL
  6
CONTINUOUS
 62
     5
 10
-992.89999999999975
 20
1099.0
 30
0.0
 11
-992.89999999999975
 21
1098.0
 31
0.0
  0
LINE
  5
13A
  8
DETAIL
  6
CONTINUOUS
 62
     5
 10
-992.89999999999975
 20
1098.0
 30
0.0
 11
-993.89999999999975
 21
1098.0
 31
0.0
  0
CIRCLE
  5
13B
  8
DETAIL
  6
CONTINUOUS
 62
     5
 10
-58.399999999999643
 20
1264.0
 30
0.0
 40
5.0
  0
CIRCLE
  5
13C
  8
DETAIL
  6
CONTINUOUS
 62
     5
 10
-58.399999999999643
 20
1264.0
 30
0.0
 40
8.5
  0
CIRCLE
  5
13D
  8
DETAIL
  6
CONTINUOUS
 62
     5
 10
-58.399999999999643
 20
1264.0
 30
0.0
 40
11.0
  0
LINE
  5
13E
  8
DETAIL
  6
CONTINUOUS
 62
     5
 10
-54.93589900000007
 20
1264.0
 30
0.0
 11
-56.667948999998771
 21
1267.0
 31
0.0
  0
LINE
  5
13F
  8
DETAIL
  6
CONTINUOUS
 62
     5
 10
-61.864101999999541
 20
1264.0
 30
0.0
 11
-60.132050999998683
 21
1261.0
 31
0.0
  0
LINE
  5
140
  8
DETAIL
  6
CONTINUOUS
 62
     5
 10
-56.667948999998771
 20
1267.0
 30
0.0
 11
-60.132050999998683
 21
1267.0
 31
0.0
  0
LINE
  5
141
  8
DETAIL
  6
CONTINUOUS
 62
     5
 10
-60.132050999998683
 20
1261.0
 30
0.0
 11
-56.667948999998771
 21
1261.0
 31
0.0
  0
LINE
  5
142
  8
DETAIL
  6
CONTINUOUS
 62
     5
 10
-56.667948999998771
 20
1261.0
 30
0.0
 11
-54.93589900000007
 21
1264.0
 31
0.0
  0
LINE
  5
143
  8
DETAIL
  6
CONTINUOUS
 62
     5
 10
-60.132050999998683
 20
1267.0
 30
0.0
 11
-61.864101999999541
 21
1264.0
 31
0.0
  0
CIRCLE
  5
144
  8
DETAIL
  6
CONTINUOUS
 62
     5
 10
-58.399999999999643
 20
1754.5
 30
0.0
 40
5.0
  0
CIRCLE
  5
145
  8
DETAIL
  6
CONTINUOUS
 62
     5
 10
-58.399999999999643
 20
1754.5
 30
0.0
 40
8.5
  0
CIRCLE
  5
146
  8
DETAIL
  6
CONTINUOUS
 62
     5
 10
-58.399999999999643
 20
1754.5
 30
0.0
 40
11.0
  0
LINE
  5
147
  8
DETAIL
  6
CONTINUOUS
 62
     5
 10
-56.667948999998771
 20
1757.5
 30
0.0
 11
-60.132050999998683
 21
1757.5
 31
0.0
  0
LINE
  5
148
  8
DETAIL
  6
CONTINUOUS
 62
     5
 10
-60.132050999998683
 20
1751.5
 30
0.0
 11
-56.667948999998771
 21
1751.5
 31
0.0
  0
LINE
  5
149
  8
DETAIL
  6
CONTINUOUS
 62
     5
 10
-54.93589900000007
 20
1754.5
 30
0.0
 11
-56.667948999998771
 21
1757.5
 31
0.0
  0
LINE
  5
14A
  8
DETAIL
  6
CONTINUOUS
 62
     5
 10
-61.864101999999541
 20
1754.5
 30
0.0
 11
-60.132050999998683
 21
1751.5
 31
0.0
  0
LINE
  5
14B
  8
DETAIL
  6
CONTINUOUS
 62
     5
 10
-56.667948999998771
 20
1751.5
 30
0.0
 11
-54.93589900000007
 21
1754.5
 31
0.0
  0
LINE
  5
14C
  8
DETAIL
  6
CONTINUOUS
 62
     5
 10
-60.132050999998683
 20
1757.5
 30
0.0
 11
-61.864101999999541
 21
1754.5
 31
0.0
  0
LINE
  5
14D
  8
DETAIL
  6
CONTINUOUS
 62
     5
 10
-6.3999999999996362
 20
1906.0
 30
0.0
 11
-6.3999999999996362
 21
1907.0
 31
0.0
  0
LINE
  5
14E
  8
DETAIL
  6
CONTINUOUS
 62
     5
 10
5.3999999999996362
 20
1906.0
 30
0.0
 11
-6.3999999999996362
 21
1906.0
 31
0.0
  0
LINE
  5
14F
  8
DETAIL
  6
CONTINUOUS
 62
     5
 10
5.3999999999996362
 20
1907.0
 30
0.0
 11
5.3999999999996362
 21
1906.0
 31
0.0
  0
LINE
  5
150
  8
DETAIL
  6
CONTINUOUS
 62
     5
 10
4.3999999999996362
 20
1906.0
 30
0.0
 11
4.3999999999996362
 21
1110.2
 31
0.0
  0
LINE
  5
151
  8
DETAIL
  6
CONTINUOUS
 62
     5
 10
-5.3999999999996362
 20
1110.2
 30
0.0
 11
-5.3999999999996362
 21
1906.0
 31
0.0
  0
LINE
  5
152
  8
DETAIL
  6
CONTINUOUS
 62
     5
 10
637.5
 20
1053.0
 30
0.0
 11
637.5
 21
953.0
 31
0.0
  0
LINE
  5
153
  8
DETAIL
  6
CONTINUOUS
 62
     5
 10
637.5
 20
953.0
 30
0.0
 11
387.5
 21
953.0
 31
0.0
  0
LINE
  5
154
  8
DETAIL
  6
CONTINUOUS
 62
     5
 10
387.5
 20
1053.0
 30
0.0
 11
637.5
 21
1053.0
 31
0.0
  0
LINE
  5
155
  8
DETAIL
  6
CONTINUOUS
 62
     5
 10
387.5
 20
953.0
 30
0.0
 11
387.5
 21
1053.0
 31
0.0
  0
LINE
  5
156
  8
DETAIL
  6
CONTINUOUS
 62
     5
 10
677.5
 20
1073.0
 30
0.0
 11
907.50000000000011
 21
1073.0
 31
0.0
  0
LINE
  5
157
  8
DETAIL
  6
CONTINUOUS
 62
     5
 10
677.5
 20
933.0
 30
0.0
 11
677.5
 21
1073.0
 31
0.0
  0
LINE
  5
158
  8
DETAIL
  6
CONTINUOUS
 62
     5
 10
907.50000000000011
 20
933.0
 30
0.0
 11
677.5
 21
933.0
 31
0.0
  0
LINE
  5
159
  8
DETAIL
  6
CONTINUOUS
 62
     5
 10
907.50000000000011
 20
1073.0
 30
0.0
 11
907.50000000000011
 21
933.0
 31
0.0
  0
CIRCLE
  5
15A
  8
DETAIL
  6
CONTINUOUS
 62
     5
 10
704.49999999999989
 20
1003.0
 30
0.0
 40
5.0
  0
CIRCLE
  5
15B
  8
DETAIL
  6
CONTINUOUS
 62
     5
 10
704.49999999999989
 20
1003.0
 30
0.0
 40
8.5
  0
CIRCLE
  5
15C
  8
DETAIL
  6
CONTINUOUS
 62
     5
 10
704.49999999999989
 20
1003.0
 30
0.0
 40
11.0
  0
LINE
  5
15D
  8
DETAIL
  6
CONTINUOUS
 62
     5
 10
707.5
 20
1001.267949
 30
0.0
 11
707.5
 21
1004.732051
 31
0.0
  0
LINE
  5
15E
  8
DETAIL
  6
CONTINUOUS
 62
     5
 10
701.5
 20
1004.732051
 30
0.0
 11
701.5
 21
1001.267949
 31
0.0
  0
LINE
  5
15F
  8
DETAIL
  6
CONTINUOUS
 62
     5
 10
707.5
 20
1004.732051
 30
0.0
 11
704.49999999999989
 21
1006.464102
 31
0.0
  0
LINE
  5
160
  8
DETAIL
  6
CONTINUOUS
 62
     5
 10
701.5
 20
1001.267949
 30
0.0
 11
704.49999999999989
 21
999.53589799999975
 31
0.0
  0
LINE
  5
161
  8
DETAIL
  6
CONTINUOUS
 62
     5
 10
704.49999999999989
 20
999.53589799999975
 30
0.0
 11
707.5
 21
1001.267949
 31
0.0
  0
LINE
  5
162
  8
DETAIL
  6
CONTINUOUS
 62
     5
 10
704.49999999999989
 20
1006.464102
 30
0.0
 11
701.5
 21
1004.732051
 31
0.0
  0
LINE
  5
164
  8
DETAIL
  6
CONTINUOUS
 62
     5
 10
1050.0
 20
1916.0
 30
0.0
 11
1050.0
 21
1946.0
 31
0.0
  0
LINE
  5
165
  8
DETAIL
  6
CONTINUOUS
 62
     5
 10
1050.0
 20
1946.0
 30
0.0
 11
1049.0
 21
1946.0
 31
0.0
  0
LINE
  5
166
  8
DETAIL
  6
CONTINUOUS
 62
     5
 10
1049.0
 20
1946.0
 30
0.0
 11
1049.0
 21
1947.0
 31
0.0
  0
ARC
  5
167
  8
DETAIL
  6
CONTINUOUS
 62
     5
 10
1049.0
 20
1946.0
 30
0.0
 40
1.0
 50
0.0
 51
90.0
  0
LINE
  5
168
  8
DETAIL
  6
CONTINUOUS
 62
     5
 10
-1000.0
 20
1912.0
 30
0.0
 11
730.0
 21
1912.0
 31
0.0
  0
LINE
  5
169
  8
DETAIL
  6
CONTINUOUS
 62
     5
 10
-1000.0
 20
1912.0
 30
0.0
 11
-1000.0
 21
1950.0
 31
0.0
  0
LINE
  5
16A
  8
DETAIL
  6
CONTINUOUS
 62
     5
 10
730.0
 20
1950.0
 30
0.0
 11
-1000.0
 21
1950.0
 31
0.0
  0
LINE
  5
16C
  8
DETAIL
  6
CONTINUOUS
 62
     5
 10
730.0
 20
1912.0
 30
0.0
 11
730.0
 21
1950.0
 31
0.0
  0
CIRCLE
  5
16D
  8
DETAIL
  6
CONTINUOUS
 62
     5
 10
710.0
 20
1931.0
 30
0.0
 40
3.549999999999998
  0
LINE
  5
16E
  8
DETAIL
  6
CONTINUOUS
 62
     5
 10
1044.0
 20
1948.0
 30
0.0
 11
1044.0
 21
1947.0
 31
0.0
  0
LINE
  5
16F
  8
DETAIL
  6
CONTINUOUS
 62
     5
 10
1049.0
 20
1948.0
 30
0.0
 11
1049.0
 21
1947.0
 31
0.0
  0
LINE
  5
171
  8
DETAIL
  6
CONTINUOUS
 62
     5
 10
1027.8000000000011
 20
1947.0
 30
0.0
 11
1027.8000000000011
 21
1948.0
 31
0.0
  0
LINE
  5
172
  8
DETAIL
  6
CONTINUOUS
 62
     5
 10
1029.0
 20
1948.0
 30
0.0
 11
1049.0
 21
1948.0
 31
0.0
  0
ARC
  5
173
  8
DETAIL
  6
CONTINUOUS
 62
     5
 10
1029.0
 20
1947.0
 30
0.0
 40
1.0
 50
90.0
 51
180.0
  0
LINE
  5
174
  8
DETAIL
  6
CONTINUOUS
 62
     5
 10
1027.8000000000011
 20
1948.0
 30
0.0
 11
730.0
 21
1948.0
 31
0.0
  0
LINE
  5
181
  8
DETAIL
  6
DASHED
 62
     5
 10
962.5
 20
1914.0
 30
0.0
 11
997.49999999999989
 21
1914.0
 31
0.0
  0
LINE
  5
194
  8
DETAIL
  6
CONTINUOUS
 62
     5
 10
-1004.899999999999
 20
1819.5
 30
0.0
 11
-1002.899999999999
 21
1819.5
 31
0.0
  0
LINE
  5
195
  8
DETAIL
  6
CONTINUOUS
 62
     5
 10
-1004.899999999999
 20
1759.5
 30
0.0
 11
-1004.899999999999
 21
1824.5
 31
0.0
  0
LINE
  5
196
  8
DETAIL
  6
CONTINUOUS
 62
     5
 10
-1000.65
 20
1824.5
 30
0.0
 11
-1000.65
 21
1843.75
 31
0.0
  0
ARC
  5
197
  8
DETAIL
  6
CONTINUOUS
 62
     5
 10
-998.39999999999975
 20
1843.75
 30
0.0
 40
2.25
 50
0.0
 51
180.0
  0
LINE
  5
198
  8
DETAIL
  6
CONTINUOUS
 62
     5
 10
-996.14999999999975
 20
1824.5
 30
0.0
 11
-996.14999999999975
 21
1843.75
 31
0.0
  0
LINE
  5
199
  8
DETAIL
  6
CONTINUOUS
 62
     5
 10
-1002.899584000001
 20
1804.5
 30
0.0
 11
-993.89999999999975
 21
1804.5
 31
0.0
  0
LINE
  5
19A
  8
DETAIL
  6
CONTINUOUS
 62
     5
 10
-1002.899999999999
 20
1805.0
 30
0.0
 11
-993.90041699999881
 21
1805.0
 31
0.0
  0
LINE
  5
19B
  8
DETAIL
  6
CONTINUOUS
 62
     5
 10
-1004.899999999999
 20
1764.5
 30
0.0
 11
-1002.899999999999
 21
1764.5
 31
0.0
  0
LINE
  5
19C
  8
DETAIL
  6
CONTINUOUS
 62
     5
 10
-1000.65
 20
1759.5
 30
0.0
 11
-1000.65
 21
1740.25
 31
0.0
  0
LINE
  5
19D
  8
DETAIL
  6
CONTINUOUS
 62
     5
 10
-1002.899999999999
 20
1779.0
 30
0.0
 11
-993.90041699999881
 21
1779.0
 31
0.0
  0
LINE
  5
19E
  8
DETAIL
  6
CONTINUOUS
 62
     5
 10
-1002.899584000001
 20
1779.5
 30
0.0
 11
-993.89999999999975
 21
1779.5
 31
0.0
  0
LINE
  5
19F
  8
DETAIL
  6
CONTINUOUS
 62
     5
 10
-996.14999999999975
 20
1759.5
 30
0.0
 11
-996.14999999999975
 21
1740.25
 31
0.0
  0
ARC
  5
1A0
  8
DETAIL
  6
CONTINUOUS
 62
     5
 10
-998.39999999999975
 20
1740.25
 30
0.0
 40
2.25
 50
180.0
 51
0.0
  0
LINE
  5
1A1
  8
DETAIL
  6
CONTINUOUS
 62
     5
 10
-1004.899999999999
 20
1824.5
 30
0.0
 11
-993.90040899999985
 21
1824.5
 31
0.0
  0
LINE
  5
1A2
  8
DETAIL
  6
CONTINUOUS
 62
     5
 10
-1002.899999999999
 20
1759.5
 30
0.0
 11
-1002.899999999999
 21
1824.5
 31
0.0
  0
LINE
  5
1A3
  8
DETAIL
  6
CONTINUOUS
 62
     5
 10
-993.90040899999985
 20
1759.5
 30
0.0
 11
-1004.899999999999
 21
1759.5
 31
0.0
  0
LINE
  5
1A4
  8
DETAIL
  6
CONTINUOUS
 62
     5
 10
-1004.899999999999
 20
1251.5
 30
0.0
 11
-1002.899999999999
 21
1251.5
 31
0.0
  0
LINE
  5
1A5
  8
DETAIL
  6
CONTINUOUS
 62
     5
 10
-1004.899999999999
 20
1191.5
 30
0.0
 11
-1004.899999999999
 21
1256.5
 31
0.0
  0
LINE
  5
1A6
  8
DETAIL
  6
CONTINUOUS
 62
     5
 10
-1000.65
 20
1256.5
 30
0.0
 11
-1000.65
 21
1275.75
 31
0.0
  0
ARC
  5
1A7
  8
DETAIL
  6
CONTINUOUS
 62
     5
 10
-998.39999999999975
 20
1275.75
 30
0.0
 40
2.25
 50
0.0
 51
180.0
  0
LINE
  5
1A8
  8
DETAIL
  6
CONTINUOUS
 62
     5
 10
-996.14999999999975
 20
1256.5
 30
0.0
 11
-996.14999999999975
 21
1275.75
 31
0.0
  0
LINE
  5
1A9
  8
DETAIL
  6
CONTINUOUS
 62
     5
 10
-1002.899584000001
 20
1236.5
 30
0.0
 11
-993.89999999999975
 21
1236.5
 31
0.0
  0
LINE
  5
1AA
  8
DETAIL
  6
CONTINUOUS
 62
     5
 10
-1002.899999999999
 20
1237.0
 30
0.0
 11
-993.90041699999881
 21
1237.0
 31
0.0
  0
LINE
  5
1AB
  8
DETAIL
  6
CONTINUOUS
 62
     5
 10
-1004.899999999999
 20
1196.5
 30
0.0
 11
-1002.899999999999
 21
1196.5
 31
0.0
  0
LINE
  5
1AC
  8
DETAIL
  6
CONTINUOUS
 62
     5
 10
-1000.65
 20
1191.5
 30
0.0
 11
-1000.65
 21
1172.25
 31
0.0
  0
LINE
  5
1AD
  8
DETAIL
  6
CONTINUOUS
 62
     5
 10
-1002.899999999999
 20
1211.0
 30
0.0
 11
-993.90041699999881
 21
1211.0
 31
0.0
  0
LINE
  5
1AE
  8
DETAIL
  6
CONTINUOUS
 62
     5
 10
-1002.899584000001
 20
1211.5
 30
0.0
 11
-993.89999999999975
 21
1211.5
 31
0.0
  0
LINE
  5
1AF
  8
DETAIL
  6
CONTINUOUS
 62
     5
 10
-996.14999999999975
 20
1191.5
 30
0.0
 11
-996.14999999999975
 21
1172.25
 31
0.0
  0
ARC
  5
1B0
  8
DETAIL
  6
CONTINUOUS
 62
     5
 10
-998.39999999999975
 20
1172.25
 30
0.0
 40
2.25
 50
180.0
 51
0.0
  0
LINE
  5
1B1
  8
DETAIL
  6
CONTINUOUS
 62
     5
 10
-1004.899999999999
 20
1256.5
 30
0.0
 11
-993.90040899999985
 21
1256.5
 31
0.0
  0
LINE
  5
1B2
  8
DETAIL
  6
CONTINUOUS
 62
     5
 10
-1002.899999999999
 20
1191.5
 30
0.0
 11
-1002.899999999999
 21
1256.5
 31
0.0
  0
LINE
  5
1B3
  8
DETAIL
  6
CONTINUOUS
 62
     5
 10
-993.90040899999985
 20
1191.5
 30
0.0
 11
-1004.899999999999
 21
1191.5
 31
0.0
  0
LINE
  5
1B4
  8
DETAIL
  6
CONTINUOUS
 62
     5
 10
-1004.899999999999
 20
762.5
 30
0.0
 11
-1002.899999999999
 21
762.5
 31
0.0
  0
LINE
  5
1B5
  8
DETAIL
  6
CONTINUOUS
 62
     5
 10
-1004.899999999999
 20
702.5
 30
0.0
 11
-1004.899999999999
 21
767.49999999999989
 31
0.0
  0
LINE
  5
1B6
  8
DETAIL
  6
CONTINUOUS
 62
     5
 10
-1000.65
 20
767.49999999999989
 30
0.0
 11
-1000.65
 21
786.75
 31
0.0
  0
ARC
  5
1B7
  8
DETAIL
  6
CONTINUOUS
 62
     5
 10
-998.39999999999975
 20
786.75
 30
0.0
 40
2.25
 50
0.0
 51
180.0
  0
LINE
  5
1B8
  8
DETAIL
  6
CONTINUOUS
 62
     5
 10
-996.14999999999975
 20
767.49999999999989
 30
0.0
 11
-996.14999999999975
 21
786.75
 31
0.0
  0
LINE
  5
1B9
  8
DETAIL
  6
CONTINUOUS
 62
     5
 10
-1002.899584000001
 20
747.5
 30
0.0
 11
-993.89999999999975
 21
747.5
 31
0.0
  0
LINE
  5
1BA
  8
DETAIL
  6
CONTINUOUS
 62
     5
 10
-1002.899999999999
 20
748.0
 30
0.0
 11
-993.90041699999881
 21
748.0
 31
0.0
  0
LINE
  5
1BB
  8
DETAIL
  6
CONTINUOUS
 62
     5
 10
-1004.899999999999
 20
707.5
 30
0.0
 11
-1002.899999999999
 21
707.5
 31
0.0
  0
LINE
  5
1BC
  8
DETAIL
  6
CONTINUOUS
 62
     5
 10
-1000.65
 20
702.5
 30
0.0
 11
-1000.65
 21
683.25
 31
0.0
  0
LINE
  5
1BD
  8
DETAIL
  6
CONTINUOUS
 62
     5
 10
-1002.899999999999
 20
722.0
 30
0.0
 11
-993.90041699999881
 21
722.0
 31
0.0
  0
LINE
  5
1BE
  8
DETAIL
  6
CONTINUOUS
 62
     5
 10
-1002.899584000001
 20
722.5
 30
0.0
 11
-993.89999999999975
 21
722.5
 31
0.0
  0
LINE
  5
1BF
  8
DETAIL
  6
CONTINUOUS
 62
     5
 10
-996.14999999999975
 20
702.5
 30
0.0
 11
-996.14999999999975
 21
683.25
 31
0.0
  0
ARC
  5
1C0
  8
DETAIL
  6
CONTINUOUS
 62
     5
 10
-998.39999999999975
 20
683.25
 30
0.0
 40
2.25
 50
180.0
 51
0.0
  0
LINE
  5
1C1
  8
DETAIL
  6
CONTINUOUS
 62
     5
 10
-1004.899999999999
 20
767.49999999999989
 30
0.0
 11
-993.90040899999985
 21
767.49999999999989
 31
0.0
  0
LINE
  5
1C2
  8
DETAIL
  6
CONTINUOUS
 62
     5
 10
-1002.899999999999
 20
702.5
 30
0.0
 11
-1002.899999999999
 21
767.49999999999989
 31
0.0
  0
LINE
  5
1C3
  8
DETAIL
  6
CONTINUOUS
 62
     5
 10
-993.90040899999985
 20
702.5
 30
0.0
 11
-1004.899999999999
 21
702.5
 31
0.0
  0
LINE
  5
1C4
  8
DETAIL
  6
CONTINUOUS
 62
     5
 10
-1004.899999999999
 20
262.5
 30
0.0
 11
-1002.899999999999
 21
262.5
 31
0.0
  0
LINE
  5
1C5
  8
DETAIL
  6
CONTINUOUS
 62
     5
 10
-1004.899999999999
 20
202.5
 30
0.0
 11
-1004.899999999999
 21
267.5
 31
0.0
  0
LINE
  5
1C6
  8
DETAIL
  6
CONTINUOUS
 62
     5
 10
-1000.65
 20
267.5
 30
0.0
 11
-1000.65
 21
286.75
 31
0.0
  0
ARC
  5
1C7
  8
DETAIL
  6
CONTINUOUS
 62
     5
 10
-998.39999999999975
 20
286.75
 30
0.0
 40
2.25
 50
0.0
 51
180.0
  0
LINE
  5
1C8
  8
DETAIL
  6
CONTINUOUS
 62
     5
 10
-996.14999999999975
 20
267.5
 30
0.0
 11
-996.14999999999975
 21
286.75
 31
0.0
  0
LINE
  5
1C9
  8
DETAIL
  6
CONTINUOUS
 62
     5
 10
-1002.899584000001
 20
247.5
 30
0.0
 11
-993.89999999999975
 21
247.5
 31
0.0
  0
LINE
  5
1CA
  8
DETAIL
  6
CONTINUOUS
 62
     5
 10
-1002.899999999999
 20
248.0
 30
0.0
 11
-993.90041699999881
 21
248.0
 31
0.0
  0
LINE
  5
1CB
  8
DETAIL
  6
CONTINUOUS
 62
     5
 10
-1004.899999999999
 20
207.5
 30
0.0
 11
-1002.899999999999
 21
207.5
 31
0.0
  0
LINE
  5
1CC
  8
DETAIL
  6
CONTINUOUS
 62
     5
 10
-1000.65
 20
202.5
 30
0.0
 11
-1000.65
 21
183.25
 31
0.0
  0
LINE
  5
1CD
  8
DETAIL
  6
CONTINUOUS
 62
     5
 10
-1002.899999999999
 20
222.0
 30
0.0
 11
-993.90041699999881
 21
222.0
 31
0.0
  0
LINE
  5
1CE
  8
DETAIL
  6
CONTINUOUS
 62
     5
 10
-1002.899584000001
 20
222.5
 30
0.0
 11
-993.89999999999975
 21
222.5
 31
0.0
  0
LINE
  5
1CF
  8
DETAIL
  6
CONTINUOUS
 62
     5
 10
-996.14999999999975
 20
202.5
 30
0.0
 11
-996.14999999999975
 21
183.25
 31
0.0
  0
ARC
  5
1D0
  8
DETAIL
  6
CONTINUOUS
 62
     5
 10
-998.39999999999975
 20
183.25
 30
0.0
 40
2.25
 50
180.0
 51
0.0
  0
LINE
  5
1D1
  8
DETAIL
  6
CONTINUOUS
 62
     5
 10
-1004.899999999999
 20
267.5
 30
0.0
 11
-993.90040899999985
 21
267.5
 31
0.0
  0
LINE
  5
1D2
  8
DETAIL
  6
CONTINUOUS
 62
     5
 10
-1002.899999999999
 20
202.5
 30
0.0
 11
-1002.899999999999
 21
267.5
 31
0.0
  0
LINE
  5
1D3
  8
DETAIL
  6
CONTINUOUS
 62
     5
 10
-993.90040899999985
 20
202.5
 30
0.0
 11
-1004.899999999999
 21
202.5
 31
0.0
  0
LINE
  5
1D4
  8
DETAIL
  6
CONTINUOUS
 62
     5
 10
1004.899999999999
 20
262.5
 30
0.0
 11
1002.899999999999
 21
262.5
 31
0.0
  0
LINE
  5
1D5
  8
DETAIL
  6
CONTINUOUS
 62
     5
 10
1004.899999999999
 20
202.5
 30
0.0
 11
1004.899999999999
 21
267.5
 31
0.0
  0
LINE
  5
1D6
  8
DETAIL
  6
CONTINUOUS
 62
     5
 10
1000.65
 20
267.5
 30
0.0
 11
1000.65
 21
286.75
 31
0.0
  0
ARC
  5
1D7
  8
DETAIL
  6
CONTINUOUS
 62
     5
 10
998.39999999999975
 20
286.75
 30
0.0
 40
2.25
 50
0.0
 51
180.0
  0
LINE
  5
1D8
  8
DETAIL
  6
CONTINUOUS
 62
     5
 10
996.14999999999975
 20
267.5
 30
0.0
 11
996.14999999999975
 21
286.75
 31
0.0
  0
LINE
  5
1D9
  8
DETAIL
  6
CONTINUOUS
 62
     5
 10
1002.899583
 20
247.5
 30
0.0
 11
993.89999999999975
 21
247.5
 31
0.0
  0
LINE
  5
1DA
  8
DETAIL
  6
CONTINUOUS
 62
     5
 10
1002.899999999999
 20
248.0
 30
0.0
 11
993.90041600000029
 21
248.0
 31
0.0
  0
LINE
  5
1DB
  8
DETAIL
  6
CONTINUOUS
 62
     5
 10
1004.899999999999
 20
207.5
 30
0.0
 11
1002.899999999999
 21
207.5
 31
0.0
  0
LINE
  5
1DC
  8
DETAIL
  6
CONTINUOUS
 62
     5
 10
1000.65
 20
202.5
 30
0.0
 11
1000.65
 21
183.25
 31
0.0
  0
LINE
  5
1DD
  8
DETAIL
  6
CONTINUOUS
 62
     5
 10
1002.899999999999
 20
222.0
 30
0.0
 11
993.90041600000029
 21
222.0
 31
0.0
  0
LINE
  5
1DE
  8
DETAIL
  6
CONTINUOUS
 62
     5
 10
1002.899583
 20
222.5
 30
0.0
 11
993.89999999999975
 21
222.5
 31
0.0
  0
LINE
  5
1DF
  8
DETAIL
  6
CONTINUOUS
 62
     5
 10
996.14999999999975
 20
202.5
 30
0.0
 11
996.14999999999975
 21
183.25
 31
0.0
  0
ARC
  5
1E0
  8
DETAIL
  6
CONTINUOUS
 62
     5
 10
998.39999999999975
 20
183.25
 30
0.0
 40
2.25
 50
180.0
 51
0.0
  0
LINE
  5
1E1
  8
DETAIL
  6
CONTINUOUS
 62
     5
 10
1004.899999999999
 20
267.5
 30
0.0
 11
993.90040899999985
 21
267.5
 31
0.0
  0
LINE
  5
1E2
  8
DETAIL
  6
CONTINUOUS
 62
     5
 10
1002.899999999999
 20
202.5
 30
0.0
 11
1002.899999999999
 21
267.5
 31
0.0
  0
LINE
  5
1E3
  8
DETAIL
  6
CONTINUOUS
 62
     5
 10
993.90040899999985
 20
202.5
 30
0.0
 11
1004.899999999999
 21
202.5
 31
0.0
  0
LINE
  5
1E4
  8
DETAIL
  6
CONTINUOUS
 62
     5
 10
1004.899999999999
 20
762.5
 30
0.0
 11
1002.899999999999
 21
762.5
 31
0.0
  0
LINE
  5
1E5
  8
DETAIL
  6
CONTINUOUS
 62
     5
 10
1004.899999999999
 20
702.5
 30
0.0
 11
1004.899999999999
 21
767.49999999999989
 31
0.0
  0
LINE
  5
1E6
  8
DETAIL
  6
CONTINUOUS
 62
     5
 10
1000.65
 20
767.49999999999989
 30
0.0
 11
1000.65
 21
786.75
 31
0.0
  0
ARC
  5
1E7
  8
DETAIL
  6
CONTINUOUS
 62
     5
 10
998.39999999999975
 20
786.75
 30
0.0
 40
2.25
 50
0.0
 51
180.0
  0
LINE
  5
1E8
  8
DETAIL
  6
CONTINUOUS
 62
     5
 10
996.14999999999975
 20
767.49999999999989
 30
0.0
 11
996.14999999999975
 21
786.75
 31
0.0
  0
LINE
  5
1E9
  8
DETAIL
  6
CONTINUOUS
 62
     5
 10
1002.899583
 20
747.5
 30
0.0
 11
993.89999999999975
 21
747.5
 31
0.0
  0
LINE
  5
1EA
  8
DETAIL
  6
CONTINUOUS
 62
     5
 10
1002.899999999999
 20
748.0
 30
0.0
 11
993.90041600000029
 21
748.0
 31
0.0
  0
LINE
  5
1EB
  8
DETAIL
  6
CONTINUOUS
 62
     5
 10
1004.899999999999
 20
707.5
 30
0.0
 11
1002.899999999999
 21
707.5
 31
0.0
  0
LINE
  5
1EC
  8
DETAIL
  6
CONTINUOUS
 62
     5
 10
1000.65
 20
702.5
 30
0.0
 11
1000.65
 21
683.25
 31
0.0
  0
LINE
  5
1ED
  8
DETAIL
  6
CONTINUOUS
 62
     5
 10
1002.899999999999
 20
722.0
 30
0.0
 11
993.90041600000029
 21
722.0
 31
0.0
  0
LINE
  5
1EE
  8
DETAIL
  6
CONTINUOUS
 62
     5
 10
1002.899583
 20
722.5
 30
0.0
 11
993.89999999999975
 21
722.5
 31
0.0
  0
LINE
  5
1EF
  8
DETAIL
  6
CONTINUOUS
 62
     5
 10
996.14999999999975
 20
702.5
 30
0.0
 11
996.14999999999975
 21
683.25
 31
0.0
  0
ARC
  5
1F0
  8
DETAIL
  6
CONTINUOUS
 62
     5
 10
998.39999999999975
 20
683.25
 30
0.0
 40
2.25
 50
180.0
 51
0.0
  0
LINE
  5
1F1
  8
DETAIL
  6
CONTINUOUS
 62
     5
 10
1004.899999999999
 20
767.49999999999989
 30
0.0
 11
993.90040899999985
 21
767.49999999999989
 31
0.0
  0
LINE
  5
1F2
  8
DETAIL
  6
CONTINUOUS
 62
     5
 10
1002.899999999999
 20
702.5
 30
0.0
 11
1002.899999999999
 21
767.49999999999989
 31
0.0
  0
LINE
  5
1F3
  8
DETAIL
  6
CONTINUOUS
 62
     5
 10
993.90040899999985
 20
702.5
 30
0.0
 11
1004.899999999999
 21
702.5
 31
0.0
  0
LINE
  5
1F4
  8
DETAIL
  6
CONTINUOUS
 62
     5
 10
1004.899999999999
 20
1251.5
 30
0.0
 11
1002.899999999999
 21
1251.5
 31
0.0
  0
LINE
  5
1F5
  8
DETAIL
  6
CONTINUOUS
 62
     5
 10
1004.899999999999
 20
1191.5
 30
0.0
 11
1004.899999999999
 21
1256.5
 31
0.0
  0
LINE
  5
1F6
  8
DETAIL
  6
CONTINUOUS
 62
     5
 10
1000.65
 20
1256.5
 30
0.0
 11
1000.65
 21
1275.75
 31
0.0
  0
ARC
  5
1F7
  8
DETAIL
  6
CONTINUOUS
 62
     5
 10
998.39999999999975
 20
1275.75
 30
0.0
 40
2.25
 50
0.0
 51
180.0
  0
LINE
  5
1F8
  8
DETAIL
  6
CONTINUOUS
 62
     5
 10
996.14999999999975
 20
1256.5
 30
0.0
 11
996.14999999999975
 21
1275.75
 31
0.0
  0
LINE
  5
1F9
  8
DETAIL
  6
CONTINUOUS
 62
     5
 10
1002.899583
 20
1236.5
 30
0.0
 11
993.89999999999975
 21
1236.5
 31
0.0
  0
LINE
  5
1FA
  8
DETAIL
  6
CONTINUOUS
 62
     5
 10
1002.899999999999
 20
1237.0
 30
0.0
 11
993.90041600000029
 21
1237.0
 31
0.0
  0
LINE
  5
1FB
  8
DETAIL
  6
CONTINUOUS
 62
     5
 10
1004.899999999999
 20
1196.5
 30
0.0
 11
1002.899999999999
 21
1196.5
 31
0.0
  0
LINE
  5
1FC
  8
DETAIL
  6
CONTINUOUS
 62
     5
 10
1000.65
 20
1191.5
 30
0.0
 11
1000.65
 21
1172.25
 31
0.0
  0
LINE
  5
1FD
  8
DETAIL
  6
CONTINUOUS
 62
     5
 10
1002.899999999999
 20
1211.0
 30
0.0
 11
993.90041600000029
 21
1211.0
 31
0.0
  0
LINE
  5
1FE
  8
DETAIL
  6
CONTINUOUS
 62
     5
 10
1002.899583
 20
1211.5
 30
0.0
 11
993.89999999999975
 21
1211.5
 31
0.0
  0
LINE
  5
1FF
  8
DETAIL
  6
CONTINUOUS
 62
     5
 10
996.14999999999975
 20
1191.5
 30
0.0
 11
996.14999999999975
 21
1172.25
 31
0.0
  0
ARC
  5
200
  8
DETAIL
  6
CONTINUOUS
 62
     5
 10
998.39999999999975
 20
1172.25
 30
0.0
 40
2.25
 50
180.0
 51
0.0
  0
LINE
  5
201
  8
DETAIL
  6
CONTINUOUS
 62
     5
 10
1004.899999999999
 20
1256.5
 30
0.0
 11
993.90040899999985
 21
1256.5
 31
0.0
  0
LINE
  5
202
  8
DETAIL
  6
CONTINUOUS
 62
     5
 10
1002.899999999999
 20
1191.5
 30
0.0
 11
1002.899999999999
 21
1256.5
 31
0.0
  0
LINE
  5
203
  8
DETAIL
  6
CONTINUOUS
 62
     5
 10
993.90040899999985
 20
1191.5
 30
0.0
 11
1004.899999999999
 21
1191.5
 31
0.0
  0
LINE
  5
204
  8
DETAIL
  6
CONTINUOUS
 62
     5
 10
1004.899999999999
 20
1819.5
 30
0.0
 11
1002.899999999999
 21
1819.5
 31
0.0
  0
LINE
  5
205
  8
DETAIL
  6
CONTINUOUS
 62
     5
 10
1004.899999999999
 20
1759.5
 30
0.0
 11
1004.899999999999
 21
1824.5
 31
0.0
  0
LINE
  5
206
  8
DETAIL
  6
CONTINUOUS
 62
     5
 10
1000.65
 20
1824.5
 30
0.0
 11
1000.65
 21
1843.75
 31
0.0
  0
ARC
  5
207
  8
DETAIL
  6
CONTINUOUS
 62
     5
 10
998.39999999999975
 20
1843.75
 30
0.0
 40
2.25
 50
0.0
 51
180.0
  0
LINE
  5
208
  8
DETAIL
  6
CONTINUOUS
 62
     5
 10
996.14999999999975
 20
1824.5
 30
0.0
 11
996.14999999999975
 21
1843.75
 31
0.0
  0
LINE
  5
209
  8
DETAIL
  6
CONTINUOUS
 62
     5
 10
1002.899583
 20
1804.5
 30
0.0
 11
993.89999999999975
 21
1804.5
 31
0.0
  0
LINE
  5
20A
  8
DETAIL
  6
CONTINUOUS
 62
     5
 10
1002.899999999999
 20
1805.0
 30
0.0
 11
993.90041600000029
 21
1805.0
 31
0.0
  0
LINE
  5
20B
  8
DETAIL
  6
CONTINUOUS
 62
     5
 10
1004.899999999999
 20
1764.5
 30
0.0
 11
1002.899999999999
 21
1764.5
 31
0.0
  0
LINE
  5
20C
  8
DETAIL
  6
CONTINUOUS
 62
     5
 10
1000.65
 20
1759.5
 30
0.0
 11
1000.65
 21
1740.25
 31
0.0
  0
LINE
  5
20D
  8
DETAIL
  6
CONTINUOUS
 62
     5
 10
1002.899999999999
 20
1779.0
 30
0.0
 11
993.90041600000029
 21
1779.0
 31
0.0
  0
LINE
  5
20E
  8
DETAIL
  6
CONTINUOUS
 62
     5
 10
1002.899583
 20
1779.5
 30
0.0
 11
993.89999999999975
 21
1779.5
 31
0.0
  0
LINE
  5
20F
  8
DETAIL
  6
CONTINUOUS
 62
     5
 10
996.14999999999975
 20
1759.5
 30
0.0
 11
996.14999999999975
 21
1740.25
 31
0.0
  0
ARC
  5
210
  8
DETAIL
  6
CONTINUOUS
 62
     5
 10
998.39999999999975
 20
1740.25
 30
0.0
 40
2.25
 50
180.0
 51
0.0
  0
LINE
  5
211
  8
DETAIL
  6
CONTINUOUS
 62
     5
 10
1004.899999999999
 20
1824.5
 30
0.0
 11
993.90040899999985
 21
1824.5
 31
0.0
  0
LINE
  5
212
  8
DETAIL
  6
CONTINUOUS
 62
     5
 10
1002.899999999999
 20
1759.5
 30
0.0
 11
1002.899999999999
 21
1824.5
 31
0.0
  0
LINE
  5
213
  8
DETAIL
  6
CONTINUOUS
 62
     5
 10
993.90040899999985
 20
1759.5
 30
0.0
 11
1004.899999999999
 21
1759.5
 31
0.0
  0
LINE
  5
23D
  8
DETAIL
  6
CONTINUOUS
 62
     5
 10
856.49999999999989
 20
1948.0
 30
0.0
 11
868.5
 21
1948.0
 31
0.0
  0
LINE
  5
23E
  8
DETAIL
  6
CONTINUOUS
 62
     5
 10
1033.0
 20
1948.0
 30
0.0
 11
1045.0
 21
1948.0
 31
0.0
  0
LINE
  5
26A
  8
DETAIL
  6
CONTINUOUS
 62
     5
 10
-944.0
 20
100.0
 30
0.0
 11
-1050.0
 21
100.0
 31
0.0
  0
LINE
  5
26B
  8
DETAIL
  6
CONTINUOUS
 62
     5
 10
-944.0
 20
100.0
 30
0.0
 11
-944.0
 21
105.0
 31
0.0
  0
LINE
  5
26C
  8
DETAIL
  6
CONTINUOUS
 62
     5
 10
1050.0
 20
0.0
 30
0.0
 11
1050.0
 21
100.0
 31
0.0
  0
LINE
  5
26D
  8
DETAIL
  6
CONTINUOUS
 62
     5
 10
1050.0
 20
100.0
 30
0.0
 11
944.0
 21
100.0
 31
0.0
  0
LINE
  5
26E
  8
DETAIL
  6
CONTINUOUS
 62
     5
 10
944.0
 20
99.917156999999861
 30
0.0
 11
944.0
 21
105.0
 31
0.0
  0
LINE
  5
26F
  8
DETAIL
  6
CONTINUOUS
 62
     5
 10
1050.0
 20
0.0
 30
0.0
 11
-1050.0
 21
0.0
 31
0.0
  0
LINE
  5
270
  8
DETAIL
  6
CONTINUOUS
 62
     5
 10
1050.0
 20
3.1999999999998181
 30
0.0
 11
-1050.0
 21
3.1999999999998181
 31
0.0
  0
LINE
  5
271
  8
DETAIL
  6
CONTINUOUS
 62
     5
 10
-1050.0
 20
0.0
 30
0.0
 11
-1050.0
 21
100.0
 31
0.0
  0
LINE
  5
272
  8
DETAIL
  6
CONTINUOUS
 62
     5
 10
1050.0
 20
66.799999999999727
 30
0.0
 11
-1050.0
 21
66.799999999999727
 31
0.0
  0
POINT
  5
28D
  8
DEFPOINTS
  6
CONTINUOUS
 62
     7
 10
-1050.0
 20
0.0
 30
0.0
  0
POINT
  5
28E
  8
DEFPOINTS
  6
CONTINUOUS
 62
     7
 10
1050.0
 20
0.0
 30
0.0
  0
TEXT
  5
290
  8
NOTE
  6
CONTINUOUS
 62
     4
 10
-108.8643942060316
 20
-173.514023846762
 30
0.0
 40
60.0
  1
空気吹出
 50
0.0000025044165917
 41
0.7
  7
STANDARD1
  0
TEXT
  5
291
  8
NOTE
  6
CONTINUOUS
 62
     4
 10
-89.58483450528179
 20
2062.3482499504271
 30
0.0
 40
60.0
  1
空気吸込
 50
0.0000025044165917
 41
0.7
  7
STANDARD1
  0
LINE
  5
292
  8
DETAIL
  6
CONTINUOUS
 62
     5
 10
1044.0
 20
1947.0
 30
0.0
 11
730.0
 21
1947.0
 31
0.0
  0
POINT
  5
29D
  8
DEFPOINTS
  6
CONTINUOUS
 62
     7
 10
1049.0
 20
1915.0
 30
0.0
  0
POINT
  5
29E
  8
DEFPOINTS
  6
CONTINUOUS
 62
     7
 10
1050.0
 20
1950.0000000000009
 30
0.0
  0
POINT
  5
2A6
  8
DEFPOINTS
  6
CONTINUOUS
 62
     7
 10
1049.0
 20
1915.0
 30
0.0
  0
POINT
  5
2B0
  8
DEFPOINTS
  6
CONTINUOUS
 62
     7
 10
1050.000000000005
 20
1950.0
 30
0.0
  0
LINE
  5
2B2
  8
SIZE
  6
CONTINUOUS
 62
    30
 10
-1050.0
 20
-20.0
 30
0.0
 11
-1050.0
 21
-830.22807784067015
 31
0.0
  0
LINE
  5
2B3
  8
SIZE
  6
CONTINUOUS
 62
    30
 10
-690.0
 20
-7.9681620000001203
 30
0.0
 11
-690.0
 21
-830.22807784067015
 31
0.0
  0
LINE
  5
2B4
  8
SIZE
  6
CONTINUOUS
 62
    30
 10
-1050.0
 20
-810.22807784067027
 30
0.0
 11
-690.0
 21
-810.22807784067027
 31
0.0
  0
CIRCLE
  5
2B5
  8
SIZE
  6
CONTINUOUS
 62
    30
 10
-1050.0
 20
-810.22807784067027
 30
0.0
 40
7.5
  0
CIRCLE
  5
2B6
  8
SIZE
  6
CONTINUOUS
 62
    30
 10
-690.0
 20
-810.22807784067027
 30
0.0
 40
7.5
  0
TEXT
  5
2B7
  8
SIZE
  6
CONTINUOUS
 62
    30
 10
-939.42857142857144
 20
-790.22807784067015
 30
0.0
 40
60.0
  1
360
 41
0.9
 72
     1
 11
-870.0
 21
-790.22807784067015
 31
0.0
  0
POINT
  5
2B8
  8
DEFPOINTS
  6
CONTINUOUS
 62
     7
 10
-1050.0
 20
0.0
 30
0.0
  0
POINT
  5
2B9
  8
DEFPOINTS
  6
CONTINUOUS
 62
     7
 10
-690.0
 20
12.03183799999988
 30
0.0
  0
POINT
  5
2BA
  8
DEFPOINTS
  6
CONTINUOUS
 62
     7
 10
-690.0
 20
-810.22807784067027
 30
0.0
  0
LINE
  5
2BB
  8
SIZE
  6
CONTINUOUS
 62
    30
 10
-690.0
 20
-7.9681620000001203
 30
0.0
 11
-690.0
 21
-830.22807784067015
 31
0.0
  0
LINE
  5
2BC
  8
SIZE
  6
CONTINUOUS
 62
    30
 10
-590.0
 20
-7.9681620000001203
 30
0.0
 11
-590.0
 21
-830.22807784067015
 31
0.0
  0
LINE
  5
2BD
  8
SIZE
  6
CONTINUOUS
 62
    30
 10
-690.0
 20
-810.22807784067027
 30
0.0
 11
-590.0
 21
-810.22807784067027
 31
0.0
  0
LINE
  5
2BE
  8
SIZE
  6
CONTINUOUS
 62
    30
 10
-640.0
 20
-810.22807784067027
 30
0.0
 11
-697.75144529950012
 21
-918.68840895296955
 31
0.0
  0
LINE
  5
2BF
  8
SIZE
  6
CONTINUOUS
 62
    30
 10
-697.75144529950012
 20
-918.68840895296955
 30
0.0
 11
-866.32287387092867
 21
-918.68840895296955
 31
0.0
  0
TEXT
  5
2C0
  8
SIZE
  6
CONTINUOUS
 62
    30
 10
-846.32287387092856
 20
-898.68840895296955
 30
0.0
 40
60.0
  1
100
 41
0.9
 72
     1
 11
-782.03715958521423
 21
-898.68840895296955
 31
0.0
  0
CIRCLE
  5
2C1
  8
SIZE
  6
CONTINUOUS
 62
    30
 10
-690.0
 20
-810.22807784067027
 30
0.0
 40
7.5
  0
CIRCLE
  5
2C2
  8
SIZE
  6
CONTINUOUS
 62
    30
 10
-590.0
 20
-810.22807784067027
 30
0.0
 40
7.5
  0
POINT
  5
2C3
  8
DEFPOINTS
  6
CONTINUOUS
 62
     7
 10
-690.0
 20
12.03183799999988
 30
0.0
  0
POINT
  5
2C4
  8
DEFPOINTS
  6
CONTINUOUS
 62
     7
 10
-590.0
 20
12.03183799999988
 30
0.0
  0
POINT
  5
2C5
  8
DEFPOINTS
  6
CONTINUOUS
 62
     7
 10
-590.0
 20
-810.22807784067027
 30
0.0
  0
LINE
  5
2C6
  8
SIZE
  6
CONTINUOUS
 62
    30
 10
-590.0
 20
-7.9681620000001203
 30
0.0
 11
-590.0
 21
-830.22807784067015
 31
0.0
  0
LINE
  5
2C7
  8
SIZE
  6
CONTINUOUS
 62
    30
 10
-490.0
 20
-7.9681620000001203
 30
0.0
 11
-490.0
 21
-830.22807784067015
 31
0.0
  0
LINE
  5
2C8
  8
SIZE
  6
CONTINUOUS
 62
    30
 10
-590.0
 20
-810.22807784067027
 30
0.0
 11
-490.0
 21
-810.22807784067027
 31
0.0
  0
LINE
  5
2C9
  8
SIZE
  6
CONTINUOUS
 62
    30
 10
-540.0
 20
-810.22807784067027
 30
0.0
 11
-477.28776136404298
 21
-918.68840895296955
 31
0.0
  0
LINE
  5
2CA
  8
SIZE
  6
CONTINUOUS
 62
    30
 10
-477.28776136404298
 20
-918.68840895296955
 30
0.0
 11
-308.71633279261448
 21
-918.68840895296955
 31
0.0
  0
TEXT
  5
2CB
  8
SIZE
  6
CONTINUOUS
 62
    30
 10
-457.28776136404298
 20
-898.68840895296955
 30
0.0
 40
60.0
  1
100
 41
0.9
 72
     1
 11
-393.00204707832881
 21
-898.68840895296955
 31
0.0
  0
CIRCLE
  5
2CC
  8
SIZE
  6
CONTINUOUS
 62
    30
 10
-590.0
 20
-810.22807784067027
 30
0.0
 40
7.5
  0
CIRCLE
  5
2CD
  8
SIZE
  6
CONTINUOUS
 62
    30
 10
-490.0
 20
-810.22807784067027
 30
0.0
 40
7.5
  0
POINT
  5
2CE
  8
DEFPOINTS
  6
CONTINUOUS
 62
     7
 10
-590.0
 20
12.03183799999988
 30
0.0
  0
POINT
  5
2CF
  8
DEFPOINTS
  6
CONTINUOUS
 62
     7
 10
-490.0
 20
12.03183799999988
 30
0.0
  0
POINT
  5
2D0
  8
DEFPOINTS
  6
CONTINUOUS
 62
     7
 10
-490.0
 20
-810.22807784067027
 30
0.0
  0
LINE
  5
2D1
  8
SIZE
  6
CONTINUOUS
 62
    30
 10
-490.0
 20
-7.9681620000001203
 30
0.0
 11
-490.0
 21
-830.22807784067015
 31
0.0
  0
LINE
  5
2D2
  8
SIZE
  6
CONTINUOUS
 62
    30
 10
580.0
 20
-7.9681620000001203
 30
0.0
 11
580.0
 21
-830.22807784067015
 31
0.0
  0
LINE
  5
2D3
  8
SIZE
  6
CONTINUOUS
 62
    30
 10
-490.0
 20
-810.22807784067027
 30
0.0
 11
580.0
 21
-810.22807784067027
 31
0.0
  0
CIRCLE
  5
2D4
  8
SIZE
  6
CONTINUOUS
 62
    30
 10
-490.0
 20
-810.22807784067027
 30
0.0
 40
7.5
  0
CIRCLE
  5
2D5
  8
SIZE
  6
CONTINUOUS
 62
    30
 10
580.0
 20
-810.22807784067027
 30
0.0
 40
7.5
  0
TEXT
  5
2D6
  8
SIZE
  6
CONTINUOUS
 62
    30
 10
-45.000000000000021
 20
-790.22807784067015
 30
0.0
 40
60.0
  1
1070
 41
0.9
 72
     1
 11
44.999999999999972
 21
-790.22807784067015
 31
0.0
  0
POINT
  5
2D7
  8
DEFPOINTS
  6
CONTINUOUS
 62
     7
 10
-490.0
 20
12.03183799999988
 30
0.0
  0
POINT
  5
2D8
  8
DEFPOINTS
  6
CONTINUOUS
 62
     7
 10
580.0
 20
12.03183799999988
 30
0.0
  0
POINT
  5
2D9
  8
DEFPOINTS
  6
CONTINUOUS
 62
     7
 10
580.0
 20
-810.22807784067027
 30
0.0
  0
LINE
  5
2DA
  8
SIZE
  6
CONTINUOUS
 62
    30
 10
580.0
 20
-7.9681620000001203
 30
0.0
 11
580.0
 21
-830.22807784067015
 31
0.0
  0
LINE
  5
2DB
  8
SIZE
  6
CONTINUOUS
 62
    30
 10
886.0
 20
-7.9681620000001203
 30
0.0
 11
886.0
 21
-830.22807784067015
 31
0.0
  0
LINE
  5
2DC
  8
SIZE
  6
CONTINUOUS
 62
    30
 10
580.0
 20
-810.22807784067027
 30
0.0
 11
886.0
 21
-810.22807784067027
 31
0.0
  0
CIRCLE
  5
2DD
  8
SIZE
  6
CONTINUOUS
 62
    30
 10
580.0
 20
-810.22807784067027
 30
0.0
 40
7.5
  0
CIRCLE
  5
2DE
  8
SIZE
  6
CONTINUOUS
 62
    30
 10
886.0
 20
-810.22807784067027
 30
0.0
 40
7.5
  0
TEXT
  5
2DF
  8
SIZE
  6
CONTINUOUS
 62
    30
 10
664.85714285714289
 20
-790.22807784067015
 30
0.0
 40
60.0
  1
306
 41
0.9
 72
     1
 11
733.0
 21
-790.22807784067015
 31
0.0
  0
POINT
  5
2E0
  8
DEFPOINTS
  6
CONTINUOUS
 62
     7
 10
580.0
 20
12.03183799999988
 30
0.0
  0
POINT
  5
2E1
  8
DEFPOINTS
  6
CONTINUOUS
 62
     7
 10
886.0
 20
12.03183799999988
 30
0.0
  0
POINT
  5
2E2
  8
DEFPOINTS
  6
CONTINUOUS
 62
     7
 10
886.0
 20
-810.22807784067027
 30
0.0
  0
LINE
  5
2E3
  8
NOTE
  6
CONTINUOUS
 62
     4
 10
-950.0
 20
-33.999999999999993
 30
0.0
 11
-950.0
 21
33.999999999999993
 31
0.0
  0
LINE
  5
2E4
  8
NOTE
  6
CONTINUOUS
 62
     4
 10
950.0
 20
-33.999999999999993
 30
0.0
 11
950.0
 21
33.999999999999993
 31
0.0
  0
POINT
  5
2EB
  8
DEFPOINTS
  6
CONTINUOUS
 62
     7
 10
-950.0
 20
-36.855521529446371
 30
0.0
  0
POINT
  5
2EC
  8
DEFPOINTS
  6
CONTINUOUS
 62
     7
 10
950.0
 20
-36.855521529446371
 30
0.0
  0
POINT
  5
2F5
  8
DEFPOINTS
  6
CONTINUOUS
 62
     7
 10
950.0
 20
-36.855521529446371
 30
0.0
  0
POINT
  5
2F6
  8
DEFPOINTS
  6
CONTINUOUS
 62
     7
 10
1050.0
 20
0.0
 30
0.0
  0
POINT
  5
2FF
  8
DEFPOINTS
  6
CONTINUOUS
 62
     7
 10
-950.0
 20
-36.855521529446371
 30
0.0
  0
POINT
  5
300
  8
DEFPOINTS
  6
CONTINUOUS
 62
     7
 10
-1050.0
 20
0.0
 30
0.0
  0
CIRCLE
  5
302
  8
FIX
  6
CONTINUOUS
 62
    11
 10
-950.0
 20
0.0
 30
0.0
 40
12.42149793872491
  0
CIRCLE
  5
303
  8
FIX
  6
CONTINUOUS
 62
    11
 10
950.0
 20
0.0
 30
0.0
 40
12.42149793872491
  0
LINE
  5
304
  8
BASIS
  6
DASHDOT
 62
     6
 10
0.0
 20
2007.647941997257
 30
0.0
 11
0.0
 21
-82.09590482172915
 31
0.0
  0
CIRCLE
  5
305
  8
ARRANGE
  6
CONTINUOUS
 62
     1
 10
0.0
 20
0.0
 30
0.0
 40
50.0
  0
LINE
  5
306
  8
ARRANGE
  6
CONTINUOUS
 62
     1
 10
50.037350031328963
 20
-49.522353150325202
 30
0.0
 11
-50.037350031328963
 21
49.522353150325202
 31
0.0
  0
LINE
  5
307
  8
ARRANGE
  6
CONTINUOUS
 62
     1
 10
49.963763310501221
 20
49.596594797985738
 30
0.0
 11
-49.963763310501221
 21
-49.5965947979821
 31
0.0
  0
LINE
  5
308
  8
OUTLINE
  6
CONTINUOUS
 62
     3
 10
-1049.0
 20
1947.0
 30
0.0
 11
-1000.0
 21
1947.0
 31
0.0
  0
LINE
  5
309
  8
OUTLINE
  6
CONTINUOUS
 62
     3
 10
730.0
 20
1950.0
 30
0.0
 11
-1000.0
 21
1950.0
 31
0.0
  0
ARC
  5
30B
  8
OUTLINE
  6
CONTINUOUS
 62
     3
 10
-1049.0
 20
1946.0
 30
0.0
 40
1.0
 50
90.0
 51
180.0
  0
LINE
  5
30C
  8
OUTLINE
  6
CONTINUOUS
 62
     3
 10
-1050.0
 20
1946.0
 30
0.0
 11
-1050.0
 21
1916.0
 31
0.0
  0
ARC
  5
30D
  8
OUTLINE
  6
CONTINUOUS
 62
     3
 10
-1049.0
 20
1916.0
 30
0.0
 40
1.0
 50
180.0
 51
270.0
  0
ARC
  5
30E
  8
OUTLINE
  6
CONTINUOUS
 62
     3
 10
-1049.0
 20
1914.0
 30
0.0
 40
1.0
 50
90.0
 51
180.0
  0
LINE
  5
30F
  8
OUTLINE
  6
CONTINUOUS
 62
     3
 10
-1050.0
 20
101.0
 30
0.0
 11
-1050.0
 21
1914.0
 31
0.0
  0
LINE
  5
310
  8
OUTLINE
  6
CONTINUOUS
 62
     3
 10
-1050.0
 20
0.0
 30
0.0
 11
-1050.0
 21
100.0
 31
0.0
  0
LINE
  5
311
  8
OUTLINE
  6
CONTINUOUS
 62
     3
 10
1050.0
 20
0.0
 30
0.0
 11
-1050.0
 21
0.0
 31
0.0
  0
LINE
  5
312
  8
OUTLINE
  6
CONTINUOUS
 62
     3
 10
1050.0
 20
0.0
 30
0.0
 11
1050.0
 21
100.0
 31
0.0
  0
LINE
  5
313
  8
OUTLINE
  6
CONTINUOUS
 62
     3
 10
1050.0
 20
1914.0
 30
0.0
 11
1050.0
 21
101.0
 31
0.0
  0
ARC
  5
314
  8
OUTLINE
  6
CONTINUOUS
 62
     3
 10
1049.0
 20
1914.0
 30
0.0
 40
1.0
 50
0.0
 51
90.0
  0
ARC
  5
315
  8
OUTLINE
  6
CONTINUOUS
 62
     3
 10
1049.0
 20
1916.0
 30
0.0
 40
1.0
 50
270.0
 51
0.0
  0
LINE
  5
316
  8
OUTLINE
  6
CONTINUOUS
 62
     3
 10
1050.0
 20
1916.0
 30
0.0
 11
1050.0
 21
1946.0
 31
0.0
  0
ARC
  5
317
  8
OUTLINE
  6
CONTINUOUS
 62
     3
 10
1049.0
 20
1946.0
 30
0.0
 40
1.0
 50
0.0
 51
90.0
  0
LINE
  5
318
  8
OUTLINE
  6
CONTINUOUS
 62
     3
 10
1049.0
 20
1948.0
 30
0.0
 11
1049.0
 21
1947.0
 31
0.0
  0
LINE
  5
319
  8
OUTLINE
  6
CONTINUOUS
 62
     3
 10
1029.0
 20
1948.0
 30
0.0
 11
1049.0
 21
1948.0
 31
0.0
  0
ARC
  5
31A
  8
OUTLINE
  6
CONTINUOUS
 62
     3
 10
1029.0
 20
1947.0
 30
0.0
 40
1.0
 50
90.0
 51
180.0
  0
LINE
  5
31B
  8
OUTLINE
  6
CONTINUOUS
 62
     3
 10
1027.8000000000011
 20
1947.0
 30
0.0
 11
1027.8000000000011
 21
1948.0
 31
0.0
  0
LINE
  5
31F
  8
OUTLINE
  6
CONTINUOUS
 62
     3
 10
1027.8000000000011
 20
1948.0
 30
0.0
 11
730.0
 21
1948.0
 31
0.0
  0
LINE
  5
320
  8
OUTLINE
  6
CONTINUOUS
 62
     3
 10
730.0
 20
1948.0
 30
0.0
 11
730.0
 21
1950.0
 31
0.0
  0
LINE
  5
321
  8
OUTLINE
  6
CONTINUOUS
 62
     3
 10
1027.8000000000011
 20
1947.0
 30
0.0
 11
1028.0
 21
1947.0
 31
0.0
  0
LINE
  5
322
  8
SERVICESPACE
  6
DASHDOT
 62
     2
 10
1550.0
 20
2350.0000000000009
 30
0.0
 11
-1250.0
 21
2350.0000000000032
 31
0.0
  0
LINE
  5
323
  8
SERVICESPACE
  6
DASHDOT
 62
     2
 10
1050.0
 20
1950.0000000000009
 30
0.0
 11
-1050.0
 21
1950.0000000000009
 31
0.0
  0
LINE
  5
324
  8
SERVICESPACE
  6
DASHDOT
 62
     2
 10
1550.0
 20
0.0000000000004547
 30
0.0
 11
1050.0
 21
0.0000000000004547
 31
0.0
  0
LINE
  5
325
  8
SERVICESPACE
  6
DASHDOT
 62
     2
 10
-1250.0
 20
0.0000000000004547
 30
0.0
 11
-1250.0
 21
2350.0000000000009
 31
0.0
  0
LINE
  5
326
  8
SERVICESPACE
  6
DASHDOT
 62
     2
 10
-1050.0
 20
0.0000000000004547
 30
0.0
 11
-1050.0
 21
2350.0000000000009
 31
0.0
  0
LINE
  5
327
  8
SERVICESPACE
  6
DASHDOT
 62
     2
 10
1050.0
 20
0.0000000000004547
 30
0.0
 11
1050.0
 21
2350.0000000000009
 31
0.0
  0
LINE
  5
328
  8
SERVICESPACE
  6
DASHDOT
 62
     2
 10
1550.0
 20
0.0000000000004547
 30
0.0
 11
1550.0
 21
2350.0000000000009
 31
0.0
  0
LINE
  5
329
  8
SERVICESPACE
  6
DASHDOT
 62
     2
 10
-1049.999999999998
 20
0.0000000000004547
 30
0.0
 11
-1250.0
 21
0.0000000000004547
 31
0.0
  0
LINE
  5
32A
  8
SERVICESPACE
  6
DASHDOT
 62
     2
 10
-1050.0
 20
2350.0000000000009
 30
0.0
 11
1050.0
 21
1950.0000000000009
 31
0.0
  0
LINE
  5
32B
  8
SERVICESPACE
  6
DASHDOT
 62
     2
 10
-1050.0
 20
1950.0000000000009
 30
0.0
 11
1050.0
 21
2350.0000000000009
 31
0.0
  0
LINE
  5
32C
  8
SERVICESPACE
  6
DASHDOT
 62
     2
 10
1550.0
 20
2350.0000000000009
 30
0.0
 11
1050.0
 21
0.0000000000004547
 31
0.0
  0
LINE
  5
32D
  8
SERVICESPACE
  6
DASHDOT
 62
     2
 10
1050.000000000002
 20
2350.0000000000009
 30
0.0
 11
1550.0
 21
0.0000000000004547
 31
0.0
  0
LINE
  5
32E
  8
SERVICESPACE
  6
DASHDOT
 62
     2
 10
-1250.0
 20
2350.0000000000009
 30
0.0
 11
-1050.0
 21
0.0000000000004547
 31
0.0
  0
LINE
  5
32F
  8
SERVICESPACE
  6
DASHDOT
 62
     2
 10
-1250.0
 20
0.0000000000004547
 30
0.0
 11
-1050.0000000000041
 21
2350.0000000000032
 31
0.0
  0
LINE
  5
330
  8
SIZE
  6
CONTINUOUS
 62
    30
 10
1050.0
 20
2370.0000000000009
 30
0.0
 11
1050.0
 21
2481.8209397554278
 31
0.0
  0
LINE
  5
331
  8
SIZE
  6
CONTINUOUS
 62
    30
 10
1550.0
 20
2370.0000000000009
 30
0.0
 11
1550.0
 21
2481.8209397554278
 31
0.0
  0
LINE
  5
332
  8
SIZE
  6
CONTINUOUS
 62
    30
 10
1050.0
 20
2461.8209397554278
 30
0.0
 11
1550.0
 21
2461.8209397554278
 31
0.0
  0
CIRCLE
  5
333
  8
SIZE
  6
CONTINUOUS
 62
    30
 10
1050.0
 20
2461.8209397554278
 30
0.0
 40
7.5
  0
CIRCLE
  5
334
  8
SIZE
  6
CONTINUOUS
 62
    30
 10
1550.0
 20
2461.8209397554278
 30
0.0
 40
7.5
  0
TEXT
  5
335
  8
SIZE
  6
CONTINUOUS
 62
    30
 10
1165.2571428571421
 20
2481.8209397554292
 30
0.0
 40
60.0
  1
500以上
 41
0.9
 72
     1
 11
1300.0
 21
2481.8209397554292
 31
0.0
  0
POINT
  5
336
  8
DEFPOINTS
  6
CONTINUOUS
 62
     7
 10
1050.0
 20
2350.0000000000009
 30
0.0
  0
POINT
  5
337
  8
DEFPOINTS
  6
CONTINUOUS
 62
     7
 10
1550.0
 20
2350.0000000000009
 30
0.0
  0
POINT
  5
338
  8
DEFPOINTS
  6
CONTINUOUS
 62
     7
 10
1550.0
 20
2461.8209397554278
 30
0.0
  0
LINE
  5
339
  8
SIZE
  6
CONTINUOUS
 62
    30
 10
-1050.0000000000041
 20
2370.0000000000032
 30
0.0
 11
-1050.0000000000041
 21
2481.8209397554278
 31
0.0
  0
LINE
  5
33A
  8
SIZE
  6
CONTINUOUS
 62
    30
 10
-1250.0
 20
2370.0000000000009
 30
0.0
 11
-1250.0
 21
2481.8209397554278
 31
0.0
  0
LINE
  5
33B
  8
SIZE
  6
CONTINUOUS
 62
    30
 10
-1050.0000000000041
 20
2461.8209397554278
 30
0.0
 11
-1250.0
 21
2461.8209397554278
 31
0.0
  0
LINE
  5
33C
  8
SIZE
  6
CONTINUOUS
 62
    30
 10
-1250.0
 20
2461.8209397554278
 30
0.0
 11
-1589.485714285714
 21
2461.8209397554278
 31
0.0
  0
CIRCLE
  5
33D
  8
SIZE
  6
CONTINUOUS
 62
    30
 10
-1050.0000000000041
 20
2461.8209397554278
 30
0.0
 40
7.5
  0
CIRCLE
  5
33E
  8
SIZE
  6
CONTINUOUS
 62
    30
 10
-1250.0
 20
2461.8209397554278
 30
0.0
 40
7.5
  0
TEXT
  5
33F
  8
SIZE
  6
CONTINUOUS
 62
    30
 10
-1569.485714285714
 20
2481.8209397554292
 30
0.0
 40
60.0
  1
200以上
 41
0.9
 72
     1
 11
-1434.742857142857
 21
2481.8209397554292
 31
0.0
  0
POINT
  5
340
  8
DEFPOINTS
  6
CONTINUOUS
 62
     7
 10
-1050.0000000000041
 20
2350.0000000000032
 30
0.0
  0
POINT
  5
341
  8
DEFPOINTS
  6
CONTINUOUS
 62
     7
 10
-1250.0
 20
2350.0000000000009
 30
0.0
  0
POINT
  5
342
  8
DEFPOINTS
  6
CONTINUOUS
 62
     7
 10
-1250.0
 20
2461.8209397554278
 30
0.0
  0
POINT
  5
349
  8
DEFPOINTS
  6
CONTINUOUS
 62
     7
 10
1550.0
 20
2350.0000000000009
 30
0.0
  0
POINT
  5
34A
  8
DEFPOINTS
  6
CONTINUOUS
 62
     7
 10
1050.0
 20
1950.0000000000009
 30
0.0
  0
TEXT
  5
34C
  8
NOTE
  6
CONTINUOUS
 62
     4
 10
-171.8807792174284
 20
2236.525569080909
 30
0.0
 40
60.0
  1
サービススペース
 50
0.0000025044165917
 41
0.7
  7
STANDARD1
  0
TEXT
  5
34D
  8
NOTE
  6
CONTINUOUS
 62
     4
 10
1487.1068937005491
 20
1039.237611412357
 30
0.0
 40
60.0
  1
サービススペース
 50
90.000002504468682
 41
0.7
  7
STANDARD1
  0
TEXT
  5
34E
  8
NOTE
  6
CONTINUOUS
 62
     4
 10
-1177.9735297794671
 20
970.18814838834726
 30
0.0
 40
60.0
  1
サービススペース
 50
90.000002504468682
 41
0.7
  7
STANDARD1
  0
LINE
  5
350
  8
NOTE
  6
CONTINUOUS
 62
     4
 10
-456.0
 20
20.0
 30
0.0
 11
-524.0
 21
20.0
 31
0.0
  0
LINE
  5
351
  8
NOTE
  6
CONTINUOUS
 62
     4
 10
-490.0
 20
-14.0
 30
0.0
 11
-490.0
 21
54.0
 31
0.0
  0
LINE
  5
352
  8
NOTE
  6
CONTINUOUS
 62
     4
 10
-556.0
 20
20.0
 30
0.0
 11
-624.0
 21
20.0
 31
0.0
  0
LINE
  5
353
  8
NOTE
  6
CONTINUOUS
 62
     4
 10
-590.0
 20
-14.0
 30
0.0
 11
-590.0
 21
54.0
 31
0.0
  0
LINE
  5
354
  8
NOTE
  6
CONTINUOUS
 62
     4
 10
-656.0
 20
20.0
 30
0.0
 11
-724.0
 21
20.0
 31
0.0
  0
LINE
  5
355
  8
NOTE
  6
CONTINUOUS
 62
     4
 10
-690.0
 20
-14.0
 30
0.0
 11
-690.0
 21
54.0
 31
0.0
  0
LINE
  5
356
  8
NOTE
  6
CONTINUOUS
 62
     4
 10
614.0
 20
20.0
 30
0.0
 11
546.0
 21
20.0
 31
0.0
  0
LINE
  5
357
  8
NOTE
  6
CONTINUOUS
 62
     4
 10
580.0
 20
-14.0
 30
0.0
 11
580.0
 21
54.0
 31
0.0
  0
LINE
  5
358
  8
NOTE
  6
CONTINUOUS
 62
     4
 10
920.0
 20
20.0
 30
0.0
 11
852.0
 21
20.0
 31
0.0
  0
LINE
  5
359
  8
NOTE
  6
CONTINUOUS
 62
     4
 10
886.0
 20
-14.0
 30
0.0
 11
886.0
 21
54.0
 31
0.0
  0
TEXT
  5
35E
  8
ETC
  6
CONTINUOUS
 62
    61
 10
867.92154339865385
 20
2641.1175623707682
 30
0.0
 40
80.0
  1
PFD-P560VCMD-E-2C_2
 50
0.0000029998804485
 41
0.8
  7
STANDARD_MODELNAME
  0
LINE
  5
35F
  8
DETAIL
  6
CONTINUOUS
 62
     5
 10
409.0
 20
996.0
 30
0.0
 11
433.0
 21
996.0
 31
0.0
  0
LINE
  5
360
  8
DETAIL
  6
CONTINUOUS
 62
     5
 10
433.0
 20
996.0
 30
0.0
 11
433.0
 21
1016.0
 31
0.0
  0
LINE
  5
361
  8
DETAIL
  6
CONTINUOUS
 62
     5
 10
433.0
 20
1016.0
 30
0.0
 11
409.0
 21
1016.0
 31
0.0
  0
LINE
  5
362
  8
DETAIL
  6
CONTINUOUS
 62
     5
 10
409.0
 20
1016.0
 30
0.0
 11
409.0
 21
996.0
 31
0.0
  0
LINE
  5
367
  8
NOTE
  6
CONTINUOUS
 62
     4
 10
886.0
 20
20.0
 30
0.0
 11
1214.684161248131
 21
-482.02560062730032
 31
0.0
  0
LINE
  5
369
  8
NOTE
  6
CONTINUOUS
 62
     4
 10
895.70749129056799
 20
-9.5022321939036356
 30
0.0
 11
886.0
 21
20.0
 31
0.0
  0
LINE
  5
36A
  8
NOTE
  6
CONTINUOUS
 62
     4
 10
886.0
 20
20.0
 30
0.0
 11
909.15805006771348
 21
-0.6959370080408008
 31
0.0
  0
LINE
  5
36B
  8
NOTE
  6
CONTINUOUS
 62
     4
 10
580.0
 20
20.0
 30
0.0
 11
1214.5034525075771
 21
-615.50512649021312
 31
0.0
  0
LINE
  5
36D
  8
NOTE
  6
CONTINUOUS
 62
     4
 10
595.5079236762067
 20
-6.909503801304707
 30
0.0
 11
580.0
 21
20.0
 31
0.0
  0
LINE
  5
36E
  8
NOTE
  6
CONTINUOUS
 62
     4
 10
580.0
 20
20.0
 30
0.0
 11
606.88500769365237
 21
4.4496478209748602
 31
0.0
  0
LINE
  5
36F
  8
NOTE
  6
CONTINUOUS
 62
     4
 10
-690.0
 20
20.0
 30
0.0
 11
-329.90794485572951
 21
-400.86450899462852
 31
0.0
  0
LINE
  5
371
  8
NOTE
  6
CONTINUOUS
 62
     4
 10
-676.60444579693615
 20
-8.0209960417596466
 30
0.0
 11
-690.0
 21
20.0
 31
0.0
  0
LINE
  5
372
  8
NOTE
  6
CONTINUOUS
 62
     4
 10
-690.0
 20
20.0
 30
0.0
 11
-664.38861182119945
 21
2.430882573837152
 31
0.0
  0
LINE
  5
373
  8
NOTE
  6
CONTINUOUS
 62
     4
 10
-590.0
 20
20.0
 30
0.0
 11
-185.9191775735452
 21
-277.4343364421938
 31
0.0
  0
LINE
  5
374
  8
NOTE
  6
CONTINUOUS
 62
     4
 10
-570.60469505560275
 20
-4.2577665437961523
 30
0.0
 11
-590.0
 21
20.0
 31
0.0
  0
LINE
  5
375
  8
NOTE
  6
CONTINUOUS
 62
     4
 10
-590.0
 20
20.0
 30
0.0
 11
-561.07428998341686
 21
8.6898102749764803
 31
0.0
  0
LINE
  5
376
  8
NOTE
  6
CONTINUOUS
 62
     4
 10
-490.0
 20
20.0
 30
0.0
 11
-185.9191775735452
 21
-277.4343364421938
 31
0.0
  0
LINE
  5
378
  8
NOTE
  6
CONTINUOUS
 62
     4
 10
-474.17461999955958
 20
-6.7240423480648124
 30
0.0
 11
-490.0
 21
20.0
 31
0.0
  0
LINE
  5
379
  8
NOTE
  6
CONTINUOUS
 62
     4
 10
-490.0
 20
20.0
 30
0.0
 11
-462.93279779014119
 21
4.7689903121931811
 31
0.0
  0
LINE
  5
38B
  8
OUTLINE
  6
CONTINUOUS
 62
     3
 10
-1000.0
 20
1950.0
 30
0.0
 11
-999.99998984394165
 21
1946.9999965979359
 31
0.0
  0
ARC
  5
395
  8
OUTLINE
  6
CONTINUOUS
 62
     3
 10
1049.000362064801
 20
101.0000129383936
 30
0.0
 40
1.0
 50
270.0
 51
0.0
  0
LINE
  5
39B
  8
OUTLINE
  6
CONTINUOUS
 62
     3
 10
1050.0
 20
100.0
 30
0.0
 11
1049.0
 21
100.0
 31
0.0
  0
LINE
  5
3A1
  8
OUTLINE
  6
CONTINUOUS
 62
     3
 10
-1048.9999750404379
 20
100.0000128815736
 30
0.0
 11
-1049.9999750404379
 21
100.0000128815736
 31
0.0
  0
ARC
  5
3A7
  8
OUTLINE
  6
CONTINUOUS
 62
     3
 10
-1048.9999750404379
 20
101.0000128815736
 30
0.0
 40
1.0
 50
180.0
 51
270.0
  0
LINE
  5
3C7
  8
NOTE
  6
CONTINUOUS
 62
     4
 10
984.0
 20
0.0
 30
0.0
 11
916.0
 21
0.0
 31
0.0
  0
LINE
  5
3CD
  8
NOTE
  6
CONTINUOUS
 62
     4
 10
-916.0
 20
0.0
 30
0.0
 11
-984.0
 21
0.0
 31
0.0
  0
TEXT
  5
3DF
  8
NOTE
  6
CONTINUOUS
 62
     4
 10
-166.42998941648651
 20
-258.52130481875372
 30
0.0
 40
60.0
  1
CL1、2 φ60
 50
0.0000025044165917
 41
0.7
  7
STANDARD1
  0
TEXT
  5
3E0
  8
NOTE
  6
CONTINUOUS
 62
     4
 10
-310.41875669867068
 20
-381.9514773711885
 30
0.0
 40
60.0
  1
EL3 (加湿器)φ60
 50
0.0000025044165917
 41
0.7
  7
STANDARD1
  0
TEXT
  5
3E1
  8
NOTE
  6
CONTINUOUS
 62
     4
 10
1233.9926406646359
 20
-596.59209486677275
 30
0.0
 40
60.0
  1
EL1 (標準電圧)φ60
 50
0.0000025044165917
 41
0.7
  7
STANDARD1
  0
TEXT
  5
3E2
  8
NOTE
  6
CONTINUOUS
 62
     4
 10
1234.17334940519
 20
-463.11256900386019
 30
0.0
 40
60.0
  1
EL2 (異電圧)φ60
 50
0.0000025044165917
 41
0.7
  7
STANDARD1
  0
TEXT
  5
3E3
  8
NOTE
  6
CONTINUOUS
 62
     4
 10
-1418.8398758052481
 20
-447.31467134738301
 30
0.0
 40
60.0
  1
AH 8-φ18
 50
0.0000025044165917
 41
0.7
  7
STANDARD1
  0
LINE
  5
3E4
  8
NOTE
  6
CONTINUOUS
 62
     4
 10
-950.00000000000296
 20
-0.0000000000109139
 30
0.0
 11
-1086.990776378439
 21
-465.36434098933893
 31
0.0
  0
LINE
  5
3E5
  8
NOTE
  6
CONTINUOUS
 62
     4
 10
-1429.774335153526
 20
-465.36434098933893
 30
0.0
 11
-1086.990776378439
 21
-465.36434098933893
 31
0.0
  0
LINE
  5
3E6
  8
NOTE
  6
CONTINUOUS
 62
     4
 10
1214.684161248128
 20
-482.0256006273097
 30
0.0
 11
1757.7237634984249
 21
-482.0256006273097
 31
0.0
  0
LINE
  5
3E7
  8
NOTE
  6
CONTINUOUS
 62
     4
 10
1214.5034525075739
 20
-615.50512649022244
 30
0.0
 11
1802.8480692363501
 21
-615.50512649022244
 31
0.0
  0
LINE
  5
3E8
  8
NOTE
  6
CONTINUOUS
 62
     4
 10
-968.03215264775179
 20
-25.28751791829654
 30
0.0
 11
-950.0000000000008
 21
-0.0000000000097771
 31
0.0
  0
LINE
  5
3E9
  8
NOTE
  6
CONTINUOUS
 62
     4
 10
-950.0000000000008
 20
-0.0000000000097771
 30
0.0
 11
-952.97254345897761
 21
-30.91570922629171
 31
0.0
  0
LINE
  5
3EA
  8
NOTE
  6
CONTINUOUS
 62
     4
 10
-329.90794485573269
 20
-400.86450899463779
 30
0.0
 11
219.85521319440571
 21
-400.86450899463779
 31
0.0
  0
LINE
  5
3EB
  8
NOTE
  6
CONTINUOUS
 62
     4
 10
-185.91917757354841
 20
-277.4343364422034
 30
0.0
 11
224.94195076568991
 21
-277.4343364422034
 31
0.0
  0
LINE
  5
463
  8
SIZE
  6
CONTINUOUS
 62
    30
 10
-1030.4657197289339
 20
1915.000000000002
 30
0.0
 11
-1575.099433052691
 21
1915.000000000002
 31
0.0
  0
LINE
  5
464
  8
SIZE
  6
CONTINUOUS
 62
    30
 10
-1030.4657197289339
 20
1950.000000000003
 30
0.0
 11
-1575.099433052691
 21
1950.000000000003
 31
0.0
  0
LINE
  5
465
  8
SIZE
  6
CONTINUOUS
 62
    30
 10
-1555.099433052691
 20
1915.000000000002
 30
0.0
 11
-1555.099433052691
 21
1885.0000000000009
 31
0.0
  0
LINE
  5
466
  8
SIZE
  6
CONTINUOUS
 62
    30
 10
-1555.099433052691
 20
1950.000000000003
 30
0.0
 11
-1555.099433052691
 21
2137.4285714285752
 31
0.0
  0
LINE
  5
467
  8
SIZE
  6
CONTINUOUS
 62
    30
 10
-1555.099433052691
 20
1915.000000000002
 30
0.0
 11
-1555.099433052691
 21
1950.000000000003
 31
0.0
  0
CIRCLE
  5
468
  8
SIZE
  6
CONTINUOUS
 62
    30
 10
-1555.099433052691
 20
1915.000000000002
 30
0.0
 40
7.5
  0
CIRCLE
  5
469
  8
SIZE
  6
CONTINUOUS
 62
    30
 10
-1555.099433052691
 20
1950.000000000003
 30
0.0
 40
7.5
  0
TEXT
  5
46A
  8
SIZE
  6
CONTINUOUS
 62
    30
 10
-1588.4988155799319
 20
2030.0000000000041
 30
0.0
 40
60.0
  1
35
 50
90.0
 41
0.9
 72
     1
 11
-1588.4988155799319
 21
2073.7142857142899
 31
0.0
  0
POINT
  5
46B
  8
DEFPOINTS
  6
CONTINUOUS
 62
     7
 10
-1555.099433052691
 20
1950.000000000003
 30
0.0
 50
180.0
  0
LINE
  5
46C
  8
SIZE
  6
CONTINUOUS
 62
    30
 10
-1030.4657197289339
 20
1915.000000000002
 30
0.0
 11
-1575.0994330526889
 21
1915.000000000002
 31
0.0
  0
LINE
  5
46D
  8
SIZE
  6
CONTINUOUS
 62
    30
 10
-1098.694222017569
 20
0.0000000000022737
 30
0.0
 11
-1575.0994330526889
 21
0.0000000000022737
 31
0.0
  0
LINE
  5
46E
  8
SIZE
  6
CONTINUOUS
 62
    30
 10
-1555.0994330526889
 20
1915.000000000002
 30
0.0
 11
-1555.0994330526889
 21
0.0000000000022737
 31
0.0
  0
CIRCLE
  5
46F
  8
SIZE
  6
CONTINUOUS
 62
    30
 10
-1555.0994330526889
 20
1915.000000000002
 30
0.0
 40
7.5
  0
CIRCLE
  5
470
  8
SIZE
  6
CONTINUOUS
 62
    30
 10
-1555.0994330526889
 20
0.0000000000022737
 30
0.0
 40
7.5
  0
TEXT
  5
471
  8
SIZE
  6
CONTINUOUS
 62
    30
 10
-1588.4988155799299
 20
872.64285714286063
 30
0.0
 40
60.0
  1
1915
 50
90.0
 41
0.9
 72
     1
 11
-1588.4988155799299
 21
957.50000000000341
 31
0.0
  0
POINT
  5
472
  8
DEFPOINTS
  6
CONTINUOUS
 62
     7
 10
-1555.0994330526889
 20
0.0000000000022737
 30
0.0
 50
180.0
  0
LINE
  5
473
  8
SIZE
  6
CONTINUOUS
 62
    30
 10
-1098.694222017569
 20
0.0000000000027285
 30
0.0
 11
-1693.8673548207089
 21
0.0000000000027285
 31
0.0
  0
LINE
  5
474
  8
SIZE
  6
CONTINUOUS
 62
    30
 10
-1030.4657197289389
 20
1950.000000000002
 30
0.0
 11
-1693.86735482071
 21
1950.000000000002
 31
0.0
  0
LINE
  5
475
  8
SIZE
  6
CONTINUOUS
 62
    30
 10
-1673.867354820708
 20
0.0000000000027285
 30
0.0
 11
-1673.86735482071
 21
1950.000000000002
 31
0.0
  0
CIRCLE
  5
476
  8
SIZE
  6
CONTINUOUS
 62
    30
 10
-1673.867354820708
 20
0.0000000000027285
 30
0.0
 40
7.5
  0
CIRCLE
  5
477
  8
SIZE
  6
CONTINUOUS
 62
    30
 10
-1673.86735482071
 20
1950.000000000002
 30
0.0
 40
7.5
  0
TEXT
  5
478
  8
SIZE
  6
CONTINUOUS
 62
    30
 10
-1707.2667373479501
 20
885.00000000000352
 30
0.0
 40
60.0
  1
1950
 50
90.0
 41
0.9
 72
     1
 11
-1707.2667373479501
 21
975.00000000000352
 31
0.0
  0
POINT
  5
479
  8
DEFPOINTS
  6
CONTINUOUS
 62
     7
 10
-1673.86735482071
 20
1950.000000000002
 30
0.0
 50
180.0
  0
LINE
  5
47B
  8
SIZE
  6
CONTINUOUS
 62
    30
 10
-1314.1435940193401
 20
2350.0000000000032
 30
0.0
 11
-1693.86735482071
 21
2350.0000000000032
 31
0.0
  0
LINE
  5
47C
  8
SIZE
  6
CONTINUOUS
 62
    30
 10
-1030.4657197289339
 20
1950.000000000003
 30
0.0
 11
-1693.86735482071
 21
1950.000000000003
 31
0.0
  0
LINE
  5
47D
  8
SIZE
  6
CONTINUOUS
 62
    30
 10
-1673.8673548207109
 20
2350.0000000000032
 30
0.0
 11
-1673.8673548207109
 21
1950.000000000003
 31
0.0
  0
CIRCLE
  5
47E
  8
SIZE
  6
CONTINUOUS
 62
    30
 10
-1673.8673548207109
 20
2350.0000000000032
 30
0.0
 40
7.5
  0
CIRCLE
  5
47F
  8
SIZE
  6
CONTINUOUS
 62
    30
 10
-1673.8673548207109
 20
1950.000000000003
 30
0.0
 40
7.5
  0
TEXT
  5
480
  8
SIZE
  6
CONTINUOUS
 62
    30
 10
-1707.2667373479519
 20
2015.2571428571459
 30
0.0
 40
60.0
  1
400以上
 50
90.0
 41
0.9
 72
     1
 11
-1707.2667373479519
 21
2150.0000000000032
 31
0.0
  0
POINT
  5
481
  8
DEFPOINTS
  6
CONTINUOUS
 62
     7
 10
-1673.8673548207109
 20
1950.000000000003
 30
0.0
 50
180.0
  0
LINE
  5
482
  8
NOTE
  6
CONTINUOUS
 62
     4
 10
959.0
 20
300.00000000000182
 30
0.0
 11
891.0
 21
300.00000000000182
 31
0.0
  0
LINE
  5
483
  8
NOTE
  6
CONTINUOUS
 62
     4
 10
925.0
 20
266.00000000000182
 30
0.0
 11
925.0
 21
334.00000000000182
 31
0.0
  0
TEXT
  5
484
  8
NOTE
  6
CONTINUOUS
 62
     4
 10
321.0115259064973
 20
573.18731299992214
 30
0.0
 40
60.0
  1
RL1、2 φ9.52
 50
0.0000025044165917
 41
0.7
  7
STANDARD1
  0
TEXT
  5
485
  8
NOTE
  6
CONTINUOUS
 62
     4
 10
298.59734824400039
 20
701.33292109265665
 30
0.0
 40
60.0
  1
RG1、2 φ22.2
 50
0.0000025044165917
 41
0.7
  7
STANDARD1
  0
LINE
  5
486
  8
NOTE
  6
CONTINUOUS
 62
     4
 10
925.0
 20
300.00000000000182
 30
0.0
 11
766.01321668366279
 21
682.16044298040845
 31
0.0
  0
LINE
  5
487
  8
NOTE
  6
CONTINUOUS
 62
     4
 10
290.07383670918352
 20
682.16044298040845
 30
0.0
 11
766.01321668366279
 21
682.16044298040845
 31
0.0
  0
LINE
  5
488
  8
NOTE
  6
CONTINUOUS
 62
     4
 10
919.43692099836323
 20
330.55600176072039
 30
0.0
 11
925.0
 21
300.00000000000182
 31
0.0
  0
LINE
  5
489
  8
NOTE
  6
CONTINUOUS
 62
     4
 10
925.0
 20
300.00000000000182
 30
0.0
 11
904.90423148839125
 21
323.68073435321281
 31
0.0
  0
LINE
  5
48A
  8
NOTE
  6
CONTINUOUS
 62
     4
 10
822.35524772100007
 20
546.72971666146066
 30
0.0
 11
294.63042619306361
 21
546.72971666146066
 31
0.0
  0
LINE
  5
48B
  8
SIZE
  6
CONTINUOUS
 62
    30
 10
925.0
 20
246.00000000000179
 30
0.0
 11
925.0
 21
-172.69606588159331
 31
0.0
  0
LINE
  5
48C
  8
SIZE
  6
CONTINUOUS
 62
    30
 10
1050.0
 20
-19.999999999998181
 30
0.0
 11
1050.0
 21
-172.69606588159331
 31
0.0
  0
LINE
  5
48D
  8
SIZE
  6
CONTINUOUS
 62
    30
 10
925.0
 20
-152.69606588159331
 30
0.0
 11
1050.0
 21
-152.69606588159331
 31
0.0
  0
LINE
  5
48E
  8
SIZE
  6
CONTINUOUS
 62
    30
 10
1050.0
 20
-152.69606588159331
 30
0.0
 11
1208.7514285714281
 21
-152.69606588159331
 31
0.0
  0
LINE
  5
48F
  8
SIZE
  6
CONTINUOUS
 62
    30
 10
1070.0
 20
0.000000000001819
 30
0.0
 11
1874.832711536335
 21
0.000000000001819
 31
0.0
  0
LINE
  5
490
  8
SIZE
  6
CONTINUOUS
 62
    30
 10
979.0
 20
300.00000000000182
 30
0.0
 11
1874.832711536335
 21
300.00000000000148
 31
0.0
  0
LINE
  5
491
  8
SIZE
  6
CONTINUOUS
 62
    30
 10
1854.832711536335
 20
0.000000000001819
 30
0.0
 11
1854.832711536335
 21
300.00000000000148
 31
0.0
  0
TEXT
  5
492
  8
SIZE
  6
CONTINUOUS
 62
    30
 10
1065.089999999999
 20
-133.04178852337461
 30
0.0
 40
60.0
  1
125
 41
0.9
 72
     1
 11
1129.3757142857139
 21
-133.04178852337461
 31
0.0
  0
CIRCLE
  5
493
  8
SIZE
  6
CONTINUOUS
 62
    30
 10
1050.0
 20
-152.69606588159331
 30
0.0
 40
7.5
  0
CIRCLE
  5
494
  8
SIZE
  6
CONTINUOUS
 62
    30
 10
925.0
 20
-152.69606588159331
 30
0.0
 40
7.5
  0
TEXT
  5
495
  8
SIZE
  6
CONTINUOUS
 62
    30
 10
1842.0776999794541
 20
80.571428571430388
 30
0.0
 40
60.0
  1
300
 50
90.0
 41
0.9
 72
     1
 11
1842.0776999794541
 21
150.00000000000179
 31
0.0
  0
CIRCLE
  5
496
  8
SIZE
  6
CONTINUOUS
 62
    30
 10
1854.832711536335
 20
300.00000000000148
 30
0.0
 40
7.5
  0
CIRCLE
  5
497
  8
SIZE
  6
CONTINUOUS
 62
    30
 10
1854.832711536335
 20
0.000000000001819
 30
0.0
 40
7.5
  0
LINE
  5
498
  8
NOTE
  6
CONTINUOUS
 62
     4
 10
1050.0
 20
196.00000000000171
 30
0.0
 11
1050.0
 21
104.0000000000018
 31
0.0
  0
TEXT
  5
499
  8
NOTE
  6
CONTINUOUS
 62
     4
 10
1467.7082738108791
 20
-279.69057831088412
 30
0.0
 40
60.0
  1
RL1、2 横配管貫通穴 φ26
 50
0.0000025044165917
 41
0.7
  7
STANDARD1
  0
TEXT
  5
49A
  8
NOTE
  6
CONTINUOUS
 62
     4
 10
1372.278324910161
 20
-160.7870193061853
 30
0.0
 40
60.0
  1
RG1、2 横配管貫通穴 φ39
 50
0.0000025044165917
 41
0.7
  7
STANDARD1
  0
LINE
  5
49B
  8
NOTE
  6
CONTINUOUS
 62
     4
 10
1339.996705250901
 20
-183.06104397143
 30
0.0
 11
2097.010909834004
 21
-183.06104397143
 31
0.0
  0
LINE
  5
49C
  8
NOTE
  6
CONTINUOUS
 62
     4
 10
1050.0
 20
150.00000000000179
 30
0.0
 11
1447.168837811816
 21
-306.14817464934549
 31
0.0
  0
LINE
  5
49D
  8
NOTE
  6
CONTINUOUS
 62
     4
 10
2165.9352791048732
 20
-306.14817464934549
 30
0.0
 11
1447.168837811816
 21
-306.14817464934549
 31
0.0
  0
LINE
  5
49E
  8
NOTE
  6
CONTINUOUS
 62
     4
 10
1064.2121525907569
 20
122.3842108511016
 30
0.0
 11
1050.0
 21
150.00000000000179
 31
0.0
  0
LINE
  5
49F
  8
NOTE
  6
CONTINUOUS
 62
     4
 10
1050.0
 20
150.00000000000179
 30
0.0
 11
1076.115979684248
 21
133.19010122840149
 31
0.0
  0
LINE
  5
4A0
  8
NOTE
  6
CONTINUOUS
 62
     4
 10
1004.0
 20
150.00000000000179
 30
0.0
 11
1096.0
 21
150.00000000000179
 31
0.0
  0
TEXT
  5
4A1
  8
NOTE
  6
CONTINUOUS
 62
     4
 10
-2199.3947852267961
 20
-749.01098323551105
 30
0.0
 40
60.0
  1
加湿器給水配管穴
 50
0.0000010487279845
 41
0.7
  7
STANDARD1
  0
TEXT
  5
4A2
  8
NOTE
  6
CONTINUOUS
 62
     4
 10
-2224.2810110394362
 20
-854.74218820591966
 30
0.0
 40
60.0
  1
(φ50ノックアウト穴)
 50
0.0000010487279845
 41
0.7
  7
STANDARD1
  0
TEXT
  5
4A3
  8
NOTE
  6
CONTINUOUS
 62
     4
 10
-2153.314474210601
 20
-537.274878536144
 30
0.0
 40
60.0
  1
CL3
 50
0.0000010487279845
 41
0.7
  7
STANDARD1
  0
TEXT
  5
4A4
  8
NOTE
  6
CONTINUOUS
 62
     4
 10
-2213.0861704294671
 20
-638.05383398476624
 30
0.0
 40
60.0
  1
(φ32ノックアウト穴)
 50
0.0000010487279845
 41
0.7
  7
STANDARD1
  0
TEXT
  5
4A5
  8
NOTE
  6
CONTINUOUS
 62
     4
 10
-2189.0953784732628
 20
-328.23180540509838
 30
0.0
 40
60.0
  1
EL4 (本体)
 50
0.0000010487279845
 41
0.7
  7
STANDARD1
  0
TEXT
  5
4A6
  8
NOTE
  6
CONTINUOUS
 62
     4
 10
-2212.7447891794332
 20
-429.0107608537208
 30
0.0
 40
60.0
  1
(φ32ノックアウト穴)
 50
0.0000010487279845
 41
0.7
  7
STANDARD1
  0
TEXT
  5
4A7
  8
NOTE
  6
CONTINUOUS
 62
     4
 10
-2196.546537489668
 20
-108.68216116690429
 30
0.0
 40
60.0
  1
EL5 (加湿器)
 50
0.0000010487279845
 41
0.7
  7
STANDARD1
  0
TEXT
  5
4A8
  8
NOTE
  6
CONTINUOUS
 62
     4
 10
-2216.9721090303219
 20
-209.46111118297131
 30
0.0
 40
60.0
  1
(φ32ノックアウト穴)
 50
0.0000010487279845
 41
0.7
  7
STANDARD1
  0
LINE
  5
4A9
  8
NOTE
  6
CONTINUOUS
 62
     4
 10
-1050.0000188330839
 20
445.00000000000171
 30
0.0
 11
-1664.1638342119161
 21
-127.59518409917381
 31
0.0
  0
LINE
  5
4AA
  8
NOTE
  6
CONTINUOUS
 62
     4
 10
-1664.1638342119161
 20
-127.59518409917381
 30
0.0
 11
-2220.3194256533998
 21
-127.5952185886472
 31
0.0
  0
LINE
  5
4AB
  8
NOTE
  6
CONTINUOUS
 62
     4
 10
-1050.00001573238
 20
395.00000000000171
 30
0.0
 11
-1659.936514361028
 21
-347.14483376992388
 31
0.0
  0
LINE
  5
4AC
  8
NOTE
  6
CONTINUOUS
 62
     4
 10
-1659.936514361028
 20
-347.14483376992388
 30
0.0
 11
-2216.0921058025128
 21
-347.14486825939639
 31
0.0
  0
LINE
  5
4AD
  8
NOTE
  6
CONTINUOUS
 62
     4
 10
-1050.0000126316761
 20
345.00000000000182
 30
0.0
 11
-1660.2778956110631
 21
-556.18790690096921
 31
0.0
  0
LINE
  5
4AE
  8
NOTE
  6
CONTINUOUS
 62
     4
 10
-1660.2778956110631
 20
-556.18790690096921
 30
0.0
 11
-2216.4334870525472
 21
-556.18794139044201
 31
0.0
  0
LINE
  5
4AF
  8
NOTE
  6
CONTINUOUS
 62
     4
 10
-1050.00000798062
 20
270.00000000000182
 30
0.0
 11
-1657.717450844717
 21
-767.92400647528382
 31
0.0
  0
LINE
  5
4B0
  8
NOTE
  6
CONTINUOUS
 62
     4
 10
-1657.717450844717
 20
-767.92400647528382
 30
0.0
 11
-2227.7867165092921
 21
-767.92404182760038
 31
0.0
  0
LINE
  5
4B1
  8
SIZE
  6
CONTINUOUS
 62
    30
 10
-1098.694222017569
 20
0.0000000000031832
 30
0.0
 11
-1816.1416741695721
 21
0.000000000005457
 31
0.0
  0
LINE
  5
4B2
  8
SIZE
  6
CONTINUOUS
 62
    30
 10
-1098.6941999999999
 20
270.00000000002728
 30
0.0
 11
-1816.1416741695771
 21
270.00000000000449
 31
0.0
  0
LINE
  5
4B3
  8
SIZE
  6
CONTINUOUS
 62
    30
 10
-1796.1416741695721
 20
0.0000000000059117
 30
0.0
 11
-1796.1416741695771
 21
270.000000000005
 31
0.0
  0
CIRCLE
  5
4B4
  8
SIZE
  6
CONTINUOUS
 62
    30
 10
-1796.1416741695721
 20
0.0000000000059117
 30
0.0
 40
7.5
  0
CIRCLE
  5
4B5
  8
SIZE
  6
CONTINUOUS
 62
    30
 10
-1796.1416741695771
 20
270.000000000005
 30
0.0
 40
7.5
  0
TEXT
  5
4B6
  8
SIZE
  6
CONTINUOUS
 62
    30
 10
-1812.694499991268
 20
65.571428571434879
 30
0.0
 40
60.0
  1
270
 50
90.0
 41
0.9
 72
     1
 11
-1812.694499991268
 21
135.00000000000631
 31
0.0
  0
POINT
  5
4B7
  8
DEFPOINTS
  6
CONTINUOUS
 62
     7
 10
-1796.1416741695771
 20
270.000000000005
 30
0.0
 50
180.00000000000099
  0
LINE
  5
4B8
  8
SIZE
  6
CONTINUOUS
 62
    30
 10
-1098.6941999999999
 20
345.00000000002723
 30
0.0
 11
-1935.1087942623701
 21
345.00000000000222
 31
0.0
  0
LINE
  5
4B9
  8
SIZE
  6
CONTINUOUS
 62
    30
 10
-1098.694222017569
 20
0.0000000000022737
 30
0.0
 11
-1935.1087942623631
 21
0.0000000000027285
 31
0.0
  0
LINE
  5
4BA
  8
SIZE
  6
CONTINUOUS
 62
    30
 10
-1915.1087942623701
 20
345.00000000000267
 30
0.0
 11
-1915.108794262364
 21
0.0000000000027285
 31
0.0
  0
CIRCLE
  5
4BB
  8
SIZE
  6
CONTINUOUS
 62
    30
 10
-1915.1087942623701
 20
345.00000000000267
 30
0.0
 40
7.5
  0
CIRCLE
  5
4BC
  8
SIZE
  6
CONTINUOUS
 62
    30
 10
-1915.108794262364
 20
0.0000000000027285
 30
0.0
 40
7.5
  0
TEXT
  5
4BD
  8
SIZE
  6
CONTINUOUS
 62
    30
 10
-1931.6616200840599
 20
120.6234615651753
 30
0.0
 40
60.0
  1
345
 50
90.0
 41
0.9
 72
     1
 11
-1931.6616200840599
 21
190.05203299374671
 31
0.0
  0
POINT
  5
4BE
  8
DEFPOINTS
  6
CONTINUOUS
 62
     7
 10
-1915.108794262364
 20
0.0000000000027285
 30
0.0
 50
180.00000000000099
  0
LINE
  5
4BF
  8
SIZE
  6
CONTINUOUS
 62
    30
 10
-1098.6941999999999
 20
395.00000000002723
 30
0.0
 11
-1935.108794262371
 21
395.00000000000227
 31
0.0
  0
LINE
  5
4C0
  8
SIZE
  6
CONTINUOUS
 62
    30
 10
-1098.6941999999999
 20
345.00000000002723
 30
0.0
 11
-1935.1087942623701
 21
345.00000000000222
 31
0.0
  0
LINE
  5
4C1
  8
SIZE
  6
CONTINUOUS
 62
    30
 10
-1915.108794262371
 20
395.00000000000261
 30
0.0
 11
-1915.1087942623701
 21
345.00000000000267
 31
0.0
  0
LINE
  5
4C2
  8
SIZE
  6
CONTINUOUS
 62
    30
 10
-1915.108794262371
 20
370.00000000000261
 30
0.0
 11
-2020.2185650867159
 21
322.22203567508222
 31
0.0
  0
LINE
  5
4C3
  8
SIZE
  6
CONTINUOUS
 62
    30
 10
-2020.2185650867159
 20
322.22203567508222
 30
0.0
 11
-2020.2185650867129
 21
194.79346424651061
 31
0.0
  0
TEXT
  5
4C4
  8
SIZE
  6
CONTINUOUS
 62
    30
 10
-2036.7713909084091
 20
214.79346424651121
 30
0.0
 40
60.0
  1
50
 50
90.0
 41
0.9
 72
     1
 11
-2036.7713909084091
 21
258.5077499607969
 31
0.0
  0
CIRCLE
  5
4C5
  8
SIZE
  6
CONTINUOUS
 62
    30
 10
-1915.108794262371
 20
395.00000000000261
 30
0.0
 40
7.5
  0
CIRCLE
  5
4C6
  8
SIZE
  6
CONTINUOUS
 62
    30
 10
-1915.1087942623701
 20
345.00000000000267
 30
0.0
 40
7.5
  0
POINT
  5
4C7
  8
DEFPOINTS
  6
CONTINUOUS
 62
     7
 10
-1915.1087942623701
 20
345.00000000000267
 30
0.0
 50
180.00000000000099
  0
LINE
  5
4C8
  8
SIZE
  6
CONTINUOUS
 62
    30
 10
-1098.6941999999999
 20
395.00000000002723
 30
0.0
 11
-1935.108794262371
 21
395.00000000000227
 31
0.0
  0
LINE
  5
4C9
  8
SIZE
  6
CONTINUOUS
 62
    30
 10
-1098.6941999999999
 20
445.00000000002711
 30
0.0
 11
-1935.1087942623719
 21
445.00000000000171
 31
0.0
  0
LINE
  5
4CA
  8
SIZE
  6
CONTINUOUS
 62
    30
 10
-1915.108794262371
 20
395.00000000000261
 30
0.0
 11
-1915.1087942623719
 21
445.0000000000025
 31
0.0
  0
LINE
  5
4CB
  8
SIZE
  6
CONTINUOUS
 62
    30
 10
-1915.1087942623719
 20
445.0000000000025
 30
0.0
 11
-1915.108794262374
 21
602.4285714285736
 31
0.0
  0
CIRCLE
  5
4CC
  8
SIZE
  6
CONTINUOUS
 62
    30
 10
-1915.108794262371
 20
395.00000000000261
 30
0.0
 40
7.5
  0
CIRCLE
  5
4CD
  8
SIZE
  6
CONTINUOUS
 62
    30
 10
-1915.1087942623719
 20
445.0000000000025
 30
0.0
 40
7.5
  0
TEXT
  5
4CE
  8
SIZE
  6
CONTINUOUS
 62
    30
 10
-1931.661620084067
 20
495.00000000000313
 30
0.0
 40
60.0
  1
50
 50
90.0
 41
0.9
 72
     1
 11
-1931.661620084067
 21
538.71428571428885
 31
0.0
  0
POINT
  5
4CF
  8
DEFPOINTS
  6
CONTINUOUS
 62
     7
 10
-1915.1087942623719
 20
445.0000000000025
 30
0.0
 50
180.00000000000099
  0
LINE
  5
4D0
  8
SIZE
  6
CONTINUOUS
 62
    30
 10
1116.0
 20
150.00000000000179
 30
0.0
 11
1716.670740740075
 21
150.00000000000179
 31
0.0
  0
LINE
  5
4D1
  8
SIZE
  6
CONTINUOUS
 62
    30
 10
1070.0
 20
0.000000000001819
 30
0.0
 11
1716.670740740075
 21
0.000000000001819
 31
0.0
  0
LINE
  5
4D2
  8
SIZE
  6
CONTINUOUS
 62
    30
 10
1696.670740740075
 20
150.00000000000179
 30
0.0
 11
1696.670740740075
 21
0.000000000001819
 31
0.0
  0
TEXT
  5
4D3
  8
SIZE
  6
CONTINUOUS
 62
    30
 10
1684.189895361654
 20
11.17181602294791
 30
0.0
 40
60.0
  1
150
 50
90.0
 41
0.9
 72
     1
 11
1684.189895361654
 21
75.457530308662186
 31
0.0
  0
CIRCLE
  5
4D4
  8
SIZE
  6
CONTINUOUS
 62
    30
 10
1696.670740740075
 20
0.000000000001819
 30
0.0
 40
7.5
  0
CIRCLE
  5
4D5
  8
SIZE
  6
CONTINUOUS
 62
    30
 10
1696.670740740075
 20
150.00000000000179
 30
0.0
 40
7.5
  0
LINE
  5
4EA
  8
NOTE
  6
CONTINUOUS
 62
     4
 10
-1066.584883293287
 20
418.74053765942489
 30
0.0
 11
-1050.0000188330839
 21
445.00000000000148
 31
0.0
  0
LINE
  5
4EB
  8
NOTE
  6
CONTINUOUS
 62
     4
 10
-1050.0000188330839
 20
445.00000000000148
 30
0.0
 11
-1077.4926638786819
 21
430.55107062872253
 31
0.0
  0
LINE
  5
4EC
  8
NOTE
  6
CONTINUOUS
 62
     4
 10
-1063.897518714308
 20
367.22453416328182
 30
0.0
 11
-1050.00001573238
 21
395.00000000000159
 31
0.0
  0
LINE
  5
4ED
  8
NOTE
  6
CONTINUOUS
 62
     4
 10
-1050.00001573238
 20
395.00000000000159
 30
0.0
 11
-1075.9233392046599
 21
377.89449235681792
 31
0.0
  0
LINE
  5
4EE
  8
NOTE
  6
CONTINUOUS
 62
     4
 10
-1061.7804113190821
 20
316.26258017244459
 30
0.0
 11
-1050.0000126316761
 21
345.00000000000159
 31
0.0
  0
LINE
  5
4EF
  8
NOTE
  6
CONTINUOUS
 62
     4
 10
-1050.0000126316761
 20
345.00000000000159
 30
0.0
 11
-1074.5708469892741
 21
326.00286362235488
 31
0.0
  0
LINE
  5
4F0
  8
NOTE
  6
CONTINUOUS
 62
     4
 10
-1060.1540071878819
 20
240.6484516306495
 30
0.0
 11
-1050.00000798062
 21
270.00000000000182
 31
0.0
  0
LINE
  5
4F1
  8
NOTE
  6
CONTINUOUS
 62
     4
 10
-1050.00000798062
 20
270.00000000000182
 30
0.0
 11
-1073.469403336509
 21
249.65781296889571
 31
0.0
  0
LINE
  5
4F2
  8
NOTE
  6
CONTINUOUS
 62
     4
 10
-1016.0
 20
445.00000989784479
 30
0.0
 11
-1084.0
 21
445.00000989784479
 31
0.0
  0
LINE
  5
4F3
  8
NOTE
  6
CONTINUOUS
 62
     4
 10
-1050.0
 20
411.00000989784479
 30
0.0
 11
-1050.0
 21
479.00000989784479
 31
0.0
  0
LINE
  5
4F4
  8
NOTE
  6
CONTINUOUS
 62
     4
 10
-1016.00001573238
 20
395.00000000000159
 30
0.0
 11
-1084.00001573238
 21
395.00000000000159
 31
0.0
  0
LINE
  5
4F5
  8
NOTE
  6
CONTINUOUS
 62
     4
 10
-1050.00001573238
 20
361.00000000000159
 30
0.0
 11
-1050.00001573238
 21
429.00000000000159
 31
0.0
  0
LINE
  5
4F6
  8
NOTE
  6
CONTINUOUS
 62
     4
 10
-1016.0
 20
345.00000976628229
 30
0.0
 11
-1084.0
 21
345.00000976628229
 31
0.0
  0
LINE
  5
4F7
  8
NOTE
  6
CONTINUOUS
 62
     4
 10
-1050.0
 20
311.00000976628252
 30
0.0
 11
-1050.0
 21
379.0000097662824
 31
0.0
  0
LINE
  5
4F8
  8
NOTE
  6
CONTINUOUS
 62
     4
 10
-1016.0
 20
270.00000691723511
 30
0.0
 11
-1084.0
 21
270.00000691723511
 31
0.0
  0
LINE
  5
4F9
  8
NOTE
  6
CONTINUOUS
 62
     4
 10
-1050.0
 20
236.000006917235
 30
0.0
 11
-1050.0
 21
304.000006917235
 31
0.0
  0
LINE
  5
625
  8
SIZE
  6
CONTINUOUS
 62
    30
 10
-949.99999999999693
 20
-56.855521529445447
 30
0.0
 11
-949.99999999999693
 21
-995.71245593940489
 31
0.0
  0
CIRCLE
  5
626
  8
FIX
  6
CONTINUOUS
 62
    11
 10
-1030.0
 20
0.0
 30
0.0
 40
12.42149793872491
  0
CIRCLE
  5
627
  8
FIX
  6
CONTINUOUS
 62
    11
 10
1030.0
 20
0.0
 30
0.0
 40
12.42149793872491
  0
LINE
  5
628
  8
NOTE
  6
CONTINUOUS
 62
     4
 10
1030.0
 20
-34.0
 30
0.0
 11
1030.0
 21
34.0
 31
0.0
  0
LINE
  5
629
  8
NOTE
  6
CONTINUOUS
 62
     4
 10
996.0
 20
0.0
 30
0.0
 11
1064.0
 21
0.0
 31
0.0
  0
LINE
  5
62A
  8
NOTE
  6
CONTINUOUS
 62
     4
 10
-1030.0
 20
-34.0
 30
0.0
 11
-1030.0
 21
34.0
 31
0.0
  0
LINE
  5
62B
  8
NOTE
  6
CONTINUOUS
 62
     4
 10
-1064.0
 20
0.0
 30
0.0
 11
-996.0
 21
0.0
 31
0.0
  0
LINE
  5
62C
  8
SIZE
  6
CONTINUOUS
 62
    30
 10
-1030.0
 20
-55.230085397611212
 30
0.0
 11
-1030.0
 21
-1066.6242617088431
 31
0.0
  0
LINE
  5
62D
  8
SIZE
  6
CONTINUOUS
 62
    30
 10
1030.0
 20
-55.230085397611212
 30
0.0
 11
1030.0
 21
-1066.6242617088431
 31
0.0
  0
LINE
  5
62E
  8
SIZE
  6
CONTINUOUS
 62
    30
 10
-1030.0
 20
-1046.6242617088431
 30
0.0
 11
1030.0
 21
-1046.6242617088431
 31
0.0
  0
CIRCLE
  5
62F
  8
SIZE
  6
CONTINUOUS
 62
    30
 10
-1030.0
 20
-1046.6242617088431
 30
0.0
 40
7.5
  0
CIRCLE
  5
630
  8
SIZE
  6
CONTINUOUS
 62
    30
 10
1030.0
 20
-1046.6242617088431
 30
0.0
 40
7.5
  0
TEXT
  5
631
  8
SIZE
  6
CONTINUOUS
 62
    30
 10
-95.142857142857139
 20
-1028.6688383373801
 30
0.0
 40
60.0
  1
2060
 41
0.9
 72
     1
 11
0.0
 21
-1028.6688383373801
 31
0.0
  0
LINE
  5
632
  8
SIZE
  6
CONTINUOUS
 62
    30
 10
-1030.0
 20
-55.230085397611212
 30
0.0
 11
-1030.0
 21
-1066.6242617088431
 31
0.0
  0
LINE
  5
633
  8
SIZE
  6
CONTINUOUS
 62
    30
 10
-1050.0
 20
-19.999999999999542
 30
0.0
 11
-1050.0
 21
-1066.6242617088431
 31
0.0
  0
LINE
  5
634
  8
SIZE
  6
CONTINUOUS
 62
    30
 10
-1030.0
 20
-1046.6242617088431
 30
0.0
 11
-1050.0
 21
-1046.6242617088431
 31
0.0
  0
LINE
  5
635
  8
SIZE
  6
CONTINUOUS
 62
    30
 10
-1050.0
 20
-1046.6242617088431
 30
0.0
 11
-1167.60857142857
 21
-1046.6242617088431
 31
0.0
  0
CIRCLE
  5
636
  8
SIZE
  6
CONTINUOUS
 62
    30
 10
-1030.0
 20
-1046.6242617088431
 30
0.0
 40
7.5
  0
CIRCLE
  5
637
  8
SIZE
  6
CONTINUOUS
 62
    30
 10
-1050.0
 20
-1046.6242617088431
 30
0.0
 40
7.5
  0
TEXT
  5
638
  8
SIZE
  6
CONTINUOUS
 62
    30
 10
-1157.2886354340981
 20
-1028.6688383373801
 30
0.0
 40
60.0
  1
20
 41
0.9
 72
     1
 11
-1113.5743497198121
 21
-1028.6688383373801
 31
0.0
  0
LINE
  5
639
  8
SIZE
  6
CONTINUOUS
 62
    30
 10
1030.0
 20
-55.230085397611212
 30
0.0
 11
1030.0
 21
-1066.6242617088431
 31
0.0
  0
LINE
  5
63A
  8
SIZE
  6
CONTINUOUS
 62
    30
 10
1050.0
 20
-19.999999999999542
 30
0.0
 11
1050.0
 21
-1066.6242617088431
 31
0.0
  0
LINE
  5
63B
  8
SIZE
  6
CONTINUOUS
 62
    30
 10
1030.0
 20
-1046.6242617088431
 30
0.0
 11
1050.0
 21
-1046.6242617088431
 31
0.0
  0
LINE
  5
63C
  8
SIZE
  6
CONTINUOUS
 62
    30
 10
1050.0
 20
-1046.6242617088431
 30
0.0
 11
1167.60857142857
 21
-1046.6242617088431
 31
0.0
  0
CIRCLE
  5
63D
  8
SIZE
  6
CONTINUOUS
 62
    30
 10
1030.0
 20
-1046.6242617088431
 30
0.0
 40
7.5
  0
CIRCLE
  5
63E
  8
SIZE
  6
CONTINUOUS
 62
    30
 10
1050.0
 20
-1046.6242617088431
 30
0.0
 40
7.5
  0
TEXT
  5
63F
  8
SIZE
  6
CONTINUOUS
 62
    30
 10
1074.5957442310209
 20
-1028.6688383373801
 30
0.0
 40
60.0
  1
20
 41
0.9
 72
     1
 11
1118.310029945307
 21
-1028.6688383373801
 31
0.0
  0
LINE
  5
640
  8
SIZE
  6
CONTINUOUS
 62
    30
 10
-949.9999999999992
 20
-54.000000000000902
 30
0.0
 11
-949.9999999999992
 21
-1188.781862142117
 31
0.0
  0
LINE
  5
641
  8
SIZE
  6
CONTINUOUS
 62
    30
 10
950.00000000000239
 20
-54.000000000000902
 30
0.0
 11
950.00000000000239
 21
-1188.781862142117
 31
0.0
  0
LINE
  5
642
  8
SIZE
  6
CONTINUOUS
 62
    30
 10
-949.9999999999992
 20
-1168.781862142117
 30
0.0
 11
950.00000000000239
 21
-1168.781862142117
 31
0.0
  0
CIRCLE
  5
643
  8
SIZE
  6
CONTINUOUS
 62
    30
 10
-949.9999999999992
 20
-1168.781862142117
 30
0.0
 40
7.5
  0
CIRCLE
  5
644
  8
SIZE
  6
CONTINUOUS
 62
    30
 10
950.00000000000239
 20
-1168.781862142117
 30
0.0
 40
7.5
  0
TEXT
  5
645
  8
SIZE
  6
CONTINUOUS
 62
    30
 10
-89.999999999998181
 20
-1150.826438770654
 30
0.0
 40
60.0
  1
1900
 41
0.9
 72
     1
 11
0.000000000001819
 21
-1150.826438770654
 31
0.0
  0
LINE
  5
646
  8
SIZE
  6
CONTINUOUS
 62
    30
 10
950.00000000000239
 20
-54.000000000000902
 30
0.0
 11
950.00000000000239
 21
-1188.781862142117
 31
0.0
  0
LINE
  5
647
  8
SIZE
  6
CONTINUOUS
 62
    30
 10
1050.0
 20
-19.999999999999542
 30
0.0
 11
1050.0
 21
-1188.781862142117
 31
0.0
  0
LINE
  5
648
  8
SIZE
  6
CONTINUOUS
 62
    30
 10
950.00000000000239
 20
-1168.781862142117
 30
0.0
 11
1050.0
 21
-1168.781862142117
 31
0.0
  0
LINE
  5
649
  8
SIZE
  6
CONTINUOUS
 62
    30
 10
1050.0
 20
-1168.781862142117
 30
0.0
 11
1208.751428571429
 21
-1168.781862142117
 31
0.0
  0
CIRCLE
  5
64A
  8
SIZE
  6
CONTINUOUS
 62
    30
 10
950.00000000000239
 20
-1168.781862142117
 30
0.0
 40
7.5
  0
CIRCLE
  5
64B
  8
SIZE
  6
CONTINUOUS
 62
    30
 10
1050.0
 20
-1168.781862142117
 30
0.0
 40
7.5
  0
TEXT
  5
64C
  8
SIZE
  6
CONTINUOUS
 62
    30
 10
1069.4661834875251
 20
-1150.826438770654
 30
0.0
 40
60.0
  1
100
 41
0.9
 72
     1
 11
1133.7518977732391
 21
-1150.826438770654
 31
0.0
  0
LINE
  5
64D
  8
SIZE
  6
CONTINUOUS
 62
    30
 10
-949.9999999999992
 20
-54.000000000000902
 30
0.0
 11
-949.9999999999992
 21
-1188.781862142117
 31
0.0
  0
LINE
  5
64E
  8
SIZE
  6
CONTINUOUS
 62
    30
 10
-1050.0
 20
-20.0
 30
0.0
 11
-1050.0
 21
-1188.781862142117
 31
0.0
  0
LINE
  5
64F
  8
SIZE
  6
CONTINUOUS
 62
    30
 10
-949.9999999999992
 20
-1168.781862142117
 30
0.0
 11
-1050.0
 21
-1168.781862142117
 31
0.0
  0
LINE
  5
650
  8
SIZE
  6
CONTINUOUS
 62
    30
 10
-1050.0
 20
-1168.781862142117
 30
0.0
 11
-1208.751428571429
 21
-1168.781862142117
 31
0.0
  0
CIRCLE
  5
651
  8
SIZE
  6
CONTINUOUS
 62
    30
 10
-949.9999999999992
 20
-1168.781862142117
 30
0.0
 40
7.5
  0
CIRCLE
  5
652
  8
SIZE
  6
CONTINUOUS
 62
    30
 10
-1050.0
 20
-1168.781862142117
 30
0.0
 40
7.5
  0
TEXT
  5
653
  8
SIZE
  6
CONTINUOUS
 62
    30
 10
-1205.040842733008
 20
-1150.826438770654
 30
0.0
 40
60.0
  1
100
 41
0.9
 72
     1
 11
-1140.7551284472941
 21
-1150.826438770654
 31
0.0
  0
LINE
  5
654
  8
SIZE
  6
CONTINUOUS
 62
    30
 10
-1050.0
 20
-16.800000000000178
 30
0.0
 11
-1050.0
 21
-1310.2106702424569
 31
0.0
  0
LINE
  5
655
  8
SIZE
  6
CONTINUOUS
 62
    30
 10
1050.0
 20
-20.0
 30
0.0
 11
1050.0
 21
-1310.2106702424569
 31
0.0
  0
LINE
  5
656
  8
SIZE
  6
CONTINUOUS
 62
    30
 10
-1050.0
 20
-1290.2106702424569
 30
0.0
 11
1050.0
 21
-1290.2106702424569
 31
0.0
  0
CIRCLE
  5
657
  8
SIZE
  6
CONTINUOUS
 62
    30
 10
-1050.0
 20
-1290.2106702424569
 30
0.0
 40
7.5
  0
CIRCLE
  5
658
  8
SIZE
  6
CONTINUOUS
 62
    30
 10
1050.0
 20
-1290.2106702424569
 30
0.0
 40
7.5
  0
TEXT
  5
659
  8
SIZE
  6
CONTINUOUS
 62
    30
 10
-90.0
 20
-1272.2552468709939
 30
0.0
 40
60.0
  1
2100
 41
0.9
 72
     1
 11
0.0
 21
-1272.2552468709939
 31
0.0
  0
ENDSEC
  0
EOF
