  0
SECTION
  2
HEADER
  9
$ACADVER
  1
AC1009
  9
$INSBASE
 10
0.0
 20
0.0
 30
0.0
  9
$EXTMIN
 10
-1911.6242724993861
 20
-1001.7778292888941
 30
-0.0000000000112498
  9
$EXTMAX
 10
1096.381198909799
 20
2693.4533661509199
 30
0.0000000000002956
  9
$LIMMIN
 10
-4267.1522210604817
 20
-2696.0832101984129
  9
$LIMMAX
 10
7190.7174225864646
 20
5141.155363923066
  9
$ORTHOMODE
 70
     1
  9
$REGENMODE
 70
     1
  9
$FILLMODE
 70
     1
  9
$QTEXTMODE
 70
     0
  9
$MIRRTEXT
 70
     0
  9
$DRAGMODE
 70
     2
  9
$LTSCALE
 40
20.0
  9
$OSMODE
 70
  3071
  9
$ATTMODE
 70
     1
  9
$TEXTSIZE
 40
64.0
  9
$TRACEWID
 40
0.05
  9
$TEXTSTYLE
  7
STANDARD_MODELNAME
  9
$CLAYER
  8
SYMBOLLINE
  9
$CELTYPE
  6
CONTINUOUS
  9
$CECOLOR
 62
     7
  9
$DIMSCALE
 40
1.0
  9
$DIMASZ
 40
30.0
  9
$DIMEXO
 40
20.0
  9
$DIMDLI
 40
80.0
  9
$DIMRND
 40
0.0
  9
$DIMDLE
 40
0.0
  9
$DIMEXE
 40
20.0
  9
$DIMTP
 40
0.0
  9
$DIMTM
 40
0.0
  9
$DIMTXT
 40
60.0
  9
$DIMCEN
 40
0.09
  9
$DIMTSZ
 40
0.0
  9
$DIMTOL
 70
     0
  9
$DIMLIM
 70
     0
  9
$DIMTIH
 70
     0
  9
$DIMTOH
 70
     0
  9
$DIMSE1
 70
     0
  9
$DIMSE2
 70
     0
  9
$DIMTAD
 70
     1
  9
$DIMZIN
 70
     8
  9
$DIMBLK
  1
SMALL
  9
$DIMASO
 70
     1
  9
$DIMSHO
 70
     0
  9
$DIMPOST
  1

  9
$DIMAPOST
  1

  9
$DIMALT
 70
     0
  9
$DIMALTD
 70
     2
  9
$DIMALTF
 40
25.399999999999999
  9
$DIMLFAC
 40
1.0
  9
$DIMTOFL
 70
     1
  9
$DIMTVP
 40
0.0
  9
$DIMTIX
 70
     0
  9
$DIMSOXD
 70
     0
  9
$DIMSAH
 70
     0
  9
$DIMBLK1
  1

  9
$DIMBLK2
  1

  9
$DIMSTYLE
  2
STANDARD
  9
$DIMCLRD
 70
     0
  9
$DIMCLRE
 70
     0
  9
$DIMCLRT
 70
     0
  9
$DIMTFAC
 40
1.0
  9
$DIMGAP
 40
0.09
  9
$LUNITS
 70
     2
  9
$LUPREC
 70
     4
  9
$SKETCHINC
 40
0.1
  9
$FILLETRAD
 40
30.0
  9
$AUNITS
 70
     1
  9
$AUPREC
 70
     3
  9
$MENU
  1
ACAD
  9
$ELEVATION
 40
0.0
  9
$PELEVATION
 40
0.0
  9
$THICKNESS
 40
0.0
  9
$LIMCHECK
 70
     0
  9
$BLIPMODE
 70
     0
  9
$CHAMFERA
 40
0.0
  9
$CHAMFERB
 40
0.0
  9
$SKPOLY
 70
     0
  9
$TDCREATE
 40
2450330.4399309959
  9
$TDUPDATE
 40
2456080.731383808
  9
$TDINDWG
 40
4.1116162036999997
  9
$TDUSRTIMER
 40
4.1116118634000003
  9
$USRTIMER
 70
     1
  9
$ANGBASE
 50
0.0
  9
$ANGDIR
 70
     0
  9
$PDMODE
 70
     3
  9
$PDSIZE
 40
-2.0
  9
$PLINEWID
 40
0.0
  9
$COORDS
 70
     1
  9
$SPLFRAME
 70
     0
  9
$SPLINETYPE
 70
     6
  9
$SPLINESEGS
 70
     8
  9
$ATTDIA
 70
     0
  9
$ATTREQ
 70
     1
  9
$HANDLING
 70
     1
  9
$HANDSEED
  5
72E
  9
$SURFTAB1
 70
     6
  9
$SURFTAB2
 70
     6
  9
$SURFTYPE
 70
     6
  9
$SURFU
 70
     6
  9
$SURFV
 70
     6
  9
$UCSNAME
  2

  9
$UCSORG
 10
0.0
 20
0.0
 30
0.0
  9
$UCSXDIR
 10
1.0
 20
0.0
 30
0.0
  9
$UCSYDIR
 10
0.0
 20
1.0
 30
0.0
  9
$PUCSNAME
  2

  9
$PUCSORG
 10
0.0
 20
0.0
 30
0.0
  9
$PUCSXDIR
 10
1.0
 20
0.0
 30
0.0
  9
$PUCSYDIR
 10
0.0
 20
1.0
 30
0.0
  9
$USERI1
 70
     0
  9
$USERI2
 70
     0
  9
$USERI3
 70
     0
  9
$USERI4
 70
     0
  9
$USERI5
 70
     0
  9
$USERR1
 40
20.0
  9
$USERR2
 40
0.0
  9
$USERR3
 40
0.0
  9
$USERR4
 40
0.0
  9
$USERR5
 40
0.0
  9
$WORLDVIEW
 70
     1
  9
$SHADEDGE
 70
     3
  9
$SHADEDIF
 70
    70
  9
$TILEMODE
 70
     1
  9
$MAXACTVP
 70
    64
  9
$PLIMCHECK
 70
     0
  9
$PEXTMIN
 10
1.0000000000000000E+020
 20
1.0000000000000000E+020
 30
1.0000000000000000E+020
  9
$PEXTMAX
 10
-1.0000000000000000E+020
 20
-1.0000000000000000E+020
 30
-1.0000000000000000E+020
  9
$PLIMMIN
 10
0.0
 20
0.0
  9
$PLIMMAX
 10
12.0
 20
9.0
  9
$UNITMODE
 70
     0
  9
$VISRETAIN
 70
     1
  9
$PLINEGEN
 70
     0
  9
$PSLTSCALE
 70
     1
  0
ENDSEC
  0
SECTION
  2
TABLES
  0
TABLE
  2
VPORT
 70
     1
  0
VPORT
  2
*ACTIVE
 70
     0
 10
0.0
 20
0.0
 11
1.0
 21
1.0
 12
1461.782600762991
 22
1222.536076862327
 13
0.0
 23
0.0
 14
50.0
 24
50.0
 15
100.0
 25
100.0
 16
0.0
 26
0.0
 36
1.0
 17
0.0
 27
0.0
 37
0.0
 40
7896.8373465482591
 41
1.552030456852791
 42
50.0
 43
0.0
 44
0.0
 50
0.0
 51
0.0
 71
     0
 72
  1000
 73
     1
 74
     0
 75
     0
 76
     0
 77
     0
 78
     0
  0
ENDTAB
  0
TABLE
  2
LTYPE
 70
     4
  0
LTYPE
  2
CONTINUOUS
 70
     0
  3
実線
 72
    65
 73
     0
 40
0.0
  0
LTYPE
  2
DASHDOT
 70
     0
  3
____ _ ____ _ ____ _ ____ _ ____ _ ____ _ ____
 72
    65
 73
     4
 40
5.5
 49
4.0
 49
-0.6
 49
0.3
 49
-0.6
  0
LTYPE
  2
CENTER
 70
     0
  3
Center ____ _ ____ _ ____ _ ____ _ ____ _ ____
 72
    65
 73
     4
 40
7.0
 49
4.299999999999998
 49
-0.7
 49
1.3
 49
-0.7
  0
LTYPE
  2
DASHED
 70
     0
  3
Dashed __ __ __ __ __ __ __ __ __ __ __ __ __ _
 72
    65
 73
     2
 40
3.0
 49
2.0
 49
-1.0
  0
ENDTAB
  0
TABLE
  2
LAYER
 70
    12
  0
LAYER
  2
0
 70
     0
 62
     7
  6
CONTINUOUS
  0
LAYER
  2
SYMBOLLINE
 70
     0
 62
    15
  6
CONTINUOUS
  0
LAYER
  2
NOTE
 70
     0
 62
     4
  6
CONTINUOUS
  0
LAYER
  2
OUTLINE
 70
     0
 62
     3
  6
CONTINUOUS
  0
LAYER
  2
DETAIL
 70
     0
 62
     5
  6
CONTINUOUS
  0
LAYER
  2
BASIS
 70
     0
 62
     6
  6
DASHDOT
  0
LAYER
  2
SIZE
 70
     0
 62
    30
  6
CONTINUOUS
  0
LAYER
  2
ARRANGE
 70
     0
 62
     1
  6
CONTINUOUS
  0
LAYER
  2
FIX
 70
     0
 62
    11
  6
CONTINUOUS
  0
LAYER
  2
SERVICESPACE
 70
     0
 62
     2
  6
DASHDOT
  0
LAYER
  2
ETC
 70
     0
 62
    61
  6
CONTINUOUS
  0
LAYER
  2
DEFPOINTS
 70
     0
 62
     7
  6
CONTINUOUS
  0
ENDTAB
  0
TABLE
  2
STYLE
 70
     4
  0
STYLE
  2
STANDARD
 70
     0
 40
0.0
 41
0.9
 50
0.0
 71
     0
 42
64.0
  3
SIMPLEX
  4
BIGFONT
  0
STYLE
  2
ANNOTATIVE
 70
     0
 40
0.0
 41
1.0
 50
0.0
 71
     0
 42
0.2
  3
txt
  4

  0
STYLE
  2
STANDARD_MODELNAME
 70
     0
 40
80.0
 41
0.8
 50
0.0
 71
     0
 42
64.0
  3
MONOTXT.shx
  4
BIGFONT.shx
  0
STYLE
  2
STANDARD1
 70
     0
 40
60.0
 41
0.7
 50
0.0
 71
     0
 42
64.0
  3
MONOTXT.shx
  4
BIGFONT.shx
  0
ENDTAB
  0
TABLE
  2
VIEW
 70
     1
  0
VIEW
  2
ALL
 70
     0
 40
9000.0
 10
241.50664699999999
 20
0.0
 41
12483.01
 11
0.0
 21
0.0
 31
1.0
 12
0.0
 22
0.0
 32
0.0
 42
50.0
 43
0.0
 44
0.0
 50
0.0
 71
     0
  0
ENDTAB
  0
TABLE
  2
UCS
 70
     0
  0
ENDTAB
  0
TABLE
  2
APPID
 70
     4
  0
APPID
  2
ACAD
 70
     0
  0
APPID
  2
ACADANNOTATIVE
 70
     0
  0
APPID
  2
ACAD_MLEADERVER
 70
     0
  0
APPID
  2
ACAD_EXEMPT_FROM_CAD_STANDARDS
 70
     0
  0
ENDTAB
  0
TABLE
  2
DIMSTYLE
 70
     2
  0
DIMSTYLE
  2
STANDARD
 70
     0
  3

  4

  5

  6

  7

 40
1.0
 41
0.18
 42
0.0625
 43
0.38
 44
0.18
 45
0.0
 46
0.0
 47
0.0
 48
0.0
140
0.18
141
0.09
142
0.0
143
25.399999999999999
144
1.0
145
0.0
146
1.0
147
0.09
 71
     0
 72
     0
 73
     1
 74
     1
 75
     0
 76
     0
 77
     0
 78
     0
170
     0
171
     2
172
     0
173
     0
174
     0
175
     0
176
     0
177
     0
178
     0
  0
DIMSTYLE
  2
ANNOTATIVE
 70
     0
  3

  4

  5

  6

  7

 40
1.0
 41
0.18
 42
0.0625
 43
0.38
 44
0.18
 45
0.0
 46
0.0
 47
0.0
 48
0.0
140
0.18
141
0.09
142
0.0
143
25.399999999999999
144
1.0
145
0.0
146
1.0
147
0.09
 71
     0
 72
     0
 73
     1
 74
     1
 75
     0
 76
     0
 77
     0
 78
     0
170
     0
171
     2
172
     0
173
     0
174
     0
175
     0
176
     0
177
     0
178
     0
  0
ENDTAB
  0
ENDSEC
  0
SECTION
  2
BLOCKS
  0
BLOCK
  8
0
  2
$MODEL_SPACE
 70
     0
 10
0.0
 20
0.0
 30
0.0
  3
$MODEL_SPACE
  1

  0
ENDBLK
  5
6C2
  8
0
  0
BLOCK
 67
     1
  8
0
  2
$PAPER_SPACE
 70
     0
 10
0.0
 20
0.0
 30
0.0
  3
$PAPER_SPACE
  1

  0
ENDBLK
  5
6BE
 67
     1
  8
0
  0
BLOCK
  8
0
  2
_SMALL
 70
     0
 10
0.0
 20
0.0
 30
0.0
  3
_SMALL
  1

  0
CIRCLE
  5
8F
  8
0
  6
CONTINUOUS
 62
     7
 10
0.0
 20
0.0
 30
0.0
 40
0.25
  0
ENDBLK
  5
90
  8
0
  0
BLOCK
  8
0
 62
     7
  2
*D3
 70
     1
 10
0.0
 20
0.0
 30
0.0
  3
*D3
  1

  0
LINE
  5
372
  8
SIZE
  6
CONTINUOUS
 62
     0
 10
210.0
 20
-54.0
 30
0.0
 11
210.0
 21
-317.08325251533819
 31
0.0
  0
LINE
  5
373
  8
SIZE
  6
CONTINUOUS
 62
     0
 10
440.0
 20
-20.0
 30
0.0
 11
440.0
 21
-317.08325251533819
 31
0.0
  0
LINE
  5
374
  8
SIZE
  6
CONTINUOUS
 62
     0
 10
210.0
 20
-297.0832525153383
 30
0.0
 11
440.0
 21
-297.0832525153383
 31
0.0
  0
INSERT
  5
375
  8
SIZE
  6
CONTINUOUS
 62
     0
  2
_SMALL
 10
210.0
 20
-297.0832525153383
 30
0.0
 41
30.0
 42
30.0
 43
30.0
 50
180.0
  0
INSERT
  5
376
  8
SIZE
  6
CONTINUOUS
 62
     0
  2
_SMALL
 10
440.0
 20
-297.0832525153383
 30
0.0
 41
30.0
 42
30.0
 43
30.0
  0
INSERT
  5
377
  8
SYMBOLLINE
  6
CONTINUOUS
 62
     7
  2
*U4
 10
0.0
 20
0.0
 30
0.0
  0
POINT
  5
378
  8
DEFPOINTS
  6
CONTINUOUS
 62
     0
 10
210.0
 20
-34.0
 30
0.0
  0
POINT
  5
379
  8
DEFPOINTS
  6
CONTINUOUS
 62
     0
 10
440.0
 20
0.0
 30
0.0
  0
POINT
  5
37A
  8
DEFPOINTS
  6
CONTINUOUS
 62
     0
 10
440.0
 20
-297.0832525153383
 30
0.0
  0
ENDBLK
  5
35F
  8
0
 62
     7
  0
BLOCK
  8
0
 62
     7
  2
*U4
 70
     1
 10
0.0
 20
0.0
 30
0.0
  3
*U4
  1

  0
TEXT
  5
3EC
  8
SIZE
  6
CONTINUOUS
 62
     0
 10
255.57142857142861
 20
-296.99325251533821
 30
0.0
 40
60.0
  1
230
 41
0.9
  0
ENDBLK
  5
3EE
  8
0
 62
     7
  0
BLOCK
  8
0
 62
     7
  2
*D5
 70
     1
 10
0.0
 20
0.0
 30
0.0
  3
*D5
  1

  0
LINE
  5
58F
  8
SIZE
  6
CONTINUOUS
 62
     0
 10
-340.0
 20
-32.421497938724769
 30
0.0
 11
-340.00000000000011
 21
-767.19312092298765
 31
0.0
  0
LINE
  5
590
  8
SIZE
  6
CONTINUOUS
 62
     0
 10
340.0
 20
-32.421497938724912
 30
0.0
 11
339.99999999999989
 21
-767.19312092298765
 31
0.0
  0
LINE
  5
591
  8
SIZE
  6
CONTINUOUS
 62
     0
 10
-340.00000000000011
 20
-747.19312092298787
 30
0.0
 11
339.99999999999989
 21
-747.19312092298787
 31
0.0
  0
INSERT
  5
592
  8
SIZE
  6
CONTINUOUS
 62
     0
  2
_SMALL
 10
-340.00000000000011
 20
-747.19312092298787
 30
0.0
 41
30.0
 42
30.0
 43
30.0
 50
180.0
  0
INSERT
  5
593
  8
SIZE
  6
CONTINUOUS
 62
     0
  2
_SMALL
 10
339.99999999999989
 20
-747.19312092298787
 30
0.0
 41
30.0
 42
30.0
 43
30.0
  0
INSERT
  5
594
  8
SYMBOLLINE
  6
CONTINUOUS
 62
     7
  2
*U6
 10
0.0
 20
0.0
 30
0.0
  0
POINT
  5
595
  8
DEFPOINTS
  6
CONTINUOUS
 62
     0
 10
-340.0
 20
-12.421497938724769
 30
0.0
  0
POINT
  5
596
  8
DEFPOINTS
  6
CONTINUOUS
 62
     0
 10
340.0
 20
-12.42149793872491
 30
0.0
  0
POINT
  5
597
  8
DEFPOINTS
  6
CONTINUOUS
 62
     0
 10
339.99999999999989
 20
-747.19312092298787
 30
0.0
  0
ENDBLK
  5
4A6
  8
0
 62
     7
  0
BLOCK
  8
0
 62
     7
  2
*U6
 70
     1
 10
0.0
 20
0.0
 30
0.0
  3
*U6
  1

  0
TEXT
  5
646
  8
SIZE
  6
CONTINUOUS
 62
     0
 10
-69.428571428571487
 20
-747.10312092298784
 30
0.0
 40
60.0
  1
680
 41
0.9
  0
ENDBLK
  5
648
  8
0
 62
     7
  0
BLOCK
  8
0
 62
     7
  2
*D7
 70
     1
 10
0.0
 20
0.0
 30
0.0
  3
*D7
  1

  0
LINE
  5
585
  8
SIZE
  6
CONTINUOUS
 62
     0
 10
-340.0
 20
-32.421497938724912
 30
0.0
 11
-340.00000000000011
 21
-767.19312092298765
 31
0.0
  0
LINE
  5
586
  8
SIZE
  6
CONTINUOUS
 62
     0
 10
-440.0
 20
-20.0
 30
0.0
 11
-440.0
 21
-767.19312092298765
 31
0.0
  0
LINE
  5
587
  8
SIZE
  6
CONTINUOUS
 62
     0
 10
-340.00000000000011
 20
-747.19312092298787
 30
0.0
 11
-440.0
 21
-747.19312092298787
 31
0.0
  0
LINE
  5
588
  8
SIZE
  6
CONTINUOUS
 62
     0
 10
-440.0
 20
-747.19312092298787
 30
0.0
 11
-598.75142857142873
 21
-747.19312092298787
 31
0.0
  0
INSERT
  5
589
  8
SIZE
  6
CONTINUOUS
 62
     0
  2
_SMALL
 10
-340.00000000000011
 20
-747.19312092298787
 30
0.0
 41
30.0
 42
30.0
 43
30.0
  0
INSERT
  5
58A
  8
SIZE
  6
CONTINUOUS
 62
     0
  2
_SMALL
 10
-440.0
 20
-747.19312092298787
 30
0.0
 41
30.0
 42
30.0
 43
30.0
 50
180.0
  0
INSERT
  5
58B
  8
SYMBOLLINE
  6
CONTINUOUS
 62
     7
  2
*U8
 10
0.0
 20
0.0
 30
0.0
  0
POINT
  5
58C
  8
DEFPOINTS
  6
CONTINUOUS
 62
     0
 10
-340.0
 20
-12.42149793872491
 30
0.0
  0
POINT
  5
58D
  8
DEFPOINTS
  6
CONTINUOUS
 62
     0
 10
-440.0
 20
0.0
 30
0.0
  0
POINT
  5
58E
  8
DEFPOINTS
  6
CONTINUOUS
 62
     0
 10
-440.0
 20
-747.19312092298787
 30
0.0
  0
ENDBLK
  5
4B3
  8
0
 62
     7
  0
BLOCK
  8
0
 62
     7
  2
*U8
 70
     1
 10
0.0
 20
0.0
 30
0.0
  3
*U8
  1

  0
TEXT
  5
642
  8
SIZE
  6
CONTINUOUS
 62
     0
 10
-598.66142857142836
 20
-747.10312092298784
 30
0.0
 40
60.0
  1
100
 41
0.9
  0
ENDBLK
  5
644
  8
0
 62
     7
  0
BLOCK
  8
0
 62
     7
  2
*D9
 70
     1
 10
0.0
 20
0.0
 30
0.0
  3
*D9
  1

  0
LINE
  5
57C
  8
SIZE
  6
CONTINUOUS
 62
     0
 10
-419.99999911168811
 20
-32.421497938724912
 30
0.0
 11
-419.99999911168811
 21
-885.41883261934004
 31
0.0
  0
LINE
  5
57D
  8
SIZE
  6
CONTINUOUS
 62
     0
 10
420.00000088737761
 20
-32.421497938724912
 30
0.0
 11
420.00000088737738
 21
-885.41883261934004
 31
0.0
  0
LINE
  5
57E
  8
SIZE
  6
CONTINUOUS
 62
     0
 10
-419.99999911168811
 20
-865.41883261933981
 30
0.0
 11
420.00000088737738
 21
-865.41883261933981
 31
0.0
  0
INSERT
  5
57F
  8
SIZE
  6
CONTINUOUS
 62
     0
  2
_SMALL
 10
-419.99999911168811
 20
-865.41883261933981
 30
0.0
 41
30.0
 42
30.0
 43
30.0
 50
180.0
  0
INSERT
  5
580
  8
SIZE
  6
CONTINUOUS
 62
     0
  2
_SMALL
 10
420.00000088737738
 20
-865.41883261933981
 30
0.0
 41
30.0
 42
30.0
 43
30.0
  0
INSERT
  5
581
  8
SYMBOLLINE
  6
CONTINUOUS
 62
     7
  2
*U10
 10
0.0
 20
0.0
 30
0.0
  0
POINT
  5
582
  8
DEFPOINTS
  6
CONTINUOUS
 62
     0
 10
-419.99999911168811
 20
-12.42149793872491
 30
0.0
  0
POINT
  5
583
  8
DEFPOINTS
  6
CONTINUOUS
 62
     0
 10
420.00000088737761
 20
-12.42149793872491
 30
0.0
  0
POINT
  5
584
  8
DEFPOINTS
  6
CONTINUOUS
 62
     0
 10
420.00000088737738
 20
-865.41883261933981
 30
0.0
  0
ENDBLK
  5
4D4
  8
0
 62
     7
  0
BLOCK
  8
0
 62
     7
  2
*U10
 70
     1
 10
0.0
 20
0.0
 30
0.0
  3
*U10
  1

  0
TEXT
  5
63E
  8
SIZE
  6
CONTINUOUS
 62
     0
 10
-69.428570540726824
 20
-865.32883261933932
 30
0.0
 40
60.0
  1
840
 41
0.9
  0
ENDBLK
  5
640
  8
0
 62
     7
  0
BLOCK
  8
0
 62
     7
  2
*D11
 70
     1
 10
0.0
 20
0.0
 30
0.0
  3
*D11
  1

  0
LINE
  5
572
  8
SIZE
  6
CONTINUOUS
 62
     0
 10
340.0
 20
-32.421497938724769
 30
0.0
 11
339.99999999999989
 21
-767.19312092298765
 31
0.0
  0
LINE
  5
573
  8
SIZE
  6
CONTINUOUS
 62
     0
 10
440.0
 20
-19.999999999999091
 30
0.0
 11
439.99999999999989
 21
-767.19312092298765
 31
0.0
  0
LINE
  5
574
  8
SIZE
  6
CONTINUOUS
 62
     0
 10
339.99999999999989
 20
-747.19312092298787
 30
0.0
 11
439.99999999999989
 21
-747.19312092298787
 31
0.0
  0
LINE
  5
575
  8
SIZE
  6
CONTINUOUS
 62
     0
 10
439.99999999999989
 20
-747.19312092298787
 30
0.0
 11
598.75142857142851
 21
-747.19312092298787
 31
0.0
  0
INSERT
  5
576
  8
SIZE
  6
CONTINUOUS
 62
     0
  2
_SMALL
 10
339.99999999999989
 20
-747.19312092298787
 30
0.0
 41
30.0
 42
30.0
 43
30.0
 50
180.0
  0
INSERT
  5
577
  8
SIZE
  6
CONTINUOUS
 62
     0
  2
_SMALL
 10
439.99999999999989
 20
-747.19312092298787
 30
0.0
 41
30.0
 42
30.0
 43
30.0
  0
INSERT
  5
578
  8
SYMBOLLINE
  6
CONTINUOUS
 62
     7
  2
*U12
 10
0.0
 20
0.0
 30
0.0
  0
POINT
  5
579
  8
DEFPOINTS
  6
CONTINUOUS
 62
     0
 10
340.0
 20
-12.421497938724769
 30
0.0
  0
POINT
  5
57A
  8
DEFPOINTS
  6
CONTINUOUS
 62
     0
 10
440.0
 20
0.0000000000009095
 30
0.0
  0
POINT
  5
57B
  8
DEFPOINTS
  6
CONTINUOUS
 62
     0
 10
439.99999999999989
 20
-747.19312092298787
 30
0.0
  0
ENDBLK
  5
4FD
  8
0
 62
     7
  0
BLOCK
  8
0
 62
     7
  2
*U12
 70
     1
 10
0.0
 20
0.0
 30
0.0
  3
*U12
  1

  0
TEXT
  5
63A
  8
SIZE
  6
CONTINUOUS
 62
     0
 10
470.0899999999998
 20
-747.10312092298784
 30
0.0
 40
60.0
  1
100
 41
0.9
  0
ENDBLK
  5
63C
  8
0
 62
     7
  0
BLOCK
  8
0
 62
     7
  2
*D13
 70
     1
 10
0.0
 20
0.0
 30
0.0
  3
*D13
  1

  0
LINE
  5
568
  8
SIZE
  6
CONTINUOUS
 62
     0
 10
-419.99999911262421
 20
-32.421497938724912
 30
0.0
 11
-419.99999911262421
 21
-885.41883261934004
 31
0.0
  0
LINE
  5
569
  8
SIZE
  6
CONTINUOUS
 62
     0
 10
-439.99999911262552
 20
-20.0
 30
0.0
 11
-439.99999911262557
 21
-885.41883261934004
 31
0.0
  0
LINE
  5
56A
  8
SIZE
  6
CONTINUOUS
 62
     0
 10
-419.99999911262421
 20
-865.41883261933981
 30
0.0
 11
-439.99999911262557
 21
-865.41883261933981
 31
0.0
  0
LINE
  5
56B
  8
SIZE
  6
CONTINUOUS
 62
     0
 10
-439.99999911262557
 20
-865.41883261933981
 30
0.0
 11
-557.60857054119685
 21
-865.41883261933981
 31
0.0
  0
INSERT
  5
56C
  8
SIZE
  6
CONTINUOUS
 62
     0
  2
_SMALL
 10
-419.99999911262421
 20
-865.41883261933981
 30
0.0
 41
30.0
 42
30.0
 43
30.0
  0
INSERT
  5
56D
  8
SIZE
  6
CONTINUOUS
 62
     0
  2
_SMALL
 10
-439.99999911262557
 20
-865.41883261933981
 30
0.0
 41
30.0
 42
30.0
 43
30.0
 50
180.0
  0
INSERT
  5
56E
  8
SYMBOLLINE
  6
CONTINUOUS
 62
     7
  2
*U14
 10
0.0
 20
0.0
 30
0.0
  0
POINT
  5
56F
  8
DEFPOINTS
  6
CONTINUOUS
 62
     0
 10
-419.99999911262421
 20
-12.42149793872491
 30
0.0
  0
POINT
  5
570
  8
DEFPOINTS
  6
CONTINUOUS
 62
     0
 10
-439.99999911262552
 20
0.0
 30
0.0
  0
POINT
  5
571
  8
DEFPOINTS
  6
CONTINUOUS
 62
     0
 10
-439.99999911262557
 20
-865.41883261933981
 30
0.0
  0
ENDBLK
  5
50B
  8
0
 62
     7
  0
BLOCK
  8
0
 62
     7
  2
*U14
 70
     1
 10
0.0
 20
0.0
 30
0.0
  3
*U14
  1

  0
TEXT
  5
636
  8
SIZE
  6
CONTINUOUS
 62
     0
 10
-557.51857054119694
 20
-865.32883261933932
 30
0.0
 40
60.0
  1
20
 41
0.9
  0
ENDBLK
  5
638
  8
0
 62
     7
  0
BLOCK
  8
0
 62
     7
  2
*D15
 70
     1
 10
0.0
 20
0.0
 30
0.0
  3
*D15
  1

  0
LINE
  5
55E
  8
SIZE
  6
CONTINUOUS
 62
     0
 10
420.00000088737761
 20
-32.421497938724912
 30
0.0
 11
420.00000088737738
 21
-885.41883261934004
 31
0.0
  0
LINE
  5
55F
  8
SIZE
  6
CONTINUOUS
 62
     0
 10
440.0
 20
-20.0
 30
0.0
 11
439.99999999999989
 21
-885.41883261934004
 31
0.0
  0
LINE
  5
560
  8
SIZE
  6
CONTINUOUS
 62
     0
 10
420.00000088737738
 20
-865.41883261933981
 30
0.0
 11
439.99999999999989
 21
-865.41883261933981
 31
0.0
  0
LINE
  5
561
  8
SIZE
  6
CONTINUOUS
 62
     0
 10
439.99999999999989
 20
-865.41883261933981
 30
0.0
 11
557.60857142857139
 21
-865.41883261933981
 31
0.0
  0
INSERT
  5
562
  8
SIZE
  6
CONTINUOUS
 62
     0
  2
_SMALL
 10
420.00000088737738
 20
-865.41883261933981
 30
0.0
 41
30.0
 42
30.0
 43
30.0
 50
180.0
  0
INSERT
  5
563
  8
SIZE
  6
CONTINUOUS
 62
     0
  2
_SMALL
 10
439.99999999999989
 20
-865.41883261933981
 30
0.0
 41
30.0
 42
30.0
 43
30.0
  0
INSERT
  5
564
  8
SYMBOLLINE
  6
CONTINUOUS
 62
     7
  2
*U16
 10
0.0
 20
0.0
 30
0.0
  0
POINT
  5
565
  8
DEFPOINTS
  6
CONTINUOUS
 62
     0
 10
420.00000088737761
 20
-12.42149793872491
 30
0.0
  0
POINT
  5
566
  8
DEFPOINTS
  6
CONTINUOUS
 62
     0
 10
440.0
 20
0.0
 30
0.0
  0
POINT
  5
567
  8
DEFPOINTS
  6
CONTINUOUS
 62
     0
 10
439.99999999999989
 20
-865.41883261933981
 30
0.0
  0
ENDBLK
  5
519
  8
0
 62
     7
  0
BLOCK
  8
0
 62
     7
  2
*U16
 70
     1
 10
0.0
 20
0.0
 30
0.0
  3
*U16
  1

  0
TEXT
  5
632
  8
SIZE
  6
CONTINUOUS
 62
     0
 10
470.0899999999998
 20
-865.32883261933932
 30
0.0
 40
60.0
  1
20
 41
0.9
  0
ENDBLK
  5
634
  8
0
 62
     7
  0
BLOCK
  8
0
 62
     7
  2
*D17
 70
     1
 10
0.0
 20
0.0
 30
0.0
  3
*D17
  1

  0
LINE
  5
5EF
  8
SIZE
  6
CONTINUOUS
 62
     0
 10
-440.0
 20
-20.0
 30
0.0
 11
-440.0
 21
-1001.684311886372
 31
0.0
  0
LINE
  5
5F0
  8
SIZE
  6
CONTINUOUS
 62
     0
 10
440.0
 20
-20.0
 30
0.0
 11
439.99999999999989
 21
-1001.684311886372
 31
0.0
  0
LINE
  5
5F1
  8
SIZE
  6
CONTINUOUS
 62
     0
 10
-440.0
 20
-981.68431188637283
 30
0.0
 11
439.99999999999989
 21
-981.68431188637283
 31
0.0
  0
INSERT
  5
5F2
  8
SIZE
  6
CONTINUOUS
 62
     0
  2
_SMALL
 10
-440.0
 20
-981.68431188637283
 30
0.0
 41
30.0
 42
30.0
 43
30.0
 50
180.0
  0
INSERT
  5
5F3
  8
SIZE
  6
CONTINUOUS
 62
     0
  2
_SMALL
 10
439.99999999999989
 20
-981.68431188637283
 30
0.0
 41
30.0
 42
30.0
 43
30.0
  0
INSERT
  5
5F4
  8
SYMBOLLINE
  6
CONTINUOUS
 62
     7
  2
*U18
 10
0.0
 20
0.0
 30
0.0
  0
POINT
  5
5F5
  8
DEFPOINTS
  6
CONTINUOUS
 62
     0
 10
-440.0
 20
0.0
 30
0.0
  0
POINT
  5
5F6
  8
DEFPOINTS
  6
CONTINUOUS
 62
     0
 10
440.0
 20
0.0
 30
0.0
  0
POINT
  5
5F7
  8
DEFPOINTS
  6
CONTINUOUS
 62
     0
 10
439.99999999999989
 20
-981.68431188637283
 30
0.0
  0
ENDBLK
  5
5DC
  8
0
 62
     7
  0
BLOCK
  8
0
 62
     7
  2
*U18
 70
     1
 10
0.0
 20
0.0
 30
0.0
  3
*U18
  1

  0
TEXT
  5
64A
  8
SIZE
  6
CONTINUOUS
 62
     0
 10
-69.428571428571487
 20
-981.59431188637257
 30
0.0
 40
60.0
  1
880
 41
0.9
  0
ENDBLK
  5
64C
  8
0
 62
     7
  0
ENDSEC
  0
SECTION
  2
ENTITIES
  0
LINE
  5
92
  8
NOTE
  6
CONTINUOUS
 62
     4
 10
125.0000000000018
 20
202.0
 30
0.0
 11
125.0000000000018
 21
98.0
 31
0.0
  0
LINE
  5
93
  8
NOTE
  6
CONTINUOUS
 62
     4
 10
177.00000000000179
 20
150.0
 30
0.0
 11
-86.0
 21
150.0
 31
0.0
  0
LINE
  5
94
  8
NOTE
  6
CONTINUOUS
 62
     4
 10
-40.0
 20
196.0
 30
0.0
 11
-40.0
 21
104.0
 31
0.0
  0
LINE
  5
95
  8
DETAIL
  6
CONTINUOUS
 62
     5
 10
440.00000000000182
 20
1914.0
 30
0.0
 11
440.00000000000182
 21
101.0
 31
0.0
  0
LINE
  5
96
  8
DETAIL
  6
CONTINUOUS
 62
     5
 10
-439.0
 20
1915.0
 30
0.0
 11
439.00000000000171
 21
1915.0
 31
0.0
  0
LINE
  5
97
  8
DETAIL
  6
CONTINUOUS
 62
     5
 10
440.00000000000182
 20
1914.0
 30
0.0
 11
439.00000000000171
 21
1914.0
 31
0.0
  0
LINE
  5
98
  8
DETAIL
  6
CONTINUOUS
 62
     5
 10
439.00000000000171
 20
1914.0
 30
0.0
 11
439.00000000000171
 21
1947.0
 31
0.0
  0
ARC
  5
99
  8
DETAIL
  6
CONTINUOUS
 62
     5
 10
439.00000000000171
 20
1914.0
 30
0.0
 40
1.0
 50
0.0
 51
90.0
  0
ARC
  5
9A
  8
DETAIL
  6
CONTINUOUS
 62
     5
 10
439.00000000000171
 20
1916.0
 30
0.0
 40
1.0
 50
270.0
 51
0.0
  0
LINE
  5
9B
  8
DETAIL
  6
CONTINUOUS
 62
     5
 10
440.00000000000182
 20
1916.0
 30
0.0
 11
440.00000000000182
 21
1946.0
 31
0.0
  0
ARC
  5
9C
  8
DETAIL
  6
CONTINUOUS
 62
     5
 10
439.00000000000171
 20
1946.0
 30
0.0
 40
1.0
 50
0.0
 51
90.0
  0
LINE
  5
9F
  8
DETAIL
  6
CONTINUOUS
 62
     5
 10
-440.0
 20
1946.0
 30
0.0
 11
-440.0
 21
101.0
 31
0.0
  0
LINE
  5
A0
  8
DETAIL
  6
CONTINUOUS
 62
     5
 10
-439.0
 20
1914.0
 30
0.0
 11
-440.0
 21
1914.0
 31
0.0
  0
LINE
  5
A1
  8
DETAIL
  6
CONTINUOUS
 62
     5
 10
-439.0
 20
1915.0
 30
0.0
 11
-439.0
 21
1914.0
 31
0.0
  0
ARC
  5
A2
  8
DETAIL
  6
CONTINUOUS
 62
     5
 10
-439.0
 20
1916.0
 30
0.0
 40
1.0
 50
180.0
 51
270.0
  0
LINE
  5
A3
  8
DETAIL
  6
CONTINUOUS
 62
     5
 10
-439.0
 20
1947.0
 30
0.0
 11
-439.0
 21
1946.0
 31
0.0
  0
LINE
  5
A4
  8
DETAIL
  6
CONTINUOUS
 62
     5
 10
-440.0
 20
1946.0
 30
0.0
 11
-439.0
 21
1946.0
 31
0.0
  0
ARC
  5
A5
  8
DETAIL
  6
CONTINUOUS
 62
     5
 10
-439.0
 20
1946.0
 30
0.0
 40
1.0
 50
90.0
 51
180.0
  0
LINE
  5
A6
  8
DETAIL
  6
CONTINUOUS
 62
     5
 10
-439.0
 20
100.0
 30
0.0
 11
439.00000000000171
 21
100.0
 31
0.0
  0
LINE
  5
A7
  8
DETAIL
  6
CONTINUOUS
 62
     5
 10
-439.0
 20
100.0
 30
0.0
 11
-439.0
 21
101.0
 31
0.0
  0
LINE
  5
A8
  8
DETAIL
  6
CONTINUOUS
 62
     5
 10
-440.0
 20
101.0
 30
0.0
 11
-439.0
 21
101.0
 31
0.0
  0
ARC
  5
A9
  8
DETAIL
  6
CONTINUOUS
 62
     5
 10
-439.0
 20
101.0
 30
0.0
 40
1.0
 50
180.0
 51
270.0
  0
LINE
  5
AA
  8
DETAIL
  6
CONTINUOUS
 62
     5
 10
440.00000000000182
 20
101.0
 30
0.0
 11
439.00000000000171
 21
101.0
 31
0.0
  0
LINE
  5
AB
  8
DETAIL
  6
CONTINUOUS
 62
     5
 10
439.00000000000171
 20
100.0
 30
0.0
 11
439.00000000000171
 21
101.0
 31
0.0
  0
ARC
  5
AC
  8
DETAIL
  6
CONTINUOUS
 62
     5
 10
439.00000000000171
 20
101.0
 30
0.0
 40
1.0
 50
270.0
 51
0.0
  0
LINE
  5
AD
  8
DETAIL
  6
CONTINUOUS
 62
     5
 10
-439.0
 20
1947.0
 30
0.0
 11
439.0
 21
1947.0
 31
0.0
  0
LINE
  5
AE
  8
DETAIL
  6
CONTINUOUS
 62
     5
 10
360.00000000000182
 20
1948.0
 30
0.0
 11
-360.0
 21
1948.0
 31
0.0
  0
LINE
  5
AF
  8
DETAIL
  6
CONTINUOUS
 62
     5
 10
360.00000000000182
 20
1948.0
 30
0.0
 11
360.00000000000182
 21
1947.0
 31
0.0
  0
LINE
  5
B0
  8
DETAIL
  6
CONTINUOUS
 62
     5
 10
355.00000000000182
 20
1948.0
 30
0.0
 11
355.00000000000182
 21
1947.0
 31
0.0
  0
LINE
  5
B1
  8
DETAIL
  6
CONTINUOUS
 62
     5
 10
-360.0
 20
1948.0
 30
0.0
 11
-360.0
 21
1947.0
 31
0.0
  0
LINE
  5
B2
  8
DETAIL
  6
CONTINUOUS
 62
     5
 10
-355.0
 20
1948.0
 30
0.0
 11
-355.0
 21
1947.0
 31
0.0
  0
LINE
  5
B3
  8
DETAIL
  6
CONTINUOUS
 62
     5
 10
-440.0
 20
1949.0
 30
0.0
 11
-440.0
 21
1946.0
 31
0.0
  0
ARC
  5
B4
  8
DETAIL
  6
CONTINUOUS
 62
     5
 10
-440.0
 20
1913.0
 30
0.0
 40
1.0
 50
180.0
 51
270.0
  0
LINE
  5
B5
  8
DETAIL
  6
CONTINUOUS
 62
     5
 10
-440.0
 20
1949.0
 30
0.0
 11
-421.0
 21
1949.0
 31
0.0
  0
LINE
  5
B6
  8
DETAIL
  6
CONTINUOUS
 62
     5
 10
-421.0
 20
1950.0
 30
0.0
 11
-421.0
 21
1949.0
 31
0.0
  0
LINE
  5
B7
  8
DETAIL
  6
CONTINUOUS
 62
     5
 10
-440.0
 20
1950.0
 30
0.0
 11
-421.0
 21
1950.0
 31
0.0
  0
ARC
  5
B8
  8
DETAIL
  6
CONTINUOUS
 62
     5
 10
-440.0
 20
1949.0
 30
0.0
 40
1.0
 50
90.0
 51
180.0
  0
LINE
  5
B9
  8
DETAIL
  6
CONTINUOUS
 62
     5
 10
-441.0
 20
1949.0
 30
0.0
 11
-441.0
 21
1913.0
 31
0.0
  0
LINE
  5
BA
  8
DETAIL
  6
CONTINUOUS
 62
     5
 10
340.00000000000182
 20
660.0
 30
0.0
 11
335.00000000000182
 21
665.0
 31
0.0
  0
LINE
  5
BB
  8
DETAIL
  6
CONTINUOUS
 62
     5
 10
335.00000000000182
 20
135.0
 30
0.0
 11
340.00000000000182
 21
140.0
 31
0.0
  0
LINE
  5
BC
  8
DETAIL
  6
CONTINUOUS
 62
     5
 10
340.00000000000182
 20
140.0
 30
0.0
 11
340.00000000000182
 21
660.0
 31
0.0
  0
CIRCLE
  5
BD
  8
DETAIL
  6
CONTINUOUS
 62
     5
 10
125.0000000000018
 20
150.0
 30
0.0
 40
27.0
  0
CIRCLE
  5
BE
  8
DETAIL
  6
CONTINUOUS
 62
     5
 10
-40.0
 20
150.0
 30
0.0
 40
17.0
  0
LINE
  5
BF
  8
DETAIL
  6
CONTINUOUS
 62
     5
 10
93.000000000001805
 20
135.0
 30
0.0
 11
98.000000000001805
 21
140.0
 31
0.0
  0
LINE
  5
C0
  8
DETAIL
  6
CONTINUOUS
 62
     5
 10
98.000000000001805
 20
140.0
 30
0.0
 11
98.000000000001805
 21
150.0
 31
0.0
  0
LINE
  5
C1
  8
DETAIL
  6
CONTINUOUS
 62
     5
 10
152.00000000000179
 20
140.0
 30
0.0
 11
152.00000000000179
 21
150.0
 31
0.0
  0
LINE
  5
C2
  8
DETAIL
  6
CONTINUOUS
 62
     5
 10
152.00000000000179
 20
140.0
 30
0.0
 11
157.00000000000179
 21
135.0
 31
0.0
  0
LINE
  5
C3
  8
DETAIL
  6
CONTINUOUS
 62
     5
 10
157.00000000000179
 20
135.0
 30
0.0
 11
335.00000000000182
 21
135.0
 31
0.0
  0
LINE
  5
C4
  8
DETAIL
  6
CONTINUOUS
 62
     5
 10
-62.0
 20
135.0
 30
0.0
 11
-57.0
 21
140.0
 31
0.0
  0
LINE
  5
C5
  8
DETAIL
  6
CONTINUOUS
 62
     5
 10
-57.0
 20
140.0
 30
0.0
 11
-57.0
 21
150.0
 31
0.0
  0
LINE
  5
C6
  8
DETAIL
  6
CONTINUOUS
 62
     5
 10
-23.0
 20
140.0
 30
0.0
 11
-23.0
 21
150.0
 31
0.0
  0
LINE
  5
C7
  8
DETAIL
  6
CONTINUOUS
 62
     5
 10
-23.0
 20
140.0
 30
0.0
 11
-18.0
 21
135.0
 31
0.0
  0
LINE
  5
C8
  8
DETAIL
  6
CONTINUOUS
 62
     5
 10
-18.0
 20
135.0
 30
0.0
 11
93.000000000001805
 21
135.0
 31
0.0
  0
LINE
  5
C9
  8
DETAIL
  6
CONTINUOUS
 62
     5
 10
-340.0
 20
140.0
 30
0.0
 11
-335.0
 21
135.0
 31
0.0
  0
LINE
  5
CA
  8
DETAIL
  6
CONTINUOUS
 62
     5
 10
-335.0
 20
135.0
 30
0.0
 11
-62.0
 21
135.0
 31
0.0
  0
LINE
  5
CB
  8
DETAIL
  6
CONTINUOUS
 62
     5
 10
-340.0
 20
660.0
 30
0.0
 11
-340.0
 21
140.0
 31
0.0
  0
LINE
  5
CC
  8
DETAIL
  6
CONTINUOUS
 62
     5
 10
-335.0
 20
665.0
 30
0.0
 11
-340.0
 21
660.0
 31
0.0
  0
LINE
  5
CD
  8
DETAIL
  6
CONTINUOUS
 62
     5
 10
335.00000000000182
 20
665.0
 30
0.0
 11
-335.0
 21
665.0
 31
0.0
  0
LINE
  5
CE
  8
DETAIL
  6
CONTINUOUS
 62
     5
 10
-332.0
 20
404.61880199999968
 30
0.0
 11
-336.0
 21
402.30940099999992
 31
0.0
  0
LINE
  5
CF
  8
DETAIL
  6
CONTINUOUS
 62
     5
 10
-328.0
 20
397.69059899999962
 30
0.0
 11
-332.0
 21
395.38119800000021
 31
0.0
  0
LINE
  5
D0
  8
DETAIL
  6
CONTINUOUS
 62
     5
 10
-332.0
 20
404.61880199999968
 30
0.0
 11
-328.0
 21
402.30940099999992
 31
0.0
  0
LINE
  5
D1
  8
DETAIL
  6
CONTINUOUS
 62
     5
 10
-332.0
 20
395.38119800000021
 30
0.0
 11
-336.0
 21
397.69059899999962
 31
0.0
  0
LINE
  5
D2
  8
DETAIL
  6
CONTINUOUS
 62
     5
 10
-336.0
 20
397.69059899999962
 30
0.0
 11
-336.0
 21
402.30940099999992
 31
0.0
  0
LINE
  5
D3
  8
DETAIL
  6
CONTINUOUS
 62
     5
 10
-328.0
 20
402.30940099999992
 30
0.0
 11
-328.0
 21
397.69059899999962
 31
0.0
  0
CIRCLE
  5
D4
  8
DETAIL
  6
CONTINUOUS
 62
     5
 10
-332.0
 20
400.0
 30
0.0
 40
6.0
  0
LINE
  5
D5
  8
DETAIL
  6
CONTINUOUS
 62
     5
 10
-332.0
 20
147.6188019999999
 30
0.0
 11
-336.0
 21
145.30940100000001
 31
0.0
  0
LINE
  5
D6
  8
DETAIL
  6
CONTINUOUS
 62
     5
 10
-328.0
 20
140.69059899999999
 30
0.0
 11
-332.0
 21
138.38119800000001
 31
0.0
  0
LINE
  5
D7
  8
DETAIL
  6
CONTINUOUS
 62
     5
 10
-332.0
 20
147.6188019999999
 30
0.0
 11
-328.0
 21
145.30940100000001
 31
0.0
  0
LINE
  5
D8
  8
DETAIL
  6
CONTINUOUS
 62
     5
 10
-332.0
 20
138.38119800000001
 30
0.0
 11
-336.0
 21
140.69059899999999
 31
0.0
  0
LINE
  5
D9
  8
DETAIL
  6
CONTINUOUS
 62
     5
 10
-336.0
 20
140.69059899999999
 30
0.0
 11
-336.0
 21
145.30940100000001
 31
0.0
  0
LINE
  5
DA
  8
DETAIL
  6
CONTINUOUS
 62
     5
 10
-328.0
 20
145.30940100000001
 30
0.0
 11
-328.0
 21
140.69059899999999
 31
0.0
  0
CIRCLE
  5
DB
  8
DETAIL
  6
CONTINUOUS
 62
     5
 10
-332.0
 20
143.0
 30
0.0
 40
6.0
  0
LINE
  5
DC
  8
DETAIL
  6
CONTINUOUS
 62
     5
 10
0.0
 20
147.6188019999999
 30
0.0
 11
-4.0
 21
145.30940100000001
 31
0.0
  0
LINE
  5
DD
  8
DETAIL
  6
CONTINUOUS
 62
     5
 10
4.0
 20
140.69059899999999
 30
0.0
 11
0.0
 21
138.38119800000001
 31
0.0
  0
LINE
  5
DE
  8
DETAIL
  6
CONTINUOUS
 62
     5
 10
0.0
 20
147.6188019999999
 30
0.0
 11
4.0
 21
145.30940100000001
 31
0.0
  0
LINE
  5
DF
  8
DETAIL
  6
CONTINUOUS
 62
     5
 10
0.0
 20
138.38119800000001
 30
0.0
 11
-4.0
 21
140.69059899999999
 31
0.0
  0
LINE
  5
E0
  8
DETAIL
  6
CONTINUOUS
 62
     5
 10
-4.0
 20
140.69059899999999
 30
0.0
 11
-4.0
 21
145.30940100000001
 31
0.0
  0
LINE
  5
E1
  8
DETAIL
  6
CONTINUOUS
 62
     5
 10
4.0
 20
145.30940100000001
 30
0.0
 11
4.0
 21
140.69059899999999
 31
0.0
  0
CIRCLE
  5
E2
  8
DETAIL
  6
CONTINUOUS
 62
     5
 10
0.0
 20
143.0
 30
0.0
 40
6.0
  0
LINE
  5
E3
  8
DETAIL
  6
CONTINUOUS
 62
     5
 10
332.00000000000182
 20
147.6188019999999
 30
0.0
 11
328.00000000000182
 21
145.30940100000001
 31
0.0
  0
LINE
  5
E4
  8
DETAIL
  6
CONTINUOUS
 62
     5
 10
336.00000000000182
 20
140.69059899999999
 30
0.0
 11
332.00000000000182
 21
138.38119800000001
 31
0.0
  0
LINE
  5
E5
  8
DETAIL
  6
CONTINUOUS
 62
     5
 10
332.00000000000182
 20
147.6188019999999
 30
0.0
 11
336.00000000000182
 21
145.30940100000001
 31
0.0
  0
LINE
  5
E6
  8
DETAIL
  6
CONTINUOUS
 62
     5
 10
332.00000000000182
 20
138.38119800000001
 30
0.0
 11
328.00000000000182
 21
140.69059899999999
 31
0.0
  0
LINE
  5
E7
  8
DETAIL
  6
CONTINUOUS
 62
     5
 10
328.00000000000182
 20
140.69059899999999
 30
0.0
 11
328.00000000000182
 21
145.30940100000001
 31
0.0
  0
LINE
  5
E8
  8
DETAIL
  6
CONTINUOUS
 62
     5
 10
336.00000000000182
 20
145.30940100000001
 30
0.0
 11
336.00000000000182
 21
140.69059899999999
 31
0.0
  0
CIRCLE
  5
E9
  8
DETAIL
  6
CONTINUOUS
 62
     5
 10
332.00000000000182
 20
143.0
 30
0.0
 40
6.0
  0
LINE
  5
EA
  8
DETAIL
  6
CONTINUOUS
 62
     5
 10
332.00000000000182
 20
404.61880199999968
 30
0.0
 11
328.00000000000182
 21
402.30940099999992
 31
0.0
  0
LINE
  5
EB
  8
DETAIL
  6
CONTINUOUS
 62
     5
 10
336.00000000000182
 20
397.69059899999962
 30
0.0
 11
332.00000000000182
 21
395.38119800000021
 31
0.0
  0
LINE
  5
EC
  8
DETAIL
  6
CONTINUOUS
 62
     5
 10
332.00000000000182
 20
404.61880199999968
 30
0.0
 11
336.00000000000182
 21
402.30940099999992
 31
0.0
  0
LINE
  5
ED
  8
DETAIL
  6
CONTINUOUS
 62
     5
 10
332.00000000000182
 20
395.38119800000021
 30
0.0
 11
328.00000000000182
 21
397.69059899999962
 31
0.0
  0
LINE
  5
EE
  8
DETAIL
  6
CONTINUOUS
 62
     5
 10
328.00000000000182
 20
397.69059899999962
 30
0.0
 11
328.00000000000182
 21
402.30940099999992
 31
0.0
  0
LINE
  5
EF
  8
DETAIL
  6
CONTINUOUS
 62
     5
 10
336.00000000000182
 20
402.30940099999992
 30
0.0
 11
336.00000000000182
 21
397.69059899999962
 31
0.0
  0
CIRCLE
  5
F0
  8
DETAIL
  6
CONTINUOUS
 62
     5
 10
332.00000000000182
 20
400.0
 30
0.0
 40
6.0
  0
LINE
  5
F1
  8
DETAIL
  6
CONTINUOUS
 62
     5
 10
332.00000000000182
 20
661.61880199999996
 30
0.0
 11
328.00000000000182
 21
659.30940099999941
 31
0.0
  0
LINE
  5
F2
  8
DETAIL
  6
CONTINUOUS
 62
     5
 10
336.00000000000182
 20
654.69059899999945
 30
0.0
 11
332.00000000000182
 21
652.38119800000004
 31
0.0
  0
LINE
  5
F3
  8
DETAIL
  6
CONTINUOUS
 62
     5
 10
332.00000000000182
 20
661.61880199999996
 30
0.0
 11
336.00000000000182
 21
659.30940099999941
 31
0.0
  0
LINE
  5
F4
  8
DETAIL
  6
CONTINUOUS
 62
     5
 10
332.00000000000182
 20
652.38119800000004
 30
0.0
 11
328.00000000000182
 21
654.69059899999945
 31
0.0
  0
LINE
  5
F5
  8
DETAIL
  6
CONTINUOUS
 62
     5
 10
328.00000000000182
 20
654.69059899999945
 30
0.0
 11
328.00000000000182
 21
659.30940099999941
 31
0.0
  0
LINE
  5
F6
  8
DETAIL
  6
CONTINUOUS
 62
     5
 10
336.00000000000182
 20
659.30940099999941
 30
0.0
 11
336.00000000000182
 21
654.69059899999945
 31
0.0
  0
CIRCLE
  5
F7
  8
DETAIL
  6
CONTINUOUS
 62
     5
 10
332.00000000000182
 20
657.0
 30
0.0
 40
6.0
  0
LINE
  5
F8
  8
DETAIL
  6
CONTINUOUS
 62
     5
 10
0.0
 20
661.61880199999996
 30
0.0
 11
-4.0
 21
659.30940099999941
 31
0.0
  0
LINE
  5
F9
  8
DETAIL
  6
CONTINUOUS
 62
     5
 10
4.0
 20
654.69059899999945
 30
0.0
 11
0.0
 21
652.38119800000004
 31
0.0
  0
LINE
  5
FA
  8
DETAIL
  6
CONTINUOUS
 62
     5
 10
0.0
 20
661.61880199999996
 30
0.0
 11
4.0
 21
659.30940099999941
 31
0.0
  0
LINE
  5
FB
  8
DETAIL
  6
CONTINUOUS
 62
     5
 10
0.0
 20
652.38119800000004
 30
0.0
 11
-4.0
 21
654.69059899999945
 31
0.0
  0
LINE
  5
FC
  8
DETAIL
  6
CONTINUOUS
 62
     5
 10
-4.0
 20
654.69059899999945
 30
0.0
 11
-4.0
 21
659.30940099999941
 31
0.0
  0
LINE
  5
FD
  8
DETAIL
  6
CONTINUOUS
 62
     5
 10
4.0
 20
659.30940099999941
 30
0.0
 11
4.0
 21
654.69059899999945
 31
0.0
  0
CIRCLE
  5
FE
  8
DETAIL
  6
CONTINUOUS
 62
     5
 10
0.0
 20
657.0
 30
0.0
 40
6.0
  0
LINE
  5
FF
  8
DETAIL
  6
CONTINUOUS
 62
     5
 10
-332.0
 20
661.61880199999996
 30
0.0
 11
-336.0
 21
659.30940099999941
 31
0.0
  0
LINE
  5
100
  8
DETAIL
  6
CONTINUOUS
 62
     5
 10
-328.0
 20
654.69059899999945
 30
0.0
 11
-332.0
 21
652.38119800000004
 31
0.0
  0
LINE
  5
101
  8
DETAIL
  6
CONTINUOUS
 62
     5
 10
-332.0
 20
661.61880199999996
 30
0.0
 11
-328.0
 21
659.30940099999941
 31
0.0
  0
LINE
  5
102
  8
DETAIL
  6
CONTINUOUS
 62
     5
 10
-332.0
 20
652.38119800000004
 30
0.0
 11
-336.0
 21
654.69059899999945
 31
0.0
  0
LINE
  5
103
  8
DETAIL
  6
CONTINUOUS
 62
     5
 10
-336.0
 20
654.69059899999945
 30
0.0
 11
-336.0
 21
659.30940099999941
 31
0.0
  0
LINE
  5
104
  8
DETAIL
  6
CONTINUOUS
 62
     5
 10
-328.0
 20
659.30940099999941
 30
0.0
 11
-328.0
 21
654.69059899999945
 31
0.0
  0
CIRCLE
  5
105
  8
DETAIL
  6
CONTINUOUS
 62
     5
 10
-332.0
 20
657.0
 30
0.0
 40
6.0
  0
LINE
  5
106
  8
DETAIL
  6
CONTINUOUS
 62
     5
 10
-332.5
 20
397.44999999999987
 30
0.0
 11
-331.5
 21
397.44999999999987
 31
0.0
  0
LINE
  5
107
  8
DETAIL
  6
CONTINUOUS
 62
     5
 10
-331.5
 20
402.54999999999961
 30
0.0
 11
-332.5
 21
402.54999999999961
 31
0.0
  0
LINE
  5
108
  8
DETAIL
  6
CONTINUOUS
 62
     5
 10
-331.23985999999968
 20
400.76013999999981
 30
0.0
 11
-331.5
 21
402.54999999999961
 31
0.0
  0
LINE
  5
109
  8
DETAIL
  6
CONTINUOUS
 62
     5
 10
-329.44999999999891
 20
400.49999999999989
 30
0.0
 11
-331.23985999999968
 21
400.76013999999981
 31
0.0
  0
LINE
  5
10A
  8
DETAIL
  6
CONTINUOUS
 62
     5
 10
-329.44999999999891
 20
399.5
 30
0.0
 11
-329.44999999999891
 21
400.49999999999989
 31
0.0
  0
LINE
  5
10B
  8
DETAIL
  6
CONTINUOUS
 62
     5
 10
-331.23985999999968
 20
399.23985999999968
 30
0.0
 11
-329.44999999999891
 21
399.5
 31
0.0
  0
LINE
  5
10C
  8
DETAIL
  6
CONTINUOUS
 62
     5
 10
-331.5
 20
397.44999999999987
 30
0.0
 11
-331.23985999999968
 21
399.23985999999968
 31
0.0
  0
LINE
  5
10D
  8
DETAIL
  6
CONTINUOUS
 62
     5
 10
-332.76014000000032
 20
399.23985999999968
 30
0.0
 11
-332.5
 21
397.44999999999987
 31
0.0
  0
LINE
  5
10E
  8
DETAIL
  6
CONTINUOUS
 62
     5
 10
-334.54999999999922
 20
399.5
 30
0.0
 11
-332.76014000000032
 21
399.23985999999968
 31
0.0
  0
LINE
  5
10F
  8
DETAIL
  6
CONTINUOUS
 62
     5
 10
-334.54999999999922
 20
400.49999999999989
 30
0.0
 11
-334.54999999999922
 21
399.5
 31
0.0
  0
LINE
  5
110
  8
DETAIL
  6
CONTINUOUS
 62
     5
 10
-332.76014000000032
 20
400.76013999999981
 30
0.0
 11
-334.54999999999922
 21
400.49999999999989
 31
0.0
  0
LINE
  5
111
  8
DETAIL
  6
CONTINUOUS
 62
     5
 10
-332.5
 20
402.54999999999961
 30
0.0
 11
-332.76014000000032
 21
400.76013999999981
 31
0.0
  0
LINE
  5
112
  8
DETAIL
  6
CONTINUOUS
 62
     5
 10
-332.5
 20
140.44999999999979
 30
0.0
 11
-331.5
 21
140.44999999999979
 31
0.0
  0
LINE
  5
113
  8
DETAIL
  6
CONTINUOUS
 62
     5
 10
-331.5
 20
145.5499999999997
 30
0.0
 11
-332.5
 21
145.5499999999997
 31
0.0
  0
LINE
  5
114
  8
DETAIL
  6
CONTINUOUS
 62
     5
 10
-331.23985999999968
 20
143.76013999999981
 30
0.0
 11
-331.5
 21
145.5499999999997
 31
0.0
  0
LINE
  5
115
  8
DETAIL
  6
CONTINUOUS
 62
     5
 10
-329.44999999999891
 20
143.5
 30
0.0
 11
-331.23985999999968
 21
143.76013999999981
 31
0.0
  0
LINE
  5
116
  8
DETAIL
  6
CONTINUOUS
 62
     5
 10
-329.44999999999891
 20
142.5
 30
0.0
 11
-329.44999999999891
 21
143.5
 31
0.0
  0
LINE
  5
117
  8
DETAIL
  6
CONTINUOUS
 62
     5
 10
-331.23985999999968
 20
142.23985999999971
 30
0.0
 11
-329.44999999999891
 21
142.5
 31
0.0
  0
LINE
  5
118
  8
DETAIL
  6
CONTINUOUS
 62
     5
 10
-331.5
 20
140.44999999999979
 30
0.0
 11
-331.23985999999968
 21
142.23985999999971
 31
0.0
  0
LINE
  5
119
  8
DETAIL
  6
CONTINUOUS
 62
     5
 10
-332.76014000000032
 20
142.23985999999971
 30
0.0
 11
-332.5
 21
140.44999999999979
 31
0.0
  0
LINE
  5
11A
  8
DETAIL
  6
CONTINUOUS
 62
     5
 10
-334.54999999999922
 20
142.5
 30
0.0
 11
-332.76014000000032
 21
142.23985999999971
 31
0.0
  0
LINE
  5
11B
  8
DETAIL
  6
CONTINUOUS
 62
     5
 10
-334.54999999999922
 20
143.5
 30
0.0
 11
-334.54999999999922
 21
142.5
 31
0.0
  0
LINE
  5
11C
  8
DETAIL
  6
CONTINUOUS
 62
     5
 10
-332.76014000000032
 20
143.76013999999981
 30
0.0
 11
-334.54999999999922
 21
143.5
 31
0.0
  0
LINE
  5
11D
  8
DETAIL
  6
CONTINUOUS
 62
     5
 10
-332.5
 20
145.5499999999997
 30
0.0
 11
-332.76014000000032
 21
143.76013999999981
 31
0.0
  0
LINE
  5
11E
  8
DETAIL
  6
CONTINUOUS
 62
     5
 10
-0.5
 20
140.44999999999979
 30
0.0
 11
0.5
 21
140.44999999999979
 31
0.0
  0
LINE
  5
11F
  8
DETAIL
  6
CONTINUOUS
 62
     5
 10
0.5
 20
145.5499999999997
 30
0.0
 11
-0.5
 21
145.5499999999997
 31
0.0
  0
LINE
  5
120
  8
DETAIL
  6
CONTINUOUS
 62
     5
 10
0.7601400000003196
 20
143.76013999999981
 30
0.0
 11
0.5
 21
145.5499999999997
 31
0.0
  0
LINE
  5
121
  8
DETAIL
  6
CONTINUOUS
 62
     5
 10
2.5500000000010901
 20
143.5
 30
0.0
 11
0.7601400000003196
 21
143.76013999999981
 31
0.0
  0
LINE
  5
122
  8
DETAIL
  6
CONTINUOUS
 62
     5
 10
2.5500000000010901
 20
142.5
 30
0.0
 11
2.5500000000010901
 21
143.5
 31
0.0
  0
LINE
  5
123
  8
DETAIL
  6
CONTINUOUS
 62
     5
 10
0.7601400000003196
 20
142.23985999999971
 30
0.0
 11
2.5500000000010901
 21
142.5
 31
0.0
  0
LINE
  5
124
  8
DETAIL
  6
CONTINUOUS
 62
     5
 10
0.5
 20
140.44999999999979
 30
0.0
 11
0.7601400000003196
 21
142.23985999999971
 31
0.0
  0
LINE
  5
125
  8
DETAIL
  6
CONTINUOUS
 62
     5
 10
-0.7601400000003196
 20
142.23985999999971
 30
0.0
 11
-0.5
 21
140.44999999999979
 31
0.0
  0
LINE
  5
126
  8
DETAIL
  6
CONTINUOUS
 62
     5
 10
-2.5499999999992711
 20
142.5
 30
0.0
 11
-0.7601400000003196
 21
142.23985999999971
 31
0.0
  0
LINE
  5
127
  8
DETAIL
  6
CONTINUOUS
 62
     5
 10
-2.5499999999992711
 20
143.5
 30
0.0
 11
-2.5499999999992711
 21
142.5
 31
0.0
  0
LINE
  5
128
  8
DETAIL
  6
CONTINUOUS
 62
     5
 10
-0.7601400000003196
 20
143.76013999999981
 30
0.0
 11
-2.5499999999992711
 21
143.5
 31
0.0
  0
LINE
  5
129
  8
DETAIL
  6
CONTINUOUS
 62
     5
 10
-0.5
 20
145.5499999999997
 30
0.0
 11
-0.7601400000003196
 21
143.76013999999981
 31
0.0
  0
LINE
  5
12A
  8
DETAIL
  6
CONTINUOUS
 62
     5
 10
331.50000000000182
 20
140.44999999999979
 30
0.0
 11
332.50000000000182
 21
140.44999999999979
 31
0.0
  0
LINE
  5
12B
  8
DETAIL
  6
CONTINUOUS
 62
     5
 10
332.50000000000182
 20
145.5499999999997
 30
0.0
 11
331.50000000000182
 21
145.5499999999997
 31
0.0
  0
LINE
  5
12C
  8
DETAIL
  6
CONTINUOUS
 62
     5
 10
332.76014000000032
 20
143.76013999999981
 30
0.0
 11
332.50000000000182
 21
145.5499999999997
 31
0.0
  0
LINE
  5
12D
  8
DETAIL
  6
CONTINUOUS
 62
     5
 10
334.55000000000109
 20
143.5
 30
0.0
 11
332.76014000000032
 21
143.76013999999981
 31
0.0
  0
LINE
  5
12E
  8
DETAIL
  6
CONTINUOUS
 62
     5
 10
334.55000000000109
 20
142.5
 30
0.0
 11
334.55000000000109
 21
143.5
 31
0.0
  0
LINE
  5
12F
  8
DETAIL
  6
CONTINUOUS
 62
     5
 10
332.76014000000032
 20
142.23985999999971
 30
0.0
 11
334.55000000000109
 21
142.5
 31
0.0
  0
LINE
  5
130
  8
DETAIL
  6
CONTINUOUS
 62
     5
 10
332.50000000000182
 20
140.44999999999979
 30
0.0
 11
332.76014000000032
 21
142.23985999999971
 31
0.0
  0
LINE
  5
131
  8
DETAIL
  6
CONTINUOUS
 62
     5
 10
331.23985999999968
 20
142.23985999999971
 30
0.0
 11
331.50000000000182
 21
140.44999999999979
 31
0.0
  0
LINE
  5
132
  8
DETAIL
  6
CONTINUOUS
 62
     5
 10
329.45000000000078
 20
142.5
 30
0.0
 11
331.23985999999968
 21
142.23985999999971
 31
0.0
  0
LINE
  5
133
  8
DETAIL
  6
CONTINUOUS
 62
     5
 10
329.45000000000078
 20
143.5
 30
0.0
 11
329.45000000000078
 21
142.5
 31
0.0
  0
LINE
  5
134
  8
DETAIL
  6
CONTINUOUS
 62
     5
 10
331.23985999999968
 20
143.76013999999981
 30
0.0
 11
329.45000000000078
 21
143.5
 31
0.0
  0
LINE
  5
135
  8
DETAIL
  6
CONTINUOUS
 62
     5
 10
331.50000000000182
 20
145.5499999999997
 30
0.0
 11
331.23985999999968
 21
143.76013999999981
 31
0.0
  0
LINE
  5
136
  8
DETAIL
  6
CONTINUOUS
 62
     5
 10
331.50000000000182
 20
397.44999999999987
 30
0.0
 11
332.50000000000182
 21
397.44999999999987
 31
0.0
  0
LINE
  5
137
  8
DETAIL
  6
CONTINUOUS
 62
     5
 10
332.50000000000182
 20
402.54999999999961
 30
0.0
 11
331.50000000000182
 21
402.54999999999961
 31
0.0
  0
LINE
  5
138
  8
DETAIL
  6
CONTINUOUS
 62
     5
 10
332.76014000000032
 20
400.76013999999981
 30
0.0
 11
332.50000000000182
 21
402.54999999999961
 31
0.0
  0
LINE
  5
139
  8
DETAIL
  6
CONTINUOUS
 62
     5
 10
334.55000000000109
 20
400.49999999999989
 30
0.0
 11
332.76014000000032
 21
400.76013999999981
 31
0.0
  0
LINE
  5
13A
  8
DETAIL
  6
CONTINUOUS
 62
     5
 10
334.55000000000109
 20
399.5
 30
0.0
 11
334.55000000000109
 21
400.49999999999989
 31
0.0
  0
LINE
  5
13B
  8
DETAIL
  6
CONTINUOUS
 62
     5
 10
332.76014000000032
 20
399.23985999999968
 30
0.0
 11
334.55000000000109
 21
399.5
 31
0.0
  0
LINE
  5
13C
  8
DETAIL
  6
CONTINUOUS
 62
     5
 10
332.50000000000182
 20
397.44999999999987
 30
0.0
 11
332.76014000000032
 21
399.23985999999968
 31
0.0
  0
LINE
  5
13D
  8
DETAIL
  6
CONTINUOUS
 62
     5
 10
331.23985999999968
 20
399.23985999999968
 30
0.0
 11
331.50000000000182
 21
397.44999999999987
 31
0.0
  0
LINE
  5
13E
  8
DETAIL
  6
CONTINUOUS
 62
     5
 10
329.45000000000078
 20
399.5
 30
0.0
 11
331.23985999999968
 21
399.23985999999968
 31
0.0
  0
LINE
  5
13F
  8
DETAIL
  6
CONTINUOUS
 62
     5
 10
329.45000000000078
 20
400.49999999999989
 30
0.0
 11
329.45000000000078
 21
399.5
 31
0.0
  0
LINE
  5
140
  8
DETAIL
  6
CONTINUOUS
 62
     5
 10
331.23985999999968
 20
400.76013999999981
 30
0.0
 11
329.45000000000078
 21
400.49999999999989
 31
0.0
  0
LINE
  5
141
  8
DETAIL
  6
CONTINUOUS
 62
     5
 10
331.50000000000182
 20
402.54999999999961
 30
0.0
 11
331.23985999999968
 21
400.76013999999981
 31
0.0
  0
LINE
  5
142
  8
DETAIL
  6
CONTINUOUS
 62
     5
 10
331.50000000000182
 20
654.44999999999982
 30
0.0
 11
332.50000000000182
 21
654.44999999999982
 31
0.0
  0
LINE
  5
143
  8
DETAIL
  6
CONTINUOUS
 62
     5
 10
332.50000000000182
 20
659.5499999999995
 30
0.0
 11
331.50000000000182
 21
659.5499999999995
 31
0.0
  0
LINE
  5
144
  8
DETAIL
  6
CONTINUOUS
 62
     5
 10
332.76014000000032
 20
657.76013999999975
 30
0.0
 11
332.50000000000182
 21
659.5499999999995
 31
0.0
  0
LINE
  5
145
  8
DETAIL
  6
CONTINUOUS
 62
     5
 10
334.55000000000109
 20
657.5
 30
0.0
 11
332.76014000000032
 21
657.76013999999975
 31
0.0
  0
LINE
  5
146
  8
DETAIL
  6
CONTINUOUS
 62
     5
 10
334.55000000000109
 20
656.5
 30
0.0
 11
334.55000000000109
 21
657.5
 31
0.0
  0
LINE
  5
147
  8
DETAIL
  6
CONTINUOUS
 62
     5
 10
332.76014000000032
 20
656.23985999999945
 30
0.0
 11
334.55000000000109
 21
656.5
 31
0.0
  0
LINE
  5
148
  8
DETAIL
  6
CONTINUOUS
 62
     5
 10
332.50000000000182
 20
654.44999999999982
 30
0.0
 11
332.76014000000032
 21
656.23985999999945
 31
0.0
  0
LINE
  5
149
  8
DETAIL
  6
CONTINUOUS
 62
     5
 10
331.23985999999968
 20
656.23985999999945
 30
0.0
 11
331.50000000000182
 21
654.44999999999982
 31
0.0
  0
LINE
  5
14A
  8
DETAIL
  6
CONTINUOUS
 62
     5
 10
329.45000000000078
 20
656.5
 30
0.0
 11
331.23985999999968
 21
656.23985999999945
 31
0.0
  0
LINE
  5
14B
  8
DETAIL
  6
CONTINUOUS
 62
     5
 10
329.45000000000078
 20
657.5
 30
0.0
 11
329.45000000000078
 21
656.5
 31
0.0
  0
LINE
  5
14C
  8
DETAIL
  6
CONTINUOUS
 62
     5
 10
331.23985999999968
 20
657.76013999999975
 30
0.0
 11
329.45000000000078
 21
657.5
 31
0.0
  0
LINE
  5
14D
  8
DETAIL
  6
CONTINUOUS
 62
     5
 10
331.50000000000182
 20
659.5499999999995
 30
0.0
 11
331.23985999999968
 21
657.76013999999975
 31
0.0
  0
LINE
  5
14E
  8
DETAIL
  6
CONTINUOUS
 62
     5
 10
-0.5
 20
654.44999999999982
 30
0.0
 11
0.5
 21
654.44999999999982
 31
0.0
  0
LINE
  5
14F
  8
DETAIL
  6
CONTINUOUS
 62
     5
 10
0.5
 20
659.5499999999995
 30
0.0
 11
-0.5
 21
659.5499999999995
 31
0.0
  0
LINE
  5
150
  8
DETAIL
  6
CONTINUOUS
 62
     5
 10
0.7601400000003196
 20
657.76013999999975
 30
0.0
 11
0.5
 21
659.5499999999995
 31
0.0
  0
LINE
  5
151
  8
DETAIL
  6
CONTINUOUS
 62
     5
 10
2.5500000000010901
 20
657.5
 30
0.0
 11
0.7601400000003196
 21
657.76013999999975
 31
0.0
  0
LINE
  5
152
  8
DETAIL
  6
CONTINUOUS
 62
     5
 10
2.5500000000010901
 20
656.5
 30
0.0
 11
2.5500000000010901
 21
657.5
 31
0.0
  0
LINE
  5
153
  8
DETAIL
  6
CONTINUOUS
 62
     5
 10
0.7601400000003196
 20
656.23985999999945
 30
0.0
 11
2.5500000000010901
 21
656.5
 31
0.0
  0
LINE
  5
154
  8
DETAIL
  6
CONTINUOUS
 62
     5
 10
0.5
 20
654.44999999999982
 30
0.0
 11
0.7601400000003196
 21
656.23985999999945
 31
0.0
  0
LINE
  5
155
  8
DETAIL
  6
CONTINUOUS
 62
     5
 10
-0.7601400000003196
 20
656.23985999999945
 30
0.0
 11
-0.5
 21
654.44999999999982
 31
0.0
  0
LINE
  5
156
  8
DETAIL
  6
CONTINUOUS
 62
     5
 10
-2.5499999999992711
 20
656.5
 30
0.0
 11
-0.7601400000003196
 21
656.23985999999945
 31
0.0
  0
LINE
  5
157
  8
DETAIL
  6
CONTINUOUS
 62
     5
 10
-2.5499999999992711
 20
657.5
 30
0.0
 11
-2.5499999999992711
 21
656.5
 31
0.0
  0
LINE
  5
158
  8
DETAIL
  6
CONTINUOUS
 62
     5
 10
-0.7601400000003196
 20
657.76013999999975
 30
0.0
 11
-2.5499999999992711
 21
657.5
 31
0.0
  0
LINE
  5
159
  8
DETAIL
  6
CONTINUOUS
 62
     5
 10
-0.5
 20
659.5499999999995
 30
0.0
 11
-0.7601400000003196
 21
657.76013999999975
 31
0.0
  0
LINE
  5
15A
  8
DETAIL
  6
CONTINUOUS
 62
     5
 10
-332.5
 20
654.44999999999982
 30
0.0
 11
-331.5
 21
654.44999999999982
 31
0.0
  0
LINE
  5
15B
  8
DETAIL
  6
CONTINUOUS
 62
     5
 10
-331.5
 20
659.5499999999995
 30
0.0
 11
-332.5
 21
659.5499999999995
 31
0.0
  0
LINE
  5
15C
  8
DETAIL
  6
CONTINUOUS
 62
     5
 10
-331.23985999999968
 20
657.76013999999975
 30
0.0
 11
-331.5
 21
659.5499999999995
 31
0.0
  0
LINE
  5
15D
  8
DETAIL
  6
CONTINUOUS
 62
     5
 10
-329.44999999999891
 20
657.5
 30
0.0
 11
-331.23985999999968
 21
657.76013999999975
 31
0.0
  0
LINE
  5
15E
  8
DETAIL
  6
CONTINUOUS
 62
     5
 10
-329.44999999999891
 20
656.5
 30
0.0
 11
-329.44999999999891
 21
657.5
 31
0.0
  0
LINE
  5
15F
  8
DETAIL
  6
CONTINUOUS
 62
     5
 10
-331.23985999999968
 20
656.23985999999945
 30
0.0
 11
-329.44999999999891
 21
656.5
 31
0.0
  0
LINE
  5
160
  8
DETAIL
  6
CONTINUOUS
 62
     5
 10
-331.5
 20
654.44999999999982
 30
0.0
 11
-331.23985999999968
 21
656.23985999999945
 31
0.0
  0
LINE
  5
161
  8
DETAIL
  6
CONTINUOUS
 62
     5
 10
-332.76014000000032
 20
656.23985999999945
 30
0.0
 11
-332.5
 21
654.44999999999982
 31
0.0
  0
LINE
  5
162
  8
DETAIL
  6
CONTINUOUS
 62
     5
 10
-334.54999999999922
 20
656.5
 30
0.0
 11
-332.76014000000032
 21
656.23985999999945
 31
0.0
  0
LINE
  5
163
  8
DETAIL
  6
CONTINUOUS
 62
     5
 10
-334.54999999999922
 20
657.5
 30
0.0
 11
-334.54999999999922
 21
656.5
 31
0.0
  0
LINE
  5
164
  8
DETAIL
  6
CONTINUOUS
 62
     5
 10
-332.76014000000032
 20
657.76013999999975
 30
0.0
 11
-334.54999999999922
 21
657.5
 31
0.0
  0
LINE
  5
165
  8
DETAIL
  6
CONTINUOUS
 62
     5
 10
-332.5
 20
659.5499999999995
 30
0.0
 11
-332.76014000000032
 21
657.76013999999975
 31
0.0
  0
LINE
  5
184
  8
DETAIL
  6
CONTINUOUS
 62
     5
 10
6.0
 20
1948.0
 30
0.0
 11
-6.0
 21
1948.0
 31
0.0
  0
LINE
  5
215
  8
DETAIL
  6
CONTINUOUS
 62
     5
 10
-395.0
 20
0.0
 30
0.0
 11
395.00000000000171
 21
0.0
 31
0.0
  0
LINE
  5
216
  8
DETAIL
  6
CONTINUOUS
 62
     5
 10
-395.0
 20
0.0
 30
0.0
 11
-395.0
 21
70.0
 31
0.0
  0
ARC
  5
217
  8
DETAIL
  6
CONTINUOUS
 62
     5
 10
-398.19999999999891
 20
3.1999999999998181
 30
0.0
 40
3.2000000000000002
 50
270.0
 51
0.0
  0
LINE
  5
218
  8
DETAIL
  6
CONTINUOUS
 62
     5
 10
-440.0
 20
0.0
 30
0.0
 11
-398.19999999999891
 21
0.0
 31
0.0
  0
LINE
  5
219
  8
DETAIL
  6
CONTINUOUS
 62
     5
 10
-398.19999999999891
 20
3.1999999999998181
 30
0.0
 11
-398.19999999999891
 21
66.799999999999727
 31
0.0
  0
LINE
  5
21A
  8
DETAIL
  6
CONTINUOUS
 62
     5
 10
-440.0
 20
3.1999999999998181
 30
0.0
 11
-398.19999999999891
 21
3.1999999999998181
 31
0.0
  0
LINE
  5
21B
  8
DETAIL
  6
CONTINUOUS
 62
     5
 10
-440.0
 20
0.0
 30
0.0
 11
-440.0
 21
3.1999999999998181
 31
0.0
  0
LINE
  5
21C
  8
DETAIL
  6
CONTINUOUS
 62
     5
 10
-422.19999999999851
 20
70.0
 30
0.0
 11
-422.19999999999851
 21
100.0
 31
0.0
  0
LINE
  5
21D
  8
DETAIL
  6
CONTINUOUS
 62
     5
 10
-419.0
 20
100.0
 30
0.0
 11
-422.19999999999851
 21
100.0
 31
0.0
  0
LINE
  5
21E
  8
DETAIL
  6
CONTINUOUS
 62
     5
 10
-419.0
 20
70.0
 30
0.0
 11
-419.0
 21
100.0
 31
0.0
  0
ARC
  5
21F
  8
DETAIL
  6
CONTINUOUS
 62
     5
 10
-419.0
 20
70.0
 30
0.0
 40
3.2000000000000002
 50
180.0
 51
270.0
  0
LINE
  5
220
  8
DETAIL
  6
CONTINUOUS
 62
     5
 10
-398.19999999999891
 20
66.799999999999727
 30
0.0
 11
-419.0
 21
66.799999999999727
 31
0.0
  0
ARC
  5
221
  8
DETAIL
  6
CONTINUOUS
 62
     5
 10
-398.19999999999891
 20
66.799999999999727
 30
0.0
 40
3.2000000000000002
 50
0.0
 51
90.0
  0
LINE
  5
222
  8
DETAIL
  6
CONTINUOUS
 62
     5
 10
-395.0
 20
70.0
 30
0.0
 11
-419.0
 21
70.0
 31
0.0
  0
LINE
  5
223
  8
DETAIL
  6
CONTINUOUS
 62
     5
 10
395.00000000000171
 20
66.799999999999727
 30
0.0
 11
-395.0
 21
66.799999999999727
 31
0.0
  0
LINE
  5
224
  8
DETAIL
  6
CONTINUOUS
 62
     5
 10
-419.0
 20
100.0
 30
0.0
 11
419.00000000000171
 21
100.0
 31
0.0
  0
LINE
  5
225
  8
DETAIL
  6
CONTINUOUS
 62
     5
 10
-395.0
 20
3.1999999999998181
 30
0.0
 11
395.00000000000171
 21
3.1999999999998181
 31
0.0
  0
LINE
  5
226
  8
DETAIL
  6
CONTINUOUS
 62
     5
 10
-419.0
 20
96.799999999999713
 30
0.0
 11
419.00000000000171
 21
96.799999999999713
 31
0.0
  0
LINE
  5
227
  8
DETAIL
  6
CONTINUOUS
 62
     5
 10
419.00000000000171
 20
100.0
 30
0.0
 11
419.00000000000171
 21
70.0
 31
0.0
  0
ARC
  5
228
  8
DETAIL
  6
CONTINUOUS
 62
     5
 10
422.20000000000073
 20
96.799999999999713
 30
0.0
 40
3.2000000000000002
 50
90.0
 51
180.0
  0
LINE
  5
229
  8
DETAIL
  6
CONTINUOUS
 62
     5
 10
440.00000000000182
 20
100.0
 30
0.0
 11
422.20000000000073
 21
100.0
 31
0.0
  0
ARC
  5
22A
  8
DETAIL
  6
CONTINUOUS
 62
     5
 10
419.00000000000171
 20
70.0
 30
0.0
 40
3.2000000000000002
 50
270.0
 51
0.0
  0
LINE
  5
22B
  8
DETAIL
  6
CONTINUOUS
 62
     5
 10
419.00000000000171
 20
66.799999999999727
 30
0.0
 11
398.39999999999958
 21
66.799999999999727
 31
0.0
  0
LINE
  5
22C
  8
DETAIL
  6
CONTINUOUS
 62
     5
 10
422.20000000000073
 20
96.599999999999923
 30
0.0
 11
422.20000000000073
 21
70.0
 31
0.0
  0
ARC
  5
22D
  8
DETAIL
  6
CONTINUOUS
 62
     5
 10
398.2000000000009
 20
66.799999999999727
 30
0.0
 40
3.2000000000000002
 50
90.0
 51
180.0
  0
LINE
  5
22E
  8
DETAIL
  6
CONTINUOUS
 62
     5
 10
395.00000000000171
 20
70.0
 30
0.0
 11
419.00000000000171
 21
70.0
 31
0.0
  0
LINE
  5
22F
  8
DETAIL
  6
CONTINUOUS
 62
     5
 10
395.00000000000171
 20
70.0
 30
0.0
 11
395.00000000000171
 21
0.0
 31
0.0
  0
ARC
  5
230
  8
DETAIL
  6
CONTINUOUS
 62
     5
 10
398.2000000000009
 20
3.1999999999998181
 30
0.0
 40
3.2000000000000002
 50
180.0
 51
270.0
  0
LINE
  5
231
  8
DETAIL
  6
CONTINUOUS
 62
     5
 10
398.2000000000009
 20
0.0
 30
0.0
 11
440.00000000000182
 21
0.0
 31
0.0
  0
LINE
  5
232
  8
DETAIL
  6
CONTINUOUS
 62
     5
 10
398.2000000000009
 20
3.1999999999998181
 30
0.0
 11
440.00000000000182
 21
3.1999999999998181
 31
0.0
  0
LINE
  5
233
  8
DETAIL
  6
CONTINUOUS
 62
     5
 10
398.2000000000009
 20
66.599999999999909
 30
0.0
 11
398.2000000000009
 21
3.1999999999998181
 31
0.0
  0
LINE
  5
234
  8
DETAIL
  6
CONTINUOUS
 62
     5
 10
440.00000000000182
 20
0.0
 30
0.0
 11
440.00000000000182
 21
3.1999999999998181
 31
0.0
  0
LINE
  5
235
  8
DETAIL
  6
CONTINUOUS
 62
     5
 10
440.00000000000182
 20
96.799999999999713
 30
0.0
 11
422.39999999999958
 21
96.799999999999713
 31
0.0
  0
LINE
  5
236
  8
DETAIL
  6
CONTINUOUS
 62
     5
 10
440.00000000000182
 20
100.0
 30
0.0
 11
440.00000000000182
 21
96.799999999999713
 31
0.0
  0
LINE
  5
237
  8
NOTE
  6
CONTINUOUS
 62
     4
 10
-419.99999911262421
 20
-8.7622991816242521
 30
0.0
 11
-419.99999911262421
 21
8.7622991816242521
 31
0.0
  0
LINE
  5
238
  8
NOTE
  6
CONTINUOUS
 62
     4
 10
-419.99999911262421
 20
-8.7622991816242521
 30
0.0
 11
-419.99999911262421
 21
8.7622991816242521
 31
0.0
  0
LINE
  5
239
  8
NOTE
  6
CONTINUOUS
 62
     4
 10
-419.99999911262421
 20
-8.7622991816242521
 30
0.0
 11
-419.99999911262421
 21
8.7622991816242521
 31
0.0
  0
LINE
  5
23A
  8
NOTE
  6
CONTINUOUS
 62
     4
 10
-419.99999911262421
 20
-8.7622991816242521
 30
0.0
 11
-419.99999911262421
 21
8.7622991816242521
 31
0.0
  0
LINE
  5
23B
  8
NOTE
  6
CONTINUOUS
 62
     4
 10
-419.99999911262421
 20
-12.421497938724769
 30
0.0
 11
-419.99999911262421
 21
12.421497938724769
 31
0.0
  0
LINE
  5
23C
  8
NOTE
  6
CONTINUOUS
 62
     4
 10
420.00000088737761
 20
-12.421497938724769
 30
0.0
 11
420.00000088737761
 21
12.421497938724769
 31
0.0
  0
CIRCLE
  5
23D
  8
FIX
  6
CONTINUOUS
 62
    11
 10
-419.99999911262421
 20
0.0
 30
0.0
 40
12.42149793872491
  0
CIRCLE
  5
23E
  8
FIX
  6
CONTINUOUS
 62
    11
 10
420.00000088737761
 20
0.0
 30
0.0
 40
12.42149793872491
  0
LINE
  5
23F
  8
BASIS
  6
DASHDOT
 62
     6
 10
0.0
 20
2007.647941997257
 30
0.0
 11
0.0
 21
-82.09590482172915
 31
0.0
  0
CIRCLE
  5
240
  8
ARRANGE
  6
CONTINUOUS
 62
     1
 10
0.0
 20
0.0
 30
0.0
 40
50.0
  0
LINE
  5
241
  8
ARRANGE
  6
CONTINUOUS
 62
     1
 10
50.037350031328963
 20
-49.522353150325202
 30
0.0
 11
-50.037350031328963
 21
49.522353150325202
 31
0.0
  0
LINE
  5
242
  8
ARRANGE
  6
CONTINUOUS
 62
     1
 10
49.963763310501221
 20
49.596594797985738
 30
0.0
 11
-49.963763310501221
 21
-49.5965947979821
 31
0.0
  0
POINT
  5
24B
  8
DEFPOINTS
  6
CONTINUOUS
 62
     7
 10
-440.0
 20
0.0
 30
0.0
  0
POINT
  5
24C
  8
DEFPOINTS
  6
CONTINUOUS
 62
     7
 10
-419.99999911262421
 20
-12.421497938724769
 30
0.0
  0
POINT
  5
254
  8
DEFPOINTS
  6
CONTINUOUS
 62
     7
 10
-419.99999911262421
 20
-12.421497938724769
 30
0.0
  0
POINT
  5
255
  8
DEFPOINTS
  6
CONTINUOUS
 62
     7
 10
420.00000088737761
 20
-12.421497938724769
 30
0.0
  0
POINT
  5
25F
  8
DEFPOINTS
  6
CONTINUOUS
 62
     7
 10
420.00000088737761
 20
-12.421497938724769
 30
0.0
  0
POINT
  5
260
  8
DEFPOINTS
  6
CONTINUOUS
 62
     7
 10
440.00000000000182
 20
0.0
 30
0.0
  0
POINT
  5
268
  8
DEFPOINTS
  6
CONTINUOUS
 62
     7
 10
440.00000000000182
 20
0.0
 30
0.0
  0
POINT
  5
269
  8
DEFPOINTS
  6
CONTINUOUS
 62
     7
 10
-440.0
 20
0.0
 30
0.0
  0
LINE
  5
26B
  8
SIZE
  6
CONTINUOUS
 62
    30
 10
-1469.999999112626
 20
0.0000000000009152
 30
0.0
 11
-1724.5610947816349
 21
0.0000000000009873
 31
0.0
  0
LINE
  5
26C
  8
SIZE
  6
CONTINUOUS
 62
    30
 10
-459.0
 20
1915.0
 30
0.0
 11
-1724.5610947816349
 21
1915.0
 31
0.0
  0
LINE
  5
26D
  8
SIZE
  6
CONTINUOUS
 62
    30
 10
-1704.5610947816349
 20
0.0000000000009816
 30
0.0
 11
-1704.5610947816349
 21
1915.0
 31
0.0
  0
CIRCLE
  5
26E
  8
SIZE
  6
CONTINUOUS
 62
    30
 10
-1704.5610947816349
 20
0.0000000000009816
 30
0.0
 40
7.5
  0
CIRCLE
  5
26F
  8
SIZE
  6
CONTINUOUS
 62
    30
 10
-1704.5610947816349
 20
1915.0
 30
0.0
 40
7.5
  0
TEXT
  5
270
  8
SIZE
  6
CONTINUOUS
 62
    30
 10
-1724.5610947816349
 20
872.642857142857
 30
0.0
 40
60.0
  1
1915
 50
90.0
 41
0.9
 72
     1
 11
-1724.5610947816349
 21
957.50000000000011
 31
0.0
  0
POINT
  5
271
  8
DEFPOINTS
  6
CONTINUOUS
 62
     7
 10
-1449.999999112626
 20
0.0000000000009095
 30
0.0
  0
POINT
  5
272
  8
DEFPOINTS
  6
CONTINUOUS
 62
     7
 10
-439.0
 20
1915.0
 30
0.0
  0
POINT
  5
273
  8
DEFPOINTS
  6
CONTINUOUS
 62
     7
 10
-1704.5610947816349
 20
1915.0
 30
0.0
  0
LINE
  5
274
  8
SIZE
  6
CONTINUOUS
 62
    30
 10
-459.0
 20
1915.0
 30
0.0
 11
-1724.5610947816369
 21
1915.0
 31
0.0
  0
LINE
  5
275
  8
SIZE
  6
CONTINUOUS
 62
    30
 10
-460.0
 20
1950.0
 30
0.0
 11
-1724.5610947816369
 21
1950.0
 31
0.0
  0
LINE
  5
276
  8
SIZE
  6
CONTINUOUS
 62
    30
 10
-1704.561094781636
 20
1915.0
 30
0.0
 11
-1704.561094781636
 21
1885.0
 31
0.0
  0
LINE
  5
277
  8
SIZE
  6
CONTINUOUS
 62
    30
 10
-1704.561094781636
 20
1950.0
 30
0.0
 11
-1704.561094781636
 21
2137.4285714285752
 31
0.0
  0
LINE
  5
278
  8
SIZE
  6
CONTINUOUS
 62
    30
 10
-1704.561094781636
 20
1915.0
 30
0.0
 11
-1704.561094781636
 21
1950.0
 31
0.0
  0
CIRCLE
  5
279
  8
SIZE
  6
CONTINUOUS
 62
    30
 10
-1704.561094781636
 20
1915.0
 30
0.0
 40
7.5
  0
CIRCLE
  5
27A
  8
SIZE
  6
CONTINUOUS
 62
    30
 10
-1704.561094781636
 20
1950.0
 30
0.0
 40
7.5
  0
TEXT
  5
27B
  8
SIZE
  6
CONTINUOUS
 62
    30
 10
-1724.5610947816369
 20
2030.000000000002
 30
0.0
 40
60.0
  1
35
 50
90.0
 41
0.9
 72
     1
 11
-1724.5610947816369
 21
2073.7142857142881
 31
0.0
  0
POINT
  5
27C
  8
DEFPOINTS
  6
CONTINUOUS
 62
     7
 10
-439.0
 20
1915.0
 30
0.0
  0
POINT
  5
27D
  8
DEFPOINTS
  6
CONTINUOUS
 62
     7
 10
-440.0
 20
1950.0
 30
0.0
  0
POINT
  5
27E
  8
DEFPOINTS
  6
CONTINUOUS
 62
     7
 10
-1704.561094781636
 20
1950.0
 30
0.0
  0
LINE
  5
27F
  8
SIZE
  6
CONTINUOUS
 62
    30
 10
-460.0
 20
1950.0
 30
0.0
 11
-1851.0637920879849
 21
1950.0
 31
0.0
  0
LINE
  5
280
  8
SIZE
  6
CONTINUOUS
 62
    30
 10
-1469.999999112626
 20
0.0000000000009152
 30
0.0
 11
-1851.0637920879849
 21
0.0000000000010231
 31
0.0
  0
LINE
  5
281
  8
SIZE
  6
CONTINUOUS
 62
    30
 10
-1831.0637920879849
 20
1950.0
 30
0.0
 11
-1831.0637920879849
 21
0.0000000000010174
 31
0.0
  0
CIRCLE
  5
282
  8
SIZE
  6
CONTINUOUS
 62
    30
 10
-1831.0637920879849
 20
1950.0
 30
0.0
 40
7.5
  0
CIRCLE
  5
283
  8
SIZE
  6
CONTINUOUS
 62
    30
 10
-1831.0637920879849
 20
0.0000000000010174
 30
0.0
 40
7.5
  0
TEXT
  5
284
  8
SIZE
  6
CONTINUOUS
 62
    30
 10
-1851.0637920879849
 20
885.00000000000034
 30
0.0
 40
60.0
  1
1950
 50
90.0
 41
0.9
 72
     1
 11
-1851.0637920879849
 21
975.00000000000034
 31
0.0
  0
POINT
  5
285
  8
DEFPOINTS
  6
CONTINUOUS
 62
     7
 10
-440.0
 20
1950.0
 30
0.0
  0
POINT
  5
286
  8
DEFPOINTS
  6
CONTINUOUS
 62
     7
 10
-1449.999999112626
 20
0.0000000000009095
 30
0.0
  0
POINT
  5
287
  8
DEFPOINTS
  6
CONTINUOUS
 62
     7
 10
-1831.0637920879849
 20
0.0000000000010174
 30
0.0
  0
LINE
  5
288
  8
NOTE
  6
CONTINUOUS
 62
     4
 10
-6.0
 20
300.0
 30
0.0
 11
-74.0
 21
300.0
 31
0.0
  0
LINE
  5
289
  8
NOTE
  6
CONTINUOUS
 62
     4
 10
-40.0
 20
266.0
 30
0.0
 11
-40.0
 21
334.0
 31
0.0
  0
LINE
  5
28A
  8
NOTE
  6
CONTINUOUS
 62
     4
 10
159.00000000000179
 20
300.0
 30
0.0
 11
91.000000000001791
 21
300.0
 31
0.0
  0
LINE
  5
28B
  8
NOTE
  6
CONTINUOUS
 62
     4
 10
125.0000000000018
 20
266.0
 30
0.0
 11
125.0000000000018
 21
334.0
 31
0.0
  0
LINE
  5
28C
  8
SIZE
  6
CONTINUOUS
 62
    30
 10
-440.0
 20
-20.0
 30
0.0
 11
-440.0
 21
-540.84254467483936
 31
0.0
  0
LINE
  5
28D
  8
SIZE
  6
CONTINUOUS
 62
    30
 10
-40.0
 20
228.4220249562932
 30
0.0
 11
-40.000000000000007
 21
-540.84254467483936
 31
0.0
  0
LINE
  5
28E
  8
SIZE
  6
CONTINUOUS
 62
    30
 10
-440.0
 20
-520.8425446748397
 30
0.0
 11
-40.0
 21
-520.8425446748397
 31
0.0
  0
CIRCLE
  5
28F
  8
SIZE
  6
CONTINUOUS
 62
    30
 10
-440.0
 20
-520.8425446748397
 30
0.0
 40
7.5
  0
CIRCLE
  5
290
  8
SIZE
  6
CONTINUOUS
 62
    30
 10
-40.0
 20
-520.8425446748397
 30
0.0
 40
7.5
  0
TEXT
  5
291
  8
SIZE
  6
CONTINUOUS
 62
    30
 10
-309.42857142857139
 20
-500.8425446748397
 30
0.0
 40
60.0
  1
400
 41
0.9
 72
     1
 11
-240.0
 21
-500.8425446748397
 31
0.0
  0
POINT
  5
292
  8
DEFPOINTS
  6
CONTINUOUS
 62
     7
 10
-440.0
 20
0.0
 30
0.0
  0
POINT
  5
293
  8
DEFPOINTS
  6
CONTINUOUS
 62
     7
 10
-40.0
 20
104.0
 30
0.0
  0
POINT
  5
294
  8
DEFPOINTS
  6
CONTINUOUS
 62
     7
 10
-40.0
 20
-520.8425446748397
 30
0.0
  0
LINE
  5
295
  8
SIZE
  6
CONTINUOUS
 62
    30
 10
-40.0
 20
228.4220249562932
 30
0.0
 11
-40.000000000000007
 21
-540.84254467483936
 31
0.0
  0
LINE
  5
296
  8
SIZE
  6
CONTINUOUS
 62
    30
 10
125.0000000000018
 20
230.59612111107711
 30
0.0
 11
125.00000000000171
 21
-540.84254467483936
 31
0.0
  0
LINE
  5
297
  8
SIZE
  6
CONTINUOUS
 62
    30
 10
-40.0
 20
-520.8425446748397
 30
0.0
 11
125.00000000000171
 21
-520.8425446748397
 31
0.0
  0
LINE
  5
298
  8
SIZE
  6
CONTINUOUS
 62
    30
 10
125.00000000000171
 20
-520.8425446748397
 30
0.0
 11
323.57142857143032
 21
-520.8425446748397
 31
0.0
  0
CIRCLE
  5
299
  8
SIZE
  6
CONTINUOUS
 62
    30
 10
-40.0
 20
-520.8425446748397
 30
0.0
 40
7.5
  0
CIRCLE
  5
29A
  8
SIZE
  6
CONTINUOUS
 62
    30
 10
125.00000000000171
 20
-520.8425446748397
 30
0.0
 40
7.5
  0
TEXT
  5
29B
  8
SIZE
  6
CONTINUOUS
 62
    30
 10
175.00000000000179
 20
-500.8425446748397
 30
0.0
 40
60.0
  1
165
 41
0.9
 72
     1
 11
239.2857142857161
 21
-500.8425446748397
 31
0.0
  0
POINT
  5
29C
  8
DEFPOINTS
  6
CONTINUOUS
 62
     7
 10
-40.0
 20
104.0
 30
0.0
  0
POINT
  5
29D
  8
DEFPOINTS
  6
CONTINUOUS
 62
     7
 10
125.0000000000018
 20
98.0
 30
0.0
  0
POINT
  5
29E
  8
DEFPOINTS
  6
CONTINUOUS
 62
     7
 10
125.00000000000171
 20
-520.8425446748397
 30
0.0
  0
LINE
  5
29F
  8
SIZE
  6
CONTINUOUS
 62
    30
 10
460.00000000000171
 20
-0.0000000000000057
 30
0.0
 11
619.63511483800733
 21
-0.0000000000000509
 31
0.0
  0
LINE
  5
2A0
  8
SIZE
  6
CONTINUOUS
 62
    30
 10
197.00000000000179
 20
150.0
 30
0.0
 11
619.63511483800733
 21
149.9999999999998
 31
0.0
  0
LINE
  5
2A1
  8
SIZE
  6
CONTINUOUS
 62
    30
 10
599.63511483800733
 20
149.9999999999998
 30
0.0
 11
599.63511483800733
 21
-0.0000000000000452
 31
0.0
  0
LINE
  5
2A2
  8
SIZE
  6
CONTINUOUS
 62
    30
 10
599.63511483800733
 20
-0.0000000000000452
 30
0.0
 11
599.63511483800733
 21
-206.5126390718757
 31
0.0
  0
CIRCLE
  5
2A3
  8
SIZE
  6
CONTINUOUS
 62
    30
 10
599.63511483800733
 20
149.9999999999998
 30
0.0
 40
7.5
  0
CIRCLE
  5
2A4
  8
SIZE
  6
CONTINUOUS
 62
    30
 10
599.63511483800733
 20
-0.0000000000000452
 30
0.0
 40
7.5
  0
TEXT
  5
2A5
  8
SIZE
  6
CONTINUOUS
 62
    30
 10
579.63511483800733
 20
-186.51263907187561
 30
0.0
 40
60.0
  1
150
 50
90.0
 41
0.9
 72
     1
 11
579.63511483800733
 21
-122.22692478616131
 31
0.0
  0
POINT
  5
2A6
  8
DEFPOINTS
  6
CONTINUOUS
 62
     7
 10
440.00000000000182
 20
0.0
 30
0.0
  0
POINT
  5
2A7
  8
DEFPOINTS
  6
CONTINUOUS
 62
     7
 10
177.00000000000179
 20
150.0
 30
0.0
  0
POINT
  5
2A8
  8
DEFPOINTS
  6
CONTINUOUS
 62
     7
 10
599.63511483800733
 20
149.9999999999998
 30
0.0
  0
LINE
  5
2A9
  8
SIZE
  6
CONTINUOUS
 62
    30
 10
460.00000000000171
 20
-0.0000000000000057
 30
0.0
 11
755.96150243198804
 21
-0.0000000000000895
 31
0.0
  0
LINE
  5
2AA
  8
SIZE
  6
CONTINUOUS
 62
    30
 10
24.290067869202179
 20
300.0
 30
0.0
 11
755.96150243198804
 21
299.99999999999972
 31
0.0
  0
LINE
  5
2AB
  8
SIZE
  6
CONTINUOUS
 62
    30
 10
735.96150243198804
 20
-0.0000000000000838
 30
0.0
 11
735.96150243198804
 21
299.99999999999972
 31
0.0
  0
CIRCLE
  5
2AC
  8
SIZE
  6
CONTINUOUS
 62
    30
 10
735.96150243198804
 20
-0.0000000000000838
 30
0.0
 40
7.5
  0
CIRCLE
  5
2AD
  8
SIZE
  6
CONTINUOUS
 62
    30
 10
735.96150243198804
 20
299.99999999999972
 30
0.0
 40
7.5
  0
TEXT
  5
2AE
  8
SIZE
  6
CONTINUOUS
 62
    30
 10
715.96150243198804
 20
80.571428571428584
 30
0.0
 40
60.0
  1
300
 50
90.0
 41
0.9
 72
     1
 11
715.96150243198804
 21
150.0
 31
0.0
  0
POINT
  5
2AF
  8
DEFPOINTS
  6
CONTINUOUS
 62
     7
 10
440.00000000000182
 20
0.0
 30
0.0
  0
POINT
  5
2B0
  8
DEFPOINTS
  6
CONTINUOUS
 62
     7
 10
159.00000000000179
 20
300.0
 30
0.0
  0
POINT
  5
2B1
  8
DEFPOINTS
  6
CONTINUOUS
 62
     7
 10
735.96150243198804
 20
299.99999999999972
 30
0.0
  0
LINE
  5
2B3
  8
OUTLINE
  6
CONTINUOUS
 62
     3
 10
-440.0
 20
1950.0000000000009
 30
0.0
 11
-421.0
 21
1950.0000000000009
 31
0.0
  0
LINE
  5
2B4
  8
OUTLINE
  6
CONTINUOUS
 62
     3
 10
-421.0
 20
1950.0000000000009
 30
0.0
 11
-421.0
 21
1949.0
 31
0.0
  0
LINE
  5
2B5
  8
OUTLINE
  6
CONTINUOUS
 62
     3
 10
-440.0
 20
1949.0
 30
0.0
 11
-421.0
 21
1949.0
 31
0.0
  0
LINE
  5
2B6
  8
OUTLINE
  6
CONTINUOUS
 62
     3
 10
-440.0
 20
1949.0
 30
0.0
 11
-440.0
 21
1946.0000000000009
 31
0.0
  0
LINE
  5
2B7
  8
OUTLINE
  6
CONTINUOUS
 62
     3
 10
-441.0
 20
1949.0
 30
0.0
 11
-441.0
 21
1913.0
 31
0.0
  0
ARC
  5
2B8
  8
OUTLINE
  6
CONTINUOUS
 62
     3
 10
-440.0
 20
1949.0
 30
0.0
 40
1.0
 50
90.0
 51
180.0
  0
ARC
  5
2B9
  8
OUTLINE
  6
CONTINUOUS
 62
     3
 10
-439.0
 20
1946.0000000000009
 30
0.0
 40
1.0
 50
90.0
 51
180.0
  0
LINE
  5
2BE
  8
OUTLINE
  6
CONTINUOUS
 62
     3
 10
-439.0
 20
1947.0
 30
0.0
 11
-360.0
 21
1947.0
 31
0.0
  0
LINE
  5
2BF
  8
OUTLINE
  6
CONTINUOUS
 62
     3
 10
360.0
 20
1947.0
 30
0.0
 11
439.0
 21
1947.0
 31
0.0
  0
LINE
  5
2C1
  8
OUTLINE
  6
CONTINUOUS
 62
     3
 10
-360.0
 20
1948.0000000000009
 30
0.0
 11
-360.0
 21
1947.0
 31
0.0
  0
LINE
  5
2C2
  8
OUTLINE
  6
CONTINUOUS
 62
     3
 10
360.0
 20
1948.0000000000009
 30
0.0
 11
-360.0
 21
1948.0000000000009
 31
0.0
  0
LINE
  5
2C4
  8
OUTLINE
  6
CONTINUOUS
 62
     3
 10
360.0
 20
1948.0000000000009
 30
0.0
 11
360.0
 21
1947.0
 31
0.0
  0
ARC
  5
2C9
  8
OUTLINE
  6
CONTINUOUS
 62
     3
 10
439.0
 20
1946.0000000000009
 30
0.0
 40
1.0
 50
0.0
 51
90.0
  0
LINE
  5
2CA
  8
OUTLINE
  6
CONTINUOUS
 62
     3
 10
440.0
 20
1916.0000000000009
 30
0.0
 11
440.0
 21
1946.0000000000009
 31
0.0
  0
ARC
  5
2CB
  8
OUTLINE
  6
CONTINUOUS
 62
     3
 10
439.0
 20
1916.0000000000009
 30
0.0
 40
1.0
 50
270.0
 51
0.0
  0
ARC
  5
2CC
  8
OUTLINE
  6
CONTINUOUS
 62
     3
 10
439.0
 20
1914.0000000000009
 30
0.0
 40
1.0
 50
0.0
 51
90.0
  0
LINE
  5
2CD
  8
OUTLINE
  6
CONTINUOUS
 62
     3
 10
440.0
 20
1914.0000000000009
 30
0.0
 11
440.0
 21
101.0000000000009
 31
0.0
  0
ARC
  5
2CE
  8
OUTLINE
  6
CONTINUOUS
 62
     3
 10
439.0
 20
101.0000000000009
 30
0.0
 40
1.0
 50
270.0
 51
0.0
  0
LINE
  5
2CF
  8
OUTLINE
  6
CONTINUOUS
 62
     3
 10
440.0
 20
100.0000000000009
 30
0.0
 11
439.0
 21
100.00000000000129
 31
0.0
  0
LINE
  5
2D0
  8
OUTLINE
  6
CONTINUOUS
 62
     3
 10
440.0
 20
100.0000000000009
 30
0.0
 11
440.0
 21
96.800000000000651
 31
0.0
  0
LINE
  5
2D1
  8
OUTLINE
  6
CONTINUOUS
 62
     3
 10
440.0
 20
96.800000000000651
 30
0.0
 11
422.4000000000014
 21
96.800000000000651
 31
0.0
  0
LINE
  5
2D2
  8
OUTLINE
  6
CONTINUOUS
 62
     3
 10
422.20000000000073
 20
96.600000000000804
 30
0.0
 11
422.20000000000073
 21
70.000000000000895
 31
0.0
  0
ARC
  5
2D3
  8
OUTLINE
  6
CONTINUOUS
 62
     3
 10
419.0
 20
70.000000000000895
 30
0.0
 40
3.2000000000000002
 50
270.0
 51
0.0
  0
LINE
  5
2D4
  8
OUTLINE
  6
CONTINUOUS
 62
     3
 10
419.0
 20
66.800000000000637
 30
0.0
 11
398.40000000000151
 21
66.800000000000637
 31
0.0
  0
LINE
  5
2D5
  8
OUTLINE
  6
CONTINUOUS
 62
     3
 10
398.2000000000009
 20
66.600000000000804
 30
0.0
 11
398.2000000000009
 21
3.2000000000007272
 31
0.0
  0
LINE
  5
2D6
  8
OUTLINE
  6
CONTINUOUS
 62
     3
 10
398.2000000000009
 20
3.2000000000007272
 30
0.0
 11
440.0
 21
3.2000000000007272
 31
0.0
  0
LINE
  5
2D7
  8
OUTLINE
  6
CONTINUOUS
 62
     3
 10
440.0
 20
0.0000000000009095
 30
0.0
 11
440.0
 21
3.2000000000007272
 31
0.0
  0
LINE
  5
2D8
  8
OUTLINE
  6
CONTINUOUS
 62
     3
 10
398.2000000000009
 20
0.0000000000009095
 30
0.0
 11
440.0
 21
0.0000000000009095
 31
0.0
  0
ARC
  5
2D9
  8
OUTLINE
  6
CONTINUOUS
 62
     3
 10
398.2000000000009
 20
3.2000000000007272
 30
0.0
 40
3.2000000000000002
 50
180.0
 51
270.0
  0
LINE
  5
2DA
  8
OUTLINE
  6
CONTINUOUS
 62
     3
 10
395.0
 20
3.2000000000007272
 30
0.0
 11
395.0
 21
0.0000000000009095
 31
0.0
  0
LINE
  5
2DB
  8
OUTLINE
  6
CONTINUOUS
 62
     3
 10
-395.0
 20
0.0000000000009095
 30
0.0
 11
395.0
 21
0.0000000000009095
 31
0.0
  0
LINE
  5
2DC
  8
OUTLINE
  6
CONTINUOUS
 62
     3
 10
-395.0
 20
0.0000000000009095
 30
0.0
 11
-395.0
 21
3.2000000000007272
 31
0.0
  0
ARC
  5
2DD
  8
OUTLINE
  6
CONTINUOUS
 62
     3
 10
-398.19999999999698
 20
3.2000000000007272
 30
0.0
 40
3.2000000000000002
 50
270.0
 51
0.0
  0
LINE
  5
2DE
  8
OUTLINE
  6
CONTINUOUS
 62
     3
 10
-440.0
 20
0.0000000000009095
 30
0.0
 11
-398.19999999999698
 21
0.0000000000009095
 31
0.0
  0
LINE
  5
2DF
  8
OUTLINE
  6
CONTINUOUS
 62
     3
 10
-440.0
 20
0.0000000000009095
 30
0.0
 11
-440.0
 21
3.2000000000007272
 31
0.0
  0
LINE
  5
2E0
  8
OUTLINE
  6
CONTINUOUS
 62
     3
 10
-440.0
 20
3.2000000000007272
 30
0.0
 11
-398.19999999999698
 21
3.2000000000007272
 31
0.0
  0
LINE
  5
2E1
  8
OUTLINE
  6
CONTINUOUS
 62
     3
 10
-398.19999999999698
 20
3.2000000000007272
 30
0.0
 11
-398.19999999999698
 21
66.800000000000637
 31
0.0
  0
LINE
  5
2E2
  8
OUTLINE
  6
CONTINUOUS
 62
     3
 10
-398.19999999999698
 20
66.800000000000637
 30
0.0
 11
-419.0
 21
66.800000000000637
 31
0.0
  0
ARC
  5
2E3
  8
OUTLINE
  6
CONTINUOUS
 62
     3
 10
-419.0
 20
70.000000000000895
 30
0.0
 40
3.2000000000000002
 50
180.0
 51
270.0
  0
LINE
  5
2E4
  8
OUTLINE
  6
CONTINUOUS
 62
     3
 10
-422.19999999999698
 20
70.000000000000895
 30
0.0
 11
-422.19999999999698
 21
100.0000000000009
 31
0.0
  0
LINE
  5
2E5
  8
OUTLINE
  6
CONTINUOUS
 62
     3
 10
-439.0
 20
100.0000000000009
 30
0.0
 11
-422.19999999999698
 21
100.0000000000009
 31
0.0
  0
ARC
  5
2E6
  8
OUTLINE
  6
CONTINUOUS
 62
     3
 10
-439.0
 20
101.0000000000009
 30
0.0
 40
1.0
 50
180.0
 51
270.0
  0
LINE
  5
2E7
  8
OUTLINE
  6
CONTINUOUS
 62
     3
 10
-440.0
 20
1912.0
 30
0.0
 11
-440.0
 21
101.0000000000009
 31
0.0
  0
ARC
  5
2E8
  8
OUTLINE
  6
CONTINUOUS
 62
     3
 10
-440.0
 20
1913.0
 30
0.0
 40
1.0
 50
180.0
 51
270.0
  0
LINE
  5
2E9
  8
SERVICESPACE
  6
DASHDOT
 62
     2
 10
440.00000088737738
 20
1950.0
 30
0.0
 11
-439.99999911262421
 21
1950.0
 31
0.0
  0
LINE
  5
2EA
  8
SERVICESPACE
  6
DASHDOT
 62
     2
 10
440.00000088737391
 20
2350.0000000000009
 30
0.0
 11
-1449.999999112624
 21
2350.0000000000009
 31
0.0
  0
LINE
  5
2EB
  8
SERVICESPACE
  6
DASHDOT
 62
     2
 10
-439.99999911262603
 20
0.0000000000009095
 30
0.0
 11
-439.99999911262421
 21
2350.0000000000009
 31
0.0
  0
LINE
  5
2EC
  8
SERVICESPACE
  6
DASHDOT
 62
     2
 10
440.00000088737738
 20
1950.0
 30
0.0
 11
440.00000088737391
 21
2350.0000000000009
 31
0.0
  0
LINE
  5
2ED
  8
SERVICESPACE
  6
DASHDOT
 62
     2
 10
-439.99999911262421
 20
2350.0000000000009
 30
0.0
 11
440.00000088737738
 21
1950.0
 31
0.0
  0
LINE
  5
2EE
  8
SERVICESPACE
  6
DASHDOT
 62
     2
 10
440.00000088737391
 20
2350.0000000000009
 30
0.0
 11
-439.99999911262421
 21
1950.0
 31
0.0
  0
LINE
  5
2EF
  8
SIZE
  6
CONTINUOUS
 62
    30
 10
-1469.999999112624
 20
2350.0000000000009
 30
0.0
 11
-1851.0637920879869
 21
2350.0000000000009
 31
0.0
  0
LINE
  5
2F0
  8
SIZE
  6
CONTINUOUS
 62
    30
 10
-459.9999991126241
 20
1950.0
 30
0.0
 11
-1851.0637920879869
 21
1950.0
 31
0.0
  0
LINE
  5
2F1
  8
SIZE
  6
CONTINUOUS
 62
    30
 10
-1831.063792087986
 20
2350.0000000000009
 30
0.0
 11
-1831.063792087986
 21
1950.0
 31
0.0
  0
CIRCLE
  5
2F2
  8
SIZE
  6
CONTINUOUS
 62
    30
 10
-1831.063792087986
 20
2350.0000000000009
 30
0.0
 40
7.5
  0
CIRCLE
  5
2F3
  8
SIZE
  6
CONTINUOUS
 62
    30
 10
-1831.063792087986
 20
1950.0
 30
0.0
 40
7.5
  0
TEXT
  5
2F4
  8
SIZE
  6
CONTINUOUS
 62
    30
 10
-1851.0637920879869
 20
2015.2571428571459
 30
0.0
 40
60.0
  1
400以上
 50
90.0
 41
0.9
 72
     1
 11
-1851.0637920879869
 21
2150.0000000000032
 31
0.0
  0
POINT
  5
2F5
  8
DEFPOINTS
  6
CONTINUOUS
 62
     7
 10
-1449.999999112624
 20
2350.0000000000009
 30
0.0
  0
POINT
  5
2F6
  8
DEFPOINTS
  6
CONTINUOUS
 62
     7
 10
-439.99999911262421
 20
1950.0
 30
0.0
  0
POINT
  5
2F7
  8
DEFPOINTS
  6
CONTINUOUS
 62
     7
 10
-1831.063792087986
 20
1950.0
 30
0.0
  0
LINE
  5
2F8
  8
SERVICESPACE
  6
DASHDOT
 62
     2
 10
-1449.999999112626
 20
0.0000000000009095
 30
0.0
 11
-439.99999911262603
 21
0.0000000000009095
 31
0.0
  0
LINE
  5
2F9
  8
SERVICESPACE
  6
DASHDOT
 62
     2
 10
-1449.999999112626
 20
0.0000000000009095
 30
0.0
 11
-1449.999999112624
 21
2350.0000000000009
 31
0.0
  0
LINE
  5
2FA
  8
SERVICESPACE
  6
DASHDOT
 62
     2
 10
-1449.999999112624
 20
2350.0000000000009
 30
0.0
 11
-439.99999911262603
 21
0.0000000000009095
 31
0.0
  0
LINE
  5
2FB
  8
SERVICESPACE
  6
DASHDOT
 62
     2
 10
-1449.999999112626
 20
0.0000000000009095
 30
0.0
 11
-439.99999911262421
 21
2350.0000000000009
 31
0.0
  0
LINE
  5
2FC
  8
SIZE
  6
CONTINUOUS
 62
    30
 10
-439.99999911262421
 20
2370.0000000000009
 30
0.0
 11
-439.99999911262421
 21
2481.8209397554278
 31
0.0
  0
LINE
  5
2FD
  8
SIZE
  6
CONTINUOUS
 62
    30
 10
-1449.999999112624
 20
2370.0000000000009
 30
0.0
 11
-1449.999999112624
 21
2481.8209397554278
 31
0.0
  0
LINE
  5
2FE
  8
SIZE
  6
CONTINUOUS
 62
    30
 10
-439.99999911262421
 20
2461.8209397554278
 30
0.0
 11
-1449.999999112624
 21
2461.8209397554278
 31
0.0
  0
CIRCLE
  5
2FF
  8
SIZE
  6
CONTINUOUS
 62
    30
 10
-439.99999911262421
 20
2461.8209397554278
 30
0.0
 40
7.5
  0
CIRCLE
  5
300
  8
SIZE
  6
CONTINUOUS
 62
    30
 10
-1449.999999112624
 20
2461.8209397554278
 30
0.0
 40
7.5
  0
TEXT
  5
301
  8
SIZE
  6
CONTINUOUS
 62
    30
 10
-1095.1714276840521
 20
2481.8209397554292
 30
0.0
 40
60.0
  1
1010以上
 41
0.9
 72
     1
 11
-944.99999911262398
 21
2481.8209397554292
 31
0.0
  0
POINT
  5
302
  8
DEFPOINTS
  6
CONTINUOUS
 62
     7
 10
-439.99999911262421
 20
2350.0000000000009
 30
0.0
  0
POINT
  5
303
  8
DEFPOINTS
  6
CONTINUOUS
 62
     7
 10
-1449.999999112624
 20
2350.0000000000009
 30
0.0
  0
POINT
  5
304
  8
DEFPOINTS
  6
CONTINUOUS
 62
     7
 10
-1449.999999112624
 20
2461.8209397554278
 30
0.0
  0
TEXT
  5
305
  8
NOTE
  6
CONTINUOUS
 62
     4
 10
-199.9221182518468
 20
2254.4646791854639
 30
0.0
 40
60.0
  1
サービススペース
 50
0.0000025044165917
 41
0.7
  7
STANDARD1
  0
TEXT
  5
306
  8
NOTE
  6
CONTINUOUS
 62
     4
 10
-1133.825629908956
 20
1777.022325486653
 30
0.0
 40
60.0
  1
サービススペース
 50
0.0000025044165917
 41
0.7
  7
STANDARD1
  0
TEXT
  5
307
  8
NOTE
  6
CONTINUOUS
 62
     4
 10
-1113.706547881686
 20
-169.4637378924462
 30
0.0
 40
60.0
  1
RL φ15.88
 50
0.0000025044165917
 41
0.7
  7
STANDARD1
  0
TEXT
  5
308
  8
NOTE
  6
CONTINUOUS
 62
     4
 10
-1269.3377798196091
 20
-449.19619167073409
 30
0.0
 40
60.0
  1
RL 横配管貫通穴φ34
 50
0.0000025044165917
 41
0.7
  7
STANDARD1
  0
TEXT
  5
309
  8
NOTE
  6
CONTINUOUS
 62
     4
 10
-1061.372035502196
 20
-309.35649881259928
 30
0.0
 40
60.0
  1
AH 8-φ18
 50
0.0000025044165917
 41
0.7
  7
STANDARD1
  0
TEXT
  5
30A
  8
NOTE
  6
CONTINUOUS
 62
     4
 10
557.25814264511769
 20
491.36991693208807
 30
0.0
 40
60.0
  1
RG 横配管貫通穴φ54
 50
0.0000025044165917
 41
0.7
  7
STANDARD1
  0
TEXT
  5
30B
  8
NOTE
  6
CONTINUOUS
 62
     4
 10
560.06529489071181
 20
672.92752110546076
 30
0.0
 40
60.0
  1
RGφ 28.58
 50
0.0000025044165917
 41
0.7
  7
STANDARD1
  0
TEXT
  5
30C
  8
ETC
  6
CONTINUOUS
 62
    61
 10
-172.66754098085221
 20
2613.0423537822871
 30
0.0
 40
80.0
  1
PFD-P560VCMD-E_4
 50
0.0000029998804485
 41
0.8
  7
STANDARD_MODELNAME
  0
LINE
  5
30D
  8
NOTE
  6
CONTINUOUS
 62
     4
 10
125.0000000000018
 20
300.0
 30
0.0
 11
552.89965389315284
 21
653.75504299321256
 31
0.0
  0
LINE
  5
30E
  8
NOTE
  6
CONTINUOUS
 62
     4
 10
552.89965389315284
 20
653.75504299321256
 30
0.0
 11
924.8920190342742
 21
653.75504299321256
 31
0.0
  0
LINE
  5
30F
  8
NOTE
  6
CONTINUOUS
 62
     4
 10
152.66728878120921
 20
314.11163431629228
 30
0.0
 11
125.0000000000018
 21
300.0
 31
0.0
  0
LINE
  5
310
  8
NOTE
  6
CONTINUOUS
 62
     4
 10
125.0000000000018
 20
300.0
 30
0.0
 11
141.90475789841921
 21
326.05467812074062
 31
0.0
  0
LINE
  5
311
  8
NOTE
  6
CONTINUOUS
 62
     4
 10
125.0000000000035
 20
149.99999999999821
 30
0.0
 11
551.60857757485041
 21
469.09589226684312
 31
0.0
  0
LINE
  5
312
  8
NOTE
  6
CONTINUOUS
 62
     4
 10
551.60857757485041
 20
469.09589226684312
 30
0.0
 11
1096.2863926906571
 21
469.09589226684312
 31
0.0
  0
LINE
  5
313
  8
NOTE
  6
CONTINUOUS
 62
     4
 10
153.5071086533672
 20
162.32728063300451
 30
0.0
 11
125.0000000000062
 21
149.99999999999579
 31
0.0
  0
LINE
  5
314
  8
NOTE
  6
CONTINUOUS
 62
     4
 10
125.0000000000062
 20
149.99999999999579
 30
0.0
 11
143.52424007884861
 21
174.92929243040581
 31
0.0
  0
LINE
  5
315
  8
NOTE
  6
CONTINUOUS
 62
     4
 10
-419.99999911262421
 20
0.0
 30
0.0
 11
-732.11517524570615
 21
-331.20181306774163
 31
0.0
  0
LINE
  5
316
  8
NOTE
  6
CONTINUOUS
 62
     4
 10
-732.11517524570615
 20
-331.20181306774163
 30
0.0
 11
-1081.4657166167581
 21
-331.20181306774163
 31
0.0
  0
LINE
  5
317
  8
NOTE
  6
CONTINUOUS
 62
     4
 10
-446.42489974143791
 20
-16.319979115696238
 30
0.0
 11
-419.99999911262421
 21
0.0
 31
0.0
  0
LINE
  5
318
  8
NOTE
  6
CONTINUOUS
 62
     4
 10
-419.99999911262421
 20
0.0
 30
0.0
 11
-434.7246449158647
 21
-27.345966751032851
 31
0.0
  0
LINE
  5
319
  8
NOTE
  6
CONTINUOUS
 62
     4
 10
-40.0
 20
150.0
 30
0.0
 11
-729.22358573006738
 21
-475.6537880091953
 31
0.0
  0
LINE
  5
31A
  8
NOTE
  6
CONTINUOUS
 62
     4
 10
-729.22358573006738
 20
-475.6537880091953
 30
0.0
 11
-1296.5732408457261
 21
-475.6537880091953
 31
0.0
  0
LINE
  5
31B
  8
NOTE
  6
CONTINUOUS
 62
     4
 10
-67.615789148900149
 20
135.78784740924311
 30
0.0
 11
-40.0
 21
150.0
 31
0.0
  0
LINE
  5
31C
  8
NOTE
  6
CONTINUOUS
 62
     4
 10
-40.0
 20
150.0
 30
0.0
 11
-56.809898771600238
 21
123.8840203157519
 31
0.0
  0
LINE
  5
31D
  8
NOTE
  6
CONTINUOUS
 62
     4
 10
-40.0
 20
300.0
 30
0.0
 11
-736.51714828841614
 21
-195.9213342309076
 31
0.0
  0
LINE
  5
31E
  8
NOTE
  6
CONTINUOUS
 62
     4
 10
-736.51714828841614
 20
-195.9213342309076
 30
0.0
 11
-1124.11863381636
 21
-195.9213342309076
 31
0.0
  0
LINE
  5
31F
  8
NOTE
  6
CONTINUOUS
 62
     4
 10
-69.100737245633368
 20
289.14807927875881
 30
0.0
 11
-40.0
 21
300.0
 31
0.0
  0
LINE
  5
320
  8
NOTE
  6
CONTINUOUS
 62
     4
 10
-40.0
 20
300.0
 30
0.0
 11
-59.776017471596781
 21
276.05159244244851
 31
0.0
  0
TEXT
  5
337
  8
NOTE
  6
CONTINUOUS
 62
     4
 10
701.79667192655324
 20
-353.5041598310836
 30
0.0
 40
60.0
  1
D1
 50
0.0000025044165917
 41
0.7
  7
STANDARD1
  0
TEXT
  5
338
  8
NOTE
  6
CONTINUOUS
 62
     4
 10
609.49108123770895
 20
-455.7777479538542
 30
0.0
 40
60.0
  1
<Rp1-1/4>
 50
0.0000025044165917
 41
0.7
  7
STANDARD1
  0
LINE
  5
339
  8
NOTE
  6
CONTINUOUS
 62
     4
 10
210.0
 20
0.0
 30
0.0
 11
586.91791042398086
 21
-376.48274468114693
 31
0.0
  0
LINE
  5
33A
  8
NOTE
  6
CONTINUOUS
 62
     4
 10
586.91791042398086
 20
-376.48274468114693
 30
0.0
 11
982.22949043307835
 21
-376.48274468114693
 31
0.0
  0
LINE
  5
343
  8
NOTE
  6
CONTINUOUS
 62
     4
 10
244.0
 20
0.0
 30
0.0
 11
176.0
 21
0.0
 31
0.0
  0
LINE
  5
344
  8
NOTE
  6
CONTINUOUS
 62
     4
 10
210.0
 20
-34.0
 30
0.0
 11
210.0
 21
34.0
 31
0.0
  0
LINE
  5
345
  8
NOTE
  6
CONTINUOUS
 62
     4
 10
225.7739386307079
 20
-26.754437980532071
 30
0.0
 11
210.0000000000004
 21
0.0000000000005542
 31
0.0
  0
LINE
  5
346
  8
NOTE
  6
CONTINUOUS
 62
     4
 10
210.0000000000004
 20
0.0000000000005542
 30
0.0
 11
237.0378504928639
 21
-15.28305376242046
 31
0.0
  0
LINE
  5
34C
  8
NOTE
  6
CONTINUOUS
 62
     4
 10
432.42149882610232
 20
0.0
 30
0.0
 11
407.57850294865273
 21
0.0
 31
0.0
  0
LINE
  5
352
  8
NOTE
  6
CONTINUOUS
 62
     4
 10
-407.5785011738995
 20
0.0
 30
0.0
 11
-432.42149705134869
 21
0.0
 31
0.0
  0
LINE
  5
37B
  8
SIZE
  6
CONTINUOUS
 62
    30
 10
210.0
 20
-54.0
 30
0.0
 11
210.0
 21
-317.08325251533819
 31
0.0
  0
LINE
  5
37C
  8
SIZE
  6
CONTINUOUS
 62
    30
 10
440.0
 20
-20.0
 30
0.0
 11
440.0
 21
-317.08325251533819
 31
0.0
  0
LINE
  5
37D
  8
SIZE
  6
CONTINUOUS
 62
    30
 10
210.0
 20
-297.0832525153383
 30
0.0
 11
440.0
 21
-297.0832525153383
 31
0.0
  0
TEXT
  5
383
  8
SIZE
  6
CONTINUOUS
 62
    30
 10
255.57142857142861
 20
-276.83508330214681
 30
0.0
 40
60.0
  1
230
 41
0.9
 72
     1
 11
325.0
 21
-276.83508330214681
 31
0.0
  0
CIRCLE
  5
384
  8
SIZE
  6
CONTINUOUS
 62
    30
 10
440.0
 20
-297.0832525153383
 30
0.0
 40
7.5
  0
CIRCLE
  5
385
  8
SIZE
  6
CONTINUOUS
 62
    30
 10
210.0
 20
-297.0832525153383
 30
0.0
 40
7.5
  0
CIRCLE
  5
48C
  8
FIX
  6
CONTINUOUS
 62
    11
 10
-340.0
 20
0.0
 30
0.0
 40
12.42149793872491
  0
CIRCLE
  5
492
  8
FIX
  6
CONTINUOUS
 62
    11
 10
340.0
 20
0.0
 30
0.0
 40
12.42149793872491
  0
LINE
  5
499
  8
NOTE
  6
CONTINUOUS
 62
     4
 10
-340.0
 20
-12.421497938724769
 30
0.0
 11
-340.0
 21
12.421497938724769
 31
0.0
  0
LINE
  5
49A
  8
NOTE
  6
CONTINUOUS
 62
     4
 10
-327.5785020612754
 20
0.0
 30
0.0
 11
-352.42149793872483
 21
0.0
 31
0.0
  0
LINE
  5
4A1
  8
NOTE
  6
CONTINUOUS
 62
     4
 10
340.0
 20
-12.421497938724769
 30
0.0
 11
340.0
 21
12.421497938724769
 31
0.0
  0
LINE
  5
4A2
  8
NOTE
  6
CONTINUOUS
 62
     4
 10
352.42149793872483
 20
0.0
 30
0.0
 11
327.5785020612754
 21
0.0
 31
0.0
  0
LINE
  5
598
  8
SIZE
  6
CONTINUOUS
 62
    30
 10
420.00000088737761
 20
-32.421497938724912
 30
0.0
 11
420.00000088737738
 21
-885.41883261934004
 31
0.0
  0
LINE
  5
599
  8
SIZE
  6
CONTINUOUS
 62
    30
 10
440.0
 20
-20.0
 30
0.0
 11
439.99999999999989
 21
-885.41883261934004
 31
0.0
  0
LINE
  5
59A
  8
SIZE
  6
CONTINUOUS
 62
    30
 10
420.00000088737738
 20
-865.41883261933981
 30
0.0
 11
439.99999999999989
 21
-865.41883261933981
 31
0.0
  0
LINE
  5
59B
  8
SIZE
  6
CONTINUOUS
 62
    30
 10
439.99999999999989
 20
-865.41883261933981
 30
0.0
 11
557.60857142857139
 21
-865.41883261933981
 31
0.0
  0
LINE
  5
5A1
  8
SIZE
  6
CONTINUOUS
 62
    30
 10
-419.99999911262421
 20
-32.421497938724912
 30
0.0
 11
-419.99999911262421
 21
-885.41883261934004
 31
0.0
  0
LINE
  5
5A2
  8
SIZE
  6
CONTINUOUS
 62
    30
 10
-439.99999911262552
 20
-20.0
 30
0.0
 11
-439.99999911262557
 21
-885.41883261934004
 31
0.0
  0
LINE
  5
5A3
  8
SIZE
  6
CONTINUOUS
 62
    30
 10
-419.99999911262421
 20
-865.41883261933981
 30
0.0
 11
-439.99999911262557
 21
-865.41883261933981
 31
0.0
  0
LINE
  5
5A4
  8
SIZE
  6
CONTINUOUS
 62
    30
 10
-439.99999911262557
 20
-865.41883261933981
 30
0.0
 11
-557.60857054119685
 21
-865.41883261933981
 31
0.0
  0
LINE
  5
5A8
  8
SIZE
  6
CONTINUOUS
 62
    30
 10
340.0
 20
-32.421497938724769
 30
0.0
 11
339.99999999999989
 21
-767.19312092298765
 31
0.0
  0
LINE
  5
5A9
  8
SIZE
  6
CONTINUOUS
 62
    30
 10
440.0
 20
-19.999999999999091
 30
0.0
 11
439.99999999999989
 21
-767.19312092298765
 31
0.0
  0
LINE
  5
5AA
  8
SIZE
  6
CONTINUOUS
 62
    30
 10
339.99999999999989
 20
-747.19312092298787
 30
0.0
 11
439.99999999999989
 21
-747.19312092298787
 31
0.0
  0
LINE
  5
5AB
  8
SIZE
  6
CONTINUOUS
 62
    30
 10
439.99999999999989
 20
-747.19312092298787
 30
0.0
 11
598.75142857142851
 21
-747.19312092298787
 31
0.0
  0
LINE
  5
5AF
  8
SIZE
  6
CONTINUOUS
 62
    30
 10
-419.99999911168811
 20
-32.421497938724912
 30
0.0
 11
-419.99999911168811
 21
-885.41883261934004
 31
0.0
  0
LINE
  5
5B0
  8
SIZE
  6
CONTINUOUS
 62
    30
 10
420.00000088737761
 20
-32.421497938724912
 30
0.0
 11
420.00000088737738
 21
-885.41883261934004
 31
0.0
  0
LINE
  5
5B1
  8
SIZE
  6
CONTINUOUS
 62
    30
 10
-419.99999911168811
 20
-865.41883261933981
 30
0.0
 11
420.00000088737738
 21
-865.41883261933981
 31
0.0
  0
LINE
  5
5B5
  8
SIZE
  6
CONTINUOUS
 62
    30
 10
-340.0
 20
-32.421497938724912
 30
0.0
 11
-340.00000000000011
 21
-767.19312092298765
 31
0.0
  0
LINE
  5
5B6
  8
SIZE
  6
CONTINUOUS
 62
    30
 10
-440.0
 20
-20.0
 30
0.0
 11
-440.0
 21
-767.19312092298765
 31
0.0
  0
LINE
  5
5B7
  8
SIZE
  6
CONTINUOUS
 62
    30
 10
-340.00000000000011
 20
-747.19312092298787
 30
0.0
 11
-440.0
 21
-747.19312092298787
 31
0.0
  0
LINE
  5
5B8
  8
SIZE
  6
CONTINUOUS
 62
    30
 10
-440.0
 20
-747.19312092298787
 30
0.0
 11
-598.75142857142873
 21
-747.19312092298787
 31
0.0
  0
LINE
  5
5BC
  8
SIZE
  6
CONTINUOUS
 62
    30
 10
-340.0
 20
-32.421497938724769
 30
0.0
 11
-340.00000000000011
 21
-767.19312092298765
 31
0.0
  0
LINE
  5
5BD
  8
SIZE
  6
CONTINUOUS
 62
    30
 10
340.0
 20
-32.421497938724912
 30
0.0
 11
339.99999999999989
 21
-767.19312092298765
 31
0.0
  0
LINE
  5
5BE
  8
SIZE
  6
CONTINUOUS
 62
    30
 10
-340.00000000000011
 20
-747.19312092298787
 30
0.0
 11
339.99999999999989
 21
-747.19312092298787
 31
0.0
  0
TEXT
  5
5C2
  8
SIZE
  6
CONTINUOUS
 62
    30
 10
456.85126524473208
 20
-852.35455181210637
 30
0.0
 40
60.0
  1
20
 41
0.9
 72
     1
 11
500.5655509590178
 21
-852.35455181210637
 31
0.0
  0
CIRCLE
  5
5C3
  8
SIZE
  6
CONTINUOUS
 62
    30
 10
439.99999999999989
 20
-865.41883261933981
 30
0.0
 40
7.5
  0
CIRCLE
  5
5C4
  8
SIZE
  6
CONTINUOUS
 62
    30
 10
420.00000088737738
 20
-865.41883261933981
 30
0.0
 40
7.5
  0
TEXT
  5
5C5
  8
SIZE
  6
CONTINUOUS
 62
    30
 10
-548.8470794330309
 20
-852.35455181210637
 30
0.0
 40
60.0
  1
20
 41
0.9
 72
     1
 11
-505.13279371874512
 21
-852.35455181210637
 31
0.0
  0
CIRCLE
  5
5C6
  8
SIZE
  6
CONTINUOUS
 62
    30
 10
-439.99999911262557
 20
-865.41883261933981
 30
0.0
 40
7.5
  0
CIRCLE
  5
5C7
  8
SIZE
  6
CONTINUOUS
 62
    30
 10
-419.99999911262421
 20
-865.41883261933981
 30
0.0
 40
7.5
  0
TEXT
  5
5C8
  8
SIZE
  6
CONTINUOUS
 62
    30
 10
462.26737201989772
 20
-734.12884011575454
 30
0.0
 40
60.0
  1
100
 41
0.9
 72
     1
 11
526.55308630561206
 21
-734.12884011575454
 31
0.0
  0
CIRCLE
  5
5C9
  8
SIZE
  6
CONTINUOUS
 62
    30
 10
439.99999999999989
 20
-747.19312092298787
 30
0.0
 40
7.5
  0
CIRCLE
  5
5CA
  8
SIZE
  6
CONTINUOUS
 62
    30
 10
339.99999999999989
 20
-747.19312092298787
 30
0.0
 40
7.5
  0
TEXT
  5
5CB
  8
SIZE
  6
CONTINUOUS
 62
    30
 10
-69.428570540726824
 20
-852.35455181210637
 30
0.0
 40
60.0
  1
840
 41
0.9
 72
     1
 11
0.0000008878446067
 21
-852.35455181210637
 31
0.0
  0
CIRCLE
  5
5CC
  8
SIZE
  6
CONTINUOUS
 62
    30
 10
420.00000088737738
 20
-865.41883261933981
 30
0.0
 40
7.5
  0
CIRCLE
  5
5CD
  8
SIZE
  6
CONTINUOUS
 62
    30
 10
-419.99999911168811
 20
-865.41883261933981
 30
0.0
 40
7.5
  0
TEXT
  5
5CE
  8
SIZE
  6
CONTINUOUS
 62
    30
 10
-597.59638349964405
 20
-734.12884011575454
 30
0.0
 40
60.0
  1
100
 41
0.9
 72
     1
 11
-533.31066921392994
 21
-734.12884011575454
 31
0.0
  0
CIRCLE
  5
5CF
  8
SIZE
  6
CONTINUOUS
 62
    30
 10
-440.0
 20
-747.19312092298787
 30
0.0
 40
7.5
  0
CIRCLE
  5
5D0
  8
SIZE
  6
CONTINUOUS
 62
    30
 10
-340.00000000000011
 20
-747.19312092298787
 30
0.0
 40
7.5
  0
TEXT
  5
5D1
  8
SIZE
  6
CONTINUOUS
 62
    30
 10
-69.428571428571487
 20
-734.12884011575454
 30
0.0
 40
60.0
  1
680
 41
0.9
 72
     1
 11
-0.0000000000000568
 21
-734.12884011575454
 31
0.0
  0
CIRCLE
  5
5D2
  8
SIZE
  6
CONTINUOUS
 62
    30
 10
339.99999999999989
 20
-747.19312092298787
 30
0.0
 40
7.5
  0
CIRCLE
  5
5D3
  8
SIZE
  6
CONTINUOUS
 62
    30
 10
-340.00000000000011
 20
-747.19312092298787
 30
0.0
 40
7.5
  0
LINE
  5
5F8
  8
SIZE
  6
CONTINUOUS
 62
    30
 10
-440.0
 20
-20.0
 30
0.0
 11
-440.0
 21
-1001.684311886372
 31
0.0
  0
LINE
  5
5F9
  8
SIZE
  6
CONTINUOUS
 62
    30
 10
440.0
 20
-20.0
 30
0.0
 11
439.99999999999989
 21
-1001.684311886372
 31
0.0
  0
LINE
  5
5FA
  8
SIZE
  6
CONTINUOUS
 62
    30
 10
-440.0
 20
-981.68431188637283
 30
0.0
 11
439.99999999999989
 21
-981.68431188637283
 31
0.0
  0
TEXT
  5
5FE
  8
SIZE
  6
CONTINUOUS
 62
    30
 10
-69.428571428571487
 20
-968.24162278970857
 30
0.0
 40
60.0
  1
880
 41
0.9
 72
     1
 11
-0.0000000000000568
 21
-968.24162278970857
 31
0.0
  0
CIRCLE
  5
5FF
  8
SIZE
  6
CONTINUOUS
 62
    30
 10
439.99999999999989
 20
-981.68431188637283
 30
0.0
 40
7.5
  0
CIRCLE
  5
600
  8
SIZE
  6
CONTINUOUS
 62
    30
 10
-440.0
 20
-981.68431188637283
 30
0.0
 40
7.5
  0
ENDSEC
  0
EOF
