  0
SECTION
  2
HEADER
  9
$ACADVER
  1
AC1009
  9
$INSBASE
 10
0.0
 20
0.0
 30
0.0
  9
$EXTMIN
 10
-1486.2575710000001
 20
-500.00875362933982
 30
0.0
  9
$EXTMAX
 10
1294.1981301067219
 20
2368.4083549428651
 30
0.0
  9
$LIMMIN
 10
-4267.1522210000003
 20
-2696.0832100000011
  9
$LIMMAX
 10
7190.7174229999991
 20
5141.1553640000002
  9
$ORTHOMODE
 70
     1
  9
$REGENMODE
 70
     1
  9
$FILLMODE
 70
     1
  9
$QTEXTMODE
 70
     0
  9
$MIRRTEXT
 70
     0
  9
$DRAGMODE
 70
     2
  9
$LTSCALE
 40
20.0
  9
$OSMODE
 70
   431
  9
$ATTMODE
 70
     1
  9
$TEXTSIZE
 40
64.0
  9
$TRACEWID
 40
0.05
  9
$TEXTSTYLE
  7
STANDARD
  9
$CLAYER
  8
SYMBOLLINE
  9
$CELTYPE
  6
CONTINUOUS
  9
$CECOLOR
 62
     7
  9
$DIMSCALE
 40
1.0
  9
$DIMASZ
 40
10.0
  9
$DIMEXO
 40
20.0
  9
$DIMDLI
 40
200.0
  9
$DIMRND
 40
0.0
  9
$DIMDLE
 40
0.0
  9
$DIMEXE
 40
30.0
  9
$DIMTP
 40
0.0
  9
$DIMTM
 40
0.0
  9
$DIMTXT
 40
64.0
  9
$DIMCEN
 40
0.0
  9
$DIMTSZ
 40
0.0
  9
$DIMTOL
 70
     0
  9
$DIMLIM
 70
     0
  9
$DIMTIH
 70
     0
  9
$DIMTOH
 70
     0
  9
$DIMSE1
 70
     0
  9
$DIMSE2
 70
     0
  9
$DIMTAD
 70
     1
  9
$DIMZIN
 70
     8
  9
$DIMBLK
  1

  9
$DIMASO
 70
     1
  9
$DIMSHO
 70
     0
  9
$DIMPOST
  1

  9
$DIMAPOST
  1

  9
$DIMALT
 70
     0
  9
$DIMALTD
 70
     2
  9
$DIMALTF
 40
25.399999999999999
  9
$DIMLFAC
 40
1.0
  9
$DIMTOFL
 70
     1
  9
$DIMTVP
 40
0.0
  9
$DIMTIX
 70
     1
  9
$DIMSOXD
 70
     0
  9
$DIMSAH
 70
     1
  9
$DIMBLK1
  1
DOTBLANK
  9
$DIMBLK2
  1
DOTBLANK
  9
$DIMSTYLE
  2
STANDARD
  9
$DIMCLRD
 70
     0
  9
$DIMCLRE
 70
     0
  9
$DIMCLRT
 70
     0
  9
$DIMTFAC
 40
1.0
  9
$DIMGAP
 40
0.09
  9
$LUNITS
 70
     2
  9
$LUPREC
 70
     4
  9
$SKETCHINC
 40
0.1
  9
$FILLETRAD
 40
30.0
  9
$AUNITS
 70
     1
  9
$AUPREC
 70
     3
  9
$MENU
  1
ACAD
  9
$ELEVATION
 40
0.0
  9
$PELEVATION
 40
0.0
  9
$THICKNESS
 40
0.0
  9
$LIMCHECK
 70
     0
  9
$BLIPMODE
 70
     0
  9
$CHAMFERA
 40
0.0
  9
$CHAMFERB
 40
0.0
  9
$SKPOLY
 70
     0
  9
$TDCREATE
 40
2450330.4399309959
  9
$TDUPDATE
 40
2457084.433770672
  9
$TDINDWG
 40
3.1603933218
  9
$TDUSRTIMER
 40
3.1603909028000001
  9
$USRTIMER
 70
     1
  9
$ANGBASE
 50
0.0
  9
$ANGDIR
 70
     0
  9
$PDMODE
 70
     3
  9
$PDSIZE
 40
-2.0
  9
$PLINEWID
 40
0.0
  9
$COORDS
 70
     1
  9
$SPLFRAME
 70
     0
  9
$SPLINETYPE
 70
     6
  9
$SPLINESEGS
 70
     8
  9
$ATTDIA
 70
     1
  9
$ATTREQ
 70
     1
  9
$HANDLING
 70
     1
  9
$HANDSEED
  5
DE7
  9
$SURFTAB1
 70
     6
  9
$SURFTAB2
 70
     6
  9
$SURFTYPE
 70
     6
  9
$SURFU
 70
     6
  9
$SURFV
 70
     6
  9
$UCSNAME
  2

  9
$UCSORG
 10
0.0
 20
0.0
 30
0.0
  9
$UCSXDIR
 10
1.0
 20
0.0
 30
0.0
  9
$UCSYDIR
 10
0.0
 20
1.0
 30
0.0
  9
$PUCSNAME
  2

  9
$PUCSORG
 10
0.0
 20
0.0
 30
0.0
  9
$PUCSXDIR
 10
1.0
 20
0.0
 30
0.0
  9
$PUCSYDIR
 10
0.0
 20
1.0
 30
0.0
  9
$USERI1
 70
     0
  9
$USERI2
 70
     0
  9
$USERI3
 70
     0
  9
$USERI4
 70
     0
  9
$USERI5
 70
     0
  9
$USERR1
 40
20.0
  9
$USERR2
 40
0.0
  9
$USERR3
 40
0.0
  9
$USERR4
 40
0.0
  9
$USERR5
 40
0.0
  9
$WORLDVIEW
 70
     1
  9
$SHADEDGE
 70
     3
  9
$SHADEDIF
 70
    70
  9
$TILEMODE
 70
     1
  9
$MAXACTVP
 70
    48
  9
$PLIMCHECK
 70
     0
  9
$PEXTMIN
 10
1.0000000000000000E+020
 20
1.0000000000000000E+020
 30
1.0000000000000000E+020
  9
$PEXTMAX
 10
-1.0000000000000000E+020
 20
-1.0000000000000000E+020
 30
-1.0000000000000000E+020
  9
$PLIMMIN
 10
0.0
 20
0.0
  9
$PLIMMAX
 10
12.0
 20
9.0
  9
$UNITMODE
 70
     0
  9
$VISRETAIN
 70
     1
  9
$PLINEGEN
 70
     0
  9
$PSLTSCALE
 70
     1
  0
ENDSEC
  0
SECTION
  2
TABLES
  0
TABLE
  2
VPORT
 70
     1
  0
VPORT
  2
*ACTIVE
 70
     0
 10
0.0
 20
0.0
 11
1.0
 21
1.0
 12
-95.981328726497054
 22
934.33197865007776
 13
0.0
 23
0.0
 14
50.0
 24
50.0
 15
100.0
 25
100.0
 16
0.0
 26
0.0
 36
1.0
 17
0.0
 27
0.0
 37
0.0
 40
2891.4171352412009
 41
1.6159895150720831
 42
50.0
 43
0.0
 44
0.0
 50
0.0
 51
0.0
 71
     0
 72
  1000
 73
     1
 74
     0
 75
     0
 76
     0
 77
     0
 78
     0
  0
ENDTAB
  0
TABLE
  2
LTYPE
 70
     4
  0
LTYPE
  2
CONTINUOUS
 70
     0
  3
実線
 72
    65
 73
     0
 40
0.0
  0
LTYPE
  2
DASHDOT
 70
     0
  3
____ _ ____ _ ____ _ ____ _ ____ _ ____ _ ____
 72
    65
 73
     4
 40
5.5
 49
4.0
 49
-0.6
 49
0.3
 49
-0.6
  0
ENDTAB
  0
TABLE
  2
LAYER
 70
    12
  0
LAYER
  2
0
 70
     0
 62
     7
  6
CONTINUOUS
  0
LAYER
  2
SYMBOLLINE
 70
     0
 62
    15
  6
CONTINUOUS
  0
LAYER
  2
OUTLINE
 70
     0
 62
     3
  6
CONTINUOUS
  0
LAYER
  2
DETAIL
 70
     0
 62
     5
  6
CONTINUOUS
  0
LAYER
  2
BASIS
 70
     0
 62
     6
  6
DASHDOT
  0
LAYER
  2
SIZE
 70
     0
 62
    30
  6
CONTINUOUS
  0
LAYER
  2
NOTE
 70
     0
 62
     4
  6
CONTINUOUS
  0
LAYER
  2
ARRANGE
 70
     0
 62
     1
  6
CONTINUOUS
  0
LAYER
  2
FIX
 70
     0
 62
    11
  6
CONTINUOUS
  0
LAYER
  2
SERVICESPACE
 70
     0
 62
     2
  6
DASHDOT
  0
LAYER
  2
ETC
 70
     0
 62
    61
  6
CONTINUOUS
  0
LAYER
  2
DEFPOINTS
 70
     0
 62
     7
  6
CONTINUOUS
  0
ENDTAB
  0
TABLE
  2
STYLE
 70
     3
  0
STYLE
  2
STANDARD
 70
     0
 40
0.0
 41
0.9
 50
0.0
 71
     0
 42
64.0
  3
SIMPLEX
  4
BIGFONT
  0
STYLE
  2
ANNOTATIVE
 70
     0
 40
0.0
 41
1.0
 50
0.0
 71
     0
 42
0.2
  3
txt
  4

  0
STYLE
  2
STANDARD1
 70
     0
 40
0.0
 41
1.0
 50
0.0
 71
     0
 42
64.0
  3
MONOTXT
  4
BIGFONT
  0
ENDTAB
  0
TABLE
  2
VIEW
 70
     1
  0
VIEW
  2
ALL
 70
     0
 40
9000.0
 10
241.50664699999999
 20
0.0
 41
12483.01
 11
0.0
 21
0.0
 31
1.0
 12
0.0
 22
0.0
 32
0.0
 42
50.0
 43
0.0
 44
0.0
 50
0.0
 71
     0
  0
ENDTAB
  0
TABLE
  2
UCS
 70
     0
  0
ENDTAB
  0
TABLE
  2
APPID
 70
     5
  0
APPID
  2
ACAD
 70
     0
  0
APPID
  2
ACADANNOTATIVE
 70
     0
  0
APPID
  2
ACAD_MLEADERVER
 70
     0
  0
APPID
  2
ACAD_EXEMPT_FROM_CAD_STANDARDS
 70
     0
  0
APPID
  2
ACAD_NAV_VCDISPLAY
 70
     0
  0
ENDTAB
  0
TABLE
  2
DIMSTYLE
 70
     3
  0
DIMSTYLE
  2
STANDARD
 70
     0
  3

  4

  5

  6

  7

 40
1.0
 41
0.18
 42
0.0625
 43
0.38
 44
0.18
 45
0.0
 46
0.0
 47
0.0
 48
0.0
140
0.18
141
0.09
142
0.0
143
25.399999999999999
144
1.0
145
0.0
146
1.0
147
0.09
 71
     0
 72
     0
 73
     1
 74
     1
 75
     0
 76
     0
 77
     0
 78
     0
170
     0
171
     2
172
     0
173
     0
174
     0
175
     0
176
     0
177
     0
178
     0
  0
DIMSTYLE
  2
ANNOTATIVE
 70
     0
  3

  4

  5

  6

  7

 40
1.0
 41
0.18
 42
0.0625
 43
0.38
 44
0.18
 45
0.0
 46
0.0
 47
0.0
 48
0.0
140
0.18
141
0.09
142
0.0
143
25.399999999999999
144
1.0
145
0.0
146
1.0
147
0.09
 71
     0
 72
     0
 73
     1
 74
     1
 75
     0
 76
     0
 77
     0
 78
     0
170
     0
171
     2
172
     0
173
     0
174
     0
175
     0
176
     0
177
     0
178
     0
  0
ENDTAB
  0
ENDSEC
  0
SECTION
  2
BLOCKS
  0
BLOCK
  8
0
  2
$MODEL_SPACE
 70
     0
 10
0.0
 20
0.0
 30
0.0
  3
$MODEL_SPACE
  1

  0
ENDBLK
  5
D11
  8
0
  0
BLOCK
 67
     1
  8
0
  2
$PAPER_SPACE
 70
     0
 10
0.0
 20
0.0
 30
0.0
  3
$PAPER_SPACE
  1

  0
ENDBLK
  5
D0D
 67
     1
  8
0
  0
BLOCK
  8
0
  2
_DOTBLANK
 70
     0
 10
0.0
 20
0.0
 30
0.0
  3
_DOTBLANK
  1

  0
CIRCLE
  5
32
  8
0
  6
CONTINUOUS
 62
     7
 10
0.0
 20
0.0
 30
0.0
 40
0.5
  0
LINE
  5
33
  8
0
  6
CONTINUOUS
 62
     7
 10
-0.5
 20
0.0
 30
0.0
 11
-1.0
 21
0.0
 31
0.0
  0
ENDBLK
  5
34
  8
0
  0
BLOCK
  8
0
 62
     7
  2
A$C6C3E2BFF
 70
     0
 10
0.0
 20
0.0
 30
0.0
  3
A$C6C3E2BFF
  1

  0
LINE
  5
1F7
  8
SIZE
  6
CONTINUOUS
 62
    30
 10
1646.796752
 20
789.58867599999985
 30
0.0
 11
2968.3309359999998
 21
789.58867599999985
 31
0.0
  0
LINE
  5
1F8
  8
SIZE
  6
CONTINUOUS
 62
    30
 10
2022.7967229999999
 20
2641.5886759999999
 30
0.0
 11
2968.3309359999998
 21
2641.5886759999999
 31
0.0
  0
LINE
  5
1F9
  8
BASIS
  6
DASHDOT
 62
     6
 10
1354.7967530000001
 20
2710.5549209999999
 30
0.0
 11
1354.7967530000001
 21
698.09393799999964
 31
0.0
  0
LINE
  5
1FA
  8
OUTLINE
  6
CONTINUOUS
 62
     3
 10
706.796783
 20
2641.5886759999999
 30
0.0
 11
706.796783
 21
889.58867299999986
 31
0.0
  0
LINE
  5
1FB
  8
OUTLINE
  6
CONTINUOUS
 62
     3
 10
2002.7967229999999
 20
1035.5891569999999
 30
0.0
 11
2002.7967229999999
 21
2573.5888599999998
 31
0.0
  0
LINE
  5
1FC
  8
OUTLINE
  6
CONTINUOUS
 62
     3
 10
2039.7967229999999
 20
2573.5888599999998
 30
0.0
 11
2039.7967229999999
 21
1083.5891549999999
 31
0.0
  0
LINE
  5
1FD
  8
SIZE
  6
CONTINUOUS
 62
    30
 10
2747.2271700000001
 20
2563.5888600000012
 30
0.0
 11
2747.2271700000001
 21
1093.5891549999999
 31
0.0
  0
TEXT
  5
1FE
  8
SIZE
  6
CONTINUOUS
 62
    30
 10
2538.3667270000001
 20
1451.7203135714281
 30
0.0
 40
64.0
  1
ピッチ150\U+00D79＝1350
 50
90.0
 41
0.9
 72
     1
 11
2538.3667270000001
 21
1828.5888849999999
 31
0.0
  0
LINE
  5
1FF
  8
SIZE
  6
CONTINUOUS
 62
    30
 10
2558.366727000001
 20
1163.5889079999999
 30
0.0
 11
2558.366727000001
 21
2493.5888629999999
 31
0.0
  0
LINE
  5
200
  8
DETAIL
  6
CONTINUOUS
 62
     5
 10
2002.7967229999999
 20
2641.5886759999999
 30
0.0
 11
2002.7967229999999
 21
1035.5891569999999
 31
0.0
  0
LINE
  5
201
  8
DETAIL
  6
CONTINUOUS
 62
     5
 10
1957.396473
 20
1035.5891569999999
 30
0.0
 11
1957.396473
 21
2641.5886759999999
 31
0.0
  0
LINE
  5
202
  8
DETAIL
  6
CONTINUOUS
 62
     5
 10
2039.7967229999999
 20
1083.5891549999999
 30
0.0
 11
2039.7967229999999
 21
2573.5888599999998
 31
0.0
  0
LINE
  5
203
  8
DETAIL
  6
CONTINUOUS
 62
     5
 10
1476.7967570000001
 20
2641.5886759999999
 30
0.0
 11
1476.7967570000001
 21
889.58867299999986
 31
0.0
  0
LINE
  5
204
  8
DETAIL
  6
CONTINUOUS
 62
     5
 10
1706.7884469999999
 20
1009.58818
 30
0.0
 11
1706.7884469999999
 21
2578.5854420000001
 31
0.0
  0
LINE
  5
205
  8
DETAIL
  6
CONTINUOUS
 62
     5
 10
1726.7884469999999
 20
1009.58818
 30
0.0
 11
1726.7884469999999
 21
2578.5854420000001
 31
0.0
  0
LINE
  5
206
  8
DETAIL
  6
CONTINUOUS
 62
     5
 10
1723.7884469999999
 20
1009.58818
 30
0.0
 11
1723.7884469999999
 21
2578.5854420000001
 31
0.0
  0
LINE
  5
207
  8
DETAIL
  6
CONTINUOUS
 62
     5
 10
1709.7884469999999
 20
1009.58818
 30
0.0
 11
1709.7884469999999
 21
2578.5854420000001
 31
0.0
  0
LINE
  5
208
  8
DETAIL
  6
CONTINUOUS
 62
     5
 10
706.796783
 20
2641.5886759999999
 30
0.0
 11
706.796783
 21
889.58867299999986
 31
0.0
  0
LINE
  5
209
  8
OUTLINE
  6
CONTINUOUS
 62
     3
 10
1626.796752
 20
789.58867599999985
 30
0.0
 11
726.79580499999975
 21
789.58867599999985
 31
0.0
  0
LINE
  5
20A
  8
OUTLINE
  6
CONTINUOUS
 62
     3
 10
706.796783
 20
889.58867299999986
 30
0.0
 11
1977.3964719999999
 21
889.58867299999986
 31
0.0
  0
LINE
  5
20B
  8
NOTE
  6
CONTINUOUS
 62
     4
 10
1041.7967719999999
 20
1039.5886680000001
 30
0.0
 11
1017.547409
 21
1071.4001169999999
 31
0.0
  0
LINE
  5
20C
  8
NOTE
  6
CONTINUOUS
 62
     4
 10
1041.7967719999999
 20
1039.5886680000001
 30
0.0
 11
1004.890483
 21
1055.0135090000001
 31
0.0
  0
LINE
  5
20D
  8
NOTE
  6
CONTINUOUS
 62
     4
 10
468.19474500000001
 20
1482.6357270000001
 30
0.0
 11
1041.7967719999999
 21
1039.5886680000001
 31
0.0
  0
LINE
  5
20E
  8
NOTE
  6
CONTINUOUS
 62
     4
 10
1041.7967719999999
 20
1139.5886640000001
 30
0.0
 11
1020.80605
 21
1173.638473
 31
0.0
  0
LINE
  5
20F
  8
NOTE
  6
CONTINUOUS
 62
     4
 10
1041.7967719999999
 20
1139.5886640000001
 30
0.0
 11
1006.5933680000001
 21
1158.5813020000001
 31
0.0
  0
LINE
  5
210
  8
NOTE
  6
CONTINUOUS
 62
     4
 10
457.58247399999988
 20
1691.036983
 30
0.0
 11
1041.7967719999999
 21
1139.5886640000001
 31
0.0
  0
LINE
  5
211
  8
NOTE
  6
CONTINUOUS
 62
     4
 10
513.36817199999984
 20
1931.7119709999999
 30
0.0
 11
1511.795779
 21
1389.5889
 31
0.0
  0
TEXT
  5
212
  8
SIZE
  6
CONTINUOUS
 62
    30
 10
978.22534242857137
 20
669.226089
 30
0.0
 40
64.0
  1
180
 41
0.9
 72
     1
 11
1046.796771
 21
669.226089
 31
0.0
  0
LINE
  5
213
  8
SIZE
  6
CONTINUOUS
 62
    30
 10
966.79677399999991
 20
649.22608899999977
 30
0.0
 11
1126.7967679999999
 21
649.22608899999977
 31
0.0
  0
LINE
  5
214
  8
SIZE
  6
CONTINUOUS
 62
    30
 10
1454.796147
 20
1389.5886559999999
 30
0.0
 11
266.47716500000001
 21
1389.5886559999999
 31
0.0
  0
LINE
  5
215
  8
SIZE
  6
CONTINUOUS
 62
    30
 10
736.79629399999988
 20
209.727666
 30
0.0
 11
1616.797118
 21
209.727666
 31
0.0
  0
TEXT
  5
216
  8
SIZE
  6
CONTINUOUS
 62
    30
 10
754.67111471428541
 20
368.83359200000001
 30
0.0
 40
64.0
  1
860(基礎ボルト穴ピッチ)
 41
0.9
 72
     1
 11
1176.7968289999999
 21
368.83359200000001
 31
0.0
  0
LINE
  5
217
  8
SIZE
  6
CONTINUOUS
 62
    30
 10
756.79629299999999
 20
350.071687
 30
0.0
 11
1596.797364
 21
350.071687
 31
0.0
  0
LINE
  5
218
  8
SIZE
  6
CONTINUOUS
 62
    30
 10
716.796783
 20
494.03467899999993
 30
0.0
 11
1501.7961459999999
 21
494.03467899999993
 31
0.0
  0
LINE
  5
219
  8
SIZE
  6
CONTINUOUS
 62
    30
 10
2029.7967229999999
 20
29.99999600000001
 30
0.0
 11
716.79629499999965
 21
29.99999600000001
 31
0.0
  0
LINE
  5
21A
  8
DETAIL
  6
CONTINUOUS
 62
     5
 10
1136.7967679999999
 20
1209.5886620000001
 30
0.0
 11
956.79677400000003
 21
1209.5886620000001
 31
0.0
  0
CIRCLE
  5
21B
  8
DETAIL
  6
CONTINUOUS
 62
     5
 10
1041.7967719999999
 20
1139.5886640000001
 30
0.0
 40
19.999998999999999
  0
CIRCLE
  5
21C
  8
DETAIL
  6
CONTINUOUS
 62
     5
 10
1041.7967719999999
 20
1039.5886680000001
 30
0.0
 40
19.999998999999999
  0
LINE
  5
21D
  8
DETAIL
  6
CONTINUOUS
 62
     5
 10
956.79677400000003
 20
969.58866999999998
 30
0.0
 11
1136.7967679999999
 21
969.58866999999998
 31
0.0
  0
LINE
  5
21E
  8
NOTE
  6
CONTINUOUS
 62
     4
 10
1081.7967699999999
 20
1039.5886680000001
 30
0.0
 11
1001.796773
 21
1039.5886680000001
 31
0.0
  0
LINE
  5
21F
  8
NOTE
  6
CONTINUOUS
 62
     4
 10
1081.7967699999999
 20
1139.5886640000001
 30
0.0
 11
1001.796773
 21
1139.5886640000001
 31
0.0
  0
LINE
  5
220
  8
DETAIL
  6
CONTINUOUS
 62
     5
 10
726.79580499999975
 20
789.58867599999985
 30
0.0
 11
1626.796752
 21
789.58867599999985
 31
0.0
  0
LINE
  5
221
  8
DETAIL
  6
CONTINUOUS
 62
     5
 10
706.79580599999986
 20
889.58867299999986
 30
0.0
 11
1977.3963490000001
 21
889.58867299999986
 31
0.0
  0
LINE
  5
222
  8
NOTE
  6
CONTINUOUS
 62
     4
 10
587.91861500000005
 20
590.267921
 30
0.0
 11
746.79580399999998
 21
789.58867599999985
 31
0.0
  0
LINE
  5
223
  8
NOTE
  6
CONTINUOUS
 62
     4
 10
746.79580399999998
 20
789.58867599999985
 30
0.0
 11
719.13420700000006
 21
769.16355099999998
 31
0.0
  0
LINE
  5
224
  8
NOTE
  6
CONTINUOUS
 62
     4
 10
746.79580399999998
 20
789.58867599999985
 30
0.0
 11
733.05272100000002
 21
758.06919999999968
 31
0.0
  0
CIRCLE
  5
225
  8
FIX
  6
CONTINUOUS
 62
    11
 10
746.79580399999998
 20
789.58867599999985
 30
0.0
 40
12.117421999999999
  0
LINE
  5
226
  8
NOTE
  6
CONTINUOUS
 62
     4
 10
746.79580399999998
 20
806.38867600000003
 30
0.0
 11
746.79580399999998
 21
772.78867600000001
 31
0.0
  0
LINE
  5
227
  8
SIZE
  6
CONTINUOUS
 62
    30
 10
956.79677400000003
 20
949.58866999999964
 30
0.0
 11
956.79677400000003
 21
619.226089
 31
0.0
  0
LINE
  5
228
  8
SIZE
  6
CONTINUOUS
 62
    30
 10
956.79677400000003
 20
949.58866999999964
 30
0.0
 11
956.79677400000003
 21
619.226089
 31
0.0
  0
LINE
  5
229
  8
SIZE
  6
CONTINUOUS
 62
    30
 10
706.79580599999986
 20
869.58867300000009
 30
0.0
 11
706.79580599999986
 21
619.226089
 31
0.0
  0
CIRCLE
  5
22A
  8
SIZE
  6
CONTINUOUS
 62
    30
 10
535.08449599999994
 20
789.58868700000005
 30
0.0
 40
5.0
  0
CIRCLE
  5
22B
  8
SIZE
  6
CONTINUOUS
 62
    30
 10
296.47716500000001
 20
789.58867599999985
 30
0.0
 40
5.0
  0
LINE
  5
22C
  8
SIZE
  6
CONTINUOUS
 62
    30
 10
706.79629499999999
 20
869.58867300000009
 30
0.0
 11
706.79629499999999
 21
179.727666
 31
0.0
  0
LINE
  5
22D
  8
SIZE
  6
CONTINUOUS
 62
    30
 10
706.796783
 20
869.58867300000009
 30
0.0
 11
706.796783
 21
464.03467899999993
 31
0.0
  0
LINE
  5
22E
  8
SIZE
  6
CONTINUOUS
 62
    30
 10
706.79629499999999
 20
869.58867300000009
 30
0.0
 11
706.79629499999999
 21
-0.000004
 31
0.0
  0
LINE
  5
22F
  8
NOTE
  6
CONTINUOUS
 62
     4
 10
746.79580399999998
 20
821.08281599999998
 30
0.0
 11
746.79580399999998
 21
764.95098199999984
 31
0.0
  0
POINT
  5
230
  8
DEFPOINTS
  6
CONTINUOUS
 62
     7
 10
706.79629499999999
 20
29.99999600000001
 30
0.0
  0
LINE
  5
231
  8
SIZE
  6
CONTINUOUS
 62
    30
 10
711.79629499999987
 20
29.99999600000001
 30
0.0
 11
716.79629499999965
 21
29.99999600000001
 31
0.0
  0
CIRCLE
  5
232
  8
SIZE
  6
CONTINUOUS
 62
    30
 10
706.79629499999999
 20
29.99999600000001
 30
0.0
 40
5.0
  0
TEXT
  5
233
  8
SIZE
  6
CONTINUOUS
 62
    30
 10
573.53915157142865
 20
229.727666
 30
0.0
 40
64.0
  1
20
 41
0.9
 72
     1
 11
620.16772300000002
 21
229.727666
 31
0.0
  0
LINE
  5
234
  8
SIZE
  6
CONTINUOUS
 62
    30
 10
696.79629499999999
 20
209.727666
 30
0.0
 11
553.53915199999994
 21
209.727666
 31
0.0
  0
TEXT
  5
235
  8
SIZE
  6
CONTINUOUS
 62
    30
 10
572.32216257142863
 20
370.071687
 30
0.0
 40
64.0
  1
20
 41
0.9
 72
     1
 11
618.95073400000001
 21
370.071687
 31
0.0
  0
LINE
  5
236
  8
SIZE
  6
CONTINUOUS
 62
    30
 10
716.79629399999965
 20
350.071687
 30
0.0
 11
552.32216299999993
 21
350.071687
 31
0.0
  0
LINE
  5
237
  8
NOTE
  6
CONTINUOUS
 62
     4
 10
246.94332399999999
 20
590.267921
 30
0.0
 11
587.91861500000005
 21
590.267921
 31
0.0
  0
TEXT
  5
238
  8
NOTE
  6
CONTINUOUS
 62
     4
 10
274.55166800000001
 20
601.19200099999978
 30
0.0
 40
60.0
  1
AH 4-%%c20
 50
359.99999700000001
 41
0.7
  7
STANDARD1
  0
LINE
  5
239
  8
SIZE
  6
CONTINUOUS
 62
    30
 10
726.79629399999999
 20
769.58867599999985
 30
0.0
 11
726.79629399999999
 21
179.727666
 31
0.0
  0
LINE
  5
23A
  8
SIZE
  6
CONTINUOUS
 62
    30
 10
726.79629399999999
 20
769.58867599999985
 30
0.0
 11
726.79629399999999
 21
179.727666
 31
0.0
  0
LINE
  5
23B
  8
SIZE
  6
CONTINUOUS
 62
    30
 10
746.79629299999988
 20
744.95098199999984
 30
0.0
 11
746.79629299999988
 21
320.071687
 31
0.0
  0
LINE
  5
23C
  8
SIZE
  6
CONTINUOUS
 62
    30
 10
746.79629299999988
 20
744.95098199999984
 30
0.0
 11
746.79629299999988
 21
320.071687
 31
0.0
  0
LINE
  5
23D
  8
SIZE
  6
CONTINUOUS
 62
    30
 10
726.79629399999999
 20
769.58867599999985
 30
0.0
 11
726.79629399999999
 21
320.071687
 31
0.0
  0
LINE
  5
23E
  8
SIZE
  6
CONTINUOUS
 62
    30
 10
731.79629399999999
 20
209.727666
 30
0.0
 11
736.79629399999988
 21
209.727666
 31
0.0
  0
CIRCLE
  5
23F
  8
SIZE
  6
CONTINUOUS
 62
    30
 10
726.79629399999999
 20
209.727666
 30
0.0
 40
5.0
  0
POINT
  5
240
  8
DEFPOINTS
  6
CONTINUOUS
 62
     7
 10
726.79629399999999
 20
209.727666
 30
0.0
  0
LINE
  5
241
  8
SIZE
  6
CONTINUOUS
 62
    30
 10
701.79629499999999
 20
209.727666
 30
0.0
 11
696.79629499999999
 21
209.727666
 31
0.0
  0
CIRCLE
  5
242
  8
SIZE
  6
CONTINUOUS
 62
    30
 10
706.79629499999999
 20
209.727666
 30
0.0
 40
5.0
  0
LINE
  5
243
  8
SIZE
  6
CONTINUOUS
 62
    30
 10
731.79629399999999
 20
209.727666
 30
0.0
 11
736.79629399999988
 21
209.727666
 31
0.0
  0
CIRCLE
  5
244
  8
SIZE
  6
CONTINUOUS
 62
    30
 10
726.79629399999999
 20
209.727666
 30
0.0
 40
5.0
  0
LINE
  5
245
  8
SIZE
  6
CONTINUOUS
 62
    30
 10
726.79629399999999
 20
209.727666
 30
0.0
 11
706.79629499999999
 21
209.727666
 31
0.0
  0
LINE
  5
246
  8
SIZE
  6
CONTINUOUS
 62
    30
 10
736.79629399999988
 20
209.727666
 30
0.0
 11
746.79629399999988
 21
209.727666
 31
0.0
  0
LINE
  5
247
  8
SIZE
  6
CONTINUOUS
 62
    30
 10
751.79629299999999
 20
350.071687
 30
0.0
 11
756.79629299999999
 21
350.071687
 31
0.0
  0
CIRCLE
  5
248
  8
SIZE
  6
CONTINUOUS
 62
    30
 10
746.79629299999988
 20
350.071687
 30
0.0
 40
5.0
  0
POINT
  5
249
  8
DEFPOINTS
  6
CONTINUOUS
 62
     7
 10
746.79629299999988
 20
350.071687
 30
0.0
  0
LINE
  5
24A
  8
SIZE
  6
CONTINUOUS
 62
    30
 10
721.79629399999988
 20
350.071687
 30
0.0
 11
716.79629399999965
 21
350.071687
 31
0.0
  0
CIRCLE
  5
24B
  8
SIZE
  6
CONTINUOUS
 62
    30
 10
726.79629399999999
 20
350.071687
 30
0.0
 40
5.0
  0
LINE
  5
24C
  8
SIZE
  6
CONTINUOUS
 62
    30
 10
751.79629299999999
 20
350.071687
 30
0.0
 11
756.79629299999999
 21
350.071687
 31
0.0
  0
CIRCLE
  5
24D
  8
SIZE
  6
CONTINUOUS
 62
    30
 10
746.79629299999988
 20
350.071687
 30
0.0
 40
5.0
  0
LINE
  5
24E
  8
SIZE
  6
CONTINUOUS
 62
    30
 10
746.79629299999988
 20
350.071687
 30
0.0
 11
726.79629399999999
 21
350.071687
 31
0.0
  0
LINE
  5
24F
  8
SIZE
  6
CONTINUOUS
 62
    30
 10
756.79629299999999
 20
350.071687
 30
0.0
 11
766.79629299999988
 21
350.071687
 31
0.0
  0
TEXT
  5
250
  8
SIZE
  6
CONTINUOUS
 62
    30
 10
757.73914714285718
 20
669.226089
 30
0.0
 40
64.0
  1
250
 41
0.9
 72
     1
 11
831.79628999999989
 21
669.226089
 31
0.0
  0
LINE
  5
251
  8
SIZE
  6
CONTINUOUS
 62
    30
 10
716.79580599999997
 20
649.22608899999977
 30
0.0
 11
946.79677400000003
 21
649.22608899999977
 31
0.0
  0
LINE
  5
252
  8
SIZE
  6
CONTINUOUS
 62
    30
 10
711.796783
 20
494.03467899999993
 30
0.0
 11
716.796783
 21
494.03467899999993
 31
0.0
  0
CIRCLE
  5
253
  8
SIZE
  6
CONTINUOUS
 62
    30
 10
706.796783
 20
494.03467899999993
 30
0.0
 40
5.0
  0
LINE
  5
254
  8
SIZE
  6
CONTINUOUS
 62
    30
 10
711.79580599999986
 20
649.22608899999977
 30
0.0
 11
716.79580599999997
 21
649.22608899999977
 31
0.0
  0
CIRCLE
  5
255
  8
SIZE
  6
CONTINUOUS
 62
    30
 10
706.79580599999986
 20
649.22608899999977
 30
0.0
 40
5.0
  0
POINT
  5
256
  8
DEFPOINTS
  6
CONTINUOUS
 62
     7
 10
746.79629299999988
 20
764.95098199999984
 30
0.0
  0
POINT
  5
257
  8
DEFPOINTS
  6
CONTINUOUS
 62
     7
 10
746.79629299999988
 20
764.95098199999984
 30
0.0
  0
LINE
  5
258
  8
SIZE
  6
CONTINUOUS
 62
    30
 10
961.79677400000003
 20
649.22608899999977
 30
0.0
 11
966.79677399999991
 21
649.22608899999977
 31
0.0
  0
CIRCLE
  5
259
  8
SIZE
  6
CONTINUOUS
 62
    30
 10
956.79677400000003
 20
649.22608899999977
 30
0.0
 40
5.0
  0
POINT
  5
25A
  8
DEFPOINTS
  6
CONTINUOUS
 62
     7
 10
956.79677400000003
 20
649.22608899999977
 30
0.0
  0
LINE
  5
25B
  8
SIZE
  6
CONTINUOUS
 62
    30
 10
951.79677400000014
 20
649.22608899999977
 30
0.0
 11
946.79677400000003
 21
649.22608899999977
 31
0.0
  0
CIRCLE
  5
25C
  8
SIZE
  6
CONTINUOUS
 62
    30
 10
956.79677400000003
 20
649.22608899999977
 30
0.0
 40
5.0
  0
LINE
  5
25D
  8
NOTE
  6
CONTINUOUS
 62
     4
 10
81.968501000000003
 20
1931.7119709999999
 30
0.0
 11
513.36817199999984
 21
1931.7119709999999
 31
0.0
  0
TEXT
  5
25E
  8
NOTE
  6
CONTINUOUS
 62
     4
 10
83.417738999999969
 20
1950.5740780000001
 30
0.0
 40
60.0
  1
加湿器接続2 Rc1
 50
359.99999700000001
 41
0.7
  7
STANDARD1
  0
LINE
  5
25F
  8
NOTE
  6
CONTINUOUS
 62
     4
 10
457.58247399999988
 20
1691.036983
 30
0.0
 11
0.000013
 21
1691.036983
 31
0.0
  0
TEXT
  5
260
  8
NOTE
  6
CONTINUOUS
 62
     4
 10
10.451518999999999
 20
1716.1641790000001
 30
0.0
 40
60.0
  1
EL2 %%C30～60
 50
0.000003
 41
0.7
  7
STANDARD1
  0
LINE
  5
261
  8
NOTE
  6
CONTINUOUS
 62
     4
 10
468.19474500000001
 20
1482.6357270000001
 30
0.0
 11
13.672734999999999
 21
1482.6357270000001
 31
0.0
  0
TEXT
  5
262
  8
NOTE
  6
CONTINUOUS
 62
     4
 10
24.124241000000001
 20
1507.7629240000001
 30
0.0
 40
60.0
  1
CL2 %%C30～60
 50
0.000003
 41
0.7
  7
STANDARD1
  0
LINE
  5
263
  8
SIZE
  6
CONTINUOUS
 62
    30
 10
936.79677400000003
 20
1209.5886620000001
 30
0.0
 11
505.084496
 21
1209.5886620000001
 31
0.0
  0
LINE
  5
264
  8
SIZE
  6
CONTINUOUS
 62
    30
 10
936.79677400000003
 20
969.58866999999998
 30
0.0
 11
505.084496
 21
969.58866999999998
 31
0.0
  0
LINE
  5
265
  8
SIZE
  6
CONTINUOUS
 62
    30
 10
936.79677400000003
 20
969.58866999999998
 30
0.0
 11
505.084496
 21
969.58866999999998
 31
0.0
  0
LINE
  5
266
  8
SIZE
  6
CONTINUOUS
 62
    30
 10
706.797326
 20
789.58868700000005
 30
0.0
 11
505.084496
 21
789.58868700000005
 31
0.0
  0
LINE
  5
267
  8
SIZE
  6
CONTINUOUS
 62
    30
 10
706.79629399999999
 20
789.58867599999985
 30
0.0
 11
266.47716500000001
 21
789.58867599999985
 31
0.0
  0
TEXT
  5
268
  8
SIZE
  6
CONTINUOUS
 62
    30
 10
515.08449599999994
 20
1015.5315231428571
 30
0.0
 40
64.0
  1
240
 50
90.0
 41
0.9
 72
     1
 11
515.08449599999994
 21
1089.5886660000001
 31
0.0
  0
LINE
  5
269
  8
SIZE
  6
CONTINUOUS
 62
    30
 10
535.08449599999994
 20
979.58866999999998
 30
0.0
 11
535.08449599999994
 21
1199.5886620000001
 31
0.0
  0
TEXT
  5
26A
  8
SIZE
  6
CONTINUOUS
 62
    30
 10
276.47716500000001
 20
1015.5315231428571
 30
0.0
 40
64.0
  1
600
 50
90.0
 41
0.9
 72
     1
 11
276.47716500000001
 21
1089.5886660000001
 31
0.0
  0
LINE
  5
26B
  8
SIZE
  6
CONTINUOUS
 62
    30
 10
296.47716500000001
 20
799.58867599999985
 30
0.0
 11
296.47716500000001
 21
1379.5886559999999
 31
0.0
  0
LINE
  5
26C
  8
SIZE
  6
CONTINUOUS
 62
    30
 10
296.47716500000001
 20
794.58867599999985
 30
0.0
 11
296.47716500000001
 21
799.58867599999985
 31
0.0
  0
TEXT
  5
26D
  8
SIZE
  6
CONTINUOUS
 62
    30
 10
515.08449599999994
 20
811.01725042857117
 30
0.0
 40
64.0
  1
180
 50
90.0
 41
0.9
 72
     1
 11
515.08449599999994
 21
879.58867899999996
 31
0.0
  0
LINE
  5
26E
  8
SIZE
  6
CONTINUOUS
 62
    30
 10
535.08449599999994
 20
799.58868700000005
 30
0.0
 11
535.08449599999994
 21
959.58866999999987
 31
0.0
  0
LINE
  5
26F
  8
SIZE
  6
CONTINUOUS
 62
    30
 10
535.08449599999994
 20
794.58868700000005
 30
0.0
 11
535.08449599999994
 21
799.58868700000005
 31
0.0
  0
LINE
  5
270
  8
SIZE
  6
CONTINUOUS
 62
    30
 10
535.08449599999994
 20
974.58866999999964
 30
0.0
 11
535.08449599999994
 21
979.58866999999998
 31
0.0
  0
CIRCLE
  5
271
  8
SIZE
  6
CONTINUOUS
 62
    30
 10
535.08449599999994
 20
969.58866999999998
 30
0.0
 40
5.0
  0
POINT
  5
272
  8
DEFPOINTS
  6
CONTINUOUS
 62
     7
 10
535.08449599999994
 20
969.58866999999998
 30
0.0
  0
LINE
  5
273
  8
SIZE
  6
CONTINUOUS
 62
    30
 10
535.08449599999994
 20
964.58866999999998
 30
0.0
 11
535.08449599999994
 21
959.58866999999987
 31
0.0
  0
CIRCLE
  5
274
  8
SIZE
  6
CONTINUOUS
 62
    30
 10
535.08449599999994
 20
969.58866999999998
 30
0.0
 40
5.0
  0
POINT
  5
275
  8
DEFPOINTS
  6
CONTINUOUS
 62
     7
 10
296.47716500000001
 20
1389.5886559999999
 30
0.0
  0
LINE
  5
276
  8
SIZE
  6
CONTINUOUS
 62
    30
 10
296.47716500000001
 20
1384.5886559999999
 30
0.0
 11
296.47716500000001
 21
1379.5886559999999
 31
0.0
  0
CIRCLE
  5
277
  8
SIZE
  6
CONTINUOUS
 62
    30
 10
296.47716500000001
 20
1389.5886559999999
 30
0.0
 40
5.0
  0
POINT
  5
278
  8
DEFPOINTS
  6
CONTINUOUS
 62
     7
 10
535.08449599999994
 20
1209.5886620000001
 30
0.0
  0
LINE
  5
279
  8
SIZE
  6
CONTINUOUS
 62
    30
 10
535.08449599999994
 20
1204.5886620000001
 30
0.0
 11
535.08449599999994
 21
1199.5886620000001
 31
0.0
  0
CIRCLE
  5
27A
  8
SIZE
  6
CONTINUOUS
 62
    30
 10
535.08449599999994
 20
1209.5886620000001
 30
0.0
 40
5.0
  0
LINE
  5
27B
  8
DETAIL
  6
CONTINUOUS
 62
     5
 10
956.79677400000003
 20
1209.5886620000001
 30
0.0
 11
956.79677400000003
 21
969.58866999999998
 31
0.0
  0
LINE
  5
27C
  8
OUTLINE
  6
CONTINUOUS
 62
     3
 10
776.79580299999986
 20
789.58867599999985
 30
0.0
 11
776.79580299999986
 21
889.58867299999986
 31
0.0
  0
LINE
  5
27D
  8
NOTE
  6
CONTINUOUS
 62
     4
 10
729.99580500000002
 20
789.58867599999985
 30
0.0
 11
763.59580400000004
 21
789.58867599999985
 31
0.0
  0
POINT
  5
27E
  8
DEFPOINTS
  6
CONTINUOUS
 62
     7
 10
706.79580599999986
 20
889.58867299999986
 30
0.0
  0
POINT
  5
27F
  8
DEFPOINTS
  6
CONTINUOUS
 62
     7
 10
726.79732599999988
 20
789.58868700000005
 30
0.0
  0
POINT
  5
280
  8
DEFPOINTS
  6
CONTINUOUS
 62
     7
 10
726.79629399999999
 20
789.58867599999985
 30
0.0
  0
POINT
  5
281
  8
DEFPOINTS
  6
CONTINUOUS
 62
     7
 10
726.79629399999999
 20
789.58867599999985
 30
0.0
  0
POINT
  5
282
  8
DEFPOINTS
  6
CONTINUOUS
 62
     7
 10
726.79629399999999
 20
789.58867599999985
 30
0.0
  0
POINT
  5
283
  8
DEFPOINTS
  6
CONTINUOUS
 62
     7
 10
706.79629499999999
 20
889.58867299999986
 30
0.0
  0
POINT
  5
284
  8
DEFPOINTS
  6
CONTINUOUS
 62
     7
 10
726.79629399999999
 20
789.58867599999985
 30
0.0
  0
POINT
  5
285
  8
DEFPOINTS
  6
CONTINUOUS
 62
     7
 10
706.796783
 20
889.58867299999986
 30
0.0
  0
POINT
  5
286
  8
DEFPOINTS
  6
CONTINUOUS
 62
     7
 10
706.79629499999999
 20
889.58867299999986
 30
0.0
  0
LINE
  5
287
  8
DETAIL
  6
CONTINUOUS
 62
     5
 10
776.79580299999986
 20
889.58867299999986
 30
0.0
 11
776.79580299999986
 21
789.58867599999985
 31
0.0
  0
POINT
  5
288
  8
DEFPOINTS
  6
CONTINUOUS
 62
     7
 10
956.79677400000003
 20
969.58866999999998
 30
0.0
  0
POINT
  5
289
  8
DEFPOINTS
  6
CONTINUOUS
 62
     7
 10
956.79677400000003
 20
969.58866999999998
 30
0.0
  0
POINT
  5
28A
  8
DEFPOINTS
  6
CONTINUOUS
 62
     7
 10
956.79677400000003
 20
969.58866999999998
 30
0.0
  0
POINT
  5
28B
  8
DEFPOINTS
  6
CONTINUOUS
 62
     7
 10
956.79677400000003
 20
969.58866999999998
 30
0.0
  0
POINT
  5
28C
  8
DEFPOINTS
  6
CONTINUOUS
 62
     7
 10
956.79677400000003
 20
1209.5886620000001
 30
0.0
  0
CIRCLE
  5
28D
  8
ARRANGE
  6
CONTINUOUS
 62
     1
 10
1354.7967530000001
 20
789.58867599999985
 30
0.0
 40
45.0
  0
LINE
  5
28E
  8
ARRANGE
  6
CONTINUOUS
 62
     1
 10
1310.8771549999999
 20
833.50827400000003
 30
0.0
 11
1398.716351
 21
745.66907800000001
 31
0.0
  0
LINE
  5
28F
  8
ARRANGE
  6
CONTINUOUS
 62
     1
 10
1310.8771549999999
 20
745.66907800000001
 30
0.0
 11
1398.716351
 21
833.50827400000003
 31
0.0
  0
LINE
  5
290
  8
NOTE
  6
CONTINUOUS
 62
     4
 10
2287.2324130000002
 20
469.78675299999992
 30
0.0
 11
2029.7967229999999
 21
905.58867200000009
 31
0.0
  0
CIRCLE
  5
291
  8
FIX
  6
CONTINUOUS
 62
    11
 10
1606.7967530000001
 20
789.58917699999984
 30
0.0
 40
12.117421999999999
  0
LINE
  5
292
  8
NOTE
  6
CONTINUOUS
 62
     4
 10
1606.7967530000001
 20
806.3891769999999
 30
0.0
 11
1606.7967530000001
 21
772.78917799999999
 31
0.0
  0
LINE
  5
293
  8
SIZE
  6
CONTINUOUS
 62
    30
 10
1136.7967679999999
 20
949.58866999999964
 30
0.0
 11
1136.7967679999999
 21
619.226089
 31
0.0
  0
LINE
  5
294
  8
SIZE
  6
CONTINUOUS
 62
    30
 10
1511.7961459999999
 20
1332.588657
 30
0.0
 11
1511.7961459999999
 21
464.03467899999993
 31
0.0
  0
LINE
  5
295
  8
SIZE
  6
CONTINUOUS
 62
    30
 10
2029.7967229999999
 20
866.40009599999985
 30
0.0
 11
2029.7967229999999
 21
587.66804500000001
 31
0.0
  0
LINE
  5
296
  8
SIZE
  6
CONTINUOUS
 62
    30
 10
2039.7967229999999
 20
1063.5891549999999
 30
0.0
 11
2039.7967229999999
 21
587.66804500000001
 31
0.0
  0
CIRCLE
  5
297
  8
SIZE
  6
CONTINUOUS
 62
    30
 10
2747.2271700000001
 20
789.58867599999985
 30
0.0
 40
5.0
  0
CIRCLE
  5
298
  8
SIZE
  6
CONTINUOUS
 62
    30
 10
2357.95003
 20
789.58867599999985
 30
0.0
 40
5.0
  0
LINE
  5
299
  8
SIZE
  6
CONTINUOUS
 62
    30
 10
2357.95003
 20
789.58867599999985
 30
0.0
 11
2357.95003
 21
616.16010499999982
 31
0.0
  0
LINE
  5
29A
  8
SIZE
  6
CONTINUOUS
 62
    30
 10
2039.7967229999999
 20
1063.5891549999999
 30
0.0
 11
2039.7967229999999
 21
-0.000004
 31
0.0
  0
LINE
  5
29B
  8
NOTE
  6
CONTINUOUS
 62
     4
 10
1606.7967530000001
 20
821.08281599999998
 30
0.0
 11
1606.7967530000001
 21
764.95098199999984
 31
0.0
  0
TEXT
  5
29C
  8
SIZE
  6
CONTINUOUS
 62
    30
 10
1876.9286758571429
 20
637.66804500000001
 30
0.0
 40
64.0
  1
10
 41
0.9
 72
     1
 11
1918.071533
 21
637.66804500000001
 31
0.0
  0
LINE
  5
29D
  8
SIZE
  6
CONTINUOUS
 62
    30
 10
2019.7967229999999
 20
617.66804500000001
 30
0.0
 11
1856.928676
 21
617.66804500000001
 31
0.0
  0
TEXT
  5
29E
  8
SIZE
  6
CONTINUOUS
 62
    30
 10
1260.633977
 20
49.999996000000003
 30
0.0
 40
64.0
  1
1333
 41
0.9
 72
     1
 11
1356.633977
 21
49.999996000000003
 31
0.0
  0
TEXT
  5
29F
  8
SIZE
  6
CONTINUOUS
 62
    30
 10
1102.7395631428569
 20
229.727666
 30
0.0
 40
64.0
  1
900
 41
0.9
 72
     1
 11
1176.7967060000001
 21
229.727666
 31
0.0
  0
TEXT
  5
2A0
  8
SIZE
  6
CONTINUOUS
 62
    30
 10
1027.770419142857
 20
514.03467899999976
 30
0.0
 40
64.0
  1
805
 41
0.9
 72
     1
 11
1101.8275619999999
 21
514.03467899999976
 31
0.0
  0
CIRCLE
  5
2A1
  8
SIZE
  6
CONTINUOUS
 62
    30
 10
1136.7967679999999
 20
649.22608899999977
 30
0.0
 40
5.0
  0
POINT
  5
2A2
  8
DEFPOINTS
  6
CONTINUOUS
 62
     7
 10
1136.7967679999999
 20
649.22608899999977
 30
0.0
  0
LINE
  5
2A3
  8
SIZE
  6
CONTINUOUS
 62
    30
 10
1131.7967679999999
 20
649.22608899999977
 30
0.0
 11
1126.7967679999999
 21
649.22608899999977
 31
0.0
  0
LINE
  5
2A4
  8
SIZE
  6
CONTINUOUS
 62
    30
 10
1626.7973629999999
 20
769.64380099999983
 30
0.0
 11
1626.7973629999999
 21
320.071687
 31
0.0
  0
LINE
  5
2A5
  8
SIZE
  6
CONTINUOUS
 62
    30
 10
1606.797364
 20
769.64380099999983
 30
0.0
 11
1606.797364
 21
320.071687
 31
0.0
  0
LINE
  5
2A6
  8
SIZE
  6
CONTINUOUS
 62
    30
 10
1626.797118
 20
769.58867599999985
 30
0.0
 11
1626.797118
 21
179.727666
 31
0.0
  0
LINE
  5
2A7
  8
SIZE
  6
CONTINUOUS
 62
    30
 10
1606.797364
 20
744.95098199999984
 30
0.0
 11
1606.797364
 21
320.071687
 31
0.0
  0
TEXT
  5
2A8
  8
SIZE
  6
CONTINUOUS
 62
    30
 10
1671.2855481428569
 20
374.83359200000001
 30
0.0
 40
64.0
  1
(20)
 41
0.9
 72
     1
 11
1754.942691
 21
374.83359200000001
 31
0.0
  0
LINE
  5
2A9
  8
SIZE
  6
CONTINUOUS
 62
    30
 10
1636.7973629999999
 20
350.071687
 30
0.0
 11
1846.5998340000001
 21
350.071687
 31
0.0
  0
POINT
  5
2AA
  8
DEFPOINTS
  6
CONTINUOUS
 62
     7
 10
1626.797118
 20
209.727666
 30
0.0
  0
LINE
  5
2AB
  8
SIZE
  6
CONTINUOUS
 62
    30
 10
1621.797118
 20
209.727666
 30
0.0
 11
1616.797118
 21
209.727666
 31
0.0
  0
CIRCLE
  5
2AC
  8
SIZE
  6
CONTINUOUS
 62
    30
 10
1626.797118
 20
209.727666
 30
0.0
 40
5.0
  0
POINT
  5
2AD
  8
DEFPOINTS
  6
CONTINUOUS
 62
     7
 10
1626.7973629999999
 20
350.071687
 30
0.0
  0
LINE
  5
2AE
  8
SIZE
  6
CONTINUOUS
 62
    30
 10
1631.7973629999999
 20
350.071687
 30
0.0
 11
1636.7973629999999
 21
350.071687
 31
0.0
  0
CIRCLE
  5
2AF
  8
SIZE
  6
CONTINUOUS
 62
    30
 10
1626.7973629999999
 20
350.071687
 30
0.0
 40
5.0
  0
LINE
  5
2B0
  8
SIZE
  6
CONTINUOUS
 62
    30
 10
1601.797364
 20
350.071687
 30
0.0
 11
1596.797364
 21
350.071687
 31
0.0
  0
CIRCLE
  5
2B1
  8
SIZE
  6
CONTINUOUS
 62
    30
 10
1606.797364
 20
350.071687
 30
0.0
 40
5.0
  0
LINE
  5
2B2
  8
SIZE
  6
CONTINUOUS
 62
    30
 10
1606.797364
 20
350.071687
 30
0.0
 11
1626.7973629999999
 21
350.071687
 31
0.0
  0
LINE
  5
2B3
  8
SIZE
  6
CONTINUOUS
 62
    30
 10
1596.797364
 20
350.071687
 30
0.0
 11
1586.797364
 21
350.071687
 31
0.0
  0
POINT
  5
2B4
  8
DEFPOINTS
  6
CONTINUOUS
 62
     7
 10
1606.797364
 20
350.071687
 30
0.0
  0
LINE
  5
2B5
  8
SIZE
  6
CONTINUOUS
 62
    30
 10
1601.797364
 20
350.071687
 30
0.0
 11
1596.797364
 21
350.071687
 31
0.0
  0
CIRCLE
  5
2B6
  8
SIZE
  6
CONTINUOUS
 62
    30
 10
1606.797364
 20
350.071687
 30
0.0
 40
5.0
  0
POINT
  5
2B7
  8
DEFPOINTS
  6
CONTINUOUS
 62
     7
 10
1511.7961459999999
 20
494.03467899999993
 30
0.0
  0
LINE
  5
2B8
  8
SIZE
  6
CONTINUOUS
 62
    30
 10
1506.7961459999999
 20
494.03467899999993
 30
0.0
 11
1501.7961459999999
 21
494.03467899999993
 31
0.0
  0
CIRCLE
  5
2B9
  8
SIZE
  6
CONTINUOUS
 62
    30
 10
1511.7961459999999
 20
494.03467899999993
 30
0.0
 40
5.0
  0
POINT
  5
2BA
  8
DEFPOINTS
  6
CONTINUOUS
 62
     7
 10
1606.797364
 20
764.95098199999984
 30
0.0
  0
LINE
  5
2BB
  8
SIZE
  6
CONTINUOUS
 62
    30
 10
2034.7967229999999
 20
29.99999600000001
 30
0.0
 11
2029.7967229999999
 21
29.99999600000001
 31
0.0
  0
CIRCLE
  5
2BC
  8
SIZE
  6
CONTINUOUS
 62
    30
 10
2039.7967229999999
 20
29.99999600000001
 30
0.0
 40
5.0
  0
LINE
  5
2BD
  8
NOTE
  6
CONTINUOUS
 62
     4
 10
2287.2324130000002
 20
469.78675299999992
 30
0.0
 11
2664.6859570000001
 21
469.78675299999992
 31
0.0
  0
TEXT
  5
2BE
  8
NOTE
  6
CONTINUOUS
 62
     4
 10
2299.5250179999998
 20
491.65853899999979
 30
0.0
 40
60.0
  1
D  R1-1/4
 50
359.99999700000001
 41
0.7
  7
STANDARD1
  0
CIRCLE
  5
2BF
  8
SIZE
  6
CONTINUOUS
 62
    30
 10
2029.7967229999999
 20
617.66804500000001
 30
0.0
 40
5.0
  0
LINE
  5
2C0
  8
SIZE
  6
CONTINUOUS
 62
    30
 10
2039.7967229999999
 20
617.66804500000001
 30
0.0
 11
2029.7967229999999
 21
617.66804500000001
 31
0.0
  0
POINT
  5
2C1
  8
DEFPOINTS
  6
CONTINUOUS
 62
     7
 10
2029.7967229999999
 20
617.66804500000001
 30
0.0
  0
LINE
  5
2C2
  8
SIZE
  6
CONTINUOUS
 62
    30
 10
2024.7967229999999
 20
617.66804500000001
 30
0.0
 11
2019.7967229999999
 21
617.66804500000001
 31
0.0
  0
LINE
  5
2C3
  8
SIZE
  6
CONTINUOUS
 62
    30
 10
2044.7967230000011
 20
617.66804500000001
 30
0.0
 11
2049.7967229999999
 21
617.66804500000001
 31
0.0
  0
CIRCLE
  5
2C4
  8
SIZE
  6
CONTINUOUS
 62
    30
 10
2039.7967229999999
 20
617.66804500000001
 30
0.0
 40
5.0
  0
LINE
  5
2C5
  8
SIZE
  6
CONTINUOUS
 62
    30
 10
2049.7967229999999
 20
617.66804500000001
 30
0.0
 11
2059.7967229999999
 21
617.66804500000001
 31
0.0
  0
TEXT
  5
2C6
  8
SIZE
  6
CONTINUOUS
 62
    30
 10
2337.95003
 20
636.16010428571428
 30
0.0
 40
64.0
  1
116
 50
90.0
 41
0.9
 72
     1
 11
2337.95003
 21
697.87438999999995
 31
0.0
  0
LINE
  5
2C7
  8
SIZE
  6
CONTINUOUS
 62
    30
 10
1646.797118
 20
789.58867599999985
 30
0.0
 11
2777.2271700000001
 21
789.58867599999985
 31
0.0
  0
LINE
  5
2C8
  8
SIZE
  6
CONTINUOUS
 62
    30
 10
1646.797118
 20
789.58867599999985
 30
0.0
 11
2387.95003
 21
789.58867599999985
 31
0.0
  0
LINE
  5
2C9
  8
NOTE
  6
CONTINUOUS
 62
     4
 10
1511.795779
 20
1389.5889
 30
0.0
 11
1482.7812550000001
 21
1417.123556
 31
0.0
  0
CIRCLE
  5
2CA
  8
DETAIL
  6
CONTINUOUS
 62
     5
 10
1511.795779
 20
1389.5889
 30
0.0
 40
16.999998999999999
  0
LINE
  5
2CB
  8
NOTE
  6
CONTINUOUS
 62
     4
 10
1511.795779
 20
1426.5888990000001
 30
0.0
 11
1511.795779
 21
1352.5889010000001
 31
0.0
  0
LINE
  5
2CC
  8
NOTE
  6
CONTINUOUS
 62
     4
 10
1511.795779
 20
1389.5889
 30
0.0
 11
1472.901136
 21
1398.927349
 31
0.0
  0
LINE
  5
2CD
  8
DETAIL
  6
CONTINUOUS
 62
     5
 10
1136.7967679999999
 20
969.58866999999998
 30
0.0
 11
1136.7967679999999
 21
1209.5886620000001
 31
0.0
  0
POINT
  5
2CE
  8
DEFPOINTS
  6
CONTINUOUS
 62
     7
 10
1136.7967679999999
 20
969.58866999999998
 30
0.0
  0
LINE
  5
2CF
  8
NOTE
  6
CONTINUOUS
 62
     4
 10
1041.7967719999999
 20
1079.5886660000001
 30
0.0
 11
1041.7967719999999
 21
999.58866899999998
 31
0.0
  0
LINE
  5
2D0
  8
NOTE
  6
CONTINUOUS
 62
     4
 10
1041.7967719999999
 20
1179.588663
 30
0.0
 11
1041.7967719999999
 21
1099.5886660000001
 31
0.0
  0
LINE
  5
2D1
  8
OUTLINE
  6
CONTINUOUS
 62
     3
 10
1576.796754
 20
889.58867299999986
 30
0.0
 11
1576.796754
 21
789.58867599999985
 31
0.0
  0
LINE
  5
2D2
  8
DETAIL
  6
CONTINUOUS
 62
     5
 10
1576.796754
 20
789.58867599999985
 30
0.0
 11
1576.796754
 21
889.58867299999986
 31
0.0
  0
POINT
  5
2D3
  8
DEFPOINTS
  6
CONTINUOUS
 62
     7
 10
1626.7973629999999
 20
789.64380099999983
 30
0.0
  0
POINT
  5
2D4
  8
DEFPOINTS
  6
CONTINUOUS
 62
     7
 10
1606.797364
 20
789.64380099999983
 30
0.0
  0
LINE
  5
2D5
  8
NOTE
  6
CONTINUOUS
 62
     4
 10
1589.9967529999999
 20
789.58917699999984
 30
0.0
 11
1623.5967519999999
 21
789.58917699999984
 31
0.0
  0
POINT
  5
2D6
  8
DEFPOINTS
  6
CONTINUOUS
 62
     7
 10
1626.796752
 20
789.58867599999985
 30
0.0
  0
POINT
  5
2D7
  8
DEFPOINTS
  6
CONTINUOUS
 62
     7
 10
1626.797118
 20
789.58867599999985
 30
0.0
  0
POINT
  5
2D8
  8
DEFPOINTS
  6
CONTINUOUS
 62
     7
 10
1626.797118
 20
789.58867599999985
 30
0.0
  0
POINT
  5
2D9
  8
DEFPOINTS
  6
CONTINUOUS
 62
     7
 10
1626.797118
 20
789.58867599999985
 30
0.0
  0
ARC
  5
2DA
  8
DETAIL
  6
CONTINUOUS
 62
     5
 10
1716.7884469999999
 20
1009.588425
 30
0.0
 40
9.9999990000000007
 50
180.000032
 51
0.00001
  0
ARC
  5
2DB
  8
DETAIL
  6
CONTINUOUS
 62
     5
 10
1716.7884469999999
 20
1009.58818
 30
0.0
 40
7.0
 50
180.000032
 51
0.00001
  0
POINT
  5
2DC
  8
DEFPOINTS
  6
CONTINUOUS
 62
     7
 10
1474.796147
 20
1389.5886559999999
 30
0.0
  0
POINT
  5
2DD
  8
DEFPOINTS
  6
CONTINUOUS
 62
     7
 10
1511.7961459999999
 20
1352.588657
 30
0.0
  0
LINE
  5
2DE
  8
NOTE
  6
CONTINUOUS
 62
     4
 10
1548.7957779999999
 20
1389.5889
 30
0.0
 11
1474.7957799999999
 21
1389.5889
 31
0.0
  0
LINE
  5
2DF
  8
SIZE
  6
CONTINUOUS
 62
    30
 10
2059.7967229999999
 20
1083.5891549999999
 30
0.0
 11
2777.2271700000001
 21
1083.5891549999999
 31
0.0
  0
LINE
  5
2E0
  8
SIZE
  6
CONTINUOUS
 62
    30
 10
2059.7967229999999
 20
1083.5891549999999
 30
0.0
 11
2777.2271700000001
 21
1083.5891549999999
 31
0.0
  0
LINE
  5
2E1
  8
SIZE
  6
CONTINUOUS
 62
    30
 10
2055.2967229999999
 20
1153.5889079999999
 30
0.0
 11
2588.3667270000001
 21
1153.5889079999999
 31
0.0
  0
LINE
  5
2E2
  8
SIZE
  6
CONTINUOUS
 62
    30
 10
2055.2967229999999
 20
1153.5889079999999
 30
0.0
 11
2588.3667270000001
 21
1153.5889079999999
 31
0.0
  0
LINE
  5
2E3
  8
SIZE
  6
CONTINUOUS
 62
    30
 10
2059.7967229999999
 20
1083.5891549999999
 30
0.0
 11
2588.3667270000001
 21
1083.5891549999999
 31
0.0
  0
LINE
  5
2E4
  8
SIZE
  6
CONTINUOUS
 62
    30
 10
2065.3215190000001
 20
905.58867200000009
 30
0.0
 11
2387.95003
 21
905.58867200000009
 31
0.0
  0
LINE
  5
2E5
  8
OUTLINE
  6
CONTINUOUS
 62
     3
 10
1977.3964719999999
 20
889.58867299999986
 30
0.0
 11
1977.3964719999999
 21
1035.5891569999999
 31
0.0
  0
LINE
  5
2E6
  8
NOTE
  6
CONTINUOUS
 62
     4
 10
2029.7967229999999
 20
942.58867099999998
 30
0.0
 11
2029.7967229999999
 21
868.58867300000009
 31
0.0
  0
LINE
  5
2E7
  8
DETAIL
  6
CONTINUOUS
 62
     5
 10
1977.3964719999999
 20
1035.5891569999999
 30
0.0
 11
1977.3964719999999
 21
889.58867299999986
 31
0.0
  0
LINE
  5
2E8
  8
NOTE
  6
CONTINUOUS
 62
     4
 10
2029.7967229999999
 20
905.58867200000009
 30
0.0
 11
2039.026895
 21
872.46536300000025
 31
0.0
  0
LINE
  5
2E9
  8
NOTE
  6
CONTINUOUS
 62
     4
 10
2029.7967229999999
 20
905.58867200000009
 30
0.0
 11
2054.3519419999998
 21
881.51813200000004
 31
0.0
  0
LINE
  5
2EA
  8
NOTE
  6
CONTINUOUS
 62
     4
 10
2066.796722
 20
905.58867200000009
 30
0.0
 11
1992.7967239999989
 21
905.58867200000009
 31
0.0
  0
LINE
  5
2EB
  8
NOTE
  6
CONTINUOUS
 62
     4
 10
1977.3964719999999
 20
905.58867200000009
 30
0.0
 11
2045.3215190000001
 21
905.58867200000009
 31
0.0
  0
POINT
  5
2EC
  8
DEFPOINTS
  6
CONTINUOUS
 62
     7
 10
2029.7967229999999
 20
886.40009599999985
 30
0.0
  0
LINE
  5
2ED
  8
DETAIL
  6
CONTINUOUS
 62
     5
 10
1935.096425
 20
889.58867299999986
 30
0.0
 11
1935.096425
 21
884.23857599999985
 31
0.0
  0
LINE
  5
2EE
  8
DETAIL
  6
CONTINUOUS
 62
     5
 10
2005.0964220000001
 20
926.93876899999998
 30
0.0
 11
2029.7967229999999
 21
924.77749300000005
 31
0.0
  0
LINE
  5
2EF
  8
DETAIL
  6
CONTINUOUS
 62
     5
 10
2005.0964220000001
 20
922.92338900000016
 30
0.0
 11
2029.7967229999999
 21
920.76211199999966
 31
0.0
  0
LINE
  5
2F0
  8
DETAIL
  6
CONTINUOUS
 62
     5
 10
2029.7967229999999
 20
924.75126899999998
 30
0.0
 11
2029.7967229999999
 21
886.42631999999981
 31
0.0
  0
LINE
  5
2F1
  8
DETAIL
  6
CONTINUOUS
 62
     5
 10
2005.0964220000001
 20
926.93876899999998
 30
0.0
 11
2005.0964220000001
 21
884.23857599999985
 31
0.0
  0
LINE
  5
2F2
  8
DETAIL
  6
CONTINUOUS
 62
     5
 10
2005.0964220000001
 20
888.25420099999985
 30
0.0
 11
2029.7967229999999
 21
890.4154769999999
 31
0.0
  0
LINE
  5
2F3
  8
DETAIL
  6
CONTINUOUS
 62
     5
 10
2005.0964220000001
 20
884.23882000000003
 30
0.0
 11
2029.7967229999999
 21
886.40009599999985
 31
0.0
  0
LINE
  5
2F4
  8
DETAIL
  6
CONTINUOUS
 62
     5
 10
1977.3964719999999
 20
926.93876899999998
 30
0.0
 11
2005.0964220000001
 21
926.93876899999998
 31
0.0
  0
LINE
  5
2F5
  8
DETAIL
  6
CONTINUOUS
 62
     5
 10
1935.096425
 20
884.23857599999985
 30
0.0
 11
2005.0964220000001
 21
884.23857599999985
 31
0.0
  0
POINT
  5
2F6
  8
DEFPOINTS
  6
CONTINUOUS
 62
     7
 10
2045.3215190000001
 20
905.58867200000009
 30
0.0
  0
LINE
  5
2F7
  8
OUTLINE
  6
CONTINUOUS
 62
     3
 10
2039.7967229999999
 20
1083.5891549999999
 30
0.0
 11
2002.7967229999999
 21
1083.5891549999999
 31
0.0
  0
LINE
  5
2F8
  8
DETAIL
  6
CONTINUOUS
 62
     5
 10
2039.7967229999999
 20
1083.5891549999999
 30
0.0
 11
2002.7967229999999
 21
1083.5891549999999
 31
0.0
  0
LINE
  5
2F9
  8
OUTLINE
  6
CONTINUOUS
 62
     3
 10
1977.3964719999999
 20
1035.5891569999999
 30
0.0
 11
2002.7967229999999
 21
1035.5891569999999
 31
0.0
  0
LINE
  5
2FA
  8
DETAIL
  6
CONTINUOUS
 62
     5
 10
2002.7967229999999
 20
1035.5891569999999
 30
0.0
 11
1957.3963510000001
 21
1035.5891569999999
 31
0.0
  0
POINT
  5
2FB
  8
DEFPOINTS
  6
CONTINUOUS
 62
     7
 10
2039.7967229999999
 20
1083.5891549999999
 30
0.0
  0
POINT
  5
2FC
  8
DEFPOINTS
  6
CONTINUOUS
 62
     7
 10
2039.7967229999999
 20
1083.5891549999999
 30
0.0
  0
POINT
  5
2FD
  8
DEFPOINTS
  6
CONTINUOUS
 62
     7
 10
2039.7967229999999
 20
1083.5891549999999
 30
0.0
  0
POINT
  5
2FE
  8
DEFPOINTS
  6
CONTINUOUS
 62
     7
 10
2039.7967229999999
 20
1083.5891549999999
 30
0.0
  0
POINT
  5
2FF
  8
DEFPOINTS
  6
CONTINUOUS
 62
     7
 10
2039.7967229999999
 20
1083.5891549999999
 30
0.0
  0
POINT
  5
300
  8
DEFPOINTS
  6
CONTINUOUS
 62
     7
 10
2357.95003
 20
905.58867200000009
 30
0.0
  0
LINE
  5
301
  8
SIZE
  6
CONTINUOUS
 62
    30
 10
2357.95003
 20
794.58867599999985
 30
0.0
 11
2357.95003
 21
799.58867599999985
 31
0.0
  0
LINE
  5
302
  8
SIZE
  6
CONTINUOUS
 62
    30
 10
2357.95003
 20
900.58867200000032
 30
0.0
 11
2357.95003
 21
895.58867199999963
 31
0.0
  0
CIRCLE
  5
303
  8
SIZE
  6
CONTINUOUS
 62
    30
 10
2357.95003
 20
905.58867200000009
 30
0.0
 40
5.0
  0
LINE
  5
304
  8
SIZE
  6
CONTINUOUS
 62
    30
 10
2357.95003
 20
895.58867199999963
 30
0.0
 11
2357.95003
 21
799.58867599999985
 31
0.0
  0
LINE
  5
305
  8
NOTE
  6
CONTINUOUS
 62
     4
 10
2010.296724
 20
1153.5889079999999
 30
0.0
 11
2035.2967229999999
 21
1153.5889079999999
 31
0.0
  0
CIRCLE
  5
306
  8
DETAIL
  6
CONTINUOUS
 62
     5
 10
2022.7967229999999
 20
1153.5889079999999
 30
0.0
 40
2.5
  0
LINE
  5
307
  8
NOTE
  6
CONTINUOUS
 62
     4
 10
2022.7967229999999
 20
1166.0889070000001
 30
0.0
 11
2022.7967229999999
 21
1141.0889079999999
 31
0.0
  0
POINT
  5
308
  8
DEFPOINTS
  6
CONTINUOUS
 62
     7
 10
2035.2967229999999
 20
1153.5889079999999
 30
0.0
  0
POINT
  5
309
  8
DEFPOINTS
  6
CONTINUOUS
 62
     7
 10
2035.2967229999999
 20
1153.5889079999999
 30
0.0
  0
LINE
  5
30A
  8
NOTE
  6
CONTINUOUS
 62
     4
 10
2010.296724
 20
1303.5889030000001
 30
0.0
 11
2035.2967229999999
 21
1303.5889030000001
 31
0.0
  0
LINE
  5
30B
  8
NOTE
  6
CONTINUOUS
 62
     4
 10
2022.7967229999999
 20
1316.088902
 30
0.0
 11
2022.7967229999999
 21
1291.0889030000001
 31
0.0
  0
CIRCLE
  5
30C
  8
DETAIL
  6
CONTINUOUS
 62
     5
 10
2022.7967229999999
 20
1303.5889030000001
 30
0.0
 40
2.5
  0
LINE
  5
30D
  8
SIZE
  6
CONTINUOUS
 62
    30
 10
2558.366727000001
 20
1143.5889079999999
 30
0.0
 11
2558.366727000001
 21
1093.5891549999999
 31
0.0
  0
LINE
  5
30E
  8
SIZE
  6
CONTINUOUS
 62
    30
 10
2558.366727000001
 20
1083.5891549999999
 30
0.0
 11
2558.366727000001
 21
940.33201199999996
 31
0.0
  0
TEXT
  5
30F
  8
SIZE
  6
CONTINUOUS
 62
    30
 10
2538.3667270000001
 20
960.33201257142866
 30
0.0
 40
64.0
  1
70
 50
90.0
 41
0.9
 72
     1
 11
2538.3667270000001
 21
1006.960584
 31
0.0
  0
LINE
  5
310
  8
SIZE
  6
CONTINUOUS
 62
    30
 10
2558.366727000001
 20
1088.5891549999999
 30
0.0
 11
2558.366727000001
 21
1093.5891549999999
 31
0.0
  0
CIRCLE
  5
311
  8
SIZE
  6
CONTINUOUS
 62
    30
 10
2558.366727000001
 20
1083.5891549999999
 30
0.0
 40
5.0
  0
TEXT
  5
312
  8
SIZE
  6
CONTINUOUS
 62
    30
 10
2727.2271700000001
 20
861.16034457142848
 30
0.0
 40
64.0
  1
294
 50
90.0
 41
0.9
 72
     1
 11
2727.2271700000001
 21
936.58891600000004
 31
0.0
  0
LINE
  5
313
  8
SIZE
  6
CONTINUOUS
 62
    30
 10
2747.2271700000001
 20
1073.5891549999999
 30
0.0
 11
2747.2271700000001
 21
799.58867599999985
 31
0.0
  0
POINT
  5
314
  8
DEFPOINTS
  6
CONTINUOUS
 62
     7
 10
2747.2271700000001
 20
789.58867599999985
 30
0.0
  0
LINE
  5
315
  8
SIZE
  6
CONTINUOUS
 62
    30
 10
2747.2271700000001
 20
794.58867599999985
 30
0.0
 11
2747.2271700000001
 21
799.58867599999985
 31
0.0
  0
LINE
  5
316
  8
SIZE
  6
CONTINUOUS
 62
    30
 10
2747.2271700000001
 20
1078.5891549999999
 30
0.0
 11
2747.2271700000001
 21
1073.5891549999999
 31
0.0
  0
CIRCLE
  5
317
  8
SIZE
  6
CONTINUOUS
 62
    30
 10
2747.2271700000001
 20
1083.5891549999999
 30
0.0
 40
5.0
  0
POINT
  5
318
  8
DEFPOINTS
  6
CONTINUOUS
 62
     7
 10
2747.2271700000001
 20
1083.5891549999999
 30
0.0
  0
LINE
  5
319
  8
SIZE
  6
CONTINUOUS
 62
    30
 10
2747.2271700000001
 20
1088.5891549999999
 30
0.0
 11
2747.2271700000001
 21
1093.5891549999999
 31
0.0
  0
CIRCLE
  5
31A
  8
SIZE
  6
CONTINUOUS
 62
    30
 10
2747.2271700000001
 20
1083.5891549999999
 30
0.0
 40
5.0
  0
LINE
  5
31B
  8
SIZE
  6
CONTINUOUS
 62
    30
 10
2558.366727000001
 20
1158.5889079999999
 30
0.0
 11
2558.366727000001
 21
1163.5889079999999
 31
0.0
  0
CIRCLE
  5
31C
  8
SIZE
  6
CONTINUOUS
 62
    30
 10
2558.366727000001
 20
1153.5889079999999
 30
0.0
 40
5.0
  0
POINT
  5
31D
  8
DEFPOINTS
  6
CONTINUOUS
 62
     7
 10
2558.366727000001
 20
1153.5889079999999
 30
0.0
  0
LINE
  5
31E
  8
SIZE
  6
CONTINUOUS
 62
    30
 10
2558.366727000001
 20
1148.5889079999999
 30
0.0
 11
2558.366727000001
 21
1143.5889079999999
 31
0.0
  0
CIRCLE
  5
31F
  8
SIZE
  6
CONTINUOUS
 62
    30
 10
2558.366727000001
 20
1153.5889079999999
 30
0.0
 40
5.0
  0
LINE
  5
320
  8
NOTE
  6
CONTINUOUS
 62
     4
 10
2010.296724
 20
1453.588898
 30
0.0
 11
2035.2967229999999
 21
1453.588898
 31
0.0
  0
LINE
  5
321
  8
NOTE
  6
CONTINUOUS
 62
     4
 10
2022.7967229999999
 20
1466.0888970000001
 30
0.0
 11
2022.7967229999999
 21
1441.088898
 31
0.0
  0
CIRCLE
  5
322
  8
DETAIL
  6
CONTINUOUS
 62
     5
 10
2022.7967229999999
 20
1453.588898
 30
0.0
 40
2.5
  0
LINE
  5
323
  8
NOTE
  6
CONTINUOUS
 62
     4
 10
2010.296724
 20
1603.5888930000001
 30
0.0
 11
2035.2967229999999
 21
1603.5888930000001
 31
0.0
  0
LINE
  5
324
  8
NOTE
  6
CONTINUOUS
 62
     4
 10
2022.7967229999999
 20
1616.088892
 30
0.0
 11
2022.7967229999999
 21
1591.0888930000001
 31
0.0
  0
CIRCLE
  5
325
  8
DETAIL
  6
CONTINUOUS
 62
     5
 10
2022.7967229999999
 20
1603.5888930000001
 30
0.0
 40
2.5
  0
LINE
  5
326
  8
NOTE
  6
CONTINUOUS
 62
     4
 10
2010.296724
 20
1753.588888
 30
0.0
 11
2035.2967229999999
 21
1753.588888
 31
0.0
  0
LINE
  5
327
  8
NOTE
  6
CONTINUOUS
 62
     4
 10
2022.7967229999999
 20
1766.0888870000001
 30
0.0
 11
2022.7967229999999
 21
1741.088888
 31
0.0
  0
CIRCLE
  5
328
  8
DETAIL
  6
CONTINUOUS
 62
     5
 10
2022.7967229999999
 20
1753.588888
 30
0.0
 40
2.5
  0
LINE
  5
329
  8
NOTE
  6
CONTINUOUS
 62
     4
 10
2010.296724
 20
1903.5888829999999
 30
0.0
 11
2035.2967229999999
 21
1903.5888829999999
 31
0.0
  0
LINE
  5
32A
  8
NOTE
  6
CONTINUOUS
 62
     4
 10
2022.7967229999999
 20
1916.088882
 30
0.0
 11
2022.7967229999999
 21
1891.0888829999999
 31
0.0
  0
CIRCLE
  5
32B
  8
DETAIL
  6
CONTINUOUS
 62
     5
 10
2022.7967229999999
 20
1903.5888829999999
 30
0.0
 40
2.5
  0
TEXT
  5
32C
  8
SIZE
  6
CONTINUOUS
 62
    30
 10
2727.2271700000001
 20
1732.589007999999
 30
0.0
 40
64.0
  1
1490
 50
90.0
 41
0.9
 72
     1
 11
2727.2271700000001
 21
1828.589007999999
 31
0.0
  0
LINE
  5
32D
  8
OUTLINE
  6
CONTINUOUS
 62
     3
 10
706.796783
 20
2641.5886759999999
 30
0.0
 11
2002.7967229999999
 21
2641.5886759999999
 31
0.0
  0
TEXT
  5
32E
  8
ETC
  6
CONTINUOUS
 62
    61
 10
476.08666399999993
 20
2840.8957959999998
 30
0.0
 40
80.0
  1
PFAV-P1120CM-E-L_4
 50
359.99999700000001
 41
0.8
  0
LINE
  5
32F
  8
DETAIL
  6
CONTINUOUS
 62
     5
 10
2002.7967229999999
 20
2641.5886759999999
 30
0.0
 11
706.796783
 21
2641.5886759999999
 31
0.0
  0
ARC
  5
330
  8
DETAIL
  6
CONTINUOUS
 62
     5
 10
1716.7884469999999
 20
2578.5854420000001
 30
0.0
 40
10.0
 50
0.000003
 51
179.99999099999999
  0
ARC
  5
331
  8
DETAIL
  6
CONTINUOUS
 62
     5
 10
1716.7884469999999
 20
2578.5854420000001
 30
0.0
 40
7.0
 50
0.000003
 51
180.000032
  0
LINE
  5
332
  8
OUTLINE
  6
CONTINUOUS
 62
     3
 10
2002.7967229999999
 20
2641.5886759999999
 30
0.0
 11
2002.7967229999999
 21
2573.5888599999998
 31
0.0
  0
LINE
  5
333
  8
SIZE
  6
CONTINUOUS
 62
    30
 10
2558.366727000001
 20
2573.5888599999998
 30
0.0
 11
2558.366727000001
 21
2828.6008320000001
 31
0.0
  0
LINE
  5
334
  8
NOTE
  6
CONTINUOUS
 62
     4
 10
2342.362725
 20
2860.4355949999999
 30
0.0
 11
2022.7967229999999
 21
2503.5888629999999
 31
0.0
  0
LINE
  5
335
  8
SIZE
  6
CONTINUOUS
 62
    30
 10
2022.7967229999999
 20
2536.0888620000001
 30
0.0
 11
2022.7967229999999
 21
2766.050436
 31
0.0
  0
LINE
  5
336
  8
SIZE
  6
CONTINUOUS
 62
    30
 10
2039.7967229999999
 20
2593.5888599999998
 30
0.0
 11
2039.7967229999999
 21
2766.050436
 31
0.0
  0
LINE
  5
337
  8
SIZE
  6
CONTINUOUS
 62
    30
 10
2039.7967229999999
 20
2593.5888599999998
 30
0.0
 11
2039.7967229999999
 21
2922.6686709999999
 31
0.0
  0
LINE
  5
338
  8
SIZE
  6
CONTINUOUS
 62
    30
 10
2058.2515250000001
 20
2573.5888599999998
 30
0.0
 11
2588.3667270000001
 21
2573.5888599999998
 31
0.0
  0
LINE
  5
339
  8
SIZE
  6
CONTINUOUS
 62
    30
 10
2041.2515249999999
 20
2503.5888629999999
 30
0.0
 11
2588.3667270000001
 21
2503.5888629999999
 31
0.0
  0
LINE
  5
33A
  8
SIZE
  6
CONTINUOUS
 62
    30
 10
2059.7967229999999
 20
2573.5888599999998
 30
0.0
 11
2777.2271700000001
 21
2573.5888599999998
 31
0.0
  0
LINE
  5
33B
  8
SIZE
  6
CONTINUOUS
 62
    30
 10
2055.2967229999999
 20
2503.5888629999999
 30
0.0
 11
2588.3667270000001
 21
2503.5888629999999
 31
0.0
  0
LINE
  5
33C
  8
NOTE
  6
CONTINUOUS
 62
     4
 10
2010.296724
 20
2053.588878
 30
0.0
 11
2035.2967229999999
 21
2053.588878
 31
0.0
  0
LINE
  5
33D
  8
NOTE
  6
CONTINUOUS
 62
     4
 10
2022.7967229999999
 20
2066.0888770000001
 30
0.0
 11
2022.7967229999999
 21
2041.088878
 31
0.0
  0
CIRCLE
  5
33E
  8
DETAIL
  6
CONTINUOUS
 62
     5
 10
2022.7967229999999
 20
2053.588878
 30
0.0
 40
2.5
  0
LINE
  5
33F
  8
NOTE
  6
CONTINUOUS
 62
     4
 10
2010.296724
 20
2203.5888730000011
 30
0.0
 11
2035.2967229999999
 21
2203.5888730000011
 31
0.0
  0
LINE
  5
340
  8
NOTE
  6
CONTINUOUS
 62
     4
 10
2022.7967229999999
 20
2216.0888719999998
 30
0.0
 11
2022.7967229999999
 21
2191.0888730000001
 31
0.0
  0
CIRCLE
  5
341
  8
DETAIL
  6
CONTINUOUS
 62
     5
 10
2022.7967229999999
 20
2203.5888730000011
 30
0.0
 40
2.5
  0
LINE
  5
342
  8
NOTE
  6
CONTINUOUS
 62
     4
 10
2010.296724
 20
2353.5888679999998
 30
0.0
 11
2035.2967229999999
 21
2353.5888679999998
 31
0.0
  0
LINE
  5
343
  8
NOTE
  6
CONTINUOUS
 62
     4
 10
2022.7967229999999
 20
2366.0888670000008
 30
0.0
 11
2022.7967229999999
 21
2341.0888679999998
 31
0.0
  0
CIRCLE
  5
344
  8
DETAIL
  6
CONTINUOUS
 62
     5
 10
2022.7967229999999
 20
2353.5888679999998
 30
0.0
 40
2.5
  0
LINE
  5
345
  8
OUTLINE
  6
CONTINUOUS
 62
     3
 10
2002.7967229999999
 20
2573.5888599999998
 30
0.0
 11
2039.7967229999999
 21
2573.5888599999998
 31
0.0
  0
LINE
  5
346
  8
NOTE
  6
CONTINUOUS
 62
     4
 10
2022.7967229999999
 20
2503.5888629999999
 30
0.0
 11
2040.860056
 21
2539.2780200000011
 31
0.0
  0
LINE
  5
347
  8
NOTE
  6
CONTINUOUS
 62
     4
 10
2022.7967229999999
 20
2503.5888629999999
 30
0.0
 11
2056.2846070000001
 21
2525.4649119999999
 31
0.0
  0
LINE
  5
348
  8
DETAIL
  6
CONTINUOUS
 62
     5
 10
2039.7967229999999
 20
2573.5888599999998
 30
0.0
 11
2002.7967229999999
 21
2573.5888599999998
 31
0.0
  0
LINE
  5
349
  8
NOTE
  6
CONTINUOUS
 62
     4
 10
2010.296724
 20
2503.5888629999999
 30
0.0
 11
2035.2967229999999
 21
2503.5888629999999
 31
0.0
  0
POINT
  5
34A
  8
DEFPOINTS
  6
CONTINUOUS
 62
     7
 10
2021.2515249999999
 20
2503.5888629999999
 30
0.0
  0
POINT
  5
34B
  8
DEFPOINTS
  6
CONTINUOUS
 62
     7
 10
2022.7967229999999
 20
2516.0888620000001
 30
0.0
  0
LINE
  5
34C
  8
NOTE
  6
CONTINUOUS
 62
     4
 10
2022.7967229999999
 20
2516.0888620000001
 30
0.0
 11
2022.7967229999999
 21
2491.0888629999999
 31
0.0
  0
CIRCLE
  5
34D
  8
DETAIL
  6
CONTINUOUS
 62
     5
 10
2022.7967229999999
 20
2503.5888629999999
 30
0.0
 40
2.5
  0
POINT
  5
34E
  8
DEFPOINTS
  6
CONTINUOUS
 62
     7
 10
2038.2515249999999
 20
2573.5888599999998
 30
0.0
  0
POINT
  5
34F
  8
DEFPOINTS
  6
CONTINUOUS
 62
     7
 10
2039.7967229999999
 20
2573.5888599999998
 30
0.0
  0
POINT
  5
350
  8
DEFPOINTS
  6
CONTINUOUS
 62
     7
 10
2035.2967229999999
 20
2503.5888629999999
 30
0.0
  0
POINT
  5
351
  8
DEFPOINTS
  6
CONTINUOUS
 62
     7
 10
2039.7967229999999
 20
2573.5888599999998
 30
0.0
  0
POINT
  5
352
  8
DEFPOINTS
  6
CONTINUOUS
 62
     7
 10
2039.7967229999999
 20
2573.5888599999998
 30
0.0
  0
POINT
  5
353
  8
DEFPOINTS
  6
CONTINUOUS
 62
     7
 10
2558.366727000001
 20
2573.5888599999998
 30
0.0
  0
LINE
  5
354
  8
SIZE
  6
CONTINUOUS
 62
    30
 10
2558.366727000001
 20
2568.5888599999998
 30
0.0
 11
2558.366727000001
 21
2563.5888600000012
 31
0.0
  0
CIRCLE
  5
355
  8
SIZE
  6
CONTINUOUS
 62
    30
 10
2558.366727000001
 20
2573.5888599999998
 30
0.0
 40
5.0
  0
LINE
  5
356
  8
SIZE
  6
CONTINUOUS
 62
    30
 10
2558.366727000001
 20
2508.5888629999999
 30
0.0
 11
2558.366727000001
 21
2513.5888629999999
 31
0.0
  0
CIRCLE
  5
357
  8
SIZE
  6
CONTINUOUS
 62
    30
 10
2558.366727000001
 20
2503.5888629999999
 30
0.0
 40
5.0
  0
LINE
  5
358
  8
SIZE
  6
CONTINUOUS
 62
    30
 10
2558.366727000001
 20
2513.5888629999999
 30
0.0
 11
2558.366727000001
 21
2563.5888600000012
 31
0.0
  0
POINT
  5
359
  8
DEFPOINTS
  6
CONTINUOUS
 62
     7
 10
2558.366727000001
 20
2503.5888629999999
 30
0.0
  0
LINE
  5
35A
  8
SIZE
  6
CONTINUOUS
 62
    30
 10
2558.366727000001
 20
2498.5888629999999
 30
0.0
 11
2558.366727000001
 21
2493.5888629999999
 31
0.0
  0
CIRCLE
  5
35B
  8
SIZE
  6
CONTINUOUS
 62
    30
 10
2558.366727000001
 20
2503.5888629999999
 30
0.0
 40
5.0
  0
LINE
  5
35C
  8
SIZE
  6
CONTINUOUS
 62
    30
 10
2747.2271700000001
 20
2568.5888599999998
 30
0.0
 11
2747.2271700000001
 21
2563.5888600000012
 31
0.0
  0
CIRCLE
  5
35D
  8
SIZE
  6
CONTINUOUS
 62
    30
 10
2747.2271700000001
 20
2573.5888599999998
 30
0.0
 40
5.0
  0
LINE
  5
35E
  8
NOTE
  6
CONTINUOUS
 62
     4
 10
2694.2466670000008
 20
2860.4355949999999
 30
0.0
 11
2342.362725
 21
2860.4355949999999
 31
0.0
  0
TEXT
  5
35F
  8
SIZE
  6
CONTINUOUS
 62
    30
 10
2079.7967235714282
 20
2912.6686709999999
 30
0.0
 40
64.0
  1
37
 41
0.9
 72
     1
 11
2126.425295
 21
2912.6686709999999
 31
0.0
  0
TEXT
  5
360
  8
SIZE
  6
CONTINUOUS
 62
    30
 10
2079.7967228571429
 20
2756.050436
 30
0.0
 40
64.0
  1
17
 41
0.9
 72
     1
 11
2120.9395800000002
 21
2756.050436
 31
0.0
  0
LINE
  5
361
  8
SIZE
  6
CONTINUOUS
 62
    30
 10
2049.7967229999999
 20
2736.050436
 30
0.0
 11
2182.082437
 21
2736.050436
 31
0.0
  0
LINE
  5
362
  8
SIZE
  6
CONTINUOUS
 62
    30
 10
2049.7967229999999
 20
2892.6686709999999
 30
0.0
 11
2193.0538660000002
 21
2892.6686709999999
 31
0.0
  0
LINE
  5
363
  8
SIZE
  6
CONTINUOUS
 62
    30
 10
2002.7967229999999
 20
2659.5888580000001
 30
0.0
 11
2002.7967229999999
 21
2922.6686709999999
 31
0.0
  0
LINE
  5
364
  8
SIZE
  6
CONTINUOUS
 62
    30
 10
2022.7967229999999
 20
2736.050436
 30
0.0
 11
2039.7967229999999
 21
2736.050436
 31
0.0
  0
POINT
  5
365
  8
DEFPOINTS
  6
CONTINUOUS
 62
     7
 10
2002.7967229999999
 20
2641.5886759999999
 30
0.0
  0
POINT
  5
366
  8
DEFPOINTS
  6
CONTINUOUS
 62
     7
 10
2022.7967229999999
 20
2736.050436
 30
0.0
  0
LINE
  5
367
  8
SIZE
  6
CONTINUOUS
 62
    30
 10
2017.7967229999999
 20
2736.050436
 30
0.0
 11
2012.7967230000011
 21
2736.050436
 31
0.0
  0
CIRCLE
  5
368
  8
SIZE
  6
CONTINUOUS
 62
    30
 10
2022.7967229999999
 20
2736.050436
 30
0.0
 40
5.0
  0
LINE
  5
369
  8
SIZE
  6
CONTINUOUS
 62
    30
 10
2012.7967230000011
 20
2736.050436
 30
0.0
 11
2002.7967229999999
 21
2736.050436
 31
0.0
  0
POINT
  5
36A
  8
DEFPOINTS
  6
CONTINUOUS
 62
     7
 10
2002.7967229999999
 20
2639.5888580000001
 30
0.0
  0
LINE
  5
36B
  8
SIZE
  6
CONTINUOUS
 62
    30
 10
2044.7967230000011
 20
2736.050436
 30
0.0
 11
2049.7967229999999
 21
2736.050436
 31
0.0
  0
CIRCLE
  5
36C
  8
SIZE
  6
CONTINUOUS
 62
    30
 10
2039.7967229999999
 20
2736.050436
 30
0.0
 40
5.0
  0
LINE
  5
36D
  8
SIZE
  6
CONTINUOUS
 62
    30
 10
2002.7967229999999
 20
2892.6686709999999
 30
0.0
 11
2039.7967229999999
 21
2892.6686709999999
 31
0.0
  0
LINE
  5
36E
  8
SIZE
  6
CONTINUOUS
 62
    30
 10
1997.7967229999999
 20
2892.6686709999999
 30
0.0
 11
1992.7967229999999
 21
2892.6686709999999
 31
0.0
  0
CIRCLE
  5
36F
  8
SIZE
  6
CONTINUOUS
 62
    30
 10
2002.7967229999999
 20
2892.6686709999999
 30
0.0
 40
5.0
  0
LINE
  5
370
  8
SIZE
  6
CONTINUOUS
 62
    30
 10
1992.7967229999999
 20
2892.6686709999999
 30
0.0
 11
1982.7967229999999
 21
2892.6686709999999
 31
0.0
  0
POINT
  5
371
  8
DEFPOINTS
  6
CONTINUOUS
 62
     7
 10
2039.7967229999999
 20
2892.6686709999999
 30
0.0
  0
LINE
  5
372
  8
SIZE
  6
CONTINUOUS
 62
    30
 10
2044.7967230000011
 20
2892.6686709999999
 30
0.0
 11
2049.7967229999999
 21
2892.6686709999999
 31
0.0
  0
CIRCLE
  5
373
  8
SIZE
  6
CONTINUOUS
 62
    30
 10
2039.7967229999999
 20
2892.6686709999999
 30
0.0
 40
5.0
  0
TEXT
  5
374
  8
NOTE
  6
CONTINUOUS
 62
     4
 10
2396.1100240000001
 20
2871.8801790000011
 30
0.0
 40
60.0
  1
40-%%C4.6
 50
0.000003
 41
0.7
  7
STANDARD1
  0
TEXT
  5
375
  8
SIZE
  6
CONTINUOUS
 62
    30
 10
2533.604823000001
 20
2653.2865461428578
 30
0.0
 40
64.0
  1
(70)
 50
90.0
 41
0.9
 72
     1
 11
2533.604823000001
 21
2736.9436890000002
 31
0.0
  0
LINE
  5
376
  8
SIZE
  6
CONTINUOUS
 62
    30
 10
2938.3309359999998
 20
2631.5886760000012
 30
0.0
 11
2938.3309359999998
 21
799.58867599999985
 31
0.0
  0
CIRCLE
  5
377
  8
SIZE
  6
CONTINUOUS
 62
    30
 10
2938.3309359999998
 20
789.58867599999985
 30
0.0
 40
5.0
  0
POINT
  5
378
  8
DEFPOINTS
  6
CONTINUOUS
 62
     7
 10
2938.3309359999998
 20
789.58867599999985
 30
0.0
  0
LINE
  5
379
  8
SIZE
  6
CONTINUOUS
 62
    30
 10
2938.3309359999998
 20
794.58867599999985
 30
0.0
 11
2938.3309359999998
 21
799.58867599999985
 31
0.0
  0
TEXT
  5
37A
  8
SIZE
  6
CONTINUOUS
 62
    30
 10
2918.3309359999998
 20
1619.5886760000001
 30
0.0
 40
64.0
  1
1852
 50
90.0
 41
0.9
 72
     1
 11
2918.3309359999998
 21
1715.5886760000001
 31
0.0
  0
LINE
  5
37B
  8
SIZE
  6
CONTINUOUS
 62
    30
 10
2938.3309359999998
 20
2636.5886760000012
 30
0.0
 11
2938.3309359999998
 21
2631.5886760000012
 31
0.0
  0
CIRCLE
  5
37C
  8
SIZE
  6
CONTINUOUS
 62
    30
 10
2938.3309359999998
 20
2641.5886759999999
 30
0.0
 40
5.0
  0
ENDBLK
  5
37E
  8
0
 62
     7
  0
ENDSEC
  0
SECTION
  2
ENTITIES
  0
LINE
  5
380
  8
SIZE
  6
CONTINUOUS
 62
    30
 10
-392.99997100000002
 20
0.0
 30
0.0
 11
1294.1981301067219
 21
0.0
 31
0.0
  0
LINE
  5
381
  8
SIZE
  6
CONTINUOUS
 62
    30
 10
-17.0
 20
1852.0
 30
0.0
 11
1294.1981301067219
 21
1852.0
 31
0.0
  0
LINE
  5
383
  8
OUTLINE
  6
CONTINUOUS
 62
     3
 10
-1333.0
 20
1852.0
 30
0.0
 11
-1333.0
 21
99.999996999999993
 31
0.0
  0
LINE
  5
384
  8
OUTLINE
  6
CONTINUOUS
 62
     3
 10
-37.0
 20
1852.0
 30
0.0
 11
-37.0
 21
246.0
 31
0.0
  0
LINE
  5
386
  8
SIZE
  6
CONTINUOUS
 62
    30
 10
1073.094364106722
 20
1774.000184
 30
0.0
 11
1073.094364106722
 21
304.00047899999998
 31
0.0
  0
TEXT
  5
387
  8
SIZE
  6
CONTINUOUS
 62
    30
 10
864.2339211067216
 20
662.13163757142866
 30
0.0
 40
64.0
  1
ピッチ150\U+00D79＝1350
 50
90.0
 41
0.9
 72
     1
 11
864.2339211067216
 21
1039.000209
 31
0.0
  0
LINE
  5
388
  8
SIZE
  6
CONTINUOUS
 62
    30
 10
884.23392110672171
 20
374.00023199999998
 30
0.0
 11
884.23392110672171
 21
1704.0001870000001
 31
0.0
  0
LINE
  5
389
  8
DETAIL
  6
CONTINUOUS
 62
     5
 10
-37.0
 20
1852.0
 30
0.0
 11
-37.0
 21
246.0
 31
0.0
  0
LINE
  5
38A
  8
DETAIL
  6
CONTINUOUS
 62
     5
 10
-82.4002499999999
 20
246.00048100000001
 30
0.0
 11
-82.4002499999999
 21
1852.0
 31
0.0
  0
LINE
  5
38B
  8
DETAIL
  6
CONTINUOUS
 62
     5
 10
0.0
 20
294.00047899999998
 30
0.0
 11
0.0
 21
1784.000184
 31
0.0
  0
LINE
  5
38C
  8
DETAIL
  6
CONTINUOUS
 62
     5
 10
-562.99996599999997
 20
1852.0
 30
0.0
 11
-562.99996599999997
 21
99.999996999999993
 31
0.0
  0
LINE
  5
38D
  8
DETAIL
  6
CONTINUOUS
 62
     5
 10
-333.00827600000002
 20
219.999504
 30
0.0
 11
-333.00827600000002
 21
1788.996766
 31
0.0
  0
LINE
  5
38E
  8
DETAIL
  6
CONTINUOUS
 62
     5
 10
-313.00827600000002
 20
219.999504
 30
0.0
 11
-313.00827600000002
 21
1788.996766
 31
0.0
  0
LINE
  5
38F
  8
DETAIL
  6
CONTINUOUS
 62
     5
 10
-316.00827600000002
 20
219.999504
 30
0.0
 11
-316.00827600000002
 21
1788.996766
 31
0.0
  0
LINE
  5
390
  8
DETAIL
  6
CONTINUOUS
 62
     5
 10
-330.00827600000002
 20
219.999504
 30
0.0
 11
-330.00827600000002
 21
1788.996766
 31
0.0
  0
LINE
  5
391
  8
DETAIL
  6
CONTINUOUS
 62
     5
 10
-1333.0
 20
1852.0
 30
0.0
 11
-1333.0
 21
99.999996999999993
 31
0.0
  0
LINE
  5
392
  8
OUTLINE
  6
CONTINUOUS
 62
     3
 10
-413.0
 20
0.0
 30
0.0
 11
-1313.0
 21
0.0
 31
0.0
  0
LINE
  5
393
  8
OUTLINE
  6
CONTINUOUS
 62
     3
 10
-62.399999999999999
 20
99.999996999999993
 30
0.0
 11
-1333.0
 21
99.999996999999993
 31
0.0
  0
LINE
  5
39E
  8
SIZE
  6
CONTINUOUS
 62
    30
 10
-1303.0004289999999
 20
-176.47390302535061
 30
0.0
 11
-422.99960499999992
 21
-176.47390302535061
 31
0.0
  0
LINE
  5
3A3
  8
DETAIL
  6
CONTINUOUS
 62
     5
 10
-902.99995499999989
 20
419.99998599999998
 30
0.0
 11
-1082.999949
 21
419.99998599999998
 31
0.0
  0
CIRCLE
  5
3A4
  8
DETAIL
  6
CONTINUOUS
 62
     5
 10
-997.99995100000001
 20
349.99998799999997
 30
0.0
 40
19.999998999999999
  0
CIRCLE
  5
3A5
  8
DETAIL
  6
CONTINUOUS
 62
     5
 10
-997.99995100000001
 20
249.99999199999999
 30
0.0
 40
19.999998999999999
  0
LINE
  5
3A6
  8
DETAIL
  6
CONTINUOUS
 62
     5
 10
-1082.999949
 20
179.99999399999999
 30
0.0
 11
-902.99995499999989
 21
179.99999399999999
 31
0.0
  0
LINE
  5
3A9
  8
DETAIL
  6
CONTINUOUS
 62
     5
 10
-413.0
 20
0.0
 30
0.0
 11
-1313.0
 21
0.0
 31
0.0
  0
LINE
  5
3AA
  8
DETAIL
  6
CONTINUOUS
 62
     5
 10
-62.399999999999999
 20
99.999996999999993
 30
0.0
 11
-1333.0
 21
99.999996999999993
 31
0.0
  0
CIRCLE
  5
3AE
  8
FIX
  6
CONTINUOUS
 62
    11
 10
-1293.0009190000001
 20
0.0
 30
0.0
 40
12.117421999999999
  0
LINE
  5
3AF
  8
NOTE
  6
CONTINUOUS
 62
     4
 10
-1293.0009190000001
 20
16.800000000000001
 30
0.0
 11
-1293.0009190000001
 21
-16.800000000000001
 31
0.0
  0
LINE
  5
3B5
  8
SIZE
  6
CONTINUOUS
 62
    30
 10
-1333.0004280000001
 20
79.999996999999979
 30
0.0
 11
-1333.0004280000001
 21
-206.47390302535081
 31
0.0
  0
TEXT
  5
3BC
  8
SIZE
  6
CONTINUOUS
 62
    30
 10
-1466.2575714285711
 20
-156.47390302535069
 30
0.0
 40
64.0
  1
20
 41
0.9
 72
     1
 11
-1419.6289999999999
 21
-156.47390302535069
 31
0.0
  0
LINE
  5
3BD
  8
SIZE
  6
CONTINUOUS
 62
    30
 10
-1343.0004280000001
 20
-176.47390302535061
 30
0.0
 11
-1486.2575710000001
 21
-176.47390302535061
 31
0.0
  0
LINE
  5
3C2
  8
SIZE
  6
CONTINUOUS
 62
    30
 10
-1313.0004289999999
 20
-20.0
 30
0.0
 11
-1313.0004289999999
 21
-206.47390302535081
 31
0.0
  0
LINE
  5
3C3
  8
SIZE
  6
CONTINUOUS
 62
    30
 10
-1313.0004289999999
 20
-20.0
 30
0.0
 11
-1313.0004289999999
 21
-206.47390302535081
 31
0.0
  0
LINE
  5
3C7
  8
SIZE
  6
CONTINUOUS
 62
    30
 10
-1308.0004289999999
 20
-176.47390302535061
 30
0.0
 11
-1303.0004289999999
 21
-176.47390302535061
 31
0.0
  0
CIRCLE
  5
3C8
  8
SIZE
  6
CONTINUOUS
 62
    30
 10
-1313.0004289999999
 20
-176.47390302535061
 30
0.0
 40
5.0
  0
POINT
  5
3C9
  8
DEFPOINTS
  6
CONTINUOUS
 62
     7
 10
-1313.0004289999999
 20
-176.47390302535061
 30
0.0
  0
LINE
  5
3CA
  8
SIZE
  6
CONTINUOUS
 62
    30
 10
-1338.0004280000001
 20
-176.47390302535061
 30
0.0
 11
-1343.0004280000001
 21
-176.47390302535061
 31
0.0
  0
CIRCLE
  5
3CB
  8
SIZE
  6
CONTINUOUS
 62
    30
 10
-1333.0004280000001
 20
-176.47390302535061
 30
0.0
 40
5.0
  0
LINE
  5
3CC
  8
SIZE
  6
CONTINUOUS
 62
    30
 10
-1308.0004289999999
 20
-176.47390302535061
 30
0.0
 11
-1303.0004289999999
 21
-176.47390302535061
 31
0.0
  0
CIRCLE
  5
3CD
  8
SIZE
  6
CONTINUOUS
 62
    30
 10
-1313.0004289999999
 20
-176.47390302535061
 30
0.0
 40
5.0
  0
LINE
  5
3CE
  8
SIZE
  6
CONTINUOUS
 62
    30
 10
-1313.0004289999999
 20
-176.47390302535061
 30
0.0
 11
-1333.0004280000001
 21
-176.47390302535061
 31
0.0
  0
LINE
  5
3CF
  8
SIZE
  6
CONTINUOUS
 62
    30
 10
-1303.0004289999999
 20
-176.47390302535061
 30
0.0
 11
-1293.0004289999999
 21
-176.47390302535061
 31
0.0
  0
LINE
  5
404
  8
DETAIL
  6
CONTINUOUS
 62
     5
 10
-1082.999949
 20
419.99998599999998
 30
0.0
 11
-1082.999949
 21
179.99999399999999
 31
0.0
  0
LINE
  5
405
  8
OUTLINE
  6
CONTINUOUS
 62
     3
 10
-1263.00092
 20
0.0
 30
0.0
 11
-1263.00092
 21
99.999996999999993
 31
0.0
  0
LINE
  5
406
  8
NOTE
  6
CONTINUOUS
 62
     4
 10
-1309.8009179999999
 20
0.0
 30
0.0
 11
-1276.2009190000001
 21
0.0
 31
0.0
  0
POINT
  5
407
  8
DEFPOINTS
  6
CONTINUOUS
 62
     7
 10
-1333.0009170000001
 20
99.999996999999993
 30
0.0
  0
POINT
  5
408
  8
DEFPOINTS
  6
CONTINUOUS
 62
     7
 10
-1312.999397
 20
0.000011
 30
0.0
  0
POINT
  5
409
  8
DEFPOINTS
  6
CONTINUOUS
 62
     7
 10
-1313.0004289999999
 20
0.0
 30
0.0
  0
POINT
  5
40A
  8
DEFPOINTS
  6
CONTINUOUS
 62
     7
 10
-1313.0004289999999
 20
0.0
 30
0.0
  0
POINT
  5
40B
  8
DEFPOINTS
  6
CONTINUOUS
 62
     7
 10
-1313.0004289999999
 20
0.0
 30
0.0
  0
POINT
  5
40C
  8
DEFPOINTS
  6
CONTINUOUS
 62
     7
 10
-1333.0004280000001
 20
99.999996999999993
 30
0.0
  0
POINT
  5
40D
  8
DEFPOINTS
  6
CONTINUOUS
 62
     7
 10
-1313.0004289999999
 20
0.0
 30
0.0
  0
POINT
  5
40E
  8
DEFPOINTS
  6
CONTINUOUS
 62
     7
 10
-1332.9999399999999
 20
99.999996999999993
 30
0.0
  0
POINT
  5
40F
  8
DEFPOINTS
  6
CONTINUOUS
 62
     7
 10
-1333.0004280000001
 20
99.999996999999993
 30
0.0
  0
LINE
  5
410
  8
DETAIL
  6
CONTINUOUS
 62
     5
 10
-1263.00092
 20
99.999996999999993
 30
0.0
 11
-1263.00092
 21
0.0
 31
0.0
  0
CIRCLE
  5
416
  8
ARRANGE
  6
CONTINUOUS
 62
     1
 10
0.0
 20
0.0
 30
0.0
 40
45.0
  0
LINE
  5
417
  8
ARRANGE
  6
CONTINUOUS
 62
     1
 10
-43.919598000000001
 20
43.919598000000001
 30
0.0
 11
43.919598000000001
 21
-43.919598000000001
 31
0.0
  0
LINE
  5
418
  8
ARRANGE
  6
CONTINUOUS
 62
     1
 10
-43.919598000000001
 20
-43.919598000000001
 30
0.0
 11
43.919598000000001
 21
43.919598000000001
 31
0.0
  0
CIRCLE
  5
41A
  8
FIX
  6
CONTINUOUS
 62
    11
 10
-432.99997000000002
 20
0.000501
 30
0.0
 40
12.117421999999999
  0
LINE
  5
41B
  8
NOTE
  6
CONTINUOUS
 62
     4
 10
-432.99997000000002
 20
16.800501000000001
 30
0.0
 11
-432.99997000000002
 21
-16.799498
 31
0.0
  0
CIRCLE
  5
420
  8
SIZE
  6
CONTINUOUS
 62
    30
 10
1073.094364106722
 20
0.0
 30
0.0
 40
5.0
  0
TEXT
  5
428
  8
SIZE
  6
CONTINUOUS
 62
    30
 10
-937.05715985714266
 20
-156.47390302535069
 30
0.0
 40
64.0
  1
900
 41
0.9
 72
     1
 11
-863.00001699999984
 21
-156.47390302535069
 31
0.0
  0
LINE
  5
42F
  8
SIZE
  6
CONTINUOUS
 62
    30
 10
-412.99960499999992
 20
-20.0
 30
0.0
 11
-412.99960499999992
 21
-206.47390302535081
 31
0.0
  0
POINT
  5
433
  8
DEFPOINTS
  6
CONTINUOUS
 62
     7
 10
-412.99960499999992
 20
-176.47390302535061
 30
0.0
  0
LINE
  5
434
  8
SIZE
  6
CONTINUOUS
 62
    30
 10
-417.9996049999998
 20
-176.47390302535061
 30
0.0
 11
-422.99960499999992
 21
-176.47390302535061
 31
0.0
  0
CIRCLE
  5
435
  8
SIZE
  6
CONTINUOUS
 62
    30
 10
-412.99960499999992
 20
-176.47390302535061
 30
0.0
 40
5.0
  0
LINE
  5
446
  8
NOTE
  6
CONTINUOUS
 62
     4
 10
170.95262514319771
 20
583.56713657829005
 30
0.0
 11
548.40616914319742
 21
583.56713657829005
 31
0.0
  0
TEXT
  5
447
  8
NOTE
  6
CONTINUOUS
 62
     4
 10
183.2452301431978
 20
605.43892257828975
 30
0.0
 40
60.0
  1
D  R1-1/4
 50
359.99999700000001
 41
0.7
  7
STANDARD1
  0
LINE
  5
450
  8
SIZE
  6
CONTINUOUS
 62
    30
 10
-392.99960499999997
 20
0.0
 30
0.0
 11
1103.0943641067211
 21
0.0
 31
0.0
  0
CIRCLE
  5
453
  8
DETAIL
  6
CONTINUOUS
 62
     5
 10
-528.00094399999966
 20
600.000224
 30
0.0
 40
16.999998999999999
  0
LINE
  5
456
  8
DETAIL
  6
CONTINUOUS
 62
     5
 10
-902.99995499999989
 20
179.99999399999999
 30
0.0
 11
-902.99995499999989
 21
419.99998599999998
 31
0.0
  0
LINE
  5
45A
  8
OUTLINE
  6
CONTINUOUS
 62
     3
 10
-462.99996900000002
 20
99.999996999999993
 30
0.0
 11
-462.99996900000002
 21
0.0
 31
0.0
  0
LINE
  5
45B
  8
DETAIL
  6
CONTINUOUS
 62
     5
 10
-462.99996900000002
 20
0.0
 30
0.0
 11
-462.99996900000002
 21
99.999996999999993
 31
0.0
  0
POINT
  5
45C
  8
DEFPOINTS
  6
CONTINUOUS
 62
     7
 10
-412.9993599999998
 20
0.055125
 30
0.0
  0
POINT
  5
45D
  8
DEFPOINTS
  6
CONTINUOUS
 62
     7
 10
-432.99935899999991
 20
0.055125
 30
0.0
  0
LINE
  5
45E
  8
NOTE
  6
CONTINUOUS
 62
     4
 10
-449.79996999999997
 20
0.000501
 30
0.0
 11
-416.19997099999989
 21
0.000501
 31
0.0
  0
POINT
  5
45F
  8
DEFPOINTS
  6
CONTINUOUS
 62
     7
 10
-412.99997099999979
 20
0.0
 30
0.0
  0
POINT
  5
460
  8
DEFPOINTS
  6
CONTINUOUS
 62
     7
 10
-412.99960499999992
 20
0.0
 30
0.0
  0
POINT
  5
461
  8
DEFPOINTS
  6
CONTINUOUS
 62
     7
 10
-412.99960499999992
 20
0.0
 30
0.0
  0
POINT
  5
462
  8
DEFPOINTS
  6
CONTINUOUS
 62
     7
 10
-412.99960499999992
 20
0.0
 30
0.0
  0
ARC
  5
463
  8
DETAIL
  6
CONTINUOUS
 62
     5
 10
-323.00827600000002
 20
219.99974900000001
 30
0.0
 40
9.9999990000000007
 50
180.000032
 51
0.00001
  0
ARC
  5
464
  8
DETAIL
  6
CONTINUOUS
 62
     5
 10
-323.00827600000002
 20
219.999504
 30
0.0
 40
7.0
 50
180.000032
 51
0.00001
  0
LINE
  5
468
  8
SIZE
  6
CONTINUOUS
 62
    30
 10
20.0
 20
294.00047899999998
 30
0.0
 11
1103.0943641067211
 21
294.00047899999998
 31
0.0
  0
LINE
  5
469
  8
SIZE
  6
CONTINUOUS
 62
    30
 10
20.0
 20
294.00047899999998
 30
0.0
 11
1103.0943641067211
 21
294.00047899999998
 31
0.0
  0
LINE
  5
46A
  8
SIZE
  6
CONTINUOUS
 62
    30
 10
15.5
 20
364.00023199999998
 30
0.0
 11
914.23392110672182
 21
364.00023199999998
 31
0.0
  0
LINE
  5
46B
  8
SIZE
  6
CONTINUOUS
 62
    30
 10
15.5
 20
364.00023199999998
 30
0.0
 11
914.23392110672182
 21
364.00023199999998
 31
0.0
  0
LINE
  5
46C
  8
SIZE
  6
CONTINUOUS
 62
    30
 10
20.0
 20
294.00047899999998
 30
0.0
 11
914.23392110672182
 21
294.00047899999998
 31
0.0
  0
LINE
  5
46E
  8
OUTLINE
  6
CONTINUOUS
 62
     3
 10
-62.399999999999999
 20
99.999996999999993
 30
0.0
 11
-62.399999999999999
 21
246.00048100000001
 31
0.0
  0
LINE
  5
46F
  8
NOTE
  6
CONTINUOUS
 62
     4
 10
-10.0
 20
152.99999500000001
 30
0.0
 11
-10.0
 21
78.999996999999979
 31
0.0
  0
LINE
  5
470
  8
DETAIL
  6
CONTINUOUS
 62
     5
 10
-62.399999999999999
 20
246.00048100000001
 30
0.0
 11
-62.399999999999999
 21
99.999996999999993
 31
0.0
  0
LINE
  5
473
  8
NOTE
  6
CONTINUOUS
 62
     4
 10
26.99999900000012
 20
115.999996
 30
0.0
 11
-46.999999000000003
 21
115.999996
 31
0.0
  0
LINE
  5
476
  8
DETAIL
  6
CONTINUOUS
 62
     5
 10
-104.700298
 20
99.999996999999993
 30
0.0
 11
-104.700298
 21
94.649900000000002
 31
0.0
  0
LINE
  5
477
  8
DETAIL
  6
CONTINUOUS
 62
     5
 10
-34.700300999999968
 20
137.35009299999999
 30
0.0
 11
-10.0
 21
135.188817
 31
0.0
  0
LINE
  5
478
  8
DETAIL
  6
CONTINUOUS
 62
     5
 10
-34.700300999999968
 20
133.33471299999999
 30
0.0
 11
-10.0
 21
131.17343600000001
 31
0.0
  0
LINE
  5
479
  8
DETAIL
  6
CONTINUOUS
 62
     5
 10
-10.0
 20
135.16259299999999
 30
0.0
 11
-10.0
 21
96.837644000000012
 31
0.0
  0
LINE
  5
47A
  8
DETAIL
  6
CONTINUOUS
 62
     5
 10
-34.700300999999968
 20
137.35009299999999
 30
0.0
 11
-34.700300999999968
 21
94.649900000000002
 31
0.0
  0
LINE
  5
47B
  8
DETAIL
  6
CONTINUOUS
 62
     5
 10
-34.700300999999968
 20
98.665525000000002
 30
0.0
 11
-10.0
 21
100.826801
 31
0.0
  0
LINE
  5
47C
  8
DETAIL
  6
CONTINUOUS
 62
     5
 10
-34.700300999999968
 20
94.650143999999983
 30
0.0
 11
-10.0
 21
96.811420000000012
 31
0.0
  0
LINE
  5
47D
  8
DETAIL
  6
CONTINUOUS
 62
     5
 10
-62.400250999999891
 20
137.35009299999999
 30
0.0
 11
-34.700300999999968
 21
137.35009299999999
 31
0.0
  0
LINE
  5
47E
  8
DETAIL
  6
CONTINUOUS
 62
     5
 10
-104.700298
 20
94.649900000000002
 30
0.0
 11
-34.700300999999968
 21
94.649900000000002
 31
0.0
  0
LINE
  5
481
  8
DETAIL
  6
CONTINUOUS
 62
     5
 10
0.0
 20
294.00047899999998
 30
0.0
 11
-37.0
 21
294.00047899999998
 31
0.0
  0
LINE
  5
482
  8
OUTLINE
  6
CONTINUOUS
 62
     3
 10
-62.400250999999891
 20
246.00048100000001
 30
0.0
 11
-37.0
 21
246.00048100000001
 31
0.0
  0
LINE
  5
483
  8
DETAIL
  6
CONTINUOUS
 62
     5
 10
-37.0
 20
246.00048100000001
 30
0.0
 11
-82.400371999999933
 21
246.00048100000001
 31
0.0
  0
POINT
  5
484
  8
DEFPOINTS
  6
CONTINUOUS
 62
     7
 10
0.0
 20
294.00047899999998
 30
0.0
  0
POINT
  5
485
  8
DEFPOINTS
  6
CONTINUOUS
 62
     7
 10
0.0
 20
294.00047899999998
 30
0.0
  0
POINT
  5
486
  8
DEFPOINTS
  6
CONTINUOUS
 62
     7
 10
0.0
 20
294.00047899999998
 30
0.0
  0
POINT
  5
487
  8
DEFPOINTS
  6
CONTINUOUS
 62
     7
 10
0.0
 20
294.00047899999998
 30
0.0
  0
POINT
  5
488
  8
DEFPOINTS
  6
CONTINUOUS
 62
     7
 10
0.0
 20
294.00047899999998
 30
0.0
  0
LINE
  5
48E
  8
NOTE
  6
CONTINUOUS
 62
     4
 10
-29.499998999999999
 20
364.00023199999998
 30
0.0
 11
-4.5
 21
364.00023199999998
 31
0.0
  0
CIRCLE
  5
48F
  8
DETAIL
  6
CONTINUOUS
 62
     5
 10
-17.0
 20
364.00023199999998
 30
0.0
 40
2.299999999999998
  0
LINE
  5
490
  8
NOTE
  6
CONTINUOUS
 62
     4
 10
-17.0
 20
376.50023099999999
 30
0.0
 11
-17.0
 21
351.50023199999998
 31
0.0
  0
POINT
  5
491
  8
DEFPOINTS
  6
CONTINUOUS
 62
     7
 10
-4.5
 20
364.00023199999998
 30
0.0
  0
POINT
  5
492
  8
DEFPOINTS
  6
CONTINUOUS
 62
     7
 10
-4.5
 20
364.00023199999998
 30
0.0
  0
LINE
  5
493
  8
NOTE
  6
CONTINUOUS
 62
     4
 10
-29.499998999999999
 20
514.000227
 30
0.0
 11
-4.5
 21
514.000227
 31
0.0
  0
LINE
  5
494
  8
NOTE
  6
CONTINUOUS
 62
     4
 10
-17.0
 20
526.500226
 30
0.0
 11
-17.0
 21
501.50022699999988
 31
0.0
  0
CIRCLE
  5
495
  8
DETAIL
  6
CONTINUOUS
 62
     5
 10
-17.0
 20
514.000227
 30
0.0
 40
2.299999999999998
  0
LINE
  5
496
  8
SIZE
  6
CONTINUOUS
 62
    30
 10
884.23392110672171
 20
354.00023199999998
 30
0.0
 11
884.23392110672171
 21
304.00047899999998
 31
0.0
  0
LINE
  5
497
  8
SIZE
  6
CONTINUOUS
 62
    30
 10
884.23392110672171
 20
294.00047899999998
 30
0.0
 11
884.23392110672171
 21
150.743336
 31
0.0
  0
TEXT
  5
498
  8
SIZE
  6
CONTINUOUS
 62
    30
 10
864.2339211067216
 20
170.7433365714285
 30
0.0
 40
64.0
  1
70
 50
90.0
 41
0.9
 72
     1
 11
864.2339211067216
 21
217.37190799999999
 31
0.0
  0
LINE
  5
499
  8
SIZE
  6
CONTINUOUS
 62
    30
 10
884.23392110672171
 20
299.00047899999998
 30
0.0
 11
884.23392110672171
 21
304.00047899999998
 31
0.0
  0
CIRCLE
  5
49A
  8
SIZE
  6
CONTINUOUS
 62
    30
 10
884.23392110672171
 20
294.00047899999998
 30
0.0
 40
5.0
  0
TEXT
  5
49B
  8
SIZE
  6
CONTINUOUS
 62
    30
 10
1053.094364106722
 20
71.571668571428575
 30
0.0
 40
64.0
  1
294
 50
90.0
 41
0.9
 72
     1
 11
1053.094364106722
 21
147.00023999999999
 31
0.0
  0
LINE
  5
49C
  8
SIZE
  6
CONTINUOUS
 62
    30
 10
1073.094364106722
 20
284.00047899999998
 30
0.0
 11
1073.094364106722
 21
10.0
 31
0.0
  0
POINT
  5
49D
  8
DEFPOINTS
  6
CONTINUOUS
 62
     7
 10
1073.094364106722
 20
0.0
 30
0.0
  0
LINE
  5
49E
  8
SIZE
  6
CONTINUOUS
 62
    30
 10
1073.094364106722
 20
5.0
 30
0.0
 11
1073.094364106722
 21
10.0
 31
0.0
  0
LINE
  5
49F
  8
SIZE
  6
CONTINUOUS
 62
    30
 10
1073.094364106722
 20
289.00047899999998
 30
0.0
 11
1073.094364106722
 21
284.00047899999998
 31
0.0
  0
CIRCLE
  5
4A0
  8
SIZE
  6
CONTINUOUS
 62
    30
 10
1073.094364106722
 20
294.00047899999998
 30
0.0
 40
5.0
  0
POINT
  5
4A1
  8
DEFPOINTS
  6
CONTINUOUS
 62
     7
 10
1073.094364106722
 20
294.00047899999998
 30
0.0
  0
LINE
  5
4A2
  8
SIZE
  6
CONTINUOUS
 62
    30
 10
1073.094364106722
 20
299.00047899999998
 30
0.0
 11
1073.094364106722
 21
304.00047899999998
 31
0.0
  0
CIRCLE
  5
4A3
  8
SIZE
  6
CONTINUOUS
 62
    30
 10
1073.094364106722
 20
294.00047899999998
 30
0.0
 40
5.0
  0
LINE
  5
4A4
  8
SIZE
  6
CONTINUOUS
 62
    30
 10
884.23392110672171
 20
369.00023199999998
 30
0.0
 11
884.23392110672171
 21
374.00023199999998
 31
0.0
  0
CIRCLE
  5
4A5
  8
SIZE
  6
CONTINUOUS
 62
    30
 10
884.23392110672171
 20
364.00023199999998
 30
0.0
 40
5.0
  0
POINT
  5
4A6
  8
DEFPOINTS
  6
CONTINUOUS
 62
     7
 10
884.23392110672171
 20
364.00023199999998
 30
0.0
  0
LINE
  5
4A7
  8
SIZE
  6
CONTINUOUS
 62
    30
 10
884.23392110672171
 20
359.00023199999998
 30
0.0
 11
884.23392110672171
 21
354.00023199999998
 31
0.0
  0
CIRCLE
  5
4A8
  8
SIZE
  6
CONTINUOUS
 62
    30
 10
884.23392110672171
 20
364.00023199999998
 30
0.0
 40
5.0
  0
LINE
  5
4A9
  8
NOTE
  6
CONTINUOUS
 62
     4
 10
-29.499998999999999
 20
664.00022200000001
 30
0.0
 11
-4.5
 21
664.00022200000001
 31
0.0
  0
LINE
  5
4AA
  8
NOTE
  6
CONTINUOUS
 62
     4
 10
-17.0
 20
676.50022100000001
 30
0.0
 11
-17.0
 21
651.50022200000001
 31
0.0
  0
CIRCLE
  5
4AB
  8
DETAIL
  6
CONTINUOUS
 62
     5
 10
-17.0
 20
664.00022200000001
 30
0.0
 40
2.299999999999998
  0
LINE
  5
4AC
  8
NOTE
  6
CONTINUOUS
 62
     4
 10
-29.499998999999999
 20
814.00021700000002
 30
0.0
 11
-4.5
 21
814.00021700000002
 31
0.0
  0
LINE
  5
4AD
  8
NOTE
  6
CONTINUOUS
 62
     4
 10
-17.0
 20
826.50021599999957
 30
0.0
 11
-17.0
 21
801.50021700000002
 31
0.0
  0
CIRCLE
  5
4AE
  8
DETAIL
  6
CONTINUOUS
 62
     5
 10
-17.0
 20
814.00021700000002
 30
0.0
 40
2.299999999999998
  0
LINE
  5
4AF
  8
NOTE
  6
CONTINUOUS
 62
     4
 10
-29.499998999999999
 20
964.00021200000003
 30
0.0
 11
-4.5
 21
964.00021200000003
 31
0.0
  0
LINE
  5
4B0
  8
NOTE
  6
CONTINUOUS
 62
     4
 10
-17.0
 20
976.50021100000015
 30
0.0
 11
-17.0
 21
951.50021200000003
 31
0.0
  0
CIRCLE
  5
4B1
  8
DETAIL
  6
CONTINUOUS
 62
     5
 10
-17.0
 20
964.00021200000003
 30
0.0
 40
2.299999999999998
  0
LINE
  5
4B2
  8
NOTE
  6
CONTINUOUS
 62
     4
 10
-29.499998999999999
 20
1114.000207
 30
0.0
 11
-4.5
 21
1114.000207
 31
0.0
  0
LINE
  5
4B3
  8
NOTE
  6
CONTINUOUS
 62
     4
 10
-17.0
 20
1126.5002059999999
 30
0.0
 11
-17.0
 21
1101.500207
 31
0.0
  0
CIRCLE
  5
4B4
  8
DETAIL
  6
CONTINUOUS
 62
     5
 10
-17.0
 20
1114.000207
 30
0.0
 40
2.299999999999998
  0
TEXT
  5
4B5
  8
SIZE
  6
CONTINUOUS
 62
    30
 10
1053.094364106722
 20
943.00033199999996
 30
0.0
 40
64.0
  1
1490
 50
90.0
 41
0.9
 72
     1
 11
1053.094364106722
 21
1039.0003320000001
 31
0.0
  0
LINE
  5
4B6
  8
OUTLINE
  6
CONTINUOUS
 62
     3
 10
-37.0
 20
1852.0
 30
0.0
 11
-1333.0
 21
1852.0
 31
0.0
  0
TEXT
  5
4B7
  8
ETC
  6
CONTINUOUS
 62
    61
 10
134.51812590796541
 20
2288.4083549428651
 30
0.0
 40
80.0
  1
PFT-P1400DM-E1_4
 50
359.99999700000001
 41
0.8
  0
LINE
  5
4B8
  8
DETAIL
  6
CONTINUOUS
 62
     5
 10
-37.0
 20
1852.0
 30
0.0
 11
-1333.0
 21
1852.0
 31
0.0
  0
ARC
  5
4B9
  8
DETAIL
  6
CONTINUOUS
 62
     5
 10
-323.00827600000002
 20
1788.996766
 30
0.0
 40
10.0
 50
0.000003
 51
179.99999099999999
  0
ARC
  5
4BA
  8
DETAIL
  6
CONTINUOUS
 62
     5
 10
-323.00827600000002
 20
1788.996766
 30
0.0
 40
7.0
 50
0.000003
 51
180.000032
  0
LINE
  5
4BC
  8
SIZE
  6
CONTINUOUS
 62
    30
 10
884.23392110672171
 20
1784.000184
 30
0.0
 11
884.23392110672171
 21
2039.012156
 31
0.0
  0
LINE
  5
4BD
  8
NOTE
  6
CONTINUOUS
 62
     4
 10
302.56600200000008
 20
2070.8469190000001
 30
0.0
 11
-17.0
 21
1714.0001870000001
 31
0.0
  0
LINE
  5
4BE
  8
SIZE
  6
CONTINUOUS
 62
    30
 10
-17.0
 20
1746.500186
 30
0.0
 11
-17.0
 21
1976.4617599999999
 31
0.0
  0
LINE
  5
4BF
  8
SIZE
  6
CONTINUOUS
 62
    30
 10
0.0
 20
1804.000184
 30
0.0
 11
0.0
 21
1976.4617599999999
 31
0.0
  0
LINE
  5
4C0
  8
SIZE
  6
CONTINUOUS
 62
    30
 10
0.0
 20
1804.000184
 30
0.0
 11
0.0
 21
2133.0799950000001
 31
0.0
  0
LINE
  5
4C1
  8
SIZE
  6
CONTINUOUS
 62
    30
 10
18.454801999999969
 20
1784.000184
 30
0.0
 11
914.23392110672182
 21
1784.000184
 31
0.0
  0
LINE
  5
4C2
  8
SIZE
  6
CONTINUOUS
 62
    30
 10
1.4548019999999711
 20
1714.0001870000001
 30
0.0
 11
914.23392110672182
 21
1714.0001870000001
 31
0.0
  0
LINE
  5
4C3
  8
SIZE
  6
CONTINUOUS
 62
    30
 10
20.0
 20
1784.000184
 30
0.0
 11
1103.0943641067211
 21
1784.000184
 31
0.0
  0
LINE
  5
4C4
  8
SIZE
  6
CONTINUOUS
 62
    30
 10
15.5
 20
1714.0001870000001
 30
0.0
 11
914.23392110672182
 21
1714.0001870000001
 31
0.0
  0
LINE
  5
4C5
  8
NOTE
  6
CONTINUOUS
 62
     4
 10
-29.499998999999999
 20
1264.0002019999999
 30
0.0
 11
-4.5
 21
1264.0002019999999
 31
0.0
  0
LINE
  5
4C6
  8
NOTE
  6
CONTINUOUS
 62
     4
 10
-17.0
 20
1276.5002010000001
 30
0.0
 11
-17.0
 21
1251.5002019999999
 31
0.0
  0
CIRCLE
  5
4C7
  8
DETAIL
  6
CONTINUOUS
 62
     5
 10
-17.0
 20
1264.0002019999999
 30
0.0
 40
2.299999999999998
  0
LINE
  5
4C8
  8
NOTE
  6
CONTINUOUS
 62
     4
 10
-29.499998999999999
 20
1414.0001970000001
 30
0.0
 11
-4.5
 21
1414.0001970000001
 31
0.0
  0
LINE
  5
4C9
  8
NOTE
  6
CONTINUOUS
 62
     4
 10
-17.0
 20
1426.500196
 30
0.0
 11
-17.0
 21
1401.5001970000001
 31
0.0
  0
CIRCLE
  5
4CA
  8
DETAIL
  6
CONTINUOUS
 62
     5
 10
-17.0
 20
1414.0001970000001
 30
0.0
 40
2.299999999999998
  0
LINE
  5
4CB
  8
NOTE
  6
CONTINUOUS
 62
     4
 10
-29.499998999999999
 20
1564.000192
 30
0.0
 11
-4.5
 21
1564.000192
 31
0.0
  0
LINE
  5
4CC
  8
NOTE
  6
CONTINUOUS
 62
     4
 10
-17.0
 20
1576.5001910000001
 30
0.0
 11
-17.0
 21
1551.500192
 31
0.0
  0
CIRCLE
  5
4CD
  8
DETAIL
  6
CONTINUOUS
 62
     5
 10
-17.0
 20
1564.000192
 30
0.0
 40
2.299999999999998
  0
LINE
  5
4CF
  8
NOTE
  6
CONTINUOUS
 62
     4
 10
-17.0
 20
1714.0001870000001
 30
0.0
 11
1.063333000000054
 21
1749.6893439999999
 31
0.0
  0
LINE
  5
4D0
  8
NOTE
  6
CONTINUOUS
 62
     4
 10
-17.0
 20
1714.0001870000001
 30
0.0
 11
16.487884000000001
 21
1735.8762360000001
 31
0.0
  0
LINE
  5
4D1
  8
DETAIL
  6
CONTINUOUS
 62
     5
 10
0.0
 20
1784.000184
 30
0.0
 11
-37.0
 21
1784.000184
 31
0.0
  0
LINE
  5
4D2
  8
NOTE
  6
CONTINUOUS
 62
     4
 10
-29.499998999999999
 20
1714.0001870000001
 30
0.0
 11
-4.5
 21
1714.0001870000001
 31
0.0
  0
POINT
  5
4D3
  8
DEFPOINTS
  6
CONTINUOUS
 62
     7
 10
-18.545198000000031
 20
1714.0001870000001
 30
0.0
  0
POINT
  5
4D4
  8
DEFPOINTS
  6
CONTINUOUS
 62
     7
 10
-17.0
 20
1726.500186
 30
0.0
  0
LINE
  5
4D5
  8
NOTE
  6
CONTINUOUS
 62
     4
 10
-17.0
 20
1726.500186
 30
0.0
 11
-17.0
 21
1701.5001870000001
 31
0.0
  0
CIRCLE
  5
4D6
  8
DETAIL
  6
CONTINUOUS
 62
     5
 10
-17.0
 20
1714.0001870000001
 30
0.0
 40
2.299999999999998
  0
POINT
  5
4D7
  8
DEFPOINTS
  6
CONTINUOUS
 62
     7
 10
-1.5451980000000261
 20
1784.000184
 30
0.0
  0
POINT
  5
4D8
  8
DEFPOINTS
  6
CONTINUOUS
 62
     7
 10
0.0
 20
1784.000184
 30
0.0
  0
POINT
  5
4D9
  8
DEFPOINTS
  6
CONTINUOUS
 62
     7
 10
-4.5
 20
1714.0001870000001
 30
0.0
  0
POINT
  5
4DA
  8
DEFPOINTS
  6
CONTINUOUS
 62
     7
 10
0.0
 20
1784.000184
 30
0.0
  0
POINT
  5
4DB
  8
DEFPOINTS
  6
CONTINUOUS
 62
     7
 10
0.0
 20
1784.000184
 30
0.0
  0
POINT
  5
4DC
  8
DEFPOINTS
  6
CONTINUOUS
 62
     7
 10
884.23392110672171
 20
1784.000184
 30
0.0
  0
LINE
  5
4DD
  8
SIZE
  6
CONTINUOUS
 62
    30
 10
884.23392110672171
 20
1779.000184
 30
0.0
 11
884.23392110672171
 21
1774.000184
 31
0.0
  0
CIRCLE
  5
4DE
  8
SIZE
  6
CONTINUOUS
 62
    30
 10
884.23392110672171
 20
1784.000184
 30
0.0
 40
5.0
  0
LINE
  5
4DF
  8
SIZE
  6
CONTINUOUS
 62
    30
 10
884.23392110672171
 20
1719.0001870000001
 30
0.0
 11
884.23392110672171
 21
1724.0001870000001
 31
0.0
  0
CIRCLE
  5
4E0
  8
SIZE
  6
CONTINUOUS
 62
    30
 10
884.23392110672171
 20
1714.0001870000001
 30
0.0
 40
5.0
  0
LINE
  5
4E1
  8
SIZE
  6
CONTINUOUS
 62
    30
 10
884.23392110672171
 20
1724.0001870000001
 30
0.0
 11
884.23392110672171
 21
1774.000184
 31
0.0
  0
POINT
  5
4E2
  8
DEFPOINTS
  6
CONTINUOUS
 62
     7
 10
884.23392110672171
 20
1714.0001870000001
 30
0.0
  0
LINE
  5
4E3
  8
SIZE
  6
CONTINUOUS
 62
    30
 10
884.23392110672171
 20
1709.0001870000001
 30
0.0
 11
884.23392110672171
 21
1704.0001870000001
 31
0.0
  0
CIRCLE
  5
4E4
  8
SIZE
  6
CONTINUOUS
 62
    30
 10
884.23392110672171
 20
1714.0001870000001
 30
0.0
 40
5.0
  0
LINE
  5
4E5
  8
SIZE
  6
CONTINUOUS
 62
    30
 10
1073.094364106722
 20
1779.000184
 30
0.0
 11
1073.094364106722
 21
1774.000184
 31
0.0
  0
CIRCLE
  5
4E6
  8
SIZE
  6
CONTINUOUS
 62
    30
 10
1073.094364106722
 20
1784.000184
 30
0.0
 40
5.0
  0
LINE
  5
4E7
  8
NOTE
  6
CONTINUOUS
 62
     4
 10
654.44994399999996
 20
2070.8469190000001
 30
0.0
 11
302.56600200000008
 21
2070.8469190000001
 31
0.0
  0
TEXT
  5
4E8
  8
SIZE
  6
CONTINUOUS
 62
    30
 10
40.000000571428643
 20
2123.0799950000001
 30
0.0
 40
64.0
  1
37
 41
0.9
 72
     1
 11
86.628572000000062
 21
2123.0799950000001
 31
0.0
  0
TEXT
  5
4E9
  8
SIZE
  6
CONTINUOUS
 62
    30
 10
39.99999985714291
 20
1966.4617599999999
 30
0.0
 40
64.0
  1
17
 41
0.9
 72
     1
 11
81.142857000000049
 21
1966.4617599999999
 31
0.0
  0
LINE
  5
4EA
  8
SIZE
  6
CONTINUOUS
 62
    30
 10
10.0
 20
1946.4617599999999
 30
0.0
 11
142.28571400000001
 21
1946.4617599999999
 31
0.0
  0
LINE
  5
4EB
  8
SIZE
  6
CONTINUOUS
 62
    30
 10
10.0
 20
2103.0799950000001
 30
0.0
 11
153.25714300000001
 21
2103.0799950000001
 31
0.0
  0
LINE
  5
4EC
  8
SIZE
  6
CONTINUOUS
 62
    30
 10
-37.0
 20
1870.000182
 30
0.0
 11
-37.0
 21
2133.0799950000001
 31
0.0
  0
LINE
  5
4ED
  8
SIZE
  6
CONTINUOUS
 62
    30
 10
-17.0
 20
1946.4617599999999
 30
0.0
 11
0.0
 21
1946.4617599999999
 31
0.0
  0
POINT
  5
4EF
  8
DEFPOINTS
  6
CONTINUOUS
 62
     7
 10
-17.0
 20
1946.4617599999999
 30
0.0
  0
LINE
  5
4F0
  8
SIZE
  6
CONTINUOUS
 62
    30
 10
-22.0
 20
1946.4617599999999
 30
0.0
 11
-27.0
 21
1946.4617599999999
 31
0.0
  0
CIRCLE
  5
4F1
  8
SIZE
  6
CONTINUOUS
 62
    30
 10
-17.0
 20
1946.4617599999999
 30
0.0
 40
5.0
  0
LINE
  5
4F2
  8
SIZE
  6
CONTINUOUS
 62
    30
 10
-27.0
 20
1946.4617599999999
 30
0.0
 11
-37.0
 21
1946.4617599999999
 31
0.0
  0
LINE
  5
4F4
  8
SIZE
  6
CONTINUOUS
 62
    30
 10
5.0
 20
1946.4617599999999
 30
0.0
 11
10.0
 21
1946.4617599999999
 31
0.0
  0
CIRCLE
  5
4F5
  8
SIZE
  6
CONTINUOUS
 62
    30
 10
0.0
 20
1946.4617599999999
 30
0.0
 40
5.0
  0
LINE
  5
4F6
  8
SIZE
  6
CONTINUOUS
 62
    30
 10
-37.0
 20
2103.0799950000001
 30
0.0
 11
0.0
 21
2103.0799950000001
 31
0.0
  0
LINE
  5
4F7
  8
SIZE
  6
CONTINUOUS
 62
    30
 10
-42.0
 20
2103.0799950000001
 30
0.0
 11
-47.0
 21
2103.0799950000001
 31
0.0
  0
CIRCLE
  5
4F8
  8
SIZE
  6
CONTINUOUS
 62
    30
 10
-37.0
 20
2103.0799950000001
 30
0.0
 40
5.0
  0
LINE
  5
4F9
  8
SIZE
  6
CONTINUOUS
 62
    30
 10
-47.0
 20
2103.0799950000001
 30
0.0
 11
-57.0
 21
2103.0799950000001
 31
0.0
  0
POINT
  5
4FA
  8
DEFPOINTS
  6
CONTINUOUS
 62
     7
 10
0.0
 20
2103.0799950000001
 30
0.0
  0
LINE
  5
4FB
  8
SIZE
  6
CONTINUOUS
 62
    30
 10
5.0
 20
2103.0799950000001
 30
0.0
 11
10.0
 21
2103.0799950000001
 31
0.0
  0
CIRCLE
  5
4FC
  8
SIZE
  6
CONTINUOUS
 62
    30
 10
0.0
 20
2103.0799950000001
 30
0.0
 40
5.0
  0
TEXT
  5
4FD
  8
NOTE
  6
CONTINUOUS
 62
     4
 10
356.31330100000002
 20
2082.2915029999999
 30
0.0
 40
60.0
  1
40-%%C4.6
 50
0.000003
 41
0.7
  7
STANDARD1
  0
TEXT
  5
4FE
  8
SIZE
  6
CONTINUOUS
 62
    30
 10
859.47201710672164
 20
1863.697870142857
 30
0.0
 40
64.0
  1
(70)
 50
90.0
 41
0.9
 72
     1
 11
859.47201710672164
 21
1947.3550130000001
 31
0.0
  0
LINE
  5
4FF
  8
SIZE
  6
CONTINUOUS
 62
    30
 10
1264.1981301067219
 20
1842.0
 30
0.0
 11
1264.1981301067219
 21
10.0
 31
0.0
  0
CIRCLE
  5
500
  8
SIZE
  6
CONTINUOUS
 62
    30
 10
1264.1981301067219
 20
0.0
 30
0.0
 40
5.0
  0
POINT
  5
501
  8
DEFPOINTS
  6
CONTINUOUS
 62
     7
 10
1264.1981301067219
 20
0.0
 30
0.0
  0
LINE
  5
502
  8
SIZE
  6
CONTINUOUS
 62
    30
 10
1264.1981301067219
 20
5.0
 30
0.0
 11
1264.1981301067219
 21
10.0
 31
0.0
  0
TEXT
  5
503
  8
SIZE
  6
CONTINUOUS
 62
    30
 10
1244.198130106721
 20
830.0
 30
0.0
 40
64.0
  1
1852
 50
90.0
 41
0.9
 72
     1
 11
1244.198130106721
 21
926.0
 31
0.0
  0
LINE
  5
504
  8
SIZE
  6
CONTINUOUS
 62
    30
 10
1264.1981301067219
 20
1847.0
 30
0.0
 11
1264.1981301067219
 21
1842.0
 31
0.0
  0
CIRCLE
  5
505
  8
SIZE
  6
CONTINUOUS
 62
    30
 10
1264.1981301067219
 20
1852.0
 30
0.0
 40
5.0
  0
TEXT
  5
85C
  8
NOTE
  6
CONTINUOUS
 62
     4
 10
52.651836725834983
 20
914.96274378229509
 30
0.0
 40
60.0
  1
RG2 %%C38.1
 50
0.0000030000000084
 41
0.7
  7
STANDARD1
  0
LINE
  5
85D
  8
NOTE
  6
CONTINUOUS
 62
     4
 10
399.25054769791677
 20
907.87322339601076
 30
0.0
 11
45.334785570065378
 21
907.87322339601076
 31
0.0
  0
TEXT
  5
85E
  8
NOTE
  6
CONTINUOUS
 62
     4
 10
38.682222866103992
 20
767.90280021666103
 30
0.0
 40
60.0
  1
RL2 %%C19.05
 50
0.0000030000000084
 41
0.7
  7
STANDARD1
  0
LINE
  5
85F
  8
NOTE
  6
CONTINUOUS
 62
     4
 10
438.76052666304167
 20
759.1396213960104
 30
0.0
 11
38.460341570065339
 21
759.1396213960104
 31
0.0
  0
LINE
  5
860
  8
SIZE
  6
CONTINUOUS
 62
    30
 10
-106.9999794299347
 20
343.0000013960107
 30
0.0
 11
728.52245267678654
 21
343.0000013960107
 31
0.0
  0
LINE
  5
861
  8
SIZE
  6
CONTINUOUS
 62
    30
 10
-354.02656713357561
 20
343.0000013960107
 30
0.0
 11
728.52245267678654
 21
343.0000013960107
 31
0.0
  0
LINE
  5
862
  8
SIZE
  6
CONTINUOUS
 62
    30
 10
-408.1995508913887
 20
447.0000013960111
 30
0.0
 11
728.52245267678654
 21
447.0000013960111
 31
0.0
  0
TEXT
  5
863
  8
SIZE
  6
CONTINUOUS
 62
    30
 10
518.62231965939577
 20
-153.42857031827501
 30
0.0
 40
64.0
  1
116
 50
90.0
 41
0.9
 72
     1
 11
518.62231965939577
 21
-91.714284603989356
 31
0.0
  0
LINE
  5
864
  8
SIZE
  6
CONTINUOUS
 62
    30
 10
-392.99960342993478
 20
0.0000013960106457
 30
0.0
 11
728.52245267678654
 21
0.0000013960106457
 31
0.0
  0
LINE
  5
865
  8
SIZE
  6
CONTINUOUS
 62
    30
 10
698.52245267678677
 20
343.0000013960107
 30
0.0
 11
698.52245267678677
 21
447.0000013960111
 31
0.0
  0
TEXT
  5
866
  8
SIZE
  6
CONTINUOUS
 62
    30
 10
678.16682176440554
 20
467.29966308517822
 30
0.0
 40
64.0
  1
104
 50
90.0
 41
0.9
 72
     1
 11
678.16682176440554
 21
537.24252022803535
 31
0.0
  0
LINE
  5
867
  8
SIZE
  6
CONTINUOUS
 62
    30
 10
698.52245267678677
 20
10.00000139601064
 30
0.0
 11
698.52245267678677
 21
333.00000139601059
 31
0.0
  0
CIRCLE
  5
868
  8
SIZE
  6
CONTINUOUS
 62
    30
 10
698.52245267678677
 20
0.0000013960106457
 30
0.0
 40
5.0
  0
LINE
  5
869
  8
SIZE
  6
CONTINUOUS
 62
    30
 10
698.52245267678677
 20
5.0000013960106431
 30
0.0
 11
698.52245267678677
 21
10.00000139601064
 31
0.0
  0
TEXT
  5
86A
  8
SIZE
  6
CONTINUOUS
 62
    30
 10
678.16682176440554
 20
97.442858538867654
 30
0.0
 40
64.0
  1
343
 50
90.0
 41
0.9
 72
     1
 11
678.16682176440554
 21
171.5000013960105
 31
0.0
  0
CIRCLE
  5
86B
  8
SIZE
  6
CONTINUOUS
 62
    30
 10
698.52245267678677
 20
343.0000013960107
 30
0.0
 40
5.0
  0
CIRCLE
  5
86C
  8
SIZE
  6
CONTINUOUS
 62
    30
 10
698.52245267678677
 20
343.0000013960107
 30
0.0
 40
5.0
  0
LINE
  5
86D
  8
SIZE
  6
CONTINUOUS
 62
    30
 10
698.52245267678677
 20
338.0000013960107
 30
0.0
 11
698.52245267678677
 21
333.00000139601059
 31
0.0
  0
POINT
  5
86E
  8
DEFPOINTS
  6
CONTINUOUS
 62
     7
 10
698.52245267678677
 20
343.0000013960107
 30
0.0
 50
180.0
  0
LINE
  5
86F
  8
SIZE
  6
CONTINUOUS
 62
    30
 10
698.52245267678677
 20
431.00023139601041
 30
0.0
 11
698.52245267678677
 21
421.00023139601058
 31
0.0
  0
LINE
  5
870
  8
SIZE
  6
CONTINUOUS
 62
    30
 10
698.52245267678677
 20
338.0000013960107
 30
0.0
 11
698.52245267678677
 21
333.00000139601059
 31
0.0
  0
CIRCLE
  5
871
  8
SIZE
  6
CONTINUOUS
 62
    30
 10
698.52245267678677
 20
447.0000013960111
 30
0.0
 40
5.0
  0
LINE
  5
872
  8
SIZE
  6
CONTINUOUS
 62
    30
 10
698.52245267678677
 20
452.00000139601087
 30
0.0
 11
698.52245267678677
 21
457.00000139601082
 31
0.0
  0
POINT
  5
873
  8
DEFPOINTS
  6
CONTINUOUS
 62
     7
 10
698.52245267678677
 20
447.0000013960111
 30
0.0
 50
180.0
  0
LINE
  5
874
  8
SIZE
  6
CONTINUOUS
 62
    30
 10
698.52245267678677
 20
457.00000139601082
 30
0.0
 11
698.52245267678677
 21
617.48503906005919
 31
0.0
  0
LINE
  5
875
  8
SIZE
  6
CONTINUOUS
 62
    30
 10
-1333.000426429935
 20
79.999998396010653
 30
0.0
 11
-1333.000426429935
 21
-500.00875362933982
 31
0.0
  0
LINE
  5
876
  8
SIZE
  6
CONTINUOUS
 62
    30
 10
-1333.000426429935
 20
79.999998396010653
 30
0.0
 11
-1333.000426429935
 21
-350.54069062933991
 31
0.0
  0
LINE
  5
877
  8
SIZE
  6
CONTINUOUS
 62
    30
 10
0.0000015700652511
 20
274.00048039601069
 30
0.0
 11
0.0000015700652511
 21
-500.00875362933982
 31
0.0
  0
LINE
  5
878
  8
SIZE
  6
CONTINUOUS
 62
    30
 10
542.83991367678709
 20
0.0000013960106457
 30
0.0
 11
542.83991367678709
 21
-173.42856960398939
 31
0.0
  0
LINE
  5
879
  8
SIZE
  6
CONTINUOUS
 62
    30
 10
-472.99999790645501
 20
285.02245012189468
 30
0.0
 11
-472.99999790645501
 21
-350.54068911829222
 31
0.0
  0
LINE
  5
87A
  8
SIZE
  6
CONTINUOUS
 62
    30
 10
-472.99999790645501
 20
376.53375390644402
 30
0.0
 11
-472.99999790645501
 21
-350.54068911829222
 31
0.0
  0
LINE
  5
87B
  8
SIZE
  6
CONTINUOUS
 62
    30
 10
-412.99999842993441
 20
284.73738627467702
 30
0.0
 11
-412.99999842993441
 21
-350.54068911829222
 31
0.0
  0
TEXT
  5
87C
  8
SIZE
  6
CONTINUOUS
 62
    30
 10
-749.67433042993525
 20
-450.00875362933982
 30
0.0
 40
64.0
  1
1333
 41
0.9
 72
     1
 11
-653.67433042993525
 21
-450.00875362933982
 31
0.0
  0
TEXT
  5
87D
  8
SIZE
  6
CONTINUOUS
 62
    30
 10
-977.05735502533719
 20
-300.54069062934019
 30
0.0
 40
64.0
  1
860
 41
0.9
 72
     1
 11
-903.00021216819437
 21
-300.54069062934019
 31
0.0
  0
LINE
  5
87E
  8
SIZE
  6
CONTINUOUS
 62
    30
 10
-9.9999984299347506
 20
-470.00875362933982
 30
0.0
 11
-1323.000426429935
 21
-470.00875362933982
 31
0.0
  0
LINE
  5
87F
  8
SIZE
  6
CONTINUOUS
 62
    30
 10
-1323.000426429935
 20
-320.54069062934002
 30
0.0
 11
-482.99999790645518
 21
-320.54068911829222
 31
0.0
  0
LINE
  5
880
  8
SIZE
  6
CONTINUOUS
 62
    30
 10
-442.99999816819491
 20
-320.54068911829222
 30
0.0
 11
-349.01924542993493
 21
-176.2524916293398
 31
0.0
  0
LINE
  5
881
  8
SIZE
  6
CONTINUOUS
 62
    30
 10
-4.9999984299347471
 20
-470.00875362933982
 30
0.0
 11
-9.9999984299347506
 21
-470.00875362933982
 31
0.0
  0
CIRCLE
  5
882
  8
SIZE
  6
CONTINUOUS
 62
    30
 10
0.0000015700652511
 20
-470.00875362933982
 30
0.0
 40
5.0
  0
CIRCLE
  5
883
  8
SIZE
  6
CONTINUOUS
 62
    30
 10
-472.99999790645501
 20
-320.54068911829222
 30
0.0
 40
5.0
  0
LINE
  5
884
  8
SIZE
  6
CONTINUOUS
 62
    30
 10
-477.99999790645501
 20
-320.54068911829222
 30
0.0
 11
-482.99999790645518
 21
-320.54068911829222
 31
0.0
  0
POINT
  5
885
  8
DEFPOINTS
  6
CONTINUOUS
 62
     7
 10
-472.99999790645501
 20
-320.54068911829222
 30
0.0
 50
180.0
  0
LINE
  5
886
  8
SIZE
  6
CONTINUOUS
 62
    30
 10
-482.99999790645518
 20
-320.54068911829222
 30
0.0
 11
-492.99999790645501
 21
-320.54068911829222
 31
0.0
  0
LINE
  5
887
  8
SIZE
  6
CONTINUOUS
 62
    30
 10
-472.99999790645501
 20
-320.54068911829222
 30
0.0
 11
-437.9999989064554
 21
-320.54068911829222
 31
0.0
  0
LINE
  5
888
  8
SIZE
  6
CONTINUOUS
 62
    30
 10
-472.99999790645501
 20
-320.54068911829222
 30
0.0
 11
-412.99999842993441
 21
-320.54068911829222
 31
0.0
  0
CIRCLE
  5
889
  8
SIZE
  6
CONTINUOUS
 62
    30
 10
-472.99999790645501
 20
-320.54068911829222
 30
0.0
 40
5.0
  0
LINE
  5
88A
  8
SIZE
  6
CONTINUOUS
 62
    30
 10
-477.99999790645501
 20
-320.54068911829222
 30
0.0
 11
-482.99999790645518
 21
-320.54068911829222
 31
0.0
  0
CIRCLE
  5
88B
  8
SIZE
  6
CONTINUOUS
 62
    30
 10
-412.99999842993441
 20
-320.54068911829222
 30
0.0
 40
5.0
  0
POINT
  5
88C
  8
DEFPOINTS
  6
CONTINUOUS
 62
     7
 10
-412.99999842993441
 20
-320.54068911829222
 30
0.0
 50
180.0
  0
LINE
  5
88D
  8
SIZE
  6
CONTINUOUS
 62
    30
 10
-402.99999842993441
 20
-320.54068911829222
 30
0.0
 11
-392.99999842993452
 21
-320.54068911829222
 31
0.0
  0
LINE
  5
88E
  8
SIZE
  6
CONTINUOUS
 62
    30
 10
-407.99999842993452
 20
-320.54068911829222
 30
0.0
 11
-402.99999842993441
 21
-320.54068911829222
 31
0.0
  0
LINE
  5
88F
  8
SIZE
  6
CONTINUOUS
 62
    30
 10
-215.7621024299348
 20
-176.2524916293398
 30
0.0
 11
-349.01924542993493
 21
-176.2524916293398
 31
0.0
  0
TEXT
  5
890
  8
SIZE
  6
CONTINUOUS
 62
    30
 10
-329.01924485850577
 20
-156.2524916293398
 30
0.0
 40
64.0
  1
60
 41
0.9
 72
     1
 11
-282.3906734299344
 21
-156.2524916293398
 31
0.0
  0
CIRCLE
  5
891
  8
SIZE
  6
CONTINUOUS
 62
    30
 10
-1333.000426429935
 20
-470.00875362933982
 30
0.0
 40
5.0
  0
LINE
  5
892
  8
SIZE
  6
CONTINUOUS
 62
    30
 10
-1328.000426429935
 20
-470.00875362933982
 30
0.0
 11
-1323.000426429935
 21
-470.00875362933982
 31
0.0
  0
POINT
  5
893
  8
DEFPOINTS
  6
CONTINUOUS
 62
     7
 10
-1333.000426429935
 20
-470.00875362933982
 30
0.0
 50
180.0
  0
CIRCLE
  5
894
  8
SIZE
  6
CONTINUOUS
 62
    30
 10
-1333.000426429935
 20
-320.54069062934002
 30
0.0
 40
5.0
  0
LINE
  5
895
  8
SIZE
  6
CONTINUOUS
 62
    30
 10
-1328.000426429935
 20
-320.54069062934002
 30
0.0
 11
-1323.000426429935
 21
-320.54069062934002
 31
0.0
  0
LINE
  5
896
  8
NOTE
  6
CONTINUOUS
 62
     4
 10
38.460341570065339
 20
759.1396213960104
 30
0.0
 11
-412.99999842993441
 21
343.0000008960107
 31
0.0
  0
LINE
  5
897
  8
SIZE
  6
CONTINUOUS
 62
    30
 10
-392.99960342993478
 20
0.0000013960106457
 30
0.0
 11
572.83991367678709
 21
0.0000013960106457
 31
0.0
  0
LINE
  5
898
  8
SIZE
  6
CONTINUOUS
 62
    30
 10
542.83991367678709
 20
105.9999973960106
 30
0.0
 11
542.83991367678709
 21
10.00000139601064
 31
0.0
  0
LINE
  5
899
  8
SIZE
  6
CONTINUOUS
 62
    30
 10
542.83991367678709
 20
5.0000013960106431
 30
0.0
 11
542.83991367678709
 21
10.00000139601064
 31
0.0
  0
CIRCLE
  5
89A
  8
SIZE
  6
CONTINUOUS
 62
    30
 10
542.83991367678709
 20
0.0000013960106457
 30
0.0
 40
5.0
  0
LINE
  5
89B
  8
SIZE
  6
CONTINUOUS
 62
    30
 10
25.524797570065399
 20
115.9999973960106
 30
0.0
 11
572.83991367678709
 21
115.9999973960106
 31
0.0
  0
CIRCLE
  5
89C
  8
SIZE
  6
CONTINUOUS
 62
    30
 10
542.83991367678709
 20
115.9999973960106
 30
0.0
 40
5.0
  0
LINE
  5
89D
  8
SIZE
  6
CONTINUOUS
 62
    30
 10
542.83991367678709
 20
110.9999973960106
 30
0.0
 11
542.83991367678709
 21
105.9999973960106
 31
0.0
  0
POINT
  5
89E
  8
DEFPOINTS
  6
CONTINUOUS
 62
     7
 10
542.83991367678709
 20
115.9999973960106
 30
0.0
 50
180.0
  0
CIRCLE
  5
89F
  8
DETAIL
  6
CONTINUOUS
 62
     5
 10
-412.99999842993441
 20
343.00000089601048
 30
0.0
 40
9.5250000000000004
  0
LINE
  5
8A0
  8
NOTE
  6
CONTINUOUS
 62
     4
 10
-412.99999842993441
 20
392.99999889601082
 30
0.0
 11
-412.99999842993441
 21
293.00000189601047
 31
0.0
  0
CIRCLE
  5
8A1
  8
DETAIL
  6
CONTINUOUS
 62
     5
 10
-412.99999895341438
 20
342.99999938496319
 30
0.0
 40
29.999998999999999
  0
LINE
  5
8A2
  8
NOTE
  6
CONTINUOUS
 62
     4
 10
-412.99999842993441
 20
343.00000089601048
 30
0.0
 11
-391.01725592288039
 21
376.41794357872448
 31
0.0
  0
LINE
  5
8A3
  8
NOTE
  6
CONTINUOUS
 62
     4
 10
-412.99999842993441
 20
343.00000089601048
 30
0.0
 11
-377.25341340805971
 21
360.94941713713359
 31
0.0
  0
LINE
  5
8A4
  8
NOTE
  6
CONTINUOUS
 62
     4
 10
-462.99999642993481
 20
343.00000089601048
 30
0.0
 11
-363.00000042993452
 21
343.00000089601048
 31
0.0
  0
LINE
  5
8A5
  8
NOTE
  6
CONTINUOUS
 62
     4
 10
45.334785570065378
 20
907.87322339601076
 30
0.0
 11
-472.99999842993441
 21
447.0000013960111
 31
0.0
  0
LINE
  5
8A6
  8
NOTE
  6
CONTINUOUS
 62
     4
 10
-532.9999944299351
 20
447.00000290705827
 30
0.0
 11
-412.99999842993441
 21
447.00000290705827
 31
0.0
  0
CIRCLE
  5
8A7
  8
DETAIL
  6
CONTINUOUS
 62
     5
 10
-472.99999642993492
 20
447.00000290705827
 30
0.0
 40
39.999999000000003
  0
LINE
  5
8A8
  8
NOTE
  6
CONTINUOUS
 62
     4
 10
-472.99999597528011
 20
447.00000190388681
 30
0.0
 11
-436.84159281346001
 21
464.1046729073168
 31
0.0
  0
CIRCLE
  5
8A9
  8
DETAIL
  6
CONTINUOUS
 62
     5
 10
-472.99999642993492
 20
447.00000290705827
 30
0.0
 40
19.050000000000001
  0
LINE
  5
8AA
  8
NOTE
  6
CONTINUOUS
 62
     4
 10
-472.99999642993492
 20
507.00000090705851
 30
0.0
 11
-472.99999642993492
 21
387.0000049070585
 31
0.0
  0
LINE
  5
8AB
  8
NOTE
  6
CONTINUOUS
 62
     4
 10
-472.99999597528011
 20
447.00000190388681
 30
0.0
 11
-450.23823647645958
 21
479.89228372169822
 31
0.0
  0
LINE
  5
AF2
  8
NOTE
  6
CONTINUOUS
 62
     4
 10
170.95262514319771
 20
583.56713657829005
 30
0.0
 11
-10.0
 21
115.999996
 31
0.0
  0
LINE
  5
AF3
  8
NOTE
  6
CONTINUOUS
 62
     4
 10
-10.000041085997729
 20
116.000214839203
 30
0.0
 11
10.38549508650175
 21
143.6910001155143
 31
0.0
  0
LINE
  5
AF4
  8
NOTE
  6
CONTINUOUS
 62
     4
 10
-10.000041085997729
 20
116.000214839203
 30
0.0
 11
-6.191043014475893
 21
150.17390661695359
 31
0.0
  0
LINE
  5
AF5
  8
SIZE
  6
CONTINUOUS
 62
    30
 10
-10.0
 20
172.99999500000001
 30
0.0
 11
-10.0
 21
217.64466428554809
 31
0.0
  0
LINE
  5
AF6
  8
SIZE
  6
CONTINUOUS
 62
    30
 10
0.0
 20
274.00047899999998
 30
0.0
 11
0.0
 21
157.644664285548
 31
0.0
  0
LINE
  5
AF7
  8
SIZE
  6
CONTINUOUS
 62
    30
 10
-20.0
 20
187.6446642855478
 30
0.0
 11
-30.0
 21
187.6446642855478
 31
0.0
  0
LINE
  5
AF8
  8
SIZE
  6
CONTINUOUS
 62
    30
 10
5.0
 20
187.6446642855478
 30
0.0
 11
130.09538724147029
 21
187.6446642855478
 31
0.0
  0
LINE
  5
AF9
  8
SIZE
  6
CONTINUOUS
 62
    30
 10
-10.0
 20
187.6446642855478
 30
0.0
 11
0.0
 21
187.6446642855478
 31
0.0
  0
TEXT
  5
AFA
  8
SIZE
  6
CONTINUOUS
 62
    30
 10
43.988025860411383
 20
196.3699564576782
 30
0.0
 40
64.0
  1
10
 41
0.9
 72
     1
 11
85.130883003268522
 21
196.3699564576782
 31
0.0
  0
CIRCLE
  5
AFB
  8
SIZE
  6
CONTINUOUS
 62
    30
 10
0.0
 20
187.6446642855478
 30
0.0
 40
5.0
  0
CIRCLE
  5
AFC
  8
SIZE
  6
CONTINUOUS
 62
    30
 10
-10.0
 20
187.6446642855478
 30
0.0
 40
5.0
  0
LINE
  5
AFD
  8
SIZE
  6
CONTINUOUS
 62
    30
 10
-15.0
 20
187.6446642855478
 30
0.0
 11
-20.0
 21
187.6446642855478
 31
0.0
  0
ENDSEC
  0
EOF
