  0
SECTION
  2
HEADER
  9
$ACADVER
  1
AC1009
  9
$INSBASE
 10
0.0
 20
0.0
 30
0.0
  9
$EXTMIN
 10
-630.97096365040852
 20
-837.94395370659549
 30
-0.0000000000000053
  9
$EXTMAX
 10
1479.265942628768
 20
1979.520347142734
 30
0.0000000000000099
  9
$LIMMIN
 10
-4267.1522210000003
 20
-2696.0832100000011
  9
$LIMMAX
 10
7190.7174229999991
 20
5141.1553640000002
  9
$ORTHOMODE
 70
     1
  9
$REGENMODE
 70
     1
  9
$FILLMODE
 70
     1
  9
$QTEXTMODE
 70
     0
  9
$MIRRTEXT
 70
     0
  9
$DRAGMODE
 70
     2
  9
$LTSCALE
 40
20.0
  9
$OSMODE
 70
  3071
  9
$ATTMODE
 70
     1
  9
$TEXTSIZE
 40
64.0
  9
$TRACEWID
 40
0.05
  9
$TEXTSTYLE
  7
STANDARD
  9
$CLAYER
  8
SYMBOLLINE
  9
$CELTYPE
  6
CONTINUOUS
  9
$CECOLOR
 62
     7
  9
$DIMSCALE
 40
1.0
  9
$DIMASZ
 40
10.0
  9
$DIMEXO
 40
20.0
  9
$DIMDLI
 40
200.0
  9
$DIMRND
 40
0.0
  9
$DIMDLE
 40
0.0
  9
$DIMEXE
 40
30.0
  9
$DIMTP
 40
0.0
  9
$DIMTM
 40
0.0
  9
$DIMTXT
 40
55.0
  9
$DIMCEN
 40
0.0
  9
$DIMTSZ
 40
0.0
  9
$DIMTOL
 70
     0
  9
$DIMLIM
 70
     0
  9
$DIMTIH
 70
     0
  9
$DIMTOH
 70
     0
  9
$DIMSE1
 70
     0
  9
$DIMSE2
 70
     0
  9
$DIMTAD
 70
     1
  9
$DIMZIN
 70
     8
  9
$DIMBLK
  1

  9
$DIMASO
 70
     1
  9
$DIMSHO
 70
     0
  9
$DIMPOST
  1

  9
$DIMAPOST
  1

  9
$DIMALT
 70
     0
  9
$DIMALTD
 70
     2
  9
$DIMALTF
 40
25.399999999999999
  9
$DIMLFAC
 40
1.0
  9
$DIMTOFL
 70
     1
  9
$DIMTVP
 40
0.0
  9
$DIMTIX
 70
     1
  9
$DIMSOXD
 70
     0
  9
$DIMSAH
 70
     1
  9
$DIMBLK1
  1
DOTBLANK
  9
$DIMBLK2
  1
DOTBLANK
  9
$DIMSTYLE
  2
STANDARD
  9
$DIMCLRD
 70
     0
  9
$DIMCLRE
 70
     0
  9
$DIMCLRT
 70
     0
  9
$DIMTFAC
 40
1.0
  9
$DIMGAP
 40
0.09
  9
$LUNITS
 70
     2
  9
$LUPREC
 70
     4
  9
$SKETCHINC
 40
0.1
  9
$FILLETRAD
 40
42.0
  9
$AUNITS
 70
     1
  9
$AUPREC
 70
     3
  9
$MENU
  1
ACAD
  9
$ELEVATION
 40
0.0
  9
$PELEVATION
 40
0.0
  9
$THICKNESS
 40
0.0
  9
$LIMCHECK
 70
     0
  9
$BLIPMODE
 70
     0
  9
$CHAMFERA
 40
0.0
  9
$CHAMFERB
 40
0.0
  9
$SKPOLY
 70
     0
  9
$TDCREATE
 40
2450330.4399309959
  9
$TDUPDATE
 40
2456037.4294338431
  9
$TDINDWG
 40
4.3091693633999997
  9
$TDUSRTIMER
 40
4.3091149073999997
  9
$USRTIMER
 70
     1
  9
$ANGBASE
 50
0.0
  9
$ANGDIR
 70
     0
  9
$PDMODE
 70
     3
  9
$PDSIZE
 40
-2.0
  9
$PLINEWID
 40
0.0
  9
$COORDS
 70
     1
  9
$SPLFRAME
 70
     0
  9
$SPLINETYPE
 70
     6
  9
$SPLINESEGS
 70
     8
  9
$ATTDIA
 70
     0
  9
$ATTREQ
 70
     1
  9
$HANDLING
 70
     1
  9
$HANDSEED
  5
C28
  9
$SURFTAB1
 70
     6
  9
$SURFTAB2
 70
     6
  9
$SURFTYPE
 70
     6
  9
$SURFU
 70
     6
  9
$SURFV
 70
     6
  9
$UCSNAME
  2

  9
$UCSORG
 10
0.0
 20
0.0
 30
0.0
  9
$UCSXDIR
 10
1.0
 20
0.0
 30
0.0
  9
$UCSYDIR
 10
0.0
 20
1.0
 30
0.0
  9
$PUCSNAME
  2

  9
$PUCSORG
 10
0.0
 20
0.0
 30
0.0
  9
$PUCSXDIR
 10
1.0
 20
0.0
 30
0.0
  9
$PUCSYDIR
 10
0.0
 20
1.0
 30
0.0
  9
$USERI1
 70
     0
  9
$USERI2
 70
     0
  9
$USERI3
 70
     0
  9
$USERI4
 70
     0
  9
$USERI5
 70
     0
  9
$USERR1
 40
20.0
  9
$USERR2
 40
0.0
  9
$USERR3
 40
0.0
  9
$USERR4
 40
0.0
  9
$USERR5
 40
0.0
  9
$WORLDVIEW
 70
     1
  9
$SHADEDGE
 70
     3
  9
$SHADEDIF
 70
    70
  9
$TILEMODE
 70
     1
  9
$MAXACTVP
 70
    48
  9
$PLIMCHECK
 70
     0
  9
$PEXTMIN
 10
1.0000000000000000E+020
 20
1.0000000000000000E+020
 30
1.0000000000000000E+020
  9
$PEXTMAX
 10
-1.0000000000000000E+020
 20
-1.0000000000000000E+020
 30
-1.0000000000000000E+020
  9
$PLIMMIN
 10
0.0
 20
0.0
  9
$PLIMMAX
 10
12.0
 20
9.0
  9
$UNITMODE
 70
     0
  9
$VISRETAIN
 70
     1
  9
$PLINEGEN
 70
     0
  9
$PSLTSCALE
 70
     1
  0
ENDSEC
  0
SECTION
  2
TABLES
  0
TABLE
  2
VPORT
 70
     1
  0
VPORT
  2
*ACTIVE
 70
     0
 10
0.0
 20
0.0
 11
1.0
 21
1.0
 12
1461.782600999999
 22
1222.536077
 13
0.0
 23
0.0
 14
50.0
 24
50.0
 15
100.0
 25
100.0
 16
0.0
 26
0.0
 36
1.0
 17
0.0
 27
0.0
 37
0.0
 40
7896.8373464258557
 41
1.552030456852791
 42
50.0
 43
0.0
 44
0.0
 50
0.0
 51
0.0
 71
     0
 72
  1000
 73
     1
 74
     0
 75
     0
 76
     0
 77
     0
 78
     0
  0
ENDTAB
  0
TABLE
  2
LTYPE
 70
     2
  0
LTYPE
  2
CONTINUOUS
 70
     0
  3
実線
 72
    65
 73
     0
 40
0.0
  0
LTYPE
  2
DASHDOT
 70
     0
  3
____ _ ____ _ ____ _ ____ _ ____ _ ____ _ ____
 72
    65
 73
     4
 40
5.5
 49
4.0
 49
-0.6
 49
0.3
 49
-0.6
  0
ENDTAB
  0
TABLE
  2
LAYER
 70
    12
  0
LAYER
  2
0
 70
     0
 62
     7
  6
CONTINUOUS
  0
LAYER
  2
SYMBOLLINE
 70
     0
 62
    15
  6
CONTINUOUS
  0
LAYER
  2
DETAIL
 70
     0
 62
     5
  6
CONTINUOUS
  0
LAYER
  2
OUTLINE
 70
     0
 62
     3
  6
CONTINUOUS
  0
LAYER
  2
BASIS
 70
     0
 62
     6
  6
DASHDOT
  0
LAYER
  2
SIZE
 70
     0
 62
    30
  6
CONTINUOUS
  0
LAYER
  2
NOTE
 70
     0
 62
     4
  6
CONTINUOUS
  0
LAYER
  2
ARRANGE
 70
     0
 62
     1
  6
CONTINUOUS
  0
LAYER
  2
FIX
 70
     0
 62
    11
  6
CONTINUOUS
  0
LAYER
  2
SERVICESPACE
 70
     0
 62
     2
  6
DASHDOT
  0
LAYER
  2
ETC
 70
     0
 62
    61
  6
CONTINUOUS
  0
LAYER
  2
DEFPOINTS
 70
     0
 62
     7
  6
CONTINUOUS
  0
ENDTAB
  0
TABLE
  2
STYLE
 70
     3
  0
STYLE
  2
STANDARD
 70
     0
 40
0.0
 41
0.9
 50
0.0
 71
     0
 42
64.0
  3
SIMPLEX
  4
BIGFONT
  0
STYLE
  2
ANNOTATIVE
 70
     0
 40
0.0
 41
1.0
 50
0.0
 71
     0
 42
0.2
  3
txt
  4

  0
STYLE
  2
STANDARD1
 70
     0
 40
0.0
 41
1.0
 50
0.0
 71
     0
 42
64.0
  3
MONOTXT
  4
BIGFONT
  0
ENDTAB
  0
TABLE
  2
VIEW
 70
     1
  0
VIEW
  2
ALL
 70
     0
 40
9000.0
 10
241.50664699999999
 20
0.0
 41
12483.01
 11
0.0
 21
0.0
 31
1.0
 12
0.0
 22
0.0
 32
0.0
 42
50.0
 43
0.0
 44
0.0
 50
0.0
 71
     0
  0
ENDTAB
  0
TABLE
  2
UCS
 70
     0
  0
ENDTAB
  0
TABLE
  2
APPID
 70
     4
  0
APPID
  2
ACAD
 70
     0
  0
APPID
  2
ACADANNOTATIVE
 70
     0
  0
APPID
  2
ACAD_MLEADERVER
 70
     0
  0
APPID
  2
ACAD_EXEMPT_FROM_CAD_STANDARDS
 70
     0
  0
ENDTAB
  0
TABLE
  2
DIMSTYLE
 70
     2
  0
DIMSTYLE
  2
STANDARD
 70
     0
  3

  4

  5

  6

  7

 40
1.0
 41
0.18
 42
0.0625
 43
0.38
 44
0.18
 45
0.0
 46
0.0
 47
0.0
 48
0.0
140
0.18
141
0.09
142
0.0
143
25.399999999999999
144
1.0
145
0.0
146
1.0
147
0.09
 71
     0
 72
     0
 73
     1
 74
     1
 75
     0
 76
     0
 77
     0
 78
     0
170
     0
171
     2
172
     0
173
     0
174
     0
175
     0
176
     0
177
     0
178
     0
  0
DIMSTYLE
  2
ANNOTATIVE
 70
     0
  3

  4

  5

  6

  7

 40
1.0
 41
0.18
 42
0.0625
 43
0.38
 44
0.18
 45
0.0
 46
0.0
 47
0.0
 48
0.0
140
0.18
141
0.09
142
0.0
143
25.399999999999999
144
1.0
145
0.0
146
1.0
147
0.09
 71
     0
 72
     0
 73
     1
 74
     1
 75
     0
 76
     0
 77
     0
 78
     0
170
     0
171
     2
172
     0
173
     0
174
     0
175
     0
176
     0
177
     0
178
     0
  0
ENDTAB
  0
ENDSEC
  0
SECTION
  2
BLOCKS
  0
BLOCK
  8
0
  2
$MODEL_SPACE
 70
     0
 10
0.0
 20
0.0
 30
0.0
  3
$MODEL_SPACE
  1

  0
ENDBLK
  5
BDB
  8
0
  0
BLOCK
 67
     1
  8
0
  2
$PAPER_SPACE
 70
     0
 10
0.0
 20
0.0
 30
0.0
  3
$PAPER_SPACE
  1

  0
ENDBLK
  5
BD7
 67
     1
  8
0
  0
BLOCK
  8
0
  2
_DOTBLANK
 70
     0
 10
0.0
 20
0.0
 30
0.0
  3
_DOTBLANK
  1

  0
CIRCLE
  5
32
  8
0
  6
CONTINUOUS
 62
     7
 10
0.0
 20
0.0
 30
0.0
 40
0.5
  0
LINE
  5
33
  8
0
  6
CONTINUOUS
 62
     7
 10
-0.5
 20
0.0
 30
0.0
 11
-1.0
 21
0.0
 31
0.0
  0
ENDBLK
  5
34
  8
0
  0
BLOCK
  8
0
 62
     7
  2
*D3
 70
     1
 10
0.0
 20
0.0
 30
0.0
  3
*D3
  1

  0
LINE
  5
AC5
  8
SYMBOLLINE
  6
CONTINUOUS
 62
     0
 10
463.0
 20
-20.0
 30
0.0
 11
462.99999999999989
 21
-1336.9176019332001
 31
0.0
  0
LINE
  5
AC6
  8
SYMBOLLINE
  6
CONTINUOUS
 62
     0
 10
6.9999999999999991
 20
-20.0
 30
0.0
 11
6.9999999999999183
 21
-1336.9176019332001
 31
0.0
  0
LINE
  5
AC7
  8
SYMBOLLINE
  6
CONTINUOUS
 62
     0
 10
452.99999999999989
 20
-1306.917601933201
 30
0.0
 11
16.999999999999918
 21
-1306.917601933201
 31
0.0
  0
INSERT
  5
AC8
  8
SYMBOLLINE
  6
CONTINUOUS
 62
     0
  2
_DOTBLANK
 10
462.99999999999989
 20
-1306.917601933201
 30
0.0
 41
10.0
 42
10.0
 43
10.0
  0
INSERT
  5
AC9
  8
SYMBOLLINE
  6
CONTINUOUS
 62
     0
  2
_DOTBLANK
 10
6.9999999999999201
 20
-1306.917601933201
 30
0.0
 41
10.0
 42
10.0
 43
10.0
 50
180.0
  0
INSERT
  5
ACA
  8
SYMBOLLINE
  6
CONTINUOUS
 62
     7
  2
*U4
 10
0.0
 20
0.0
 30
0.0
  0
POINT
  5
ACB
  8
DEFPOINTS
  6
CONTINUOUS
 62
     0
 10
463.0
 20
0.0
 30
0.0
  0
POINT
  5
ACC
  8
DEFPOINTS
  6
CONTINUOUS
 62
     0
 10
7.0
 20
0.0
 30
0.0
  0
POINT
  5
ACD
  8
DEFPOINTS
  6
CONTINUOUS
 62
     0
 10
6.9999999999999201
 20
-1306.917601933201
 30
0.0
  0
ENDBLK
  5
AC4
  8
0
 62
     7
  0
BLOCK
  8
0
 62
     7
  2
*U4
 70
     1
 10
0.0
 20
0.0
 30
0.0
  3
*U4
  1

  0
TEXT
  5
B63
  8
SYMBOLLINE
  6
CONTINUOUS
 62
     0
 10
172.53571428571419
 20
-1306.8276019332011
 30
0.0
 40
55.0
  1
456
 41
0.9
  0
ENDBLK
  5
B65
  8
0
 62
     7
  0
ENDSEC
  0
SECTION
  2
ENTITIES
  0
LINE
  5
35
  8
DETAIL
  6
CONTINUOUS
 62
     5
 10
401.00001849999978
 20
490.00004799999988
 30
0.0
 11
406.00001949999972
 21
485.00004799999988
 31
0.0
  0
LINE
  5
36
  8
DETAIL
  6
CONTINUOUS
 62
     5
 10
50.999984500000068
 20
490.00004799999988
 30
0.0
 11
401.00001849999978
 21
490.00004799999988
 31
0.0
  0
LINE
  5
37
  8
DETAIL
  6
CONTINUOUS
 62
     5
 10
50.999984500000068
 20
490.00004799999988
 30
0.0
 11
45.99998350000007
 21
485.00004799999988
 31
0.0
  0
LINE
  5
38
  8
DETAIL
  6
CONTINUOUS
 62
     5
 10
45.99998350000007
 20
265.00002599999999
 30
0.0
 11
45.99998350000007
 21
485.00004799999988
 31
0.0
  0
LINE
  5
39
  8
DETAIL
  6
CONTINUOUS
 62
     5
 10
45.99998350000007
 20
265.00002599999999
 30
0.0
 11
50.999984500000068
 21
260.00002599999999
 31
0.0
  0
LINE
  5
3A
  8
DETAIL
  6
CONTINUOUS
 62
     5
 10
406.00001949999972
 20
265.00002599999999
 30
0.0
 11
406.00001949999972
 21
485.00004799999988
 31
0.0
  0
LINE
  5
3B
  8
DETAIL
  6
CONTINUOUS
 62
     5
 10
50.999984500000068
 20
260.00002599999999
 30
0.0
 11
401.00001849999978
 21
260.00002599999999
 31
0.0
  0
LINE
  5
3C
  8
DETAIL
  6
CONTINUOUS
 62
     5
 10
401.00001849999978
 20
260.00002599999999
 30
0.0
 11
406.00001949999972
 21
265.00002599999999
 31
0.0
  0
LINE
  5
3D
  8
DETAIL
  6
CONTINUOUS
 62
     5
 10
111.0002855
 20
1300.000127
 30
0.0
 11
106.00028450000001
 21
1305.000127
 31
0.0
  0
LINE
  5
3E
  8
DETAIL
  6
CONTINUOUS
 62
     5
 10
426.00031649999988
 20
1305.000127
 30
0.0
 11
421.00031649999988
 21
1300.000127
 31
0.0
  0
LINE
  5
3F
  8
DETAIL
  6
CONTINUOUS
 62
     5
 10
421.00031649999988
 20
1620.0001580000001
 30
0.0
 11
426.00031649999988
 21
1615.0001580000001
 31
0.0
  0
LINE
  5
40
  8
DETAIL
  6
CONTINUOUS
 62
     5
 10
106.00028450000001
 20
1615.0001580000001
 30
0.0
 11
111.0002855
 21
1620.0001580000001
 31
0.0
  0
LINE
  5
41
  8
DETAIL
  6
CONTINUOUS
 62
     5
 10
90.999673500000185
 20
1110.000108
 30
0.0
 11
85.999672500000116
 21
1105.000108
 31
0.0
  0
LINE
  5
42
  8
DETAIL
  6
CONTINUOUS
 62
     5
 10
325.99969650000008
 20
1105.000108
 30
0.0
 11
320.99969549999992
 21
1110.000108
 31
0.0
  0
LINE
  5
43
  8
DETAIL
  6
CONTINUOUS
 62
     5
 10
320.99969549999992
 20
900.00008699999967
 30
0.0
 11
325.99969650000008
 21
905.00008800000001
 31
0.0
  0
LINE
  5
44
  8
DETAIL
  6
CONTINUOUS
 62
     5
 10
90.999673500000185
 20
900.00008699999967
 30
0.0
 11
85.999672500000116
 21
905.00008800000001
 31
0.0
  0
LINE
  5
45
  8
DETAIL
  6
CONTINUOUS
 62
     5
 10
106.00028450000001
 20
1305.000127
 30
0.0
 11
106.00028450000001
 21
1615.0001580000001
 31
0.0
  0
LINE
  5
46
  8
DETAIL
  6
CONTINUOUS
 62
     5
 10
426.00031649999988
 20
1305.000127
 30
0.0
 11
426.00031649999988
 21
1615.0001580000001
 31
0.0
  0
LINE
  5
47
  8
DETAIL
  6
CONTINUOUS
 62
     5
 10
85.999672500000116
 20
905.00008800000001
 30
0.0
 11
85.999672500000116
 21
1105.000108
 31
0.0
  0
LINE
  5
48
  8
DETAIL
  6
CONTINUOUS
 62
     5
 10
325.99969650000008
 20
905.00008800000001
 30
0.0
 11
325.99969650000008
 21
1105.000108
 31
0.0
  0
LINE
  5
49
  8
DETAIL
  6
CONTINUOUS
 62
     5
 10
421.00031649999988
 20
1620.0001580000001
 30
0.0
 11
111.0002855
 21
1620.0001580000001
 31
0.0
  0
LINE
  5
4A
  8
DETAIL
  6
CONTINUOUS
 62
     5
 10
421.00031649999988
 20
1300.000127
 30
0.0
 11
111.0002855
 21
1300.000127
 31
0.0
  0
LINE
  5
4B
  8
DETAIL
  6
CONTINUOUS
 62
     5
 10
320.99969549999992
 20
1110.000108
 30
0.0
 11
90.999673500000185
 21
1110.000108
 31
0.0
  0
LINE
  5
4C
  8
DETAIL
  6
CONTINUOUS
 62
     5
 10
320.99969549999992
 20
900.00008699999967
 30
0.0
 11
90.999673500000185
 21
900.00008699999967
 31
0.0
  0
LINE
  5
4D
  8
DETAIL
  6
CONTINUOUS
 62
     5
 10
414.99996550000009
 20
35.000003
 30
0.0
 11
354.99995949999987
 21
35.000003
 31
0.0
  0
LINE
  5
4E
  8
DETAIL
  6
CONTINUOUS
 62
     5
 10
354.99995949999987
 20
0.0
 30
0.0
 11
354.99995949999987
 21
35.000003
 31
0.0
  0
LINE
  5
4F
  8
DETAIL
  6
CONTINUOUS
 62
     5
 10
414.99996550000009
 20
0.0
 30
0.0
 11
414.99996550000009
 21
35.000003
 31
0.0
  0
LINE
  5
50
  8
DETAIL
  6
CONTINUOUS
 62
     5
 10
414.99996550000009
 20
4.4999999999999982
 30
0.0
 11
354.99995949999987
 21
4.4999999999999982
 31
0.0
  0
LINE
  5
51
  8
DETAIL
  6
CONTINUOUS
 62
     5
 10
422.99722250000002
 20
0.0
 30
0.0
 11
362.99721649999981
 21
0.0
 31
0.0
  0
LINE
  5
52
  8
DETAIL
  6
CONTINUOUS
 62
     5
 10
115.00000350000001
 20
35.000003
 30
0.0
 11
54.999997499999992
 21
35.000003
 31
0.0
  0
LINE
  5
53
  8
DETAIL
  6
CONTINUOUS
 62
     5
 10
54.999997499999992
 20
0.0
 30
0.0
 11
54.999997499999992
 21
35.000003
 31
0.0
  0
LINE
  5
54
  8
DETAIL
  6
CONTINUOUS
 62
     5
 10
115.00000350000001
 20
0.0
 30
0.0
 11
115.00000350000001
 21
35.000003
 31
0.0
  0
LINE
  5
55
  8
DETAIL
  6
CONTINUOUS
 62
     5
 10
115.00000350000001
 20
4.4999999999999947
 30
0.0
 11
54.999997499999992
 21
4.4999999999999947
 31
0.0
  0
LINE
  5
56
  8
DETAIL
  6
CONTINUOUS
 62
     5
 10
122.9971925
 20
0.0
 30
0.0
 11
62.997186499999991
 21
0.0
 31
0.0
  0
LINE
  5
5E
  8
NOTE
  6
CONTINUOUS
 62
     4
 10
315.0
 20
914.99999949999994
 30
0.0
 11
407.0
 21
914.99999949999994
 31
0.0
  0
LINE
  5
5F
  8
NOTE
  6
CONTINUOUS
 62
     4
 10
361.0
 20
960.99999949999994
 30
0.0
 11
361.0
 21
868.99999949999994
 31
0.0
  0
CIRCLE
  5
61
  8
DETAIL
  6
CONTINUOUS
 62
     5
 10
361.0
 20
914.99999949999994
 30
0.0
 40
26.000003
  0
LINE
  5
62
  8
NOTE
  6
CONTINUOUS
 62
     4
 10
343.49999650000001
 20
90.000008999999963
 30
0.0
 11
426.50000449999982
 21
90.000008999999963
 31
0.0
  0
LINE
  5
63
  8
NOTE
  6
CONTINUOUS
 62
     4
 10
385.0000005
 20
131.500013
 30
0.0
 11
385.0000005
 21
48.500005000000002
 31
0.0
  0
LINE
  5
64
  8
NOTE
  6
CONTINUOUS
 62
     4
 10
351.49999750000001
 20
150.00001499999999
 30
0.0
 11
418.50000349999988
 21
150.00001499999999
 31
0.0
  0
LINE
  5
65
  8
NOTE
  6
CONTINUOUS
 62
     4
 10
385.0000005
 20
183.50001800000001
 30
0.0
 11
385.0000005
 21
116.500012
 31
0.0
  0
LINE
  5
66
  8
NOTE
  6
CONTINUOUS
 62
     4
 10
351.49999750000001
 20
210.000021
 30
0.0
 11
418.50000349999988
 21
210.000021
 31
0.0
  0
LINE
  5
67
  8
NOTE
  6
CONTINUOUS
 62
     4
 10
385.0000005
 20
243.500024
 30
0.0
 11
385.0000005
 21
176.50001800000001
 31
0.0
  0
LINE
  5
68
  8
NOTE
  6
CONTINUOUS
 62
     4
 10
143.49999600000001
 20
225.000022
 30
0.0
 11
226.50000399999999
 21
225.000022
 31
0.0
  0
LINE
  5
69
  8
NOTE
  6
CONTINUOUS
 62
     4
 10
185.0
 20
266.50002599999999
 30
0.0
 11
185.0
 21
183.50001800000001
 31
0.0
  0
LINE
  5
6A
  8
NOTE
  6
CONTINUOUS
 62
     4
 10
58.99999600000001
 20
215.000021
 30
0.0
 11
151.00000399999999
 21
215.000021
 31
0.0
  0
LINE
  5
6B
  8
NOTE
  6
CONTINUOUS
 62
     4
 10
105.0
 20
261.00002499999999
 30
0.0
 11
105.0
 21
169.0000169999999
 31
0.0
  0
LINE
  5
6C
  8
DETAIL
  6
CONTINUOUS
 62
     5
 10
65.999694500000004
 20
130.000013
 30
0.0
 11
65.999694500000004
 21
120.000012
 31
0.0
  0
LINE
  5
6D
  8
DETAIL
  6
CONTINUOUS
 62
     5
 10
117.99969950000001
 20
130.000013
 30
0.0
 11
117.99969950000001
 21
120.000012
 31
0.0
  0
ARC
  5
6E
  8
DETAIL
  6
CONTINUOUS
 62
     5
 10
91.999697499999996
 20
130.000013
 30
0.0
 40
26.000003
 50
0.0
 51
180.0
  0
ARC
  5
6F
  8
DETAIL
  6
CONTINUOUS
 62
     5
 10
91.999697499999996
 20
120.000012
 30
0.0
 40
26.000003
 50
180.0
 51
0.0
  0
LINE
  5
70
  8
NOTE
  6
CONTINUOUS
 62
     4
 10
47.350471499999983
 20
130.000013
 30
0.0
 11
136.64892349999991
 21
130.000013
 31
0.0
  0
LINE
  5
71
  8
NOTE
  6
CONTINUOUS
 62
     4
 10
47.350471499999983
 20
120.000012
 30
0.0
 11
136.64892349999991
 21
120.000012
 31
0.0
  0
LINE
  5
72
  8
NOTE
  6
CONTINUOUS
 62
     4
 10
92.0
 20
75.350785500000015
 30
0.0
 11
92.0
 21
174.6492385
 31
0.0
  0
LINE
  5
73
  8
DETAIL
  6
CONTINUOUS
 62
     5
 10
7.0
 20
0.0
 30
0.0
 11
7.0
 21
40.000002999999992
 31
0.0
  0
LINE
  5
74
  8
DETAIL
  6
CONTINUOUS
 62
     5
 10
0.0000004999999987
 20
40.000002999999992
 30
0.0
 11
0.0000004999999987
 21
1650.0
 31
0.0
  0
LINE
  5
75
  8
DETAIL
  6
CONTINUOUS
 62
     5
 10
485.0000005
 20
40.000002999999992
 30
0.0
 11
485.0000005
 21
1650.0
 31
0.0
  0
LINE
  5
76
  8
DETAIL
  6
CONTINUOUS
 62
     5
 10
7.0
 20
0.0
 30
0.0
 11
463.0
 21
0.0
 31
0.0
  0
LINE
  5
77
  8
DETAIL
  6
CONTINUOUS
 62
     5
 10
485.0000005
 20
40.000002999999992
 30
0.0
 11
0.0000004999999987
 21
40.000002999999992
 31
0.0
  0
LINE
  5
78
  8
DETAIL
  6
CONTINUOUS
 62
     5
 10
463.0
 20
0.0
 30
0.0
 11
463.0
 21
40.000002999999992
 31
0.0
  0
LINE
  5
79
  8
NOTE
  6
CONTINUOUS
 62
     4
 10
334.83333149999999
 20
520.00004999999976
 30
0.0
 11
395.16667050000001
 21
520.00004999999976
 31
0.0
  0
LINE
  5
7A
  8
NOTE
  6
CONTINUOUS
 62
     4
 10
365.0000005
 20
550.16672000000005
 30
0.0
 11
365.0000005
 21
489.83337999999992
 31
0.0
  0
LINE
  5
93
  8
DETAIL
  6
CONTINUOUS
 62
     5
 10
484.9999995
 20
1650.0
 30
0.0
 11
0.0000004999999987
 21
1650.0
 31
0.0
  0
LINE
  5
97
  8
OUTLINE
  6
CONTINUOUS
 62
     3
 10
485.0000005
 20
1650.0
 30
0.0
 11
0.0000004999999987
 21
1650.0
 31
0.0
  0
LINE
  5
98
  8
OUTLINE
  6
CONTINUOUS
 62
     3
 10
0.0000004999999987
 20
1650.0
 30
0.0
 11
0.0000004999999135
 21
40.000002999999992
 31
0.0
  0
LINE
  5
99
  8
OUTLINE
  6
CONTINUOUS
 62
     3
 10
0.0000004999999987
 20
40.000002999999992
 30
0.0
 11
484.9999995
 21
40.000002999999992
 31
0.0
  0
LINE
  5
9A
  8
OUTLINE
  6
CONTINUOUS
 62
     3
 10
485.0000005
 20
40.0
 30
0.0
 11
485.0000005
 21
1650.0
 31
0.0
  0
LINE
  5
9D
  8
OUTLINE
  6
CONTINUOUS
 62
     3
 10
463.0
 20
40.000002999999992
 30
0.0
 11
463.0
 21
0.0
 31
0.0
  0
LINE
  5
9E
  8
OUTLINE
  6
CONTINUOUS
 62
     3
 10
463.0
 20
0.0
 30
0.0
 11
7.0
 21
0.0
 31
0.0
  0
LINE
  5
9F
  8
OUTLINE
  6
CONTINUOUS
 62
     3
 10
7.0
 20
0.0
 30
0.0
 11
7.0
 21
40.000002999999992
 31
0.0
  0
CIRCLE
  5
A0
  8
FIX
  6
CONTINUOUS
 62
    11
 10
384.99996249999998
 20
0.0
 30
0.0
 40
20.0
  0
LINE
  5
A1
  8
NOTE
  6
CONTINUOUS
 62
     4
 10
384.99996249999998
 20
-31.598136
 30
0.0
 11
384.99996249999998
 21
31.59742700000001
 31
0.0
  0
LINE
  5
A2
  8
NOTE
  6
CONTINUOUS
 62
     4
 10
407.67470549999979
 20
0.0
 30
0.0
 11
364.32524849999999
 21
-0.000355
 31
0.0
  0
LINE
  5
A3
  8
NOTE
  6
CONTINUOUS
 62
     4
 10
594.96504049999976
 20
-341.18816800000002
 30
0.0
 11
385.0
 21
0.0
 31
0.0
  0
LINE
  5
A4
  8
NOTE
  6
CONTINUOUS
 62
     4
 10
385.00029549999999
 20
-0.000133
 30
0.0
 11
393.98458649999998
 21
-30.713038000000001
 31
0.0
  0
LINE
  5
A5
  8
NOTE
  6
CONTINUOUS
 62
     4
 10
385.00029549999999
 20
-0.000133
 30
0.0
 11
408.13737249999969
 21
-22.106142999999999
 31
0.0
  0
LINE
  5
A7
  8
NOTE
  6
CONTINUOUS
 62
     4
 10
85.000000499999999
 20
-31.598136
 30
0.0
 11
85.000000499999999
 21
31.59742700000001
 31
0.0
  0
LINE
  5
A8
  8
NOTE
  6
CONTINUOUS
 62
     4
 10
106.6747295
 20
0.0
 30
0.0
 11
63.325272500000011
 21
0.0
 31
0.0
  0
LINE
  5
A9
  8
SIZE
  6
CONTINUOUS
 62
    30
 10
0.0000004999999987
 20
20.000003
 30
0.0
 11
0.0000004999999987
 21
-140.69086200000001
 31
0.0
  0
LINE
  5
AA
  8
SIZE
  6
CONTINUOUS
 62
    30
 10
91.999697499999996
 20
55.350785999999992
 30
0.0
 11
91.999697499999996
 21
-140.69086200000001
 31
0.0
  0
LINE
  5
AB
  8
SIZE
  6
CONTINUOUS
 62
    30
 10
81.999697499999996
 20
-110.690862
 30
0.0
 11
10.000000500000001
 21
-110.690862
 31
0.0
  0
LINE
  5
AC
  8
SIZE
  6
CONTINUOUS
 62
    30
 10
0.0000004999999987
 20
-110.690862
 30
0.0
 11
-130.14285649999991
 21
-110.690862
 31
0.0
  0
CIRCLE
  5
AD
  8
SIZE
  6
CONTINUOUS
 62
    30
 10
91.999697499999996
 20
-110.690862
 30
0.0
 40
5.0
  0
LINE
  5
AE
  8
SIZE
  6
CONTINUOUS
 62
    30
 10
86.999697499999996
 20
-110.690862
 30
0.0
 11
81.999697499999996
 21
-110.690862
 31
0.0
  0
CIRCLE
  5
AF
  8
SIZE
  6
CONTINUOUS
 62
    30
 10
0.0000004999999987
 20
-110.690862
 30
0.0
 40
5.0
  0
LINE
  5
B0
  8
SIZE
  6
CONTINUOUS
 62
    30
 10
5.000000499999997
 20
-110.690862
 30
0.0
 11
10.000000500000001
 21
-110.690862
 31
0.0
  0
TEXT
  5
B1
  8
SIZE
  6
CONTINUOUS
 62
    30
 10
-110.1428560714286
 20
-90.690861999999996
 30
0.0
 40
55.0
  1
92
 41
0.9
 72
     1
 11
-70.071427500000055
 21
-90.690861999999996
 31
0.0
  0
POINT
  5
B2
  8
DEFPOINTS
  6
CONTINUOUS
 62
     7
 10
0.0000004999999987
 20
40.000002999999992
 30
0.0
  0
POINT
  5
B3
  8
DEFPOINTS
  6
CONTINUOUS
 62
     7
 10
91.999697499999996
 20
75.350785999999985
 30
0.0
  0
POINT
  5
B4
  8
DEFPOINTS
  6
CONTINUOUS
 62
     7
 10
91.999697499999996
 20
-110.690862
 30
0.0
  0
LINE
  5
B5
  8
SIZE
  6
CONTINUOUS
 62
    30
 10
0.0000004999999987
 20
20.000003
 30
0.0
 11
0.0000004999999987
 21
-250.25278
 31
0.0
  0
LINE
  5
B6
  8
SIZE
  6
CONTINUOUS
 62
    30
 10
104.99969849999979
 20
149.00001700000001
 30
0.0
 11
104.99969849999979
 21
-250.25278
 31
0.0
  0
LINE
  5
B7
  8
SIZE
  6
CONTINUOUS
 62
    30
 10
94.999698499999994
 20
-220.25278
 30
0.0
 11
10.000000500000001
 21
-220.25278
 31
0.0
  0
LINE
  5
B8
  8
SIZE
  6
CONTINUOUS
 62
    30
 10
0.0000004999999987
 20
-220.25278
 30
0.0
 11
-170.4101964999999
 21
-220.25278
 31
0.0
  0
CIRCLE
  5
B9
  8
SIZE
  6
CONTINUOUS
 62
    30
 10
104.99969849999979
 20
-220.25278
 30
0.0
 40
5.0
  0
LINE
  5
BA
  8
SIZE
  6
CONTINUOUS
 62
    30
 10
99.999698499999994
 20
-220.25278
 30
0.0
 11
94.999698499999994
 21
-220.25278
 31
0.0
  0
CIRCLE
  5
BB
  8
SIZE
  6
CONTINUOUS
 62
    30
 10
0.0000004999999987
 20
-220.25278
 30
0.0
 40
5.0
  0
LINE
  5
BC
  8
SIZE
  6
CONTINUOUS
 62
    30
 10
5.000000499999997
 20
-220.25278
 30
0.0
 11
10.000000500000001
 21
-220.25278
 31
0.0
  0
TEXT
  5
BD
  8
SIZE
  6
CONTINUOUS
 62
    30
 10
-150.4101959285714
 20
-200.25278
 30
0.0
 40
55.0
  1
105
 41
0.9
 72
     1
 11
-91.481624499999995
 21
-200.25278
 31
0.0
  0
POINT
  5
BE
  8
DEFPOINTS
  6
CONTINUOUS
 62
     7
 10
0.0000004999999987
 20
40.000002999999992
 30
0.0
  0
POINT
  5
BF
  8
DEFPOINTS
  6
CONTINUOUS
 62
     7
 10
104.99969849999979
 20
169.0000169999999
 30
0.0
  0
POINT
  5
C0
  8
DEFPOINTS
  6
CONTINUOUS
 62
     7
 10
104.99969849999979
 20
-220.25278
 30
0.0
  0
LINE
  5
C1
  8
SIZE
  6
CONTINUOUS
 62
    30
 10
0.0000004999999987
 20
20.000003
 30
0.0
 11
0.0000004999999987
 21
-349.85453699999999
 31
0.0
  0
LINE
  5
C2
  8
SIZE
  6
CONTINUOUS
 62
    30
 10
184.9997065
 20
163.5000179999999
 30
0.0
 11
184.9997065
 21
-349.85453699999999
 31
0.0
  0
LINE
  5
C3
  8
SIZE
  6
CONTINUOUS
 62
    30
 10
174.9997065
 20
-319.85453699999999
 30
0.0
 11
10.000000500000001
 21
-319.85453699999999
 31
0.0
  0
LINE
  5
C4
  8
SIZE
  6
CONTINUOUS
 62
    30
 10
0.0000004999999987
 20
-319.85453699999999
 30
0.0
 11
-167.85714249999981
 21
-319.85453699999999
 31
0.0
  0
CIRCLE
  5
C5
  8
SIZE
  6
CONTINUOUS
 62
    30
 10
184.9997065
 20
-319.85453699999999
 30
0.0
 40
5.0
  0
LINE
  5
C6
  8
SIZE
  6
CONTINUOUS
 62
    30
 10
179.9997065
 20
-319.85453699999999
 30
0.0
 11
174.9997065
 21
-319.85453699999999
 31
0.0
  0
CIRCLE
  5
C7
  8
SIZE
  6
CONTINUOUS
 62
    30
 10
0.0000004999999987
 20
-319.85453699999999
 30
0.0
 40
5.0
  0
LINE
  5
C8
  8
SIZE
  6
CONTINUOUS
 62
    30
 10
5.000000499999997
 20
-319.85453699999999
 30
0.0
 11
10.000000500000001
 21
-319.85453699999999
 31
0.0
  0
TEXT
  5
C9
  8
SIZE
  6
CONTINUOUS
 62
    30
 10
-147.85714192857139
 20
-299.85453699999999
 30
0.0
 40
55.0
  1
185
 41
0.9
 72
     1
 11
-88.928570499999964
 21
-299.85453699999999
 31
0.0
  0
POINT
  5
CA
  8
DEFPOINTS
  6
CONTINUOUS
 62
     7
 10
0.0000004999999987
 20
40.000002999999992
 30
0.0
  0
POINT
  5
CB
  8
DEFPOINTS
  6
CONTINUOUS
 62
     7
 10
184.9997065
 20
183.50001800000001
 30
0.0
  0
POINT
  5
CC
  8
DEFPOINTS
  6
CONTINUOUS
 62
     7
 10
184.9997065
 20
-319.85453699999999
 30
0.0
  0
POINT
  5
D6
  8
DEFPOINTS
  6
CONTINUOUS
 62
     7
 10
0.0000004999999987
 20
39.887267000000001
 30
0.0
  0
POINT
  5
D7
  8
DEFPOINTS
  6
CONTINUOUS
 62
     7
 10
85.000000499999999
 20
-31.710871999999998
 30
0.0
  0
POINT
  5
E1
  8
DEFPOINTS
  6
CONTINUOUS
 62
     7
 10
85.000000499999999
 20
-31.598136
 30
0.0
  0
POINT
  5
E2
  8
DEFPOINTS
  6
CONTINUOUS
 62
     7
 10
385.0000005
 20
-31.598136
 30
0.0
  0
POINT
  5
EC
  8
DEFPOINTS
  6
CONTINUOUS
 62
     7
 10
385.0000005
 20
-31.598136
 30
0.0
  0
POINT
  5
ED
  8
DEFPOINTS
  6
CONTINUOUS
 62
     7
 10
0.0000004999999987
 20
40.000002999999992
 30
0.0
  0
LINE
  5
EF
  8
SIZE
  6
CONTINUOUS
 62
    30
 10
-12.999876499999999
 20
0.0
 30
0.0
 11
-314.48974249999992
 21
0.0
 31
0.0
  0
LINE
  5
F0
  8
SIZE
  6
CONTINUOUS
 62
    30
 10
27.350471500000001
 20
130.000013
 30
0.0
 11
-314.48974249999992
 21
130.000013
 31
0.0
  0
LINE
  5
F1
  8
SIZE
  6
CONTINUOUS
 62
    30
 10
-284.48974249999992
 20
-9.9999999999999982
 30
0.0
 11
-284.48974249999992
 21
-20.0
 31
0.0
  0
LINE
  5
F2
  8
SIZE
  6
CONTINUOUS
 62
    30
 10
-284.48974249999992
 20
140.000013
 30
0.0
 11
-284.48974249999992
 21
150.000013
 31
0.0
  0
LINE
  5
F3
  8
SIZE
  6
CONTINUOUS
 62
    30
 10
-284.48974249999992
 20
0.0
 30
0.0
 11
-284.48974249999992
 21
130.000013
 31
0.0
  0
CIRCLE
  5
F4
  8
SIZE
  6
CONTINUOUS
 62
    30
 10
-284.48974249999992
 20
0.0
 30
0.0
 40
5.0
  0
LINE
  5
F5
  8
SIZE
  6
CONTINUOUS
 62
    30
 10
-284.48974249999992
 20
-4.9999999999999991
 30
0.0
 11
-284.48974249999992
 21
-9.9999999999999982
 31
0.0
  0
CIRCLE
  5
F6
  8
SIZE
  6
CONTINUOUS
 62
    30
 10
-284.48974249999992
 20
130.000013
 30
0.0
 40
5.0
  0
LINE
  5
F7
  8
SIZE
  6
CONTINUOUS
 62
    30
 10
-284.48974249999992
 20
135.000013
 30
0.0
 11
-284.48974249999992
 21
140.000013
 31
0.0
  0
TEXT
  5
F8
  8
SIZE
  6
CONTINUOUS
 62
    30
 10
-304.48974249999992
 20
6.0714345714285614
 30
0.0
 40
55.0
  1
130
 50
90.0
 41
0.9
 72
     1
 11
-304.48974249999992
 21
65.000005999999985
 31
0.0
  0
POINT
  5
F9
  8
DEFPOINTS
  6
CONTINUOUS
 62
     7
 10
7.0
 20
0.0
 30
0.0
  0
POINT
  5
FA
  8
DEFPOINTS
  6
CONTINUOUS
 62
     7
 10
47.350471499999983
 20
130.000013
 30
0.0
  0
POINT
  5
FB
  8
DEFPOINTS
  6
CONTINUOUS
 62
     7
 10
-284.48974249999992
 20
130.000013
 30
0.0
  0
LINE
  5
FC
  8
SIZE
  6
CONTINUOUS
 62
    30
 10
-12.999876499999999
 20
0.0
 30
0.0
 11
-446.42038249999968
 21
0.0
 31
0.0
  0
LINE
  5
FD
  8
SIZE
  6
CONTINUOUS
 62
    30
 10
38.999694499999997
 20
215.000021
 30
0.0
 11
-446.42038249999968
 21
215.000021
 31
0.0
  0
LINE
  5
FE
  8
SIZE
  6
CONTINUOUS
 62
    30
 10
-416.42038249999979
 20
10.0
 30
0.0
 11
-416.42038249999979
 21
205.000021
 31
0.0
  0
CIRCLE
  5
FF
  8
SIZE
  6
CONTINUOUS
 62
    30
 10
-416.42038249999979
 20
0.0
 30
0.0
 40
5.0
  0
LINE
  5
100
  8
SIZE
  6
CONTINUOUS
 62
    30
 10
-416.42038249999979
 20
4.9999999999999982
 30
0.0
 11
-416.42038249999979
 21
10.0
 31
0.0
  0
CIRCLE
  5
101
  8
SIZE
  6
CONTINUOUS
 62
    30
 10
-416.42038249999979
 20
215.000021
 30
0.0
 40
5.0
  0
LINE
  5
102
  8
SIZE
  6
CONTINUOUS
 62
    30
 10
-416.42038249999979
 20
210.000021
 30
0.0
 11
-416.42038249999979
 21
205.000021
 31
0.0
  0
TEXT
  5
103
  8
SIZE
  6
CONTINUOUS
 62
    30
 10
-436.42038249999968
 20
48.571439571428591
 30
0.0
 40
55.0
  1
215
 50
90.0
 41
0.9
 72
     1
 11
-436.42038249999968
 21
107.500011
 31
0.0
  0
POINT
  5
104
  8
DEFPOINTS
  6
CONTINUOUS
 62
     7
 10
7.0
 20
0.0
 30
0.0
  0
POINT
  5
105
  8
DEFPOINTS
  6
CONTINUOUS
 62
     7
 10
58.999694499999997
 20
215.000021
 30
0.0
  0
POINT
  5
106
  8
DEFPOINTS
  6
CONTINUOUS
 62
     7
 10
-416.42038249999979
 20
215.000021
 30
0.0
  0
LINE
  5
107
  8
SIZE
  6
CONTINUOUS
 62
    30
 10
-12.999876499999999
 20
0.0
 30
0.0
 11
-585.7780644999998
 21
0.0
 31
0.0
  0
LINE
  5
108
  8
SIZE
  6
CONTINUOUS
 62
    30
 10
123.4997025
 20
225.000022
 30
0.0
 11
-585.7780644999998
 21
225.000022
 31
0.0
  0
LINE
  5
109
  8
SIZE
  6
CONTINUOUS
 62
    30
 10
-555.77806450000003
 20
10.0
 30
0.0
 11
-555.77806450000003
 21
215.000022
 31
0.0
  0
CIRCLE
  5
10A
  8
SIZE
  6
CONTINUOUS
 62
    30
 10
-555.77806450000003
 20
0.0
 30
0.0
 40
5.0
  0
LINE
  5
10B
  8
SIZE
  6
CONTINUOUS
 62
    30
 10
-555.77806450000003
 20
4.9999999999999982
 30
0.0
 11
-555.77806450000003
 21
10.0
 31
0.0
  0
CIRCLE
  5
10C
  8
SIZE
  6
CONTINUOUS
 62
    30
 10
-555.77806450000003
 20
225.000022
 30
0.0
 40
5.0
  0
LINE
  5
10D
  8
SIZE
  6
CONTINUOUS
 62
    30
 10
-555.77806450000003
 20
220.000022
 30
0.0
 11
-555.77806450000003
 21
215.000022
 31
0.0
  0
TEXT
  5
10E
  8
SIZE
  6
CONTINUOUS
 62
    30
 10
-575.77806450000003
 20
48.857153857142883
 30
0.0
 40
55.0
  1
225
 50
90.0
 41
0.9
 72
     1
 11
-575.77806450000003
 21
112.500011
 31
0.0
  0
POINT
  5
10F
  8
DEFPOINTS
  6
CONTINUOUS
 62
     7
 10
7.0
 20
0.0
 30
0.0
  0
POINT
  5
110
  8
DEFPOINTS
  6
CONTINUOUS
 62
     7
 10
143.49970250000001
 20
225.000022
 30
0.0
  0
POINT
  5
111
  8
DEFPOINTS
  6
CONTINUOUS
 62
     7
 10
-555.77806450000003
 20
225.000022
 30
0.0
  0
POINT
  5
11A
  8
DEFPOINTS
  6
CONTINUOUS
 62
     7
 10
7.0
 20
0.0
 30
0.0
  0
POINT
  5
126
  8
DEFPOINTS
  6
CONTINUOUS
 62
     7
 10
314.99971950000008
 20
915.00008899999989
 30
0.0
  0
LINE
  5
128
  8
SIZE
  6
CONTINUOUS
 62
    30
 10
483.99958849999962
 20
0.0
 30
0.0
 11
671.11000949999982
 21
0.0
 31
0.0
  0
LINE
  5
129
  8
SIZE
  6
CONTINUOUS
 62
    30
 10
446.50000449999999
 20
90.000008999999963
 30
0.0
 11
671.11000949999982
 21
90.000008999999963
 31
0.0
  0
LINE
  5
12A
  8
SIZE
  6
CONTINUOUS
 62
    30
 10
641.11000949999982
 20
-9.9999999999999982
 30
0.0
 11
641.11000949999982
 21
-20.0
 31
0.0
  0
LINE
  5
12B
  8
SIZE
  6
CONTINUOUS
 62
    30
 10
641.11000949999982
 20
100.00000900000001
 30
0.0
 11
641.11000949999982
 21
110.00000900000001
 31
0.0
  0
LINE
  5
12C
  8
SIZE
  6
CONTINUOUS
 62
    30
 10
641.11000949999982
 20
0.0
 30
0.0
 11
641.11000949999982
 21
90.000008999999963
 31
0.0
  0
CIRCLE
  5
12D
  8
SIZE
  6
CONTINUOUS
 62
    30
 10
641.11000949999982
 20
0.0
 30
0.0
 40
5.0
  0
LINE
  5
12E
  8
SIZE
  6
CONTINUOUS
 62
    30
 10
641.11000949999982
 20
-4.9999999999999991
 30
0.0
 11
641.11000949999982
 21
-9.9999999999999982
 31
0.0
  0
CIRCLE
  5
12F
  8
SIZE
  6
CONTINUOUS
 62
    30
 10
641.11000949999982
 20
90.000008999999963
 30
0.0
 40
5.0
  0
LINE
  5
130
  8
SIZE
  6
CONTINUOUS
 62
    30
 10
641.11000949999982
 20
95.000008999999963
 30
0.0
 11
641.11000949999982
 21
100.00000900000001
 31
0.0
  0
TEXT
  5
131
  8
SIZE
  6
CONTINUOUS
 62
    30
 10
621.11000949999982
 20
4.9285754285714267
 30
0.0
 40
55.0
  1
90
 50
90.0
 41
0.9
 72
     1
 11
621.11000949999982
 21
45.00000399999999
 31
0.0
  0
POINT
  5
132
  8
DEFPOINTS
  6
CONTINUOUS
 62
     7
 10
463.0
 20
0.0
 30
0.0
  0
POINT
  5
133
  8
DEFPOINTS
  6
CONTINUOUS
 62
     7
 10
426.50000449999982
 20
90.000008999999963
 30
0.0
  0
POINT
  5
134
  8
DEFPOINTS
  6
CONTINUOUS
 62
     7
 10
641.11000949999982
 20
90.000008999999963
 30
0.0
  0
LINE
  5
135
  8
SIZE
  6
CONTINUOUS
 62
    30
 10
446.50000449999999
 20
90.000008999999963
 30
0.0
 11
671.11000949999982
 21
90.000008999999963
 31
0.0
  0
LINE
  5
136
  8
SIZE
  6
CONTINUOUS
 62
    30
 10
438.50000349999999
 20
150.00001499999999
 30
0.0
 11
671.11000949999982
 21
150.00001499999999
 31
0.0
  0
LINE
  5
137
  8
SIZE
  6
CONTINUOUS
 62
    30
 10
641.11000949999982
 20
100.00000900000001
 30
0.0
 11
641.11000949999982
 21
140.00001499999999
 31
0.0
  0
LINE
  5
138
  8
SIZE
  6
CONTINUOUS
 62
    30
 10
641.11000949999982
 20
120.000012
 30
0.0
 11
766.57928849999985
 21
140.41270299999999
 31
0.0
  0
LINE
  5
139
  8
SIZE
  6
CONTINUOUS
 62
    30
 10
766.57928849999985
 20
140.41270299999999
 30
0.0
 11
766.57928849999985
 21
260.55556000000001
 31
0.0
  0
TEXT
  5
13A
  8
SIZE
  6
CONTINUOUS
 62
    30
 10
746.57928849999973
 20
160.4127034285714
 30
0.0
 40
55.0
  1
60
 50
90.0
 41
0.9
 72
     1
 11
746.57928849999973
 21
200.48413199999999
 31
0.0
  0
CIRCLE
  5
13B
  8
SIZE
  6
CONTINUOUS
 62
    30
 10
641.11000949999982
 20
90.000008999999963
 30
0.0
 40
5.0
  0
LINE
  5
13C
  8
SIZE
  6
CONTINUOUS
 62
    30
 10
641.11000949999982
 20
95.000008999999963
 30
0.0
 11
641.11000949999982
 21
100.00000900000001
 31
0.0
  0
CIRCLE
  5
13D
  8
SIZE
  6
CONTINUOUS
 62
    30
 10
641.11000949999982
 20
150.00001499999999
 30
0.0
 40
5.0
  0
LINE
  5
13E
  8
SIZE
  6
CONTINUOUS
 62
    30
 10
641.11000949999982
 20
145.00001499999999
 30
0.0
 11
641.11000949999982
 21
140.00001499999999
 31
0.0
  0
POINT
  5
13F
  8
DEFPOINTS
  6
CONTINUOUS
 62
     7
 10
426.50000449999982
 20
90.000008999999963
 30
0.0
  0
POINT
  5
140
  8
DEFPOINTS
  6
CONTINUOUS
 62
     7
 10
418.50000349999988
 20
150.00001499999999
 30
0.0
  0
POINT
  5
141
  8
DEFPOINTS
  6
CONTINUOUS
 62
     7
 10
641.11000949999982
 20
150.00001499999999
 30
0.0
  0
LINE
  5
142
  8
SIZE
  6
CONTINUOUS
 62
    30
 10
438.50000349999999
 20
150.00001499999999
 30
0.0
 11
671.11000949999982
 21
150.00001499999999
 31
0.0
  0
LINE
  5
143
  8
SIZE
  6
CONTINUOUS
 62
    30
 10
438.50000349999999
 20
210.000021
 30
0.0
 11
671.11000949999982
 21
210.000021
 31
0.0
  0
LINE
  5
144
  8
SIZE
  6
CONTINUOUS
 62
    30
 10
641.11000949999982
 20
160.00001499999999
 30
0.0
 11
641.11000949999982
 21
200.000021
 31
0.0
  0
LINE
  5
145
  8
SIZE
  6
CONTINUOUS
 62
    30
 10
641.11000949999982
 20
343.057456
 30
0.0
 11
641.11000949999982
 21
210.000021
 31
0.0
  0
TEXT
  5
146
  8
SIZE
  6
CONTINUOUS
 62
    30
 10
621.11000949999982
 20
242.91459942857139
 30
0.0
 40
55.0
  1
60
 50
90.0
 41
0.9
 72
     1
 11
621.11000949999982
 21
282.98602799999998
 31
0.0
  0
CIRCLE
  5
147
  8
SIZE
  6
CONTINUOUS
 62
    30
 10
641.11000949999982
 20
150.00001499999999
 30
0.0
 40
5.0
  0
LINE
  5
148
  8
SIZE
  6
CONTINUOUS
 62
    30
 10
641.11000949999982
 20
155.00001499999999
 30
0.0
 11
641.11000949999982
 21
160.00001499999999
 31
0.0
  0
CIRCLE
  5
149
  8
SIZE
  6
CONTINUOUS
 62
    30
 10
641.11000949999982
 20
210.000021
 30
0.0
 40
5.0
  0
LINE
  5
14A
  8
SIZE
  6
CONTINUOUS
 62
    30
 10
641.11000949999982
 20
205.000021
 30
0.0
 11
641.11000949999982
 21
200.000021
 31
0.0
  0
POINT
  5
14B
  8
DEFPOINTS
  6
CONTINUOUS
 62
     7
 10
418.50000349999988
 20
150.00001499999999
 30
0.0
  0
POINT
  5
14C
  8
DEFPOINTS
  6
CONTINUOUS
 62
     7
 10
418.50000349999988
 20
210.000021
 30
0.0
  0
POINT
  5
14D
  8
DEFPOINTS
  6
CONTINUOUS
 62
     7
 10
641.11000949999982
 20
210.000021
 30
0.0
  0
POINT
  5
166
  8
DEFPOINTS
  6
CONTINUOUS
 62
     7
 10
437.99957449999999
 20
0.0
 30
0.0
  0
LINE
  5
169
  8
SIZE
  6
CONTINUOUS
 62
    30
 10
483.99958849999962
 20
0.0
 30
0.0
 11
1168.1829895000001
 21
0.0
 31
0.0
  0
POINT
  5
170
  8
DEFPOINTS
  6
CONTINUOUS
 62
     7
 10
396.16636949999997
 20
520.00004999999976
 30
0.0
  0
POINT
  5
171
  8
DEFPOINTS
  6
CONTINUOUS
 62
     7
 10
463.0
 20
0.0
 30
0.0
  0
POINT
  5
189
  8
DEFPOINTS
  6
CONTINUOUS
 62
     7
 10
360.99967550000002
 20
961.00009399999999
 30
0.0
  0
POINT
  5
1A0
  8
DEFPOINTS
  6
CONTINUOUS
 62
     7
 10
0.0000004999999987
 20
40.000002999999992
 30
0.0
  0
POINT
  5
1A1
  8
DEFPOINTS
  6
CONTINUOUS
 62
     7
 10
7.0
 20
0.0
 30
0.0
  0
POINT
  5
1AB
  8
DEFPOINTS
  6
CONTINUOUS
 62
     7
 10
7.0
 20
0.0
 30
0.0
  0
POINT
  5
1AC
  8
DEFPOINTS
  6
CONTINUOUS
 62
     7
 10
463.0
 20
0.0
 30
0.0
  0
LINE
  5
1B9
  8
NOTE
  6
CONTINUOUS
 62
     4
 10
-154.66030749999999
 20
479.81584199999992
 30
0.0
 11
92.0
 21
130.000013
 31
0.0
  0
LINE
  5
1BA
  8
NOTE
  6
CONTINUOUS
 62
     4
 10
91.999697499999996
 20
130.000013
 30
0.0
 11
82.758277499999977
 21
153.68916999999999
 31
0.0
  0
LINE
  5
1BB
  8
NOTE
  6
CONTINUOUS
 62
     4
 10
91.999697499999996
 20
130.000013
 30
0.0
 11
71.081900499999975
 21
144.894148
 31
0.0
  0
LINE
  5
1BC
  8
NOTE
  6
CONTINUOUS
 62
     4
 10
-101.1867064999999
 20
636.96403499999963
 30
0.0
 11
105.0
 21
215.000021
 31
0.0
  0
LINE
  5
1BD
  8
NOTE
  6
CONTINUOUS
 62
     4
 10
105.0
 20
215.000021
 30
0.0
 11
99.47605100000014
 21
239.820697
 31
0.0
  0
LINE
  5
1BE
  8
NOTE
  6
CONTINUOUS
 62
     4
 10
105.0
 20
215.000021
 30
0.0
 11
86.595902999999964
 21
232.907524
 31
0.0
  0
LINE
  5
1BF
  8
NOTE
  6
CONTINUOUS
 62
     4
 10
-58.494153499999982
 20
776.47968599999979
 30
0.0
 11
185.0
 21
225.000022
 31
0.0
  0
LINE
  5
1C0
  8
NOTE
  6
CONTINUOUS
 62
     4
 10
185.0
 20
225.000022
 30
0.0
 11
180.44120399999991
 21
250.015964
 31
0.0
  0
LINE
  5
1C1
  8
NOTE
  6
CONTINUOUS
 62
     4
 10
185.0
 20
225.000022
 30
0.0
 11
167.30304799999999
 21
243.60667000000001
 31
0.0
  0
LINE
  5
1CB
  8
NOTE
  6
CONTINUOUS
 62
     4
 10
659.29155049999963
 20
746.82701799999973
 30
0.0
 11
385.0000005
 21
210.000021
 31
0.0
  0
LINE
  5
1CC
  8
NOTE
  6
CONTINUOUS
 62
     4
 10
385.0000005
 20
210.000021
 30
0.0
 11
401.53421549999979
 21
229.318399
 31
0.0
  0
LINE
  5
1CD
  8
NOTE
  6
CONTINUOUS
 62
     4
 10
385.0000005
 20
210.000021
 30
0.0
 11
388.27305250000001
 21
235.46915100000001
 31
0.0
  0
LINE
  5
1CE
  8
NOTE
  6
CONTINUOUS
 62
     4
 10
725.95232250000004
 20
595.26765999999964
 30
0.0
 11
385.0000005
 21
150.00001499999999
 31
0.0
  0
LINE
  5
1CF
  8
NOTE
  6
CONTINUOUS
 62
     4
 10
385.0000005
 20
150.00001499999999
 30
0.0
 11
404.7436065
 21
166.02405999999999
 31
0.0
  0
LINE
  5
1D0
  8
NOTE
  6
CONTINUOUS
 62
     4
 10
385.0000005
 20
150.00001499999999
 30
0.0
 11
392.80730649999998
 21
174.46295499999999
 31
0.0
  0
LINE
  5
1D1
  8
NOTE
  6
CONTINUOUS
 62
     4
 10
605.90146449999975
 20
-160.83902
 30
0.0
 11
385.0000005
 21
90.000008999999963
 31
0.0
  0
LINE
  5
1D2
  8
NOTE
  6
CONTINUOUS
 62
     4
 10
385.0000005
 20
90.000008999999963
 30
0.0
 11
396.88827250000003
 21
67.522265000000004
 31
0.0
  0
LINE
  5
1D3
  8
NOTE
  6
CONTINUOUS
 62
     4
 10
385.0000005
 20
90.000008999999963
 30
0.0
 11
407.48296850000003
 21
77.594138000000001
 31
0.0
  0
TEXT
  5
1D4
  8
NOTE
  6
CONTINUOUS
 62
     4
 10
-576.34293950000006
 20
654.88279699999975
 30
0.0
 40
64.0
  1
RG2 %%C15.88
 50
359.99999700000001
 41
0.75
  7
STANDARD1
  0
LINE
  5
1D5
  8
NOTE
  6
CONTINUOUS
 62
     4
 10
-580.83595849999961
 20
636.96403499999963
 30
0.0
 11
-101.1867064999999
 21
636.96403499999963
 31
0.0
  0
TEXT
  5
1D6
  8
NOTE
  6
CONTINUOUS
 62
     4
 10
-472.87055549999963
 20
794.86661499999934
 30
0.0
 40
64.0
  1
RL2 %%C9.52
 50
359.99999700000001
 41
0.75
  7
STANDARD1
  0
LINE
  5
1D7
  8
NOTE
  6
CONTINUOUS
 62
     4
 10
-521.62130049999985
 20
777.49039000000005
 30
0.0
 11
-58.624852499999903
 21
777.49039000000005
 31
0.0
  0
TEXT
  5
1DA
  8
NOTE
  6
CONTINUOUS
 62
     4
 10
-452.88779749999992
 20
507.90603700000003
 30
0.0
 40
64.0
  1
D2 Rc1
 50
359.99999700000001
 41
0.8
  7
STANDARD1
  0
LINE
  5
1DB
  8
NOTE
  6
CONTINUOUS
 62
     4
 10
-461.04250249999978
 20
479.81584199999992
 30
0.0
 11
-154.66030749999999
 21
479.81584199999992
 31
0.0
  0
TEXT
  5
1DC
  8
NOTE
  6
CONTINUOUS
 62
     4
 10
592.5402435000002
 20
-318.67897799999997
 30
0.0
 40
64.0
  1
AH 4-%%c12
 50
359.99999600000001
 41
0.8
  7
STANDARD1
  0
LINE
  5
1DD
  8
NOTE
  6
CONTINUOUS
 62
     4
 10
594.96504049999976
 20
-341.18816800000002
 30
0.0
 11
982.20931049999979
 21
-341.188174
 31
0.0
  0
TEXT
  5
1DE
  8
NOTE
  6
CONTINUOUS
 62
     4
 10
632.24534149999999
 20
-132.74882199999999
 30
0.0
 40
64.0
  1
EL4 %%C43
 50
359.99999700000001
 41
0.8
  7
STANDARD1
  0
LINE
  5
1DF
  8
NOTE
  6
CONTINUOUS
 62
     4
 10
605.90146449999975
 20
-160.83902
 30
0.0
 11
953.71296049999955
 21
-160.83902
 31
0.0
  0
TEXT
  5
1E0
  8
NOTE
  6
CONTINUOUS
 62
     4
 10
749.63460650000002
 20
623.35785799999985
 30
0.0
 40
64.0
  1
EL3 %%C27
 50
359.99999700000001
 41
0.8
  7
STANDARD1
  0
LINE
  5
1E1
  8
NOTE
  6
CONTINUOUS
 62
     4
 10
725.95232250000004
 20
595.26765999999964
 30
0.0
 11
1071.1022255
 21
595.26765999999964
 31
0.0
  0
TEXT
  5
1E2
  8
NOTE
  6
CONTINUOUS
 62
     4
 10
682.97383449999916
 20
774.91721600000005
 30
0.0
 40
64.0
  1
CL2 %%C27
 50
359.99999700000001
 41
0.8
  7
STANDARD1
  0
LINE
  5
1E3
  8
NOTE
  6
CONTINUOUS
 62
     4
 10
656.62995750000016
 20
746.82701799999973
 30
0.0
 11
1004.4414535
 21
746.82701799999973
 31
0.0
  0
CIRCLE
  5
1E9
  8
ARRANGE
  6
CONTINUOUS
 62
     1
 10
0.0
 20
0.0
 30
0.0
 40
30.0
  0
LINE
  5
1EB
  8
ARRANGE
  6
CONTINUOUS
 62
     1
 10
-36.360022999999998
 20
36.36002400000001
 30
0.0
 11
36.36002400000001
 21
-36.360022999999998
 31
0.0
  0
LINE
  5
1EC
  8
ARRANGE
  6
CONTINUOUS
 62
     1
 10
36.360024500000009
 20
36.360023499999997
 30
0.0
 11
-36.360022500000007
 21
-36.360023499999997
 31
0.0
  0
POINT
  5
1F7
  8
DEFPOINTS
  6
CONTINUOUS
 62
     7
 10
0.0000004999999987
 20
40.000002999999992
 30
0.0
  0
CIRCLE
  5
1F9
  8
DETAIL
  6
CONTINUOUS
 62
     5
 10
365.0000005
 20
519.99999949999994
 30
0.0
 40
13.5
  0
CIRCLE
  5
1FA
  8
DETAIL
  6
CONTINUOUS
 62
     5
 10
385.0000005
 20
210.000021
 30
0.0
 40
13.5
  0
CIRCLE
  5
1FB
  8
DETAIL
  6
CONTINUOUS
 62
     5
 10
385.0000005
 20
150.00001499999999
 30
0.0
 40
13.5
  0
CIRCLE
  5
1FC
  8
DETAIL
  6
CONTINUOUS
 62
     5
 10
385.0000005
 20
90.000008999999963
 30
0.0
 40
21.5
  0
POINT
  5
205
  8
DEFPOINTS
  6
CONTINUOUS
 62
     7
 10
364.99967650000002
 20
550.16672000000005
 30
0.0
  0
CIRCLE
  5
20A
  8
DETAIL
  6
CONTINUOUS
 62
     5
 10
105.0
 20
215.000021
 30
0.0
 40
7.9400000000000004
  0
LINE
  5
21D
  8
SIZE
  6
CONTINUOUS
 62
    30
 10
393.68322085432737
 20
1748.0
 30
0.0
 11
690.82383149999964
 21
1748.0
 31
0.0
  0
LINE
  5
21E
  8
SIZE
  6
CONTINUOUS
 62
    30
 10
504.99971249999987
 20
1650.0
 30
0.0
 11
690.82383149999964
 21
1650.0
 31
0.0
  0
LINE
  5
21F
  8
SIZE
  6
CONTINUOUS
 62
    30
 10
660.82383149999976
 20
1738.0
 30
0.0
 11
660.82383149999976
 21
1660.0
 31
0.0
  0
CIRCLE
  5
220
  8
SIZE
  6
CONTINUOUS
 62
    30
 10
660.82383149999976
 20
1748.0
 30
0.0
 40
5.0
  0
LINE
  5
221
  8
SIZE
  6
CONTINUOUS
 62
    30
 10
660.82383149999976
 20
1743.0
 30
0.0
 11
660.82383149999976
 21
1738.0
 31
0.0
  0
CIRCLE
  5
222
  8
SIZE
  6
CONTINUOUS
 62
    30
 10
660.82383149999976
 20
1650.0
 30
0.0
 40
5.0
  0
LINE
  5
223
  8
SIZE
  6
CONTINUOUS
 62
    30
 10
660.82383149999976
 20
1655.0
 30
0.0
 11
660.82383149999976
 21
1660.0
 31
0.0
  0
POINT
  5
227
  8
DEFPOINTS
  6
CONTINUOUS
 62
     7
 10
660.82383149999976
 20
1644.999832
 30
0.0
  0
LINE
  5
228
  8
SIZE
  6
CONTINUOUS
 62
    30
 10
505.0000005
 20
1650.0
 30
0.0
 11
1455.9213365000001
 21
1650.0
 31
0.0
  0
LINE
  5
229
  8
SIZE
  6
CONTINUOUS
 62
    30
 10
483.99958849999962
 20
0.0
 30
0.0
 11
1455.9213365000001
 21
0.0
 31
0.0
  0
LINE
  5
22A
  8
SIZE
  6
CONTINUOUS
 62
    30
 10
1425.9213365000001
 20
1640.0
 30
0.0
 11
1425.9213365000001
 21
10.0
 31
0.0
  0
CIRCLE
  5
22B
  8
SIZE
  6
CONTINUOUS
 62
    30
 10
1425.9213365000001
 20
1650.0
 30
0.0
 40
5.0
  0
LINE
  5
22C
  8
SIZE
  6
CONTINUOUS
 62
    30
 10
1425.9213365000001
 20
1645.0
 30
0.0
 11
1425.9213365000001
 21
1640.0
 31
0.0
  0
CIRCLE
  5
22D
  8
SIZE
  6
CONTINUOUS
 62
    30
 10
1425.9213365000001
 20
0.0
 30
0.0
 40
5.0
  0
LINE
  5
22E
  8
SIZE
  6
CONTINUOUS
 62
    30
 10
1425.9213365000001
 20
4.9999999999999982
 30
0.0
 11
1425.9213365000001
 21
10.0
 31
0.0
  0
TEXT
  5
22F
  8
SIZE
  6
CONTINUOUS
 62
    30
 10
1405.9213365000001
 20
842.50009099999988
 30
0.0
 40
55.0
  1
1650
 50
90.0
 41
0.9
 72
     1
 11
1405.9213365000001
 21
925.000091
 31
0.0
  0
POINT
  5
231
  8
DEFPOINTS
  6
CONTINUOUS
 62
     7
 10
463.0
 20
0.0
 30
0.0
  0
POINT
  5
232
  8
DEFPOINTS
  6
CONTINUOUS
 62
     7
 10
1425.9213365000001
 20
0.0
 30
0.0
  0
CIRCLE
  5
234
  8
DETAIL
  6
CONTINUOUS
 62
     5
 10
185.0
 20
225.000022
 30
0.0
 40
4.759999999999998
  0
TEXT
  5
35F
  8
SIZE
  6
CONTINUOUS
 62
    30
 10
640.82382335174111
 20
1785.117679822227
 30
0.0
 40
55.0
  1
98
 50
90.0
 41
0.9
 72
     1
 11
640.82382335174111
 21
1825.1891083936559
 31
0.0
  0
LINE
  5
360
  8
SIZE
  6
CONTINUOUS
 62
    30
 10
660.82383149999976
 20
1894.7423294423379
 30
0.0
 11
660.82383149999976
 21
1747.146471349678
 31
0.0
  0
LINE
  5
3A5
  8
SIZE
  6
CONTINUOUS
 62
    30
 10
0.0
 20
1683.718710077442
 30
0.0
 11
0.0
 21
1934.472900077443
 31
0.0
  0
LINE
  5
3A6
  8
SIZE
  6
CONTINUOUS
 62
    30
 10
485.00004799999999
 20
1683.718710077442
 30
0.0
 11
485.00004799999999
 21
1934.472900077443
 31
0.0
  0
LINE
  5
3A7
  8
SIZE
  6
CONTINUOUS
 62
    30
 10
9.9999999999999112
 20
1904.472900077443
 30
0.0
 11
475.00004799999988
 21
1904.472900077443
 31
0.0
  0
CIRCLE
  5
3A8
  8
SIZE
  6
CONTINUOUS
 62
    30
 10
0.0
 20
1904.299079514331
 30
0.0
 40
5.0
  0
LINE
  5
3A9
  8
SIZE
  6
CONTINUOUS
 62
    30
 10
5.0
 20
1904.472900077443
 30
0.0
 11
9.9999999999999112
 21
1904.472900077443
 31
0.0
  0
CIRCLE
  5
3AA
  8
SIZE
  6
CONTINUOUS
 62
    30
 10
485.00004799999999
 20
1904.472900077443
 30
0.0
 40
5.0
  0
LINE
  5
3AB
  8
SIZE
  6
CONTINUOUS
 62
    30
 10
480.00004799999988
 20
1904.472900077443
 30
0.0
 11
475.00004799999988
 21
1904.472900077443
 31
0.0
  0
TEXT
  5
3AC
  8
SIZE
  6
CONTINUOUS
 62
    30
 10
170.4441808571429
 20
1924.472900077441
 30
0.0
 40
55.0
  1
485
 41
0.9
 72
     1
 11
234.08703800000001
 21
1924.472900077441
 31
0.0
  0
POINT
  5
3AD
  8
DEFPOINTS
  6
CONTINUOUS
 62
     7
 10
485.00004799999999
 20
1904.472900077443
 30
0.0
  0
LINE
  5
3AF
  8
DETAIL
  6
CONTINUOUS
 62
     5
 10
19.0
 20
1738.0
 30
0.0
 11
355.0
 21
1737.999994999999
 31
0.0
  0
LINE
  5
3B0
  8
DETAIL
  6
CONTINUOUS
 62
     5
 10
19.0
 20
1748.0
 30
0.0
 11
355.0
 21
1747.9999949999999
 31
0.0
  0
LINE
  5
3B1
  8
OUTLINE
  6
CONTINUOUS
 62
     3
 10
19.0
 20
1748.0
 30
0.0
 11
355.0
 21
1747.9999949999999
 31
0.0
  0
LINE
  5
3B3
  8
OUTLINE
  6
CONTINUOUS
 62
     3
 10
39.0
 20
1649.999998999999
 30
0.0
 11
39.0
 21
1737.999999702379
 31
0.0
  0
LINE
  5
3B4
  8
DETAIL
  6
CONTINUOUS
 62
     5
 10
39.0
 20
1737.999999702379
 30
0.0
 11
39.0
 21
1649.999998999999
 31
0.0
  0
LINE
  5
3B5
  8
OUTLINE
  6
CONTINUOUS
 62
     3
 10
355.0
 20
1737.999994999999
 30
0.0
 11
19.000008418021189
 21
1738.0000114333729
 31
0.0
  0
LINE
  5
3B6
  8
DETAIL
  6
CONTINUOUS
 62
     5
 10
335.0
 20
1737.999998999999
 30
0.0
 11
335.0
 21
1650.0
 31
0.0
  0
LINE
  5
3B7
  8
OUTLINE
  6
CONTINUOUS
 62
     3
 10
335.0
 20
1737.999998999999
 30
0.0
 11
335.0
 21
1650.0
 31
0.0
  0
LINE
  5
3B9
  8
DETAIL
  6
CONTINUOUS
 62
     5
 10
19.0
 20
1748.000008115489
 30
0.0
 11
19.0
 21
1738.0000081154899
 31
0.0
  0
LINE
  5
3BA
  8
OUTLINE
  6
CONTINUOUS
 62
     3
 10
19.0
 20
1738.0000081154899
 30
0.0
 11
19.0
 21
1748.000008115489
 31
0.0
  0
LINE
  5
3BC
  8
DETAIL
  6
CONTINUOUS
 62
     5
 10
355.00000841802108
 20
1748.0000031154891
 30
0.0
 11
355.00000841802108
 21
1738.00000311549
 31
0.0
  0
LINE
  5
3BD
  8
OUTLINE
  6
CONTINUOUS
 62
     3
 10
355.00000841802108
 20
1738.00000311549
 30
0.0
 11
355.00000841802108
 21
1748.0000031154891
 31
0.0
  0
TEXT
  5
3F6
  8
ETC
  6
CONTINUOUS
 62
    61
 10
882.88177434699355
 20
1904.079204997784
 30
0.0
 40
65.0
  1
PFT-P140DM-E_5
 50
359.99999700000001
 41
0.670573
  7
STANDARD1
  0
LINE
  5
4D5
  8
NOTE
  6
CONTINUOUS
 62
     4
 10
125.0000045
 20
611.99999949999994
 30
0.0
 11
32.999995500000011
 21
611.99999949999994
 31
0.0
  0
LINE
  5
4D6
  8
NOTE
  6
CONTINUOUS
 62
     4
 10
79.0
 20
658.00000449999982
 30
0.0
 11
79.0
 21
565.99999449999996
 31
0.0
  0
CIRCLE
  5
4D7
  8
DETAIL
  6
CONTINUOUS
 62
     5
 10
79.0
 20
611.99999949999994
 30
0.0
 40
26.000003
  0
CIRCLE
  5
AC0
  8
FIX
  6
CONTINUOUS
 62
    11
 10
85.0
 20
0.0
 30
0.0
 40
20.0
  0
LINE
  5
B02
  8
SIZE
  6
CONTINUOUS
 62
    30
 10
0.0003880000003846
 20
19.887267000000062
 30
0.0
 11
0.0003880000003846
 21
-574.38759400000015
 31
0.0
  0
LINE
  5
B03
  8
SIZE
  6
CONTINUOUS
 62
    30
 10
85.00038800000037
 20
-51.710871999999981
 30
0.0
 11
85.00038800000037
 21
-574.38759400000015
 31
0.0
  0
LINE
  5
B04
  8
SIZE
  6
CONTINUOUS
 62
    30
 10
75.00038800000037
 20
-544.38759399999981
 30
0.0
 11
10.000388000000379
 21
-544.38759399999981
 31
0.0
  0
LINE
  5
B05
  8
SIZE
  6
CONTINUOUS
 62
    30
 10
0.0003880000003846
 20
-544.38759399999981
 30
0.0
 11
-130.14246899999949
 21
-544.38759399999981
 31
0.0
  0
CIRCLE
  5
B06
  8
SIZE
  6
CONTINUOUS
 62
    30
 10
85.00038800000037
 20
-544.38759399999981
 30
0.0
 40
5.0
  0
LINE
  5
B07
  8
SIZE
  6
CONTINUOUS
 62
    30
 10
80.00038800000037
 20
-544.38759399999981
 30
0.0
 11
75.00038800000037
 21
-544.38759399999981
 31
0.0
  0
CIRCLE
  5
B08
  8
SIZE
  6
CONTINUOUS
 62
    30
 10
0.0003880000003846
 20
-544.38759399999981
 30
0.0
 40
5.0
  0
LINE
  5
B09
  8
SIZE
  6
CONTINUOUS
 62
    30
 10
5.0003880000003829
 20
-544.38759399999981
 30
0.0
 11
10.000388000000379
 21
-544.38759399999981
 31
0.0
  0
TEXT
  5
B0A
  8
SIZE
  6
CONTINUOUS
 62
    30
 10
-110.1424685714282
 20
-524.38759399999992
 30
0.0
 40
55.0
  1
85
 41
0.9
 72
     1
 11
-70.07103999999967
 21
-524.38759399999992
 31
0.0
  0
POINT
  5
B0B
  8
DEFPOINTS
  6
CONTINUOUS
 62
     7
 10
85.00038800000037
 20
-544.38759399999981
 30
0.0
  0
LINE
  5
B0C
  8
SIZE
  6
CONTINUOUS
 62
    30
 10
85.00038800000037
 20
-51.598135999999961
 30
0.0
 11
85.00038800000037
 21
-574.38759400000015
 31
0.0
  0
LINE
  5
B0D
  8
SIZE
  6
CONTINUOUS
 62
    30
 10
385.00038800000038
 20
-51.598135999999961
 30
0.0
 11
385.00038800000038
 21
-574.38759400000015
 31
0.0
  0
LINE
  5
B0E
  8
SIZE
  6
CONTINUOUS
 62
    30
 10
95.000388000000385
 20
-544.38759399999981
 30
0.0
 11
375.00038800000038
 21
-544.38759399999981
 31
0.0
  0
CIRCLE
  5
B0F
  8
SIZE
  6
CONTINUOUS
 62
    30
 10
85.00038800000037
 20
-544.38759399999981
 30
0.0
 40
5.0
  0
LINE
  5
B10
  8
SIZE
  6
CONTINUOUS
 62
    30
 10
90.000388000000385
 20
-544.38759399999981
 30
0.0
 11
95.000388000000385
 21
-544.38759399999981
 31
0.0
  0
CIRCLE
  5
B11
  8
SIZE
  6
CONTINUOUS
 62
    30
 10
385.00038800000038
 20
-544.38759399999981
 30
0.0
 40
5.0
  0
LINE
  5
B12
  8
SIZE
  6
CONTINUOUS
 62
    30
 10
380.00038800000038
 20
-544.38759399999981
 30
0.0
 11
375.00038800000038
 21
-544.38759399999981
 31
0.0
  0
TEXT
  5
B13
  8
SIZE
  6
CONTINUOUS
 62
    30
 10
171.35753085714319
 20
-524.38759399999992
 30
0.0
 40
55.0
  1
300
 41
0.9
 72
     1
 11
235.00038800000041
 21
-524.38759399999992
 31
0.0
  0
POINT
  5
B14
  8
DEFPOINTS
  6
CONTINUOUS
 62
     7
 10
385.00038800000038
 20
-544.38759399999981
 30
0.0
  0
LINE
  5
B15
  8
SIZE
  6
CONTINUOUS
 62
    30
 10
385.00038800000038
 20
-51.598135999999961
 30
0.0
 11
385.00038800000038
 21
-709.70131399999957
 31
0.0
  0
LINE
  5
B16
  8
SIZE
  6
CONTINUOUS
 62
    30
 10
0.0003880000003846
 20
20.000002999999989
 30
0.0
 11
0.0003880000003846
 21
-709.70131399999957
 31
0.0
  0
LINE
  5
B17
  8
SIZE
  6
CONTINUOUS
 62
    30
 10
375.00038800000038
 20
-679.7013139999998
 30
0.0
 11
10.000388000000379
 21
-679.7013139999998
 31
0.0
  0
CIRCLE
  5
B18
  8
SIZE
  6
CONTINUOUS
 62
    30
 10
385.00038800000038
 20
-679.7013139999998
 30
0.0
 40
5.0
  0
LINE
  5
B19
  8
SIZE
  6
CONTINUOUS
 62
    30
 10
380.00038800000038
 20
-679.7013139999998
 30
0.0
 11
375.00038800000038
 21
-679.7013139999998
 31
0.0
  0
CIRCLE
  5
B1A
  8
SIZE
  6
CONTINUOUS
 62
    30
 10
0.0003880000003846
 20
-679.7013139999998
 30
0.0
 40
5.0
  0
LINE
  5
B1B
  8
SIZE
  6
CONTINUOUS
 62
    30
 10
5.0003880000003829
 20
-679.7013139999998
 30
0.0
 11
10.000388000000379
 21
-679.7013139999998
 31
0.0
  0
TEXT
  5
B1C
  8
SIZE
  6
CONTINUOUS
 62
    30
 10
128.8575308571433
 20
-659.70131399999957
 30
0.0
 40
55.0
  1
385
 41
0.9
 72
     1
 11
192.50038800000041
 21
-659.70131399999957
 31
0.0
  0
POINT
  5
B1D
  8
DEFPOINTS
  6
CONTINUOUS
 62
     7
 10
0.0003880000003846
 20
-679.7013139999998
 30
0.0
  0
LINE
  5
B1E
  8
SIZE
  6
CONTINUOUS
 62
    30
 10
0.0003880000003846
 20
20.000002999999989
 30
0.0
 11
0.0003880000003846
 21
-837.39801599999953
 31
0.0
  0
LINE
  5
B1F
  8
SIZE
  6
CONTINUOUS
 62
    30
 10
7.0005110000004152
 20
-20.0
 30
0.0
 11
7.0005110000004152
 21
-837.39801599999953
 31
0.0
  0
LINE
  5
B20
  8
SIZE
  6
CONTINUOUS
 62
    30
 10
17.000511000000412
 20
-807.39801599999964
 30
0.0
 11
27.000511000000419
 21
-807.39801599999964
 31
0.0
  0
LINE
  5
B21
  8
SIZE
  6
CONTINUOUS
 62
    30
 10
-9.9996119999996154
 20
-807.39801599999964
 30
0.0
 11
-92.999611999999615
 21
-807.39801599999964
 31
0.0
  0
LINE
  5
B22
  8
SIZE
  6
CONTINUOUS
 62
    30
 10
7.0005110000004152
 20
-807.39801599999964
 30
0.0
 11
0.0003880000003846
 21
-807.39801599999964
 31
0.0
  0
CIRCLE
  5
B23
  8
SIZE
  6
CONTINUOUS
 62
    30
 10
7.0005110000004152
 20
-807.39801599999964
 30
0.0
 40
5.0
  0
LINE
  5
B24
  8
SIZE
  6
CONTINUOUS
 62
    30
 10
12.00051100000041
 20
-807.39801599999964
 30
0.0
 11
17.000511000000412
 21
-807.39801599999964
 31
0.0
  0
CIRCLE
  5
B25
  8
SIZE
  6
CONTINUOUS
 62
    30
 10
0.0003880000003846
 20
-807.39801599999964
 30
0.0
 40
5.0
  0
LINE
  5
B26
  8
SIZE
  6
CONTINUOUS
 62
    30
 10
-4.9996119999996163
 20
-807.39801599999964
 30
0.0
 11
-9.9996119999996154
 21
-807.39801599999964
 31
0.0
  0
TEXT
  5
B27
  8
SIZE
  6
CONTINUOUS
 62
    30
 10
-72.999611999999615
 20
-787.39801599999964
 30
0.0
 40
55.0
  1
7
 41
0.9
 72
     1
 11
-56.499611999999601
 21
-787.39801599999964
 31
0.0
  0
POINT
  5
B28
  8
DEFPOINTS
  6
CONTINUOUS
 62
     7
 10
7.0005110000004152
 20
-807.39801599999964
 30
0.0
  0
LINE
  5
B29
  8
SIZE
  6
CONTINUOUS
 62
    30
 10
7.0005110000004152
 20
-20.0
 30
0.0
 11
7.0005110000004152
 21
-837.39801599999953
 31
0.0
  0
LINE
  5
B2A
  8
SIZE
  6
CONTINUOUS
 62
    30
 10
463.0
 20
-20.0
 30
0.0
 11
463.0
 21
-837.39801599999953
 31
0.0
  0
LINE
  5
B2B
  8
SIZE
  6
CONTINUOUS
 62
    30
 10
17.000511000000412
 20
-807.39801599999964
 30
0.0
 11
453.00000000000023
 21
-807.39801599999964
 31
0.0
  0
CIRCLE
  5
B2C
  8
SIZE
  6
CONTINUOUS
 62
    30
 10
7.0005110000004152
 20
-807.39801599999964
 30
0.0
 40
5.0
  0
LINE
  5
B2D
  8
SIZE
  6
CONTINUOUS
 62
    30
 10
12.00051100000041
 20
-807.39801599999964
 30
0.0
 11
17.000511000000412
 21
-807.39801599999964
 31
0.0
  0
CIRCLE
  5
B2E
  8
SIZE
  6
CONTINUOUS
 62
    30
 10
463.0
 20
-807.39801599999964
 30
0.0
 40
5.0
  0
LINE
  5
B2F
  8
SIZE
  6
CONTINUOUS
 62
    30
 10
458.0000000000004
 20
-807.39801599999964
 30
0.0
 11
453.00000000000023
 21
-807.39801599999964
 31
0.0
  0
TEXT
  5
B30
  8
SIZE
  6
CONTINUOUS
 62
    30
 10
172.53596928571471
 20
-787.39801599999964
 30
0.0
 40
55.0
  1
456
 41
0.9
 72
     1
 11
235.00025500000041
 21
-787.39801599999964
 31
0.0
  0
POINT
  5
B31
  8
DEFPOINTS
  6
CONTINUOUS
 62
     7
 10
463.0
 20
-807.39801599999964
 30
0.0
  0
ENDSEC
  0
EOF
