  0
SECTION
  2
HEADER
  9
$ACADVER
  1
AC1009
  9
$INSBASE
 10
0.0
 20
0.0
 30
0.0
  9
$EXTMIN
 10
-1188.354458646332
 20
-1477.6611083392741
 30
-0.0000000000000058
  9
$EXTMAX
 10
1416.32082338482
 20
422.2870035123633
 30
0.0000000000000104
  9
$LIMMIN
 10
-6000.0
 20
-4500.0
  9
$LIMMAX
 10
6000.0
 20
4500.0
  9
$ORTHOMODE
 70
     0
  9
$REGENMODE
 70
     1
  9
$FILLMODE
 70
     1
  9
$QTEXTMODE
 70
     0
  9
$MIRRTEXT
 70
     0
  9
$DRAGMODE
 70
     2
  9
$LTSCALE
 40
20.0
  9
$OSMODE
 70
   431
  9
$ATTMODE
 70
     1
  9
$TEXTSIZE
 40
64.0
  9
$TRACEWID
 40
0.05
  9
$TEXTSTYLE
  7
STANDARD
  9
$CLAYER
  8
SYMBOLLINE
  9
$CELTYPE
  6
CONTINUOUS
  9
$CECOLOR
 62
     7
  9
$DIMSCALE
 40
1.0
  9
$DIMASZ
 40
10.0
  9
$DIMEXO
 40
20.0
  9
$DIMDLI
 40
200.0
  9
$DIMRND
 40
0.0
  9
$DIMDLE
 40
0.0
  9
$DIMEXE
 40
30.0
  9
$DIMTP
 40
0.0
  9
$DIMTM
 40
0.0
  9
$DIMTXT
 40
64.0
  9
$DIMCEN
 40
0.0
  9
$DIMTSZ
 40
0.0
  9
$DIMTOL
 70
     0
  9
$DIMLIM
 70
     0
  9
$DIMTIH
 70
     0
  9
$DIMTOH
 70
     0
  9
$DIMSE1
 70
     0
  9
$DIMSE2
 70
     0
  9
$DIMTAD
 70
     1
  9
$DIMZIN
 70
     8
  9
$DIMBLK
  1

  9
$DIMASO
 70
     1
  9
$DIMSHO
 70
     0
  9
$DIMPOST
  1

  9
$DIMAPOST
  1

  9
$DIMALT
 70
     0
  9
$DIMALTD
 70
     2
  9
$DIMALTF
 40
25.399999999999999
  9
$DIMLFAC
 40
1.0
  9
$DIMTOFL
 70
     1
  9
$DIMTVP
 40
0.0
  9
$DIMTIX
 70
     1
  9
$DIMSOXD
 70
     0
  9
$DIMSAH
 70
     1
  9
$DIMBLK1
  1
DOTBLANK
  9
$DIMBLK2
  1
DOTBLANK
  9
$DIMSTYLE
  2
STANDARD
  9
$DIMCLRD
 70
     0
  9
$DIMCLRE
 70
     0
  9
$DIMCLRT
 70
     0
  9
$DIMTFAC
 40
1.0
  9
$DIMGAP
 40
0.09
  9
$LUNITS
 70
     2
  9
$LUPREC
 70
     4
  9
$SKETCHINC
 40
0.1
  9
$FILLETRAD
 40
10.0
  9
$AUNITS
 70
     1
  9
$AUPREC
 70
     3
  9
$MENU
  1
ACAD
  9
$ELEVATION
 40
0.0
  9
$PELEVATION
 40
0.0
  9
$THICKNESS
 40
0.0
  9
$LIMCHECK
 70
     0
  9
$BLIPMODE
 70
     0
  9
$CHAMFERA
 40
0.0
  9
$CHAMFERB
 40
0.0
  9
$SKPOLY
 70
     0
  9
$TDCREATE
 40
2450330.4399309959
  9
$TDUPDATE
 40
2457047.6251725
  9
$TDINDWG
 40
1.6369741319
  9
$TDUSRTIMER
 40
1.6369421065
  9
$USRTIMER
 70
     1
  9
$ANGBASE
 50
0.0
  9
$ANGDIR
 70
     0
  9
$PDMODE
 70
     3
  9
$PDSIZE
 40
-2.0
  9
$PLINEWID
 40
0.0
  9
$COORDS
 70
     1
  9
$SPLFRAME
 70
     0
  9
$SPLINETYPE
 70
     6
  9
$SPLINESEGS
 70
     8
  9
$ATTDIA
 70
     1
  9
$ATTREQ
 70
     1
  9
$HANDLING
 70
     1
  9
$HANDSEED
  5
F7E
  9
$SURFTAB1
 70
     6
  9
$SURFTAB2
 70
     6
  9
$SURFTYPE
 70
     6
  9
$SURFU
 70
     6
  9
$SURFV
 70
     6
  9
$UCSNAME
  2

  9
$UCSORG
 10
0.0
 20
0.0
 30
0.0
  9
$UCSXDIR
 10
1.0
 20
0.0
 30
0.0
  9
$UCSYDIR
 10
0.0
 20
1.0
 30
0.0
  9
$PUCSNAME
  2

  9
$PUCSORG
 10
0.0
 20
0.0
 30
0.0
  9
$PUCSXDIR
 10
1.0
 20
0.0
 30
0.0
  9
$PUCSYDIR
 10
0.0
 20
1.0
 30
0.0
  9
$USERI1
 70
     0
  9
$USERI2
 70
     0
  9
$USERI3
 70
     0
  9
$USERI4
 70
     0
  9
$USERI5
 70
     0
  9
$USERR1
 40
20.0
  9
$USERR2
 40
0.0
  9
$USERR3
 40
0.0
  9
$USERR4
 40
0.0
  9
$USERR5
 40
0.0
  9
$WORLDVIEW
 70
     1
  9
$SHADEDGE
 70
     3
  9
$SHADEDIF
 70
    70
  9
$TILEMODE
 70
     1
  9
$MAXACTVP
 70
    48
  9
$PLIMCHECK
 70
     0
  9
$PEXTMIN
 10
1.0000000000000000E+020
 20
1.0000000000000000E+020
 30
1.0000000000000000E+020
  9
$PEXTMAX
 10
-1.0000000000000000E+020
 20
-1.0000000000000000E+020
 30
-1.0000000000000000E+020
  9
$PLIMMIN
 10
0.0
 20
0.0
  9
$PLIMMAX
 10
12.0
 20
9.0
  9
$UNITMODE
 70
     0
  9
$VISRETAIN
 70
     1
  9
$PLINEGEN
 70
     0
  9
$PSLTSCALE
 70
     1
  0
ENDSEC
  0
SECTION
  2
TABLES
  0
TABLE
  2
VPORT
 70
     1
  0
VPORT
  2
*ACTIVE
 70
     0
 10
0.0
 20
0.0
 11
1.0
 21
1.0
 12
113.98318236924391
 22
-527.68705241345549
 13
0.0
 23
0.0
 14
50.0
 24
50.0
 15
100.0
 25
100.0
 16
0.0
 26
0.0
 36
1.0
 17
0.0
 27
0.0
 37
0.0
 40
1914.8691703216771
 41
1.6159895150720831
 42
50.0
 43
0.0
 44
0.0
 50
0.0
 51
0.0
 71
     0
 72
  1000
 73
     1
 74
     0
 75
     0
 76
     0
 77
     0
 78
     0
  0
ENDTAB
  0
TABLE
  2
LTYPE
 70
     3
  0
LTYPE
  2
CONTINUOUS
 70
     0
  3
実線
 72
    65
 73
     0
 40
0.0
  0
LTYPE
  2
DASHDOT
 70
     0
  3
____ _ ____ _ ____ _ ____ _ ____ _ ____ _ ____
 72
    65
 73
     4
 40
5.5
 49
4.0
 49
-0.6
 49
0.3
 49
-0.6
  0
ENDTAB
  0
TABLE
  2
LAYER
 70
    12
  0
LAYER
  2
0
 70
     0
 62
     7
  6
CONTINUOUS
  0
LAYER
  2
SYMBOLLINE
 70
     0
 62
    15
  6
CONTINUOUS
  0
LAYER
  2
DETAIL
 70
     0
 62
     5
  6
CONTINUOUS
  0
LAYER
  2
OUTLINE
 70
     0
 62
     3
  6
CONTINUOUS
  0
LAYER
  2
BASIS
 70
     0
 62
     6
  6
DASHDOT
  0
LAYER
  2
SIZE
 70
     0
 62
    30
  6
CONTINUOUS
  0
LAYER
  2
NOTE
 70
     0
 62
     4
  6
CONTINUOUS
  0
LAYER
  2
ARRANGE
 70
     0
 62
     1
  6
CONTINUOUS
  0
LAYER
  2
FIX
 70
     0
 62
    11
  6
CONTINUOUS
  0
LAYER
  2
SERVICESPACE
 70
     0
 62
     2
  6
DASHDOT
  0
LAYER
  2
ETC
 70
     0
 62
    61
  6
CONTINUOUS
  0
LAYER
  2
DEFPOINTS
 70
     0
 62
     7
  6
CONTINUOUS
  0
ENDTAB
  0
TABLE
  2
STYLE
 70
     3
  0
STYLE
  2
STANDARD
 70
     0
 40
0.0
 41
0.9
 50
0.0
 71
     0
 42
64.0
  3
SIMPLEX
  4
BIGFONT
  0
STYLE
  2
ANNOTATIVE
 70
     0
 40
0.0
 41
1.0
 50
0.0
 71
     0
 42
0.2
  3
txt
  4

  0
STYLE
  2
STANDARD1
 70
     0
 40
0.0
 41
1.0
 50
0.0
 71
     0
 42
64.0
  3
MONOTXT
  4
BIGFONT
  0
ENDTAB
  0
TABLE
  2
VIEW
 70
     1
  0
VIEW
  2
ALL
 70
     0
 40
9000.0
 10
241.50664699999999
 20
0.0
 41
12483.01
 11
0.0
 21
0.0
 31
1.0
 12
0.0
 22
0.0
 32
0.0
 42
50.0
 43
0.0
 44
0.0
 50
0.0
 71
     0
  0
ENDTAB
  0
TABLE
  2
UCS
 70
     0
  0
ENDTAB
  0
TABLE
  2
APPID
 70
     5
  0
APPID
  2
ACAD
 70
     0
  0
APPID
  2
ACADANNOTATIVE
 70
     0
  0
APPID
  2
ACAD_MLEADERVER
 70
     0
  0
APPID
  2
ACAD_EXEMPT_FROM_CAD_STANDARDS
 70
     0
  0
APPID
  2
ACAD_NAV_VCDISPLAY
 70
     0
  0
ENDTAB
  0
TABLE
  2
DIMSTYLE
 70
     2
  0
DIMSTYLE
  2
STANDARD
 70
     0
  3

  4

  5

  6

  7

 40
1.0
 41
0.18
 42
0.0625
 43
0.38
 44
0.18
 45
0.0
 46
0.0
 47
0.0
 48
0.0
140
0.18
141
0.09
142
0.0
143
25.399999999999999
144
1.0
145
0.0
146
1.0
147
0.09
 71
     0
 72
     0
 73
     1
 74
     1
 75
     0
 76
     0
 77
     0
 78
     0
170
     0
171
     2
172
     0
173
     0
174
     0
175
     0
176
     0
177
     0
178
     0
  0
DIMSTYLE
  2
ANNOTATIVE
 70
     0
  3

  4

  5

  6

  7

 40
1.0
 41
0.18
 42
0.0625
 43
0.38
 44
0.18
 45
0.0
 46
0.0
 47
0.0
 48
0.0
140
0.18
141
0.09
142
0.0
143
25.399999999999999
144
1.0
145
0.0
146
1.0
147
0.09
 71
     0
 72
     0
 73
     1
 74
     1
 75
     0
 76
     0
 77
     0
 78
     0
170
     0
171
     2
172
     0
173
     0
174
     0
175
     0
176
     0
177
     0
178
     0
  0
ENDTAB
  0
ENDSEC
  0
SECTION
  2
BLOCKS
  0
BLOCK
  8
0
  2
$MODEL_SPACE
 70
     0
 10
0.0
 20
0.0
 30
0.0
  3
$MODEL_SPACE
  1

  0
ENDBLK
  5
E90
  8
0
  0
BLOCK
 67
     1
  8
0
  2
$PAPER_SPACE
 70
     0
 10
0.0
 20
0.0
 30
0.0
  3
$PAPER_SPACE
  1

  0
ENDBLK
  5
E8C
 67
     1
  8
0
  0
BLOCK
  8
0
  2
_DOTBLANK
 70
     0
 10
0.0
 20
0.0
 30
0.0
  3
_DOTBLANK
  1

  0
CIRCLE
  5
32
  8
0
  6
CONTINUOUS
 62
     7
 10
0.0
 20
0.0
 30
0.0
 40
0.5
  0
LINE
  5
33
  8
0
  6
CONTINUOUS
 62
     7
 10
-0.5
 20
0.0
 30
0.0
 11
-1.0
 21
0.0
 31
0.0
  0
ENDBLK
  5
34
  8
0
  0
BLOCK
  8
0
 62
     7
  2
*D3
 70
     1
 10
0.0
 20
0.0
 30
0.0
  3
*D3
  1

  0
LINE
  5
505
  8
SIZE
  6
CONTINUOUS
 62
     0
 10
631.0
 20
-434.99986999999987
 30
0.0
 11
631.0
 21
-1108.6911122512829
 31
0.0
  0
LINE
  5
506
  8
SIZE
  6
CONTINUOUS
 62
     0
 10
-631.0
 20
-434.99986999999987
 30
0.0
 11
-631.0
 21
-1108.6911122512829
 31
0.0
  0
LINE
  5
507
  8
SIZE
  6
CONTINUOUS
 62
     0
 10
621.0
 20
-1078.6911122512829
 30
0.0
 11
-621.0
 21
-1078.6911122512829
 31
0.0
  0
INSERT
  5
508
  8
SIZE
  6
CONTINUOUS
 62
     0
  2
_DOTBLANK
 10
631.0
 20
-1078.6911122512829
 30
0.0
 41
10.0
 42
10.0
 43
10.0
  0
INSERT
  5
509
  8
SIZE
  6
CONTINUOUS
 62
     0
  2
_DOTBLANK
 10
-631.0
 20
-1078.6911122512829
 30
0.0
 41
10.0
 42
10.0
 43
10.0
 50
180.0
  0
INSERT
  5
50A
  8
SYMBOLLINE
  6
CONTINUOUS
 62
     7
  2
*U4
 10
0.0
 20
0.0
 30
0.0
  0
POINT
  5
50B
  8
DEFPOINTS
  6
CONTINUOUS
 62
     0
 10
631.0
 20
-414.99986999999999
 30
0.0
  0
POINT
  5
50C
  8
DEFPOINTS
  6
CONTINUOUS
 62
     0
 10
-631.0
 20
-414.99986999999999
 30
0.0
  0
POINT
  5
50D
  8
DEFPOINTS
  6
CONTINUOUS
 62
     0
 10
-631.0
 20
-1078.6911122512829
 30
0.0
  0
ENDBLK
  5
4CA
  8
0
 62
     7
  0
BLOCK
  8
0
 62
     7
  2
*U4
 70
     1
 10
0.0
 20
0.0
 30
0.0
  3
*U4
  1

  0
TEXT
  5
58E
  8
SIZE
  6
CONTINUOUS
 62
     0
 10
-96.0
 20
-1078.601112251283
 30
0.0
 40
64.0
  1
1262
 41
0.9
  0
ENDBLK
  5
590
  8
0
 62
     7
  0
BLOCK
  8
0
 62
     7
  2
*D5
 70
     1
 10
0.0
 20
0.0
 30
0.0
  3
*D5
  1

  0
LINE
  5
4FC
  8
SIZE
  6
CONTINUOUS
 62
     0
 10
-616.99998800000003
 20
-436.36313999999999
 30
0.0
 11
-616.99998800000003
 21
-972.34878506746975
 31
0.0
  0
LINE
  5
4FD
  8
SIZE
  6
CONTINUOUS
 62
     0
 10
616.99997599999995
 20
-436.36313999999999
 30
0.0
 11
616.99997599999995
 21
-972.34878506746975
 31
0.0
  0
LINE
  5
4FE
  8
SIZE
  6
CONTINUOUS
 62
     0
 10
-606.99998800000003
 20
-942.34878506746963
 30
0.0
 11
606.99997599999995
 21
-942.34878506746963
 31
0.0
  0
INSERT
  5
4FF
  8
SIZE
  6
CONTINUOUS
 62
     0
  2
_DOTBLANK
 10
-616.99998800000003
 20
-942.34878506746963
 30
0.0
 41
10.0
 42
10.0
 43
10.0
 50
180.0
  0
INSERT
  5
500
  8
SIZE
  6
CONTINUOUS
 62
     0
  2
_DOTBLANK
 10
616.99997599999995
 20
-942.34878506746963
 30
0.0
 41
10.0
 42
10.0
 43
10.0
  0
INSERT
  5
501
  8
SYMBOLLINE
  6
CONTINUOUS
 62
     7
  2
*U6
 10
0.0
 20
0.0
 30
0.0
  0
POINT
  5
502
  8
DEFPOINTS
  6
CONTINUOUS
 62
     0
 10
-616.99998800000003
 20
-416.36313999999982
 30
0.0
  0
POINT
  5
503
  8
DEFPOINTS
  6
CONTINUOUS
 62
     0
 10
616.99997599999995
 20
-416.36313999999982
 30
0.0
  0
POINT
  5
504
  8
DEFPOINTS
  6
CONTINUOUS
 62
     0
 10
616.99997599999995
 20
-942.34878506746963
 30
0.0
  0
ENDBLK
  5
4E0
  8
0
 62
     7
  0
BLOCK
  8
0
 62
     7
  2
*U6
 70
     1
 10
0.0
 20
0.0
 30
0.0
  3
*U6
  1

  0
TEXT
  5
58A
  8
SIZE
  6
CONTINUOUS
 62
     0
 10
-97.37143457142858
 20
-942.2587850674696
 30
0.0
 40
64.0
  1
1234
 41
0.9
  0
ENDBLK
  5
58C
  8
0
 62
     7
  0
BLOCK
  8
0
 62
     7
  2
*D7
 70
     1
 10
0.0
 20
0.0
 30
0.0
  3
*D7
  1

  0
LINE
  5
806
  8
SYMBOLLINE
  6
CONTINUOUS
 62
     0
 10
417.49999399999962
 20
236.0
 30
0.0
 11
417.49999399999962
 21
536.12363670238483
 31
0.0
  0
LINE
  5
807
  8
SYMBOLLINE
  6
CONTINUOUS
 62
     0
 10
447.49999400000002
 20
216.0
 30
0.0
 11
447.49999400000002
 21
536.12363670238483
 31
0.0
  0
LINE
  5
808
  8
SYMBOLLINE
  6
CONTINUOUS
 62
     0
 10
407.49999399999962
 20
506.1236367023846
 30
0.0
 11
397.49999399999979
 21
506.1236367023846
 31
0.0
  0
LINE
  5
809
  8
SYMBOLLINE
  6
CONTINUOUS
 62
     0
 10
457.49999400000002
 20
506.1236367023846
 30
0.0
 11
467.49999400000002
 21
506.1236367023846
 31
0.0
  0
LINE
  5
80A
  8
SYMBOLLINE
  6
CONTINUOUS
 62
     0
 10
417.49999399999962
 20
506.1236367023846
 30
0.0
 11
447.49999400000002
 21
506.1236367023846
 31
0.0
  0
INSERT
  5
80B
  8
SYMBOLLINE
  6
CONTINUOUS
 62
     0
  2
_DOTBLANK
 10
417.49999399999962
 20
506.1236367023846
 30
0.0
 41
10.0
 42
10.0
 43
10.0
  0
INSERT
  5
80C
  8
SYMBOLLINE
  6
CONTINUOUS
 62
     0
  2
_DOTBLANK
 10
447.49999400000002
 20
506.1236367023846
 30
0.0
 41
10.0
 42
10.0
 43
10.0
 50
180.0
  0
INSERT
  5
80D
  8
SYMBOLLINE
  6
CONTINUOUS
 62
     7
  2
*U8
 10
0.0
 20
0.0
 30
0.0
  0
POINT
  5
80E
  8
DEFPOINTS
  6
CONTINUOUS
 62
     0
 10
417.49999399999962
 20
216.0
 30
0.0
  0
POINT
  5
80F
  8
DEFPOINTS
  6
CONTINUOUS
 62
     0
 10
447.49999400000002
 20
196.0
 30
0.0
  0
POINT
  5
810
  8
DEFPOINTS
  6
CONTINUOUS
 62
     0
 10
447.49999400000002
 20
506.1236367023846
 30
0.0
  0
ENDBLK
  5
805
  8
0
 62
     7
  0
BLOCK
  8
0
 62
     7
  2
*U8
 70
     1
 10
0.0
 20
0.0
 30
0.0
  3
*U8
  1

  0
TEXT
  5
A20
  8
SYMBOLLINE
  6
CONTINUOUS
 62
     0
 10
385.87142257142852
 20
506.2136367023848
 30
0.0
 40
64.0
  1
30
 41
0.9
  0
ENDBLK
  5
A22
  8
0
 62
     7
  0
BLOCK
  8
0
 62
     7
  2
*D9
 70
     1
 10
0.0
 20
0.0
 30
0.0
  3
*D9
  1

  0
LINE
  5
94B
  8
SIZE
  6
CONTINUOUS
 62
     0
 10
599.99996999999985
 20
255.0
 30
0.0
 11
599.99996999999985
 21
520.48258209967355
 31
0.0
  0
LINE
  5
94C
  8
SIZE
  6
CONTINUOUS
 62
     0
 10
448.0
 20
216.0
 30
0.0
 11
448.0
 21
520.48258209967355
 31
0.0
  0
LINE
  5
94D
  8
SIZE
  6
CONTINUOUS
 62
     0
 10
589.99996999999985
 20
490.48258209967372
 30
0.0
 11
458.0
 21
490.48258209967372
 31
0.0
  0
INSERT
  5
94E
  8
SIZE
  6
CONTINUOUS
 62
     0
  2
_DOTBLANK
 10
599.99996999999985
 20
490.48258209967372
 30
0.0
 41
10.0
 42
10.0
 43
10.0
  0
INSERT
  5
94F
  8
SIZE
  6
CONTINUOUS
 62
     0
  2
_DOTBLANK
 10
448.0
 20
490.48258209967372
 30
0.0
 41
10.0
 42
10.0
 43
10.0
 50
180.0
  0
INSERT
  5
950
  8
SYMBOLLINE
  6
CONTINUOUS
 62
     7
  2
*U10
 10
0.0
 20
0.0
 30
0.0
  0
POINT
  5
951
  8
DEFPOINTS
  6
CONTINUOUS
 62
     0
 10
599.99996999999985
 20
235.0
 30
0.0
  0
POINT
  5
952
  8
DEFPOINTS
  6
CONTINUOUS
 62
     0
 10
448.0
 20
196.0
 30
0.0
  0
POINT
  5
953
  8
DEFPOINTS
  6
CONTINUOUS
 62
     0
 10
448.0
 20
490.48258209967372
 30
0.0
  0
ENDBLK
  5
81D
  8
0
 62
     7
  0
BLOCK
  8
0
 62
     7
  2
*U10
 70
     1
 10
0.0
 20
0.0
 30
0.0
  3
*U10
  1

  0
TEXT
  5
A2C
  8
SIZE
  6
CONTINUOUS
 62
     0
 10
455.59920207891878
 20
490.57258209967392
 30
0.0
 40
64.0
  1
152
 41
0.9
  0
ENDBLK
  5
A2E
  8
0
 62
     7
  0
BLOCK
  8
0
 62
     7
  2
*D11
 70
     1
 10
0.0
 20
0.0
 30
0.0
  3
*D11
  1

  0
LINE
  5
941
  8
SIZE
  6
CONTINUOUS
 62
     0
 10
417.99999999999972
 20
236.0
 30
0.0
 11
417.99999999999972
 21
520.48258209967355
 31
0.0
  0
LINE
  5
942
  8
SIZE
  6
CONTINUOUS
 62
     0
 10
448.0
 20
216.0
 30
0.0
 11
448.0
 21
520.48258209967355
 31
0.0
  0
LINE
  5
943
  8
SIZE
  6
CONTINUOUS
 62
     0
 10
438.0
 20
490.48258209967372
 30
0.0
 11
427.99999999999972
 21
490.48258209967372
 31
0.0
  0
LINE
  5
944
  8
SIZE
  6
CONTINUOUS
 62
     0
 10
417.99999999999972
 20
490.48258209967372
 30
0.0
 11
309.87227226064181
 21
490.48258209967372
 31
0.0
  0
INSERT
  5
945
  8
SIZE
  6
CONTINUOUS
 62
     0
  2
_DOTBLANK
 10
448.0
 20
490.48258209967372
 30
0.0
 41
10.0
 42
10.0
 43
10.0
  0
INSERT
  5
946
  8
SIZE
  6
CONTINUOUS
 62
     0
  2
_DOTBLANK
 10
417.99999999999972
 20
490.48258209967372
 30
0.0
 41
10.0
 42
10.0
 43
10.0
 50
180.0
  0
INSERT
  5
947
  8
SYMBOLLINE
  6
CONTINUOUS
 62
     7
  2
*U12
 10
0.0
 20
0.0
 30
0.0
  0
POINT
  5
948
  8
DEFPOINTS
  6
CONTINUOUS
 62
     0
 10
417.99999999999972
 20
216.0
 30
0.0
  0
POINT
  5
949
  8
DEFPOINTS
  6
CONTINUOUS
 62
     0
 10
448.0
 20
196.0
 30
0.0
  0
POINT
  5
94A
  8
DEFPOINTS
  6
CONTINUOUS
 62
     0
 10
448.0
 20
490.48258209967372
 30
0.0
  0
ENDBLK
  5
82A
  8
0
 62
     7
  0
BLOCK
  8
0
 62
     7
  2
*U12
 70
     1
 10
0.0
 20
0.0
 30
0.0
  3
*U12
  1

  0
TEXT
  5
A28
  8
SIZE
  6
CONTINUOUS
 62
     0
 10
309.96227226064173
 20
490.57258209967392
 30
0.0
 40
64.0
  1
30
 41
0.9
  0
ENDBLK
  5
A2A
  8
0
 62
     7
  0
BLOCK
  8
0
 62
     7
  2
*D13
 70
     1
 10
0.0
 20
0.0
 30
0.0
  3
*D13
  1

  0
LINE
  5
938
  8
SIZE
  6
CONTINUOUS
 62
     0
 10
-599.99999400000002
 20
255.0
 30
0.0
 11
-599.99999400000002
 21
609.01496221926539
 31
0.0
  0
LINE
  5
939
  8
SIZE
  6
CONTINUOUS
 62
     0
 10
599.99996999999985
 20
255.0
 30
0.0
 11
599.99996999999985
 21
609.01496221926539
 31
0.0
  0
LINE
  5
93A
  8
SIZE
  6
CONTINUOUS
 62
     0
 10
-589.99999399999979
 20
579.01496221926561
 30
0.0
 11
589.99996999999985
 21
579.01496221926561
 31
0.0
  0
INSERT
  5
93B
  8
SIZE
  6
CONTINUOUS
 62
     0
  2
_DOTBLANK
 10
-599.99999400000002
 20
579.01496221926561
 30
0.0
 41
10.0
 42
10.0
 43
10.0
 50
180.0
  0
INSERT
  5
93C
  8
SIZE
  6
CONTINUOUS
 62
     0
  2
_DOTBLANK
 10
599.99996999999985
 20
579.01496221926561
 30
0.0
 41
10.0
 42
10.0
 43
10.0
  0
INSERT
  5
93D
  8
SYMBOLLINE
  6
CONTINUOUS
 62
     7
  2
*U14
 10
0.0
 20
0.0
 30
0.0
  0
POINT
  5
93E
  8
DEFPOINTS
  6
CONTINUOUS
 62
     0
 10
-599.99999400000002
 20
235.0
 30
0.0
  0
POINT
  5
93F
  8
DEFPOINTS
  6
CONTINUOUS
 62
     0
 10
599.99996999999985
 20
235.0
 30
0.0
  0
POINT
  5
940
  8
DEFPOINTS
  6
CONTINUOUS
 62
     0
 10
599.99996999999985
 20
579.01496221926561
 30
0.0
  0
ENDBLK
  5
839
  8
0
 62
     7
  0
BLOCK
  8
0
 62
     7
  2
*U14
 70
     1
 10
0.0
 20
0.0
 30
0.0
  3
*U14
  1

  0
TEXT
  5
A24
  8
SIZE
  6
CONTINUOUS
 62
     0
 10
-96.000012000000083
 20
579.10496221926564
 30
0.0
 40
64.0
  1
1200
 41
0.9
  0
ENDBLK
  5
A26
  8
0
 62
     7
  0
BLOCK
  8
0
 62
     7
  2
*D15
 70
     1
 10
0.0
 20
0.0
 30
0.0
  3
*D15
  1

  0
LINE
  5
954
  8
SIZE
  6
CONTINUOUS
 62
     0
 10
437.99999999999977
 20
216.0
 30
0.0
 11
767.09583053593815
 21
215.99999999999989
 31
0.0
  0
LINE
  5
955
  8
SIZE
  6
CONTINUOUS
 62
     0
 10
619.99996999999985
 20
235.0
 30
0.0
 11
767.09583053593815
 21
235.0
 31
0.0
  0
LINE
  5
956
  8
SIZE
  6
CONTINUOUS
 62
     0
 10
737.09583053593815
 20
205.99999999999989
 30
0.0
 11
737.09583053593815
 21
195.99999999999989
 31
0.0
  0
LINE
  5
957
  8
SIZE
  6
CONTINUOUS
 62
     0
 10
737.09583053593815
 20
245.0
 30
0.0
 11
737.09583053593826
 21
334.72285714285692
 31
0.0
  0
LINE
  5
958
  8
SIZE
  6
CONTINUOUS
 62
     0
 10
737.09583053593815
 20
215.99999999999989
 30
0.0
 11
737.09583053593815
 21
235.0
 31
0.0
  0
INSERT
  5
959
  8
SIZE
  6
CONTINUOUS
 62
     0
  2
_DOTBLANK
 10
737.09583053593815
 20
215.99999999999989
 30
0.0
 41
10.0
 42
10.0
 43
10.0
 50
90.0
  0
INSERT
  5
95A
  8
SIZE
  6
CONTINUOUS
 62
     0
  2
_DOTBLANK
 10
737.09583053593815
 20
235.0
 30
0.0
 41
10.0
 42
10.0
 43
10.0
 50
270.0
  0
INSERT
  5
95B
  8
SYMBOLLINE
  6
CONTINUOUS
 62
     7
  2
*U16
 10
0.0
 20
0.0
 30
0.0
  0
POINT
  5
95C
  8
DEFPOINTS
  6
CONTINUOUS
 62
     0
 10
417.99999999999972
 20
216.0
 30
0.0
  0
POINT
  5
95D
  8
DEFPOINTS
  6
CONTINUOUS
 62
     0
 10
599.99996999999985
 20
235.0
 30
0.0
  0
POINT
  5
95E
  8
DEFPOINTS
  6
CONTINUOUS
 62
     0
 10
737.09583053593815
 20
235.0
 30
0.0
  0
ENDBLK
  5
8B6
  8
0
 62
     7
  0
BLOCK
  8
0
 62
     7
  2
*U16
 70
     1
 10
0.0
 20
0.0
 30
0.0
  3
*U16
  1

  0
TEXT
  5
A30
  8
SIZE
  6
CONTINUOUS
 62
     0
 10
737.00583053593812
 20
255.09000000000009
 30
0.0
 40
64.0
  1
19
 50
90.0
 41
0.9
  0
ENDBLK
  5
A32
  8
0
 62
     7
  0
BLOCK
  8
0
 62
     7
  2
*D17
 70
     1
 10
0.0
 20
0.0
 30
0.0
  3
*D17
  1

  0
LINE
  5
95F
  8
SIZE
  6
CONTINUOUS
 62
     0
 10
437.99999999999977
 20
216.0
 30
0.0
 11
767.09583053593815
 21
215.99999999999989
 31
0.0
  0
LINE
  5
960
  8
SIZE
  6
CONTINUOUS
 62
     0
 10
468.0
 20
196.0
 30
0.0
 11
767.09583053593815
 21
195.99999999999989
 31
0.0
  0
LINE
  5
961
  8
SIZE
  6
CONTINUOUS
 62
     0
 10
737.09583053593815
 20
225.99999999999989
 30
0.0
 11
737.09583053593815
 21
235.99999999999989
 31
0.0
  0
LINE
  5
962
  8
SIZE
  6
CONTINUOUS
 62
     0
 10
737.09583053593815
 20
185.99999999999989
 30
0.0
 11
737.09583053593815
 21
82.562857142857041
 31
0.0
  0
LINE
  5
963
  8
SIZE
  6
CONTINUOUS
 62
     0
 10
737.09583053593815
 20
215.99999999999989
 30
0.0
 11
737.09583053593815
 21
195.99999999999989
 31
0.0
  0
INSERT
  5
964
  8
SIZE
  6
CONTINUOUS
 62
     0
  2
_DOTBLANK
 10
737.09583053593815
 20
215.99999999999989
 30
0.0
 41
10.0
 42
10.0
 43
10.0
 50
270.0
  0
INSERT
  5
965
  8
SIZE
  6
CONTINUOUS
 62
     0
  2
_DOTBLANK
 10
737.09583053593815
 20
195.99999999999989
 30
0.0
 41
10.0
 42
10.0
 43
10.0
 50
90.0
  0
INSERT
  5
966
  8
SYMBOLLINE
  6
CONTINUOUS
 62
     7
  2
*U18
 10
0.0
 20
0.0
 30
0.0
  0
POINT
  5
967
  8
DEFPOINTS
  6
CONTINUOUS
 62
     0
 10
417.99999999999972
 20
216.0
 30
0.0
  0
POINT
  5
968
  8
DEFPOINTS
  6
CONTINUOUS
 62
     0
 10
448.0
 20
196.0
 30
0.0
  0
POINT
  5
969
  8
DEFPOINTS
  6
CONTINUOUS
 62
     0
 10
737.09583053593815
 20
195.99999999999989
 30
0.0
  0
ENDBLK
  5
8C5
  8
0
 62
     7
  0
BLOCK
  8
0
 62
     7
  2
*U18
 70
     1
 10
0.0
 20
0.0
 30
0.0
  3
*U18
  1

  0
TEXT
  5
A34
  8
SIZE
  6
CONTINUOUS
 62
     0
 10
737.00583053593812
 20
82.652857142857172
 30
0.0
 40
64.0
  1
20
 50
90.0
 41
0.9
  0
ENDBLK
  5
A36
  8
0
 62
     7
  0
BLOCK
  8
0
 62
     7
  2
A$C2E3952F2
 70
     0
 10
0.0
 20
0.0
 30
0.0
  3
A$C2E3952F2
  1

  0
LINE
  5
9DB
  8
NOTE
  6
CONTINUOUS
 62
     4
 10
-0.0000007349408406
 20
0.0000004332514436
 30
0.0
 11
39.999999265059159
 21
0.0000004332514436
 31
0.0
  0
ENDBLK
  5
9DF
  8
0
 62
     7
  0
BLOCK
  8
0
 62
     7
  2
*D20
 70
     1
 10
0.0
 20
0.0
 30
0.0
  3
*D20
  1

  0
LINE
  5
DA8
  8
SYMBOLLINE
  6
CONTINUOUS
 62
     0
 10
-599.99999399999865
 20
-1654.999990999999
 30
0.0
 11
-599.99999399999865
 21
-2027.0539248177299
 31
0.0
  0
LINE
  5
DA9
  8
SYMBOLLINE
  6
CONTINUOUS
 62
     0
 10
699.99998199999925
 20
-1654.999990999999
 30
0.0
 11
699.99998199999925
 21
-2027.0539248177299
 31
0.0
  0
LINE
  5
DAA
  8
SYMBOLLINE
  6
CONTINUOUS
 62
     0
 10
-589.99999399999888
 20
-1997.053924817729
 30
0.0
 11
689.99998199999925
 21
-1997.053924817729
 31
0.0
  0
INSERT
  5
DAB
  8
SYMBOLLINE
  6
CONTINUOUS
 62
     0
  2
_DOTBLANK
 10
-599.99999399999865
 20
-1997.053924817729
 30
0.0
 41
10.0
 42
10.0
 43
10.0
 50
180.0
  0
INSERT
  5
DAC
  8
SYMBOLLINE
  6
CONTINUOUS
 62
     0
  2
_DOTBLANK
 10
699.99998199999925
 20
-1997.053924817729
 30
0.0
 41
10.0
 42
10.0
 43
10.0
  0
INSERT
  5
DAD
  8
SYMBOLLINE
  6
CONTINUOUS
 62
     7
  2
*U21
 10
0.0
 20
0.0
 30
0.0
  0
POINT
  5
DAE
  8
DEFPOINTS
  6
CONTINUOUS
 62
     0
 10
-599.99999399999865
 20
-1634.9999909999999
 30
0.0
  0
POINT
  5
DAF
  8
DEFPOINTS
  6
CONTINUOUS
 62
     0
 10
699.99998199999925
 20
-1634.9999909999999
 30
0.0
  0
POINT
  5
DB0
  8
DEFPOINTS
  6
CONTINUOUS
 62
     0
 10
699.99998199999925
 20
-1997.053924817729
 30
0.0
  0
ENDBLK
  5
DA7
  8
0
 62
     7
  0
BLOCK
  8
0
 62
     7
  2
*U21
 70
     1
 10
0.0
 20
0.0
 30
0.0
  3
*U21
  1

  0
TEXT
  5
E1D
  8
SYMBOLLINE
  6
CONTINUOUS
 62
     0
 10
-46.000005999999857
 20
-1996.96392481773
 30
0.0
 40
64.0
  1
1300
 41
0.9
  0
ENDBLK
  5
E1F
  8
0
 62
     7
  0
ENDSEC
  0
SECTION
  2
ENTITIES
  0
LINE
  5
35
  8
SIZE
  6
CONTINUOUS
 62
    30
 10
401.00000599999981
 20
13.0
 30
0.0
 11
401.00000599999981
 21
208.0260428294205
 31
0.0
  0
LINE
  5
37
  8
SIZE
  6
CONTINUOUS
 62
    30
 10
389.0000060000001
 20
174.51616123685099
 30
0.0
 11
-386.99999400000007
 21
174.51616123685099
 31
0.0
  0
CIRCLE
  5
38
  8
SIZE
  6
CONTINUOUS
 62
    30
 10
401.00000599999981
 20
174.51616123685099
 30
0.0
 40
6.0
  0
LINE
  5
39
  8
SIZE
  6
CONTINUOUS
 62
    30
 10
395.00000600000021
 20
174.51616123685099
 30
0.0
 11
389.0000060000001
 21
174.51616123685099
 31
0.0
  0
CIRCLE
  5
3A
  8
SIZE
  6
CONTINUOUS
 62
    30
 10
-398.99999400000002
 20
174.51616123685099
 30
0.0
 40
6.0
  0
LINE
  5
3B
  8
SIZE
  6
CONTINUOUS
 62
    30
 10
-392.99999400000007
 20
174.51616123685099
 30
0.0
 11
-386.99999400000007
 21
174.51616123685099
 31
0.0
  0
TEXT
  5
3C
  8
SIZE
  6
CONTINUOUS
 62
    30
 10
-224.90999385714269
 20
191.06826450452709
 30
0.0
 40
64.0
  1
160x5=800
 41
0.9
 72
     1
 11
12.347148999999989
 21
191.06826450452709
 31
0.0
  0
POINT
  5
3D
  8
DEFPOINTS
  6
CONTINUOUS
 62
     7
 10
400.4999999999996
 20
-7.0
 30
0.0
  0
POINT
  5
3E
  8
DEFPOINTS
  6
CONTINUOUS
 62
     7
 10
-399.5
 20
-7.0
 30
0.0
  0
POINT
  5
3F
  8
DEFPOINTS
  6
CONTINUOUS
 62
     7
 10
-398.99999400000002
 20
174.51616123685099
 30
0.0
  0
LINE
  5
40
  8
DETAIL
  6
CONTINUOUS
 62
     5
 10
-446.99999400000002
 20
-335.0
 30
0.0
 11
448.00000599999998
 21
-335.0
 31
0.0
  0
LINE
  5
41
  8
DETAIL
  6
CONTINUOUS
 62
     5
 10
-446.99999400000002
 20
-39.0
 30
0.0
 11
448.00000599999998
 21
-39.0
 31
0.0
  0
LINE
  5
42
  8
OUTLINE
  6
CONTINUOUS
 62
     3
 10
-599.9999879999998
 20
0.0
 30
0.0
 11
599.99997599999995
 21
0.0
 31
0.0
  0
LINE
  5
43
  8
OUTLINE
  6
CONTINUOUS
 62
     3
 10
-561.99998799999992
 20
-484.99999100000002
 30
0.0
 11
561.99997599999995
 21
-484.99999100000002
 31
0.0
  0
POINT
  5
4C
  8
DEFPOINTS
  6
CONTINUOUS
 62
     7
 10
-630.99999999999966
 20
-54.999877000000097
 30
0.0
  0
POINT
  5
4D
  8
DEFPOINTS
  6
CONTINUOUS
 62
     7
 10
630.99992199999963
 20
-54.999877000000097
 30
0.0
  0
POINT
  5
57
  8
DEFPOINTS
  6
CONTINUOUS
 62
     7
 10
616.99997599999995
 20
-53.167585000000003
 30
0.0
  0
POINT
  5
58
  8
DEFPOINTS
  6
CONTINUOUS
 62
     7
 10
-616.99998799999969
 20
-53.167585000000003
 30
0.0
  0
LINE
  5
5B
  8
DETAIL
  6
CONTINUOUS
 62
     5
 10
-599.9999879999998
 20
0.0
 30
0.0
 11
599.99997599999995
 21
0.0
 31
0.0
  0
LINE
  5
5C
  8
DETAIL
  6
CONTINUOUS
 62
     5
 10
-581.9999879999998
 20
-457.99999100000002
 30
0.0
 11
581.99997599999995
 21
-457.99999100000002
 31
0.0
  0
LINE
  5
5D
  8
SIZE
  6
CONTINUOUS
 62
    30
 10
-438.49999399999979
 20
-40.182159719377523
 30
0.0
 11
-438.49999399999979
 21
208.0260428294205
 31
0.0
  0
LINE
  5
5E
  8
SIZE
  6
CONTINUOUS
 62
    30
 10
-398.99999400000002
 20
13.0
 30
0.0
 11
-398.99999400000002
 21
208.0260428294205
 31
0.0
  0
LINE
  5
5F
  8
SIZE
  6
CONTINUOUS
 62
    30
 10
-386.99999400000007
 20
174.48636323685071
 30
0.0
 11
-374.9999939999999
 21
174.48636323685071
 31
0.0
  0
LINE
  5
61
  8
SIZE
  6
CONTINUOUS
 62
    30
 10
-398.99999400000002
 20
174.48636323685071
 30
0.0
 11
-438.49999399999979
 21
174.48636323685071
 31
0.0
  0
CIRCLE
  5
62
  8
SIZE
  6
CONTINUOUS
 62
    30
 10
-398.99999400000002
 20
174.48636323685071
 30
0.0
 40
6.0
  0
LINE
  5
63
  8
SIZE
  6
CONTINUOUS
 62
    30
 10
-392.99999400000007
 20
174.48636323685071
 30
0.0
 11
-386.99999400000007
 21
174.48636323685071
 31
0.0
  0
CIRCLE
  5
64
  8
SIZE
  6
CONTINUOUS
 62
    30
 10
-438.49999399999979
 20
174.48636323685071
 30
0.0
 40
6.0
  0
LINE
  5
65
  8
SIZE
  6
CONTINUOUS
 62
    30
 10
-444.49999399999979
 20
174.48636323685071
 30
0.0
 11
-450.49999399999979
 21
174.48636323685071
 31
0.0
  0
TEXT
  5
66
  8
SIZE
  6
CONTINUOUS
 62
    30
 10
-522.94144138791955
 20
223.95189555224351
 30
0.0
 40
64.0
  1
39.5
 41
0.9
 72
     1
 11
-435.17001281649101
 21
223.95189555224351
 31
0.0
  0
POINT
  5
67
  8
DEFPOINTS
  6
CONTINUOUS
 62
     7
 10
-438.49999399999979
 20
-47.0
 30
0.0
  0
POINT
  5
68
  8
DEFPOINTS
  6
CONTINUOUS
 62
     7
 10
-399.5
 20
-7.0
 30
0.0
  0
POINT
  5
69
  8
DEFPOINTS
  6
CONTINUOUS
 62
     7
 10
-398.99999400000002
 20
174.48636323685071
 30
0.0
  0
TEXT
  5
6A
  8
NOTE
  6
CONTINUOUS
 62
     4
 10
-1123.829604240012
 20
-934.77823800199644
 30
0.0
 40
51.200001
  1
AH 4-\U+03C612
 50
0.000003
 41
0.635417
  7
STANDARD1
  0
LINE
  5
6B
  8
NOTE
  6
CONTINUOUS
 62
     4
 10
-801.29623324001284
 20
-939.49067100199682
 30
0.0
 11
-1134.2664332400129
 21
-939.49067100199682
 31
0.0
  0
LINE
  5
6C
  8
NOTE
  6
CONTINUOUS
 62
     4
 10
-438.49999399999979
 20
-327.0
 30
0.0
 11
-438.49999399999979
 21
-287.0
 31
0.0
  0
CIRCLE
  5
6D
  8
DETAIL
  6
CONTINUOUS
 62
     5
 10
-438.49999399999979
 20
-307.0
 30
0.0
 40
1.5
  0
LINE
  5
6E
  8
DETAIL
  6
CONTINUOUS
 62
     5
 10
-446.99999400000002
 20
-39.0
 30
0.0
 11
-446.99999400000002
 21
-335.0
 31
0.0
  0
LINE
  5
6F
  8
OUTLINE
  6
CONTINUOUS
 62
     3
 10
-599.9999879999998
 20
-436.01021299999991
 30
0.0
 11
-599.9999879999998
 21
0.0
 31
0.0
  0
POINT
  5
7A
  8
DEFPOINTS
  6
CONTINUOUS
 62
     7
 10
-645.03589999999963
 20
-84.999876999999998
 30
0.0
  0
POINT
  5
7B
  8
DEFPOINTS
  6
CONTINUOUS
 62
     7
 10
-645.03589999999963
 20
-384.99986999999999
 30
0.0
  0
LINE
  5
7D
  8
DETAIL
  6
CONTINUOUS
 62
     5
 10
-599.9999879999998
 20
0.0
 30
0.0
 11
-599.9999879999998
 21
-436.01021299999991
 31
0.0
  0
LINE
  5
7E
  8
DETAIL
  6
CONTINUOUS
 62
     5
 10
-581.9999879999998
 20
0.0
 30
0.0
 11
-581.9999879999998
 21
-457.99999100000002
 31
0.0
  0
LINE
  5
7F
  8
NOTE
  6
CONTINUOUS
 62
     4
 10
-141.69326848351409
 20
-610.81426247904642
 30
0.0
 11
-348.93150348351401
 21
-610.81426247904642
 31
0.0
  0
TEXT
  5
80
  8
NOTE
  6
CONTINUOUS
 62
     4
 10
-338.49467448351407
 20
-606.10182847904628
 30
0.0
 40
51.200001
  1
18-\U+03C63
 50
0.000003
 41
0.635417
  7
STANDARD1
  0
LINE
  5
81
  8
NOTE
  6
CONTINUOUS
 62
     4
 10
-801.29623324001284
 20
-939.49067100199682
 30
0.0
 11
-616.99998799999969
 21
-385.0
 31
0.0
  0
LINE
  5
84
  8
NOTE
  6
CONTINUOUS
 62
     4
 10
-640.67473500000006
 20
-385.0
 30
0.0
 11
-593.32524099999966
 21
-385.0
 31
0.0
  0
LINE
  5
85
  8
NOTE
  6
CONTINUOUS
 62
     4
 10
-348.93150348351401
 20
-610.81426247904642
 30
0.0
 11
-398.99999400000002
 21
-347.0
 31
0.0
  0
ARC
  5
86
  8
OUTLINE
  6
CONTINUOUS
 62
     3
 10
-551.76445799999965
 20
-437.82791899999989
 30
0.0
 40
48.269767000000002
 50
177.8418879999999
 51
257.75757499999997
  0
CIRCLE
  5
87
  8
FIX
  6
CONTINUOUS
 62
    11
 10
-616.99998799999969
 20
-385.0
 30
0.0
 40
20.0
  0
LINE
  5
88
  8
DETAIL
  6
CONTINUOUS
 62
     5
 10
-556.99998799999992
 20
-457.99999100000002
 30
0.0
 11
-556.99998799999992
 21
-484.99999100000002
 31
0.0
  0
LINE
  5
89
  8
DETAIL
  6
CONTINUOUS
 62
     5
 10
-630.99993400000005
 20
-414.99986999999999
 30
0.0
 11
-599.9999879999998
 21
-414.99986999999999
 31
0.0
  0
LINE
  5
8A
  8
DETAIL
  6
CONTINUOUS
 62
     5
 10
-630.99993400000005
 20
-354.9998700000001
 30
0.0
 11
-599.9999879999998
 21
-354.9998700000001
 31
0.0
  0
ARC
  5
8B
  8
DETAIL
  6
CONTINUOUS
 62
     5
 10
-551.76445799999965
 20
-437.82791899999989
 30
0.0
 40
48.269767000000002
 50
177.8418879999999
 51
257.75757499999997
  0
LINE
  5
8C
  8
DETAIL
  6
CONTINUOUS
 62
     5
 10
-630.99999999999966
 20
-414.99986999999999
 30
0.0
 11
-630.99999999999966
 21
-354.9998700000001
 31
0.0
  0
CIRCLE
  5
8D
  8
DETAIL
  6
CONTINUOUS
 62
     5
 10
-616.99998799999969
 20
-385.0
 30
0.0
 40
6.0
  0
LINE
  5
8E
  8
DETAIL
  6
CONTINUOUS
 62
     5
 10
-561.99998799999992
 20
-457.99999100000002
 30
0.0
 11
-561.99998799999992
 21
-484.99999100000002
 31
0.0
  0
LINE
  5
8F
  8
NOTE
  6
CONTINUOUS
 62
     4
 10
-616.99998799999969
 20
-416.59778149999971
 30
0.0
 11
-616.99998799999969
 21
-353.40221850000012
 31
0.0
  0
CIRCLE
  5
90
  8
DETAIL
  6
CONTINUOUS
 62
     5
 10
-398.99999400000002
 20
-347.0
 30
0.0
 40
1.5
  0
LINE
  5
93
  8
NOTE
  6
CONTINUOUS
 62
     4
 10
-458.49999399999979
 20
-307.0
 30
0.0
 11
-418.49999399999979
 21
-307.0
 31
0.0
  0
POINT
  5
9E
  8
DEFPOINTS
  6
CONTINUOUS
 62
     7
 10
-599.9999879999998
 20
0.0
 30
0.0
  0
POINT
  5
9F
  8
DEFPOINTS
  6
CONTINUOUS
 62
     7
 10
-645.03589999999963
 20
-84.999876999999998
 30
0.0
  0
LINE
  5
A1
  8
NOTE
  6
CONTINUOUS
 62
     4
 10
-640.67473500000006
 20
-84.999876999999998
 30
0.0
 11
-593.32524099999966
 21
-84.999876999999998
 31
0.0
  0
LINE
  5
A2
  8
DETAIL
  6
CONTINUOUS
 62
     5
 10
-630.99999999999966
 20
-114.999877
 30
0.0
 11
-630.99999999999966
 21
-54.999877000000097
 31
0.0
  0
LINE
  5
A3
  8
NOTE
  6
CONTINUOUS
 62
     4
 10
-616.99998799999969
 20
-116.59765849999999
 30
0.0
 11
-616.99998799999969
 21
-53.402095500000001
 31
0.0
  0
LINE
  5
A4
  8
DETAIL
  6
CONTINUOUS
 62
     5
 10
-630.99999999999966
 20
-114.999877
 30
0.0
 11
-599.9999879999998
 21
-114.999877
 31
0.0
  0
CIRCLE
  5
A5
  8
DETAIL
  6
CONTINUOUS
 62
     5
 10
-438.49999399999979
 20
-187.0
 30
0.0
 40
1.5
  0
LINE
  5
A6
  8
NOTE
  6
CONTINUOUS
 62
     4
 10
-438.49999399999979
 20
-207.0
 30
0.0
 11
-438.49999399999979
 21
-167.0
 31
0.0
  0
CIRCLE
  5
A7
  8
FIX
  6
CONTINUOUS
 62
    11
 10
-616.99998799999969
 20
-85.0
 30
0.0
 40
20.0
  0
LINE
  5
A8
  8
DETAIL
  6
CONTINUOUS
 62
     5
 10
-630.99999999999966
 20
-54.999877000000097
 30
0.0
 11
-599.9999879999998
 21
-54.999877000000097
 31
0.0
  0
CIRCLE
  5
A9
  8
DETAIL
  6
CONTINUOUS
 62
     5
 10
-616.99998799999969
 20
-85.0
 30
0.0
 40
6.0
  0
LINE
  5
AA
  8
NOTE
  6
CONTINUOUS
 62
     4
 10
-398.99999400000002
 20
-47.0
 30
0.0
 11
-398.99999400000002
 21
-7.0
 31
0.0
  0
CIRCLE
  5
AB
  8
DETAIL
  6
CONTINUOUS
 62
     5
 10
-398.99999400000002
 20
-27.0
 30
0.0
 40
1.5
  0
LINE
  5
AC
  8
NOTE
  6
CONTINUOUS
 62
     4
 10
-418.99999399999979
 20
-27.0
 30
0.0
 11
-378.9999939999999
 21
-27.0
 31
0.0
  0
LINE
  5
AD
  8
NOTE
  6
CONTINUOUS
 62
     4
 10
-438.49999399999979
 20
-87.0
 30
0.0
 11
-438.49999399999979
 21
-47.0
 31
0.0
  0
CIRCLE
  5
AE
  8
DETAIL
  6
CONTINUOUS
 62
     5
 10
-438.49999399999979
 20
-67.0
 30
0.0
 40
1.5
  0
LINE
  5
AF
  8
NOTE
  6
CONTINUOUS
 62
     4
 10
-458.49999399999979
 20
-67.0
 30
0.0
 11
-418.49999399999979
 21
-67.0
 31
0.0
  0
POINT
  5
BA
  8
DEFPOINTS
  6
CONTINUOUS
 62
     7
 10
440.50000599999981
 20
-47.0
 30
0.0
  0
POINT
  5
BB
  8
DEFPOINTS
  6
CONTINUOUS
 62
     7
 10
400.4999999999996
 20
-7.0
 30
0.0
  0
POINT
  5
C7
  8
DEFPOINTS
  6
CONTINUOUS
 62
     7
 10
599.99997599999995
 20
0.0
 30
0.0
  0
POINT
  5
C8
  8
DEFPOINTS
  6
CONTINUOUS
 62
     7
 10
440.50000599999981
 20
-47.0
 30
0.0
  0
POINT
  5
D5
  8
DEFPOINTS
  6
CONTINUOUS
 62
     7
 10
421.00000599999959
 20
-27.0
 30
0.0
  0
POINT
  5
DF
  8
DEFPOINTS
  6
CONTINUOUS
 62
     7
 10
448.00000599999998
 20
-39.0
 30
0.0
  0
POINT
  5
E0
  8
DEFPOINTS
  6
CONTINUOUS
 62
     7
 10
448.00000599999998
 20
-335.0
 30
0.0
  0
POINT
  5
EB
  8
DEFPOINTS
  6
CONTINUOUS
 62
     7
 10
428.00000599999981
 20
-355.0
 30
0.0
  0
POINT
  5
F5
  8
DEFPOINTS
  6
CONTINUOUS
 62
     7
 10
599.99997599999995
 20
0.0
 30
0.0
  0
POINT
  5
F6
  8
DEFPOINTS
  6
CONTINUOUS
 62
     7
 10
561.99997599999995
 20
-484.99999100000002
 30
0.0
  0
LINE
  5
F8
  8
BASIS
  6
DASHDOT
 62
     6
 10
0.0
 20
45.0
 30
0.0
 11
0.0
 21
-515.0
 31
0.0
  0
CIRCLE
  5
F9
  8
DETAIL
  6
CONTINUOUS
 62
     5
 10
-238.99999399999999
 20
-347.0
 30
0.0
 40
1.5
  0
LINE
  5
FA
  8
NOTE
  6
CONTINUOUS
 62
     4
 10
-258.99999400000002
 20
-347.0
 30
0.0
 11
-218.9999939999999
 21
-347.0
 31
0.0
  0
LINE
  5
FB
  8
NOTE
  6
CONTINUOUS
 62
     4
 10
-238.99999399999999
 20
-327.0
 30
0.0
 11
-238.99999399999999
 21
-367.0
 31
0.0
  0
CIRCLE
  5
FC
  8
DETAIL
  6
CONTINUOUS
 62
     5
 10
-78.999993999999987
 20
-347.0
 30
0.0
 40
1.5
  0
LINE
  5
FD
  8
NOTE
  6
CONTINUOUS
 62
     4
 10
-58.999994000000008
 20
-347.0
 30
0.0
 11
-98.999994000000001
 21
-347.0
 31
0.0
  0
LINE
  5
FE
  8
NOTE
  6
CONTINUOUS
 62
     4
 10
-78.999993999999987
 20
-327.0
 30
0.0
 11
-78.999993999999987
 21
-367.0
 31
0.0
  0
CIRCLE
  5
FF
  8
DETAIL
  6
CONTINUOUS
 62
     5
 10
81.000005999999914
 20
-347.0
 30
0.0
 40
1.5
  0
LINE
  5
100
  8
NOTE
  6
CONTINUOUS
 62
     4
 10
101.0000059999999
 20
-347.0
 30
0.0
 11
61.000005999999971
 21
-347.0
 31
0.0
  0
LINE
  5
101
  8
NOTE
  6
CONTINUOUS
 62
     4
 10
81.000005999999914
 20
-327.0
 30
0.0
 11
81.000005999999914
 21
-367.0
 31
0.0
  0
LINE
  5
102
  8
NOTE
  6
CONTINUOUS
 62
     4
 10
-258.99999400000002
 20
-27.0
 30
0.0
 11
-218.9999939999999
 21
-27.0
 31
0.0
  0
CIRCLE
  5
103
  8
DETAIL
  6
CONTINUOUS
 62
     5
 10
-238.99999399999999
 20
-27.0
 30
0.0
 40
1.5
  0
LINE
  5
104
  8
NOTE
  6
CONTINUOUS
 62
     4
 10
-238.99999399999999
 20
-47.0
 30
0.0
 11
-238.99999399999999
 21
-7.0
 31
0.0
  0
POINT
  5
105
  8
ARRANGE
  6
CONTINUOUS
 62
     1
 10
0.0
 20
0.0
 30
0.0
  0
LINE
  5
106
  8
NOTE
  6
CONTINUOUS
 62
     4
 10
-58.999994000000008
 20
-27.0
 30
0.0
 11
-98.999994000000001
 21
-27.0
 31
0.0
  0
LINE
  5
107
  8
NOTE
  6
CONTINUOUS
 62
     4
 10
-78.999993999999987
 20
-47.0
 30
0.0
 11
-78.999993999999987
 21
-7.0
 31
0.0
  0
CIRCLE
  5
108
  8
DETAIL
  6
CONTINUOUS
 62
     5
 10
-78.999993999999987
 20
-27.0
 30
0.0
 40
1.5
  0
LINE
  5
109
  8
NOTE
  6
CONTINUOUS
 62
     4
 10
101.0000059999999
 20
-27.0
 30
0.0
 11
61.000005999999971
 21
-27.0
 31
0.0
  0
LINE
  5
10A
  8
NOTE
  6
CONTINUOUS
 62
     4
 10
81.000005999999914
 20
-47.0
 30
0.0
 11
81.000005999999914
 21
-7.0
 31
0.0
  0
CIRCLE
  5
10B
  8
DETAIL
  6
CONTINUOUS
 62
     5
 10
81.000005999999914
 20
-27.0
 30
0.0
 40
1.5
  0
CIRCLE
  5
117
  8
DETAIL
  6
CONTINUOUS
 62
     5
 10
440.50000599999981
 20
-307.0
 30
0.0
 40
1.5
  0
LINE
  5
118
  8
NOTE
  6
CONTINUOUS
 62
     4
 10
440.50000599999981
 20
-327.0
 30
0.0
 11
440.50000599999981
 21
-287.0
 31
0.0
  0
LINE
  5
119
  8
DETAIL
  6
CONTINUOUS
 62
     5
 10
448.00000599999998
 20
-39.0
 30
0.0
 11
448.00000599999998
 21
-335.0
 31
0.0
  0
LINE
  5
11A
  8
OUTLINE
  6
CONTINUOUS
 62
     3
 10
600.0
 20
0.0
 30
0.0
 11
600.0
 21
-436.01025899999991
 31
0.0
  0
LINE
  5
11B
  8
DETAIL
  6
CONTINUOUS
 62
     5
 10
600.0
 20
0.0
 30
0.0
 11
600.0
 21
-436.01025899999991
 31
0.0
  0
LINE
  5
11C
  8
DETAIL
  6
CONTINUOUS
 62
     5
 10
581.99997599999995
 20
0.0
 30
0.0
 11
581.99997599999995
 21
-457.99999100000002
 31
0.0
  0
LINE
  5
11E
  8
NOTE
  6
CONTINUOUS
 62
     4
 10
261.00000599999998
 20
-347.0
 30
0.0
 11
221.0000059999999
 21
-347.0
 31
0.0
  0
LINE
  5
11F
  8
NOTE
  6
CONTINUOUS
 62
     4
 10
241.0000060000001
 20
-327.0
 30
0.0
 11
241.0000060000001
 21
-367.0
 31
0.0
  0
CIRCLE
  5
120
  8
DETAIL
  6
CONTINUOUS
 62
     5
 10
241.0000060000001
 20
-347.0
 30
0.0
 40
1.5
  0
LINE
  5
121
  8
NOTE
  6
CONTINUOUS
 62
     4
 10
401.00000599999981
 20
-327.0
 30
0.0
 11
401.00000599999981
 21
-367.0
 31
0.0
  0
CIRCLE
  5
122
  8
DETAIL
  6
CONTINUOUS
 62
     5
 10
401.00000599999981
 20
-347.0
 30
0.0
 40
1.5
  0
LINE
  5
123
  8
NOTE
  6
CONTINUOUS
 62
     4
 10
421.00000599999959
 20
-347.0
 30
0.0
 11
381.0000060000001
 21
-347.0
 31
0.0
  0
ARC
  5
124
  8
OUTLINE
  6
CONTINUOUS
 62
     3
 10
551.76444600000002
 20
-437.827922
 30
0.0
 40
48.269764000000002
 50
282.24242500000008
 51
2.1580590000003941
  0
ARC
  5
125
  8
DETAIL
  6
CONTINUOUS
 62
     5
 10
551.76444600000002
 20
-437.827922
 30
0.0
 40
48.269764000000002
 50
282.24242500000008
 51
2.1580590000003941
  0
LINE
  5
126
  8
DETAIL
  6
CONTINUOUS
 62
     5
 10
556.99997599999995
 20
-457.99999100000002
 30
0.0
 11
556.99997599999995
 21
-484.99999100000002
 31
0.0
  0
LINE
  5
127
  8
DETAIL
  6
CONTINUOUS
 62
     5
 10
561.99997599999995
 20
-457.99999100000002
 30
0.0
 11
561.99997599999995
 21
-484.99999100000002
 31
0.0
  0
CIRCLE
  5
128
  8
FIX
  6
CONTINUOUS
 62
    11
 10
616.99997599999995
 20
-385.0
 30
0.0
 40
20.0
  0
LINE
  5
129
  8
NOTE
  6
CONTINUOUS
 62
     4
 10
640.67472299999974
 20
-384.99986999999999
 30
0.0
 11
593.32522900000026
 21
-384.99986999999999
 31
0.0
  0
LINE
  5
12A
  8
DETAIL
  6
CONTINUOUS
 62
     5
 10
631.0
 20
-414.99986999999999
 30
0.0
 11
600.0
 21
-414.99986999999999
 31
0.0
  0
LINE
  5
12B
  8
DETAIL
  6
CONTINUOUS
 62
     5
 10
631.0
 20
-354.9998700000001
 30
0.0
 11
600.0
 21
-354.9998700000001
 31
0.0
  0
LINE
  5
12C
  8
DETAIL
  6
CONTINUOUS
 62
     5
 10
631.0
 20
-414.99986999999999
 30
0.0
 11
631.0
 21
-354.9998700000001
 31
0.0
  0
CIRCLE
  5
12D
  8
DETAIL
  6
CONTINUOUS
 62
     5
 10
616.99997599999995
 20
-385.0
 30
0.0
 40
6.0
  0
LINE
  5
12E
  8
NOTE
  6
CONTINUOUS
 62
     4
 10
616.99997599999995
 20
-416.59765149999959
 30
0.0
 11
616.99997599999995
 21
-353.40208850000022
 31
0.0
  0
CIRCLE
  5
130
  8
DETAIL
  6
CONTINUOUS
 62
     5
 10
440.50000599999981
 20
-187.0
 30
0.0
 40
1.5
  0
CIRCLE
  5
132
  8
DETAIL
  6
CONTINUOUS
 62
     5
 10
440.50000599999981
 20
-67.0
 30
0.0
 40
1.5
  0
LINE
  5
133
  8
NOTE
  6
CONTINUOUS
 62
     4
 10
261.00000599999998
 20
-27.0
 30
0.0
 11
221.0000059999999
 21
-27.0
 31
0.0
  0
LINE
  5
134
  8
NOTE
  6
CONTINUOUS
 62
     4
 10
241.0000060000001
 20
-47.0
 30
0.0
 11
241.0000060000001
 21
-7.0
 31
0.0
  0
CIRCLE
  5
135
  8
DETAIL
  6
CONTINUOUS
 62
     5
 10
241.0000060000001
 20
-27.0
 30
0.0
 40
1.5
  0
LINE
  5
136
  8
NOTE
  6
CONTINUOUS
 62
     4
 10
421.00000599999959
 20
-27.0
 30
0.0
 11
381.0000060000001
 21
-27.0
 31
0.0
  0
CIRCLE
  5
137
  8
DETAIL
  6
CONTINUOUS
 62
     5
 10
401.00000599999981
 20
-27.0
 30
0.0
 40
1.5
  0
LINE
  5
138
  8
NOTE
  6
CONTINUOUS
 62
     4
 10
401.00000599999981
 20
-47.0
 30
0.0
 11
401.00000599999981
 21
-7.0
 31
0.0
  0
LINE
  5
144
  8
DETAIL
  6
CONTINUOUS
 62
     5
 10
631.0
 20
-114.999877
 30
0.0
 11
631.0
 21
-54.999877000000097
 31
0.0
  0
LINE
  5
145
  8
NOTE
  6
CONTINUOUS
 62
     4
 10
616.94220899999982
 20
-116.59765849999999
 30
0.0
 11
616.94220899999982
 21
-53.402095500000001
 31
0.0
  0
LINE
  5
146
  8
NOTE
  6
CONTINUOUS
 62
     4
 10
440.50000599999981
 20
-207.0
 30
0.0
 11
440.50000599999981
 21
-167.0
 31
0.0
  0
LINE
  5
147
  8
DETAIL
  6
CONTINUOUS
 62
     5
 10
631.0
 20
-114.999877
 30
0.0
 11
600.0
 21
-114.999877
 31
0.0
  0
LINE
  5
148
  8
NOTE
  6
CONTINUOUS
 62
     4
 10
440.50000599999981
 20
-87.0
 30
0.0
 11
440.50000599999981
 21
-47.0
 31
0.0
  0
CIRCLE
  5
149
  8
FIX
  6
CONTINUOUS
 62
    11
 10
616.99997599999995
 20
-85.0
 30
0.0
 40
20.0
  0
LINE
  5
14A
  8
NOTE
  6
CONTINUOUS
 62
     4
 10
640.61695599999985
 20
-84.999876999999998
 30
0.0
 11
593.2674619999998
 21
-84.999876999999998
 31
0.0
  0
LINE
  5
14B
  8
DETAIL
  6
CONTINUOUS
 62
     5
 10
631.0
 20
-54.999877000000097
 30
0.0
 11
600.0
 21
-54.999876999999998
 31
0.0
  0
CIRCLE
  5
14C
  8
DETAIL
  6
CONTINUOUS
 62
     5
 10
616.94220899999982
 20
-85.0
 30
0.0
 40
6.0
  0
LINE
  5
14D
  8
DETAIL
  6
CONTINUOUS
 62
     5
 10
-416.99999399999979
 20
-19.0
 30
0.0
 11
-416.99999399999979
 21
-355.0
 31
0.0
  0
LINE
  5
14E
  8
DETAIL
  6
CONTINUOUS
 62
     5
 10
418.00000599999959
 20
-19.0
 30
0.0
 11
418.00000599999959
 21
-355.0
 31
0.0
  0
LINE
  5
14F
  8
DETAIL
  6
CONTINUOUS
 62
     5
 10
-416.99999399999979
 20
-19.0
 30
0.0
 11
418.00000599999959
 21
-19.0
 31
0.0
  0
LINE
  5
150
  8
DETAIL
  6
CONTINUOUS
 62
     5
 10
418.00000599999959
 20
-355.0
 30
0.0
 11
-416.99999399999979
 21
-355.0
 31
0.0
  0
LINE
  5
151
  8
SIZE
  6
CONTINUOUS
 62
    30
 10
-416.99999399999979
 20
-375.0
 30
0.0
 11
-416.99999399999979
 21
-672.60029099999997
 31
0.0
  0
LINE
  5
152
  8
SIZE
  6
CONTINUOUS
 62
    30
 10
418.00000599999959
 20
-375.0
 30
0.0
 11
418.00000599999959
 21
-672.60029099999997
 31
0.0
  0
LINE
  5
153
  8
SIZE
  6
CONTINUOUS
 62
    30
 10
-406.99999399999979
 20
-642.60029099999986
 30
0.0
 11
408.0000059999997
 21
-642.60029099999986
 31
0.0
  0
CIRCLE
  5
154
  8
SIZE
  6
CONTINUOUS
 62
    30
 10
-416.99999399999979
 20
-642.60029099999986
 30
0.0
 40
5.0
  0
LINE
  5
155
  8
SIZE
  6
CONTINUOUS
 62
    30
 10
-411.99999399999979
 20
-642.60029099999986
 30
0.0
 11
-406.99999399999979
 21
-642.60029099999986
 31
0.0
  0
CIRCLE
  5
156
  8
SIZE
  6
CONTINUOUS
 62
    30
 10
418.00000599999959
 20
-642.60029099999986
 30
0.0
 40
5.0
  0
LINE
  5
157
  8
SIZE
  6
CONTINUOUS
 62
    30
 10
413.00000599999981
 20
-642.60029099999986
 30
0.0
 11
408.0000059999997
 21
-642.60029099999986
 31
0.0
  0
TEXT
  5
158
  8
SIZE
  6
CONTINUOUS
 62
    30
 10
-73.557136857142865
 20
-622.60029099999997
 30
0.0
 40
64.0
  1
835
 41
0.9
 72
     1
 11
0.5000059999999851
 21
-622.60029099999997
 31
0.0
  0
POINT
  5
159
  8
DEFPOINTS
  6
CONTINUOUS
 62
     7
 10
-416.99999399999979
 20
-355.0
 30
0.0
  0
POINT
  5
15A
  8
DEFPOINTS
  6
CONTINUOUS
 62
     7
 10
418.00000599999959
 20
-355.0
 30
0.0
  0
POINT
  5
15B
  8
DEFPOINTS
  6
CONTINUOUS
 62
     7
 10
418.00000599999959
 20
-642.60029099999986
 30
0.0
  0
LINE
  5
15C
  8
SIZE
  6
CONTINUOUS
 62
    30
 10
448.00000599999998
 20
-355.0
 30
0.0
 11
448.00000599999998
 21
-815.77814599999999
 31
0.0
  0
LINE
  5
15D
  8
SIZE
  6
CONTINUOUS
 62
    30
 10
-446.99999400000002
 20
-355.0
 30
0.0
 11
-446.99999400000002
 21
-815.77814599999999
 31
0.0
  0
LINE
  5
15E
  8
SIZE
  6
CONTINUOUS
 62
    30
 10
438.00000599999981
 20
-785.77814599999988
 30
0.0
 11
-436.99999399999979
 21
-785.77814599999988
 31
0.0
  0
CIRCLE
  5
15F
  8
SIZE
  6
CONTINUOUS
 62
    30
 10
448.00000599999998
 20
-785.77814599999988
 30
0.0
 40
5.0
  0
LINE
  5
160
  8
SIZE
  6
CONTINUOUS
 62
    30
 10
443.00000599999959
 20
-785.77814599999988
 30
0.0
 11
438.00000599999981
 21
-785.77814599999988
 31
0.0
  0
CIRCLE
  5
161
  8
SIZE
  6
CONTINUOUS
 62
    30
 10
-446.99999400000002
 20
-785.77814599999988
 30
0.0
 40
5.0
  0
LINE
  5
162
  8
SIZE
  6
CONTINUOUS
 62
    30
 10
-441.99999399999979
 20
-785.77814599999988
 30
0.0
 11
-436.99999399999979
 21
-785.77814599999988
 31
0.0
  0
TEXT
  5
163
  8
SIZE
  6
CONTINUOUS
 62
    30
 10
-73.557136857142865
 20
-765.77814599999988
 30
0.0
 40
64.0
  1
895
 41
0.9
 72
     1
 11
0.5000059999999851
 21
-765.77814599999988
 31
0.0
  0
POINT
  5
164
  8
DEFPOINTS
  6
CONTINUOUS
 62
     7
 10
448.00000599999998
 20
-335.0
 30
0.0
  0
POINT
  5
165
  8
DEFPOINTS
  6
CONTINUOUS
 62
     7
 10
-446.99999400000002
 20
-335.0
 30
0.0
  0
POINT
  5
166
  8
DEFPOINTS
  6
CONTINUOUS
 62
     7
 10
-446.99999400000002
 20
-785.77814599999988
 30
0.0
  0
POINT
  5
171
  8
DEFPOINTS
  6
CONTINUOUS
 62
     7
 10
-398.99999400000002
 20
-27.0
 30
0.0
  0
POINT
  5
172
  8
DEFPOINTS
  6
CONTINUOUS
 62
     7
 10
-599.9999879999998
 20
0.0
 30
0.0
  0
LINE
  5
174
  8
DETAIL
  6
CONTINUOUS
 62
     5
 10
-561.99998799999992
 20
-484.99999100000002
 30
0.0
 11
561.99997599999995
 21
-484.99999100000002
 31
0.0
  0
CIRCLE
  5
177
  8
ARRANGE
  6
CONTINUOUS
 62
     1
 10
0.0
 20
0.0
 30
0.0
 40
20.709212000000001
  0
TEXT
  5
248
  8
ETC
  6
CONTINUOUS
 62
    61
 10
774.29127673436392
 20
329.83226146291059
 30
0.0
 40
65.0
  1
PFT-P280DM-E1_1
 50
0.000003
 41
0.670573
  7
STANDARD1
  0
LINE
  5
2CB
  8
SIZE
  6
CONTINUOUS
 62
    30
 10
-448.49999399999979
 20
-187.0
 30
0.0
 11
-519.13891299999955
 21
-187.0
 31
0.0
  0
LINE
  5
2CC
  8
SIZE
  6
CONTINUOUS
 62
    30
 10
-489.13891299999989
 20
-57.0
 30
0.0
 11
-489.13891299999989
 21
-47.0
 31
0.0
  0
LINE
  5
2CD
  8
SIZE
  6
CONTINUOUS
 62
    30
 10
-489.13891299999989
 20
-197.0
 30
0.0
 11
-489.13891299999989
 21
-207.0
 31
0.0
  0
LINE
  5
2CE
  8
SIZE
  6
CONTINUOUS
 62
    30
 10
-489.13891299999989
 20
-67.0
 30
0.0
 11
-489.13891299999989
 21
-187.0
 31
0.0
  0
CIRCLE
  5
2CF
  8
SIZE
  6
CONTINUOUS
 62
    30
 10
-489.13891299999989
 20
-67.0
 30
0.0
 40
5.0
  0
LINE
  5
2D0
  8
SIZE
  6
CONTINUOUS
 62
    30
 10
-489.13891299999989
 20
-62.0
 30
0.0
 11
-489.13891299999989
 21
-57.0
 31
0.0
  0
CIRCLE
  5
2D1
  8
SIZE
  6
CONTINUOUS
 62
    30
 10
-489.13891299999989
 20
-187.0
 30
0.0
 40
5.0
  0
LINE
  5
2D2
  8
SIZE
  6
CONTINUOUS
 62
    30
 10
-489.13891299999989
 20
-192.0
 30
0.0
 11
-489.13891299999989
 21
-197.0
 31
0.0
  0
TEXT
  5
2D3
  8
SIZE
  6
CONTINUOUS
 62
    30
 10
-509.13891299999989
 20
-195.5714285714285
 30
0.0
 40
64.0
  1
120
 50
90.0
 41
0.9
 72
     1
 11
-509.13891299999989
 21
-127.0
 31
0.0
  0
POINT
  5
2D4
  8
DEFPOINTS
  6
CONTINUOUS
 62
     7
 10
-489.13891299999989
 20
-187.0
 30
0.0
  0
LINE
  5
2D5
  8
SIZE
  6
CONTINUOUS
 62
    30
 10
-428.2661308666012
 20
-27.0
 30
0.0
 11
-518.20272799999975
 21
-27.0
 31
0.0
  0
LINE
  5
2D6
  8
SIZE
  6
CONTINUOUS
 62
    30
 10
-448.49999399999979
 20
-67.0
 30
0.0
 11
-518.20272799999975
 21
-67.0
 31
0.0
  0
LINE
  5
2D7
  8
SIZE
  6
CONTINUOUS
 62
    30
 10
-488.20272799999992
 20
-77.0
 30
0.0
 11
-488.20272799999992
 21
-87.0
 31
0.0
  0
LINE
  5
2D8
  8
SIZE
  6
CONTINUOUS
 62
    30
 10
-488.20272799999992
 20
-17.0
 30
0.0
 11
-488.20272799999992
 21
126.257143
 31
0.0
  0
LINE
  5
2D9
  8
SIZE
  6
CONTINUOUS
 62
    30
 10
-488.20272799999992
 20
-67.0
 30
0.0
 11
-488.20272799999992
 21
-27.0
 31
0.0
  0
CIRCLE
  5
2DA
  8
SIZE
  6
CONTINUOUS
 62
    30
 10
-488.20272799999992
 20
-67.0
 30
0.0
 40
5.0
  0
LINE
  5
2DB
  8
SIZE
  6
CONTINUOUS
 62
    30
 10
-488.20272799999992
 20
-72.0
 30
0.0
 11
-488.20272799999992
 21
-77.0
 31
0.0
  0
CIRCLE
  5
2DC
  8
SIZE
  6
CONTINUOUS
 62
    30
 10
-488.20272799999992
 20
-27.0
 30
0.0
 40
5.0
  0
LINE
  5
2DD
  8
SIZE
  6
CONTINUOUS
 62
    30
 10
-488.20272799999992
 20
-22.0
 30
0.0
 11
-488.20272799999992
 21
-17.0
 31
0.0
  0
TEXT
  5
2DE
  8
SIZE
  6
CONTINUOUS
 62
    30
 10
-508.20272799999969
 20
12.999999571428599
 30
0.0
 40
64.0
  1
40
 50
90.0
 41
0.9
 72
     1
 11
-508.20272799999969
 21
59.628571000000022
 31
0.0
  0
POINT
  5
2DF
  8
DEFPOINTS
  6
CONTINUOUS
 62
     7
 10
-488.20272799999992
 20
-67.0
 30
0.0
  0
LINE
  5
2FE
  8
NOTE
  6
CONTINUOUS
 62
     4
 10
460.50000599999998
 20
-307.0
 30
0.0
 11
420.5000059999997
 21
-307.0
 31
0.0
  0
LINE
  5
304
  8
NOTE
  6
CONTINUOUS
 62
     4
 10
460.50000599999998
 20
-67.0
 30
0.0
 11
420.5000059999997
 21
-67.0
 31
0.0
  0
LINE
  5
30A
  8
NOTE
  6
CONTINUOUS
 62
     4
 10
460.50000599999998
 20
-187.0
 30
0.0
 11
420.5000059999997
 21
-187.0
 31
0.0
  0
LINE
  5
397
  8
SIZE
  6
CONTINUOUS
 62
    30
 10
501.99999999999972
 20
-19.0
 30
0.0
 11
1237.334326449467
 21
-19.0
 31
0.0
  0
LINE
  5
398
  8
SIZE
  6
CONTINUOUS
 62
    30
 10
501.99999999999972
 20
-355.0
 30
0.0
 11
1238.1409812563629
 21
-355.0
 31
0.0
  0
LINE
  5
399
  8
SIZE
  6
CONTINUOUS
 62
    30
 10
1205.439206040317
 20
-31.0
 30
0.0
 11
1205.439206040317
 21
-343.0
 31
0.0
  0
CIRCLE
  5
39A
  8
SIZE
  6
CONTINUOUS
 62
    30
 10
1205.439206040317
 20
-19.0
 30
0.0
 40
6.0
  0
LINE
  5
39B
  8
SIZE
  6
CONTINUOUS
 62
    30
 10
1205.439206040317
 20
-25.0
 30
0.0
 11
1205.439206040317
 21
-31.0
 31
0.0
  0
CIRCLE
  5
39C
  8
SIZE
  6
CONTINUOUS
 62
    30
 10
1205.439206040317
 20
-355.0
 30
0.0
 40
6.0
  0
LINE
  5
39D
  8
SIZE
  6
CONTINUOUS
 62
    30
 10
1205.439206040317
 20
-349.0
 30
0.0
 11
1205.439206040317
 21
-343.0
 31
0.0
  0
TEXT
  5
39E
  8
SIZE
  6
CONTINUOUS
 62
    30
 10
1196.996729505943
 20
-254.13035020401639
 30
0.0
 40
64.0
  1
336
 50
90.0
 41
0.9
 72
     1
 11
1196.996729505943
 21
-181.44463591830211
 31
0.0
  0
POINT
  5
39F
  8
DEFPOINTS
  6
CONTINUOUS
 62
     7
 10
1205.439206040317
 20
-355.0
 30
0.0
  0
LINE
  5
3A0
  8
SIZE
  6
CONTINUOUS
 62
    30
 10
522.00000000000011
 20
-39.0
 30
0.0
 11
1131.664329992474
 21
-39.0
 31
0.0
  0
LINE
  5
3A1
  8
SIZE
  6
CONTINUOUS
 62
    30
 10
522.00000000000011
 20
-335.0
 30
0.0
 11
1130.8577082086611
 21
-335.0
 31
0.0
  0
LINE
  5
3A2
  8
SIZE
  6
CONTINUOUS
 62
    30
 10
1099.3003930403181
 20
-51.0
 30
0.0
 11
1099.3003930403181
 21
-323.0
 31
0.0
  0
CIRCLE
  5
3A3
  8
SIZE
  6
CONTINUOUS
 62
    30
 10
1099.3003930403181
 20
-39.0
 30
0.0
 40
6.0
  0
LINE
  5
3A4
  8
SIZE
  6
CONTINUOUS
 62
    30
 10
1099.3003930403181
 20
-45.0
 30
0.0
 11
1099.3003930403181
 21
-51.0
 31
0.0
  0
CIRCLE
  5
3A5
  8
SIZE
  6
CONTINUOUS
 62
    30
 10
1099.3003930403181
 20
-335.0
 30
0.0
 40
6.0
  0
LINE
  5
3A6
  8
SIZE
  6
CONTINUOUS
 62
    30
 10
1099.3003930403181
 20
-329.0
 30
0.0
 11
1099.3003930403181
 21
-323.0
 31
0.0
  0
TEXT
  5
3A7
  8
SIZE
  6
CONTINUOUS
 62
    30
 10
1087.444946788625
 20
-285.26234052746202
 30
0.0
 40
64.0
  1
296
 50
90.0
 41
0.9
 72
     1
 11
1087.444946788625
 21
-212.5766262417477
 31
0.0
  0
POINT
  5
3A8
  8
DEFPOINTS
  6
CONTINUOUS
 62
     7
 10
1099.3003930403181
 20
-335.0
 30
0.0
  0
TEXT
  5
3A9
  8
NOTE
  6
CONTINUOUS
 62
     4
 10
746.62411616279053
 20
-579.52130130777107
 30
0.0
 40
51.200001
  1
RG1 \U+03C622.2
 50
0.000003
 41
0.635417
  7
STANDARD1
  0
LINE
  5
3AA
  8
NOTE
  6
CONTINUOUS
 62
     4
 10
1066.4041497520429
 20
-594.34314268783442
 30
0.0
 11
736.18728716279054
 21
-594.34314268783442
 31
0.0
  0
TEXT
  5
3AB
  8
NOTE
  6
CONTINUOUS
 62
     4
 10
750.45001934910829
 20
-726.58257783855743
 30
0.0
 40
51.200001
  1
RL1 \U+03C69.52
 50
0.000003
 41
0.635417
  7
STANDARD1
  0
LINE
  5
3AC
  8
NOTE
  6
CONTINUOUS
 62
     4
 10
1045.003567524906
 20
-741.40441921862111
 30
0.0
 11
732.68399732336911
 21
-741.40441921862111
 31
0.0
  0
LINE
  5
3AD
  8
NOTE
  6
CONTINUOUS
 62
     4
 10
736.18728716279054
 20
-594.34314268783442
 30
0.0
 11
600.0
 21
-105.0
 31
0.0
  0
LINE
  5
3AE
  8
NOTE
  6
CONTINUOUS
 62
     4
 10
732.68399732336911
 20
-741.40441921862111
 30
0.0
 11
600.0
 21
-185.0
 31
0.0
  0
LINE
  5
3AF
  8
SIZE
  6
CONTINUOUS
 62
    30
 10
620.00000000000011
 20
0.0
 30
0.0
 11
1034.867404319016
 21
-0.0000000000001137
 31
0.0
  0
LINE
  5
3B0
  8
SIZE
  6
CONTINUOUS
 62
    30
 10
620.00000000000011
 20
-185.0
 30
0.0
 11
1034.867404319016
 21
-185.00000000000011
 31
0.0
  0
LINE
  5
3B1
  8
SIZE
  6
CONTINUOUS
 62
    30
 10
1003.23902376876
 20
-10.00000000000011
 30
0.0
 11
1003.23902376876
 21
-175.00000000000011
 31
0.0
  0
LINE
  5
3B3
  8
SIZE
  6
CONTINUOUS
 62
    30
 10
620.00000000000011
 20
-105.0
 30
0.0
 11
932.42396104345028
 21
-105.0
 31
0.0
  0
CIRCLE
  5
3B4
  8
SIZE
  6
CONTINUOUS
 62
    30
 10
1003.23902376876
 20
-185.00000000000011
 30
0.0
 40
5.0
  0
LINE
  5
3B5
  8
SIZE
  6
CONTINUOUS
 62
    30
 10
1003.23902376876
 20
-180.00000000000011
 30
0.0
 11
1003.23902376876
 21
-175.00000000000011
 31
0.0
  0
CIRCLE
  5
3B6
  8
SIZE
  6
CONTINUOUS
 62
    30
 10
1003.23902376876
 20
-0.0000000000001137
 30
0.0
 40
5.0
  0
LINE
  5
3B7
  8
SIZE
  6
CONTINUOUS
 62
    30
 10
1003.23902376876
 20
-5.0000000000001119
 30
0.0
 11
1003.23902376876
 21
-10.00000000000011
 31
0.0
  0
TEXT
  5
3B8
  8
SIZE
  6
CONTINUOUS
 62
    30
 10
990.4316392778095
 20
67.643893634753439
 30
0.0
 40
64.0
  1
185
 50
90.0
 41
0.9
 72
     1
 11
990.4316392778095
 21
136.21532220618201
 31
0.0
  0
TEXT
  5
3B9
  8
SIZE
  6
CONTINUOUS
 62
    30
 10
885.28125980838536
 20
67.643893634753439
 30
0.0
 40
64.0
  1
105
 50
90.0
 41
0.9
 72
     1
 11
885.28125980838536
 21
136.21532220618201
 31
0.0
  0
CIRCLE
  5
3BA
  8
SIZE
  6
CONTINUOUS
 62
    30
 10
900.52080849091885
 20
-105.0
 30
0.0
 40
5.0
  0
CIRCLE
  5
3BB
  8
SIZE
  6
CONTINUOUS
 62
    30
 10
900.52080849091885
 20
0.0
 30
0.0
 40
5.0
  0
LINE
  5
3BC
  8
SIZE
  6
CONTINUOUS
 62
    30
 10
900.52080849091885
 20
-10.0
 30
0.0
 11
900.52080859437035
 21
-93.999998613094306
 31
0.0
  0
LINE
  5
3BD
  8
SIZE
  6
CONTINUOUS
 62
    30
 10
900.52080859437035
 20
-99.999998613094291
 30
0.0
 11
900.52080859437035
 21
-93.999998613094306
 31
0.0
  0
LINE
  5
3BE
  8
SIZE
  6
CONTINUOUS
 62
    30
 10
900.52080849091885
 20
-5.0
 30
0.0
 11
900.52080849091885
 21
-10.0
 31
0.0
  0
LINE
  5
3BF
  8
SIZE
  6
CONTINUOUS
 62
    30
 10
1003.23902376876
 20
216.60359309210639
 30
0.0
 11
1003.23902376876
 21
0.0000002769523917
 31
0.0
  0
LINE
  5
3C0
  8
SIZE
  6
CONTINUOUS
 62
    30
 10
900.52080849091885
 20
214.96301620654191
 30
0.0
 11
900.52080849091885
 21
0.0000002769523917
 31
0.0
  0
LINE
  5
3D6
  8
NOTE
  6
CONTINUOUS
 62
     4
 10
618.82468849999975
 20
-105.0
 30
0.0
 11
581.17531149999945
 21
-105.0
 31
0.0
  0
LINE
  5
3D7
  8
NOTE
  6
CONTINUOUS
 62
     4
 10
600.0
 20
-86.175311499999964
 30
0.0
 11
600.0
 21
-123.82468849999999
 31
0.0
  0
LINE
  5
3E0
  8
NOTE
  6
CONTINUOUS
 62
     4
 10
600.0
 20
-105.0
 30
0.0
 11
599.35117500000013
 21
-130.419658
 31
0.0
  0
LINE
  5
3E1
  8
NOTE
  6
CONTINUOUS
 62
     4
 10
600.0
 20
-105.0
 30
0.0
 11
613.5217439999999
 21
-126.83006899999999
 31
0.0
  0
LINE
  5
3EA
  8
NOTE
  6
CONTINUOUS
 62
     4
 10
618.82468849999975
 20
-185.0
 30
0.0
 11
581.17531149999945
 21
-185.0
 31
0.0
  0
LINE
  5
3EB
  8
NOTE
  6
CONTINUOUS
 62
     4
 10
600.0
 20
-166.17531149999999
 30
0.0
 11
600.0
 21
-203.82468850000001
 31
0.0
  0
LINE
  5
3EC
  8
NOTE
  6
CONTINUOUS
 62
     4
 10
600.0
 20
-185.0
 30
0.0
 11
599.35117500000013
 21
-210.419658
 31
0.0
  0
LINE
  5
3ED
  8
NOTE
  6
CONTINUOUS
 62
     4
 10
600.0
 20
-185.0
 30
0.0
 11
613.5217439999999
 21
-206.83006900000001
 31
0.0
  0
LINE
  5
3F6
  8
NOTE
  6
CONTINUOUS
 62
     4
 10
-581.17529950000005
 20
-105.0
 30
0.0
 11
-618.82467650000001
 21
-105.0
 31
0.0
  0
LINE
  5
3F7
  8
NOTE
  6
CONTINUOUS
 62
     4
 10
-599.9999879999998
 20
-86.175311499999964
 30
0.0
 11
-599.9999879999998
 21
-123.82468849999999
 31
0.0
  0
LINE
  5
3F8
  8
NOTE
  6
CONTINUOUS
 62
     4
 10
-599.9999879999998
 20
-105.0
 30
0.0
 11
-617.39054744919213
 21
-123.55123793070671
 31
0.0
  0
LINE
  5
3F9
  8
NOTE
  6
CONTINUOUS
 62
     4
 10
-599.9999879999998
 20
-105.0
 30
0.0
 11
-604.4209719452457
 21
-130.29514527141859
 31
0.0
  0
LINE
  5
402
  8
NOTE
  6
CONTINUOUS
 62
     4
 10
-380.17530549999998
 20
-347.0
 30
0.0
 11
-417.82468249999982
 21
-347.0
 31
0.0
  0
LINE
  5
403
  8
NOTE
  6
CONTINUOUS
 62
     4
 10
-398.99999400000002
 20
-328.17531150000002
 30
0.0
 11
-398.99999400000002
 21
-365.8246884999997
 31
0.0
  0
LINE
  5
404
  8
NOTE
  6
CONTINUOUS
 62
     4
 10
-399.05625303007878
 20
-346.84687134371939
 30
0.0
 11
-402.18193897872561
 21
-372.08196742176159
 31
0.0
  0
LINE
  5
405
  8
NOTE
  6
CONTINUOUS
 62
     4
 10
-399.05625303007878
 20
-346.84687134371939
 30
0.0
 11
-387.72876708399542
 21
-369.8919909026971
 31
0.0
  0
LINE
  5
443
  8
SIZE
  6
CONTINUOUS
 62
    30
 10
-621.99997599999995
 20
0.0
 30
0.0
 11
-764.24817299999893
 21
0.0
 31
0.0
  0
LINE
  5
444
  8
SIZE
  6
CONTINUOUS
 62
    30
 10
-665.03588799999966
 20
-84.999876999999998
 30
0.0
 11
-764.24817299999893
 21
-84.999876999999998
 31
0.0
  0
LINE
  5
445
  8
SIZE
  6
CONTINUOUS
 62
    30
 10
-734.24817299999972
 20
-12.0
 30
0.0
 11
-734.24817299999972
 21
-72.999876999999984
 31
0.0
  0
CIRCLE
  5
446
  8
SIZE
  6
CONTINUOUS
 62
    30
 10
-734.24817299999972
 20
0.0
 30
0.0
 40
6.0
  0
LINE
  5
447
  8
SIZE
  6
CONTINUOUS
 62
    30
 10
-734.24817299999972
 20
-6.0
 30
0.0
 11
-734.24817299999972
 21
-12.0
 31
0.0
  0
CIRCLE
  5
448
  8
SIZE
  6
CONTINUOUS
 62
    30
 10
-734.24817299999972
 20
-84.999876999999998
 30
0.0
 40
6.0
  0
LINE
  5
449
  8
SIZE
  6
CONTINUOUS
 62
    30
 10
-734.24817299999972
 20
-78.999876999999998
 30
0.0
 11
-734.24817299999972
 21
-72.999876999999984
 31
0.0
  0
TEXT
  5
44A
  8
SIZE
  6
CONTINUOUS
 62
    30
 10
-751.44928038664932
 20
74.700676878825078
 30
0.0
 40
64.0
  1
85
 50
90.0
 41
0.9
 72
     1
 11
-751.44928038664932
 21
121.3292483073965
 31
0.0
  0
POINT
  5
44B
  8
DEFPOINTS
  6
CONTINUOUS
 62
     7
 10
-734.24817299999972
 20
-84.999876999999998
 30
0.0
  0
LINE
  5
44C
  8
SIZE
  6
CONTINUOUS
 62
    30
 10
-665.03588799999966
 20
-84.999876999999998
 30
0.0
 11
-764.62781899999959
 21
-84.999876999999998
 31
0.0
  0
LINE
  5
44D
  8
SIZE
  6
CONTINUOUS
 62
    30
 10
-665.03588799999966
 20
-384.99986999999999
 30
0.0
 11
-764.62781899999959
 21
-384.99986999999999
 31
0.0
  0
LINE
  5
44E
  8
SIZE
  6
CONTINUOUS
 62
    30
 10
-734.62781899999982
 20
-96.999877000000012
 30
0.0
 11
-734.62781899999982
 21
-372.99986999999999
 31
0.0
  0
CIRCLE
  5
44F
  8
SIZE
  6
CONTINUOUS
 62
    30
 10
-734.62781899999982
 20
-84.999876999999998
 30
0.0
 40
6.0
  0
LINE
  5
450
  8
SIZE
  6
CONTINUOUS
 62
    30
 10
-734.62781899999982
 20
-90.999876999999984
 30
0.0
 11
-734.62781899999982
 21
-96.999877000000012
 31
0.0
  0
CIRCLE
  5
451
  8
SIZE
  6
CONTINUOUS
 62
    30
 10
-734.62781899999982
 20
-384.99986999999999
 30
0.0
 40
6.0
  0
LINE
  5
452
  8
SIZE
  6
CONTINUOUS
 62
    30
 10
-734.62781899999982
 20
-378.99986999999999
 30
0.0
 11
-734.62781899999982
 21
-372.99986999999999
 31
0.0
  0
TEXT
  5
453
  8
SIZE
  6
CONTINUOUS
 62
    30
 10
-746.79100228644973
 20
-339.05448903014849
 30
0.0
 40
64.0
  1
300
 50
90.0
 41
0.9
 72
     1
 11
-746.79100228644973
 21
-264.99734617300561
 31
0.0
  0
POINT
  5
454
  8
DEFPOINTS
  6
CONTINUOUS
 62
     7
 10
-734.62781899999982
 20
-384.99986999999999
 30
0.0
  0
LINE
  5
455
  8
SIZE
  6
CONTINUOUS
 62
    30
 10
-734.24815479172923
 20
181.52246452772309
 30
0.0
 11
-734.24815479172923
 21
-0.0000091042072654
 31
0.0
  0
TEXT
  5
458
  8
NOTE
  6
CONTINUOUS
 62
     4
 10
-1180.805370858377
 20
-683.47121210618695
 30
0.0
 40
51.200001
  1
RG2 \U+03C622.2
 50
0.000003
 41
0.635417
  7
STANDARD1
  0
LINE
  5
459
  8
NOTE
  6
CONTINUOUS
 62
     4
 10
-857.65879430461905
 20
-698.29305348624985
 30
0.0
 11
-1188.190586713974
 21
-698.29305348624985
 31
0.0
  0
TEXT
  5
45A
  8
NOTE
  6
CONTINUOUS
 62
     4
 10
-1152.248471910726
 20
-818.22499363103748
 30
0.0
 40
51.200001
  1
RL2 \U+03C69.52
 50
0.000003
 41
0.635417
  7
STANDARD1
  0
LINE
  5
45B
  8
NOTE
  6
CONTINUOUS
 62
     4
 10
-857.69492373492642
 20
-833.04683501110105
 30
0.0
 11
-1170.014493936465
 21
-833.04683501110105
 31
0.0
  0
LINE
  5
45C
  8
NOTE
  6
CONTINUOUS
 62
     4
 10
-599.9999879999998
 20
-105.0
 30
0.0
 11
-857.65879430461905
 21
-698.29305348624985
 31
0.0
  0
LINE
  5
45D
  8
NOTE
  6
CONTINUOUS
 62
     4
 10
-599.9999879999998
 20
-185.0
 30
0.0
 11
-857.69492373492642
 21
-833.04683501110105
 31
0.0
  0
LINE
  5
45E
  8
SIZE
  6
CONTINUOUS
 62
    30
 10
-621.99997599999995
 20
0.0
 30
0.0
 11
-870.13712347609624
 21
0.1404184906681962
 31
0.0
  0
LINE
  5
45F
  8
SIZE
  6
CONTINUOUS
 62
    30
 10
-620.38354152752322
 20
-104.8595815093317
 30
0.0
 11
-926.52006154072785
 21
-104.8595815093318
 31
0.0
  0
CIRCLE
  5
460
  8
SIZE
  6
CONTINUOUS
 62
    30
 10
-897.1140099651218
 20
0.1404184906681962
 30
0.0
 40
5.0
  0
CIRCLE
  5
461
  8
SIZE
  6
CONTINUOUS
 62
    30
 10
-897.1140099651218
 20
-104.8595815093318
 30
0.0
 40
5.0
  0
TEXT
  5
462
  8
SIZE
  6
CONTINUOUS
 62
    30
 10
-908.8045044833267
 20
67.784312125421636
 30
0.0
 40
64.0
  1
105
 50
90.0
 41
0.9
 72
     1
 11
-908.8045044833267
 21
136.35574069685021
 31
0.0
  0
LINE
  5
463
  8
SIZE
  6
CONTINUOUS
 62
    30
 10
-621.99997599999995
 20
0.0
 30
0.0
 11
-1030.7533141389019
 21
0.1404184906681962
 31
0.0
  0
LINE
  5
464
  8
SIZE
  6
CONTINUOUS
 62
    30
 10
-617.15067828031954
 20
-184.85958150933169
 30
0.0
 11
-1030.774452789972
 21
-184.8595815093318
 31
0.0
  0
LINE
  5
465
  8
SIZE
  6
CONTINUOUS
 62
    30
 10
-999.83222524296445
 20
-9.8595815093318055
 30
0.0
 11
-999.83222524296445
 21
-174.8595815093318
 31
0.0
  0
CIRCLE
  5
466
  8
SIZE
  6
CONTINUOUS
 62
    30
 10
-999.83222524296445
 20
0.1404184906681962
 30
0.0
 40
5.0
  0
LINE
  5
467
  8
SIZE
  6
CONTINUOUS
 62
    30
 10
-999.83222524296445
 20
-4.8595815093318011
 30
0.0
 11
-999.83222524296445
 21
-9.8595815093318055
 31
0.0
  0
CIRCLE
  5
468
  8
SIZE
  6
CONTINUOUS
 62
    30
 10
-999.83222524296445
 20
-184.8595815093318
 30
0.0
 40
5.0
  0
LINE
  5
469
  8
SIZE
  6
CONTINUOUS
 62
    30
 10
-999.83222524296445
 20
-179.8595815093318
 30
0.0
 11
-999.83222524296445
 21
-174.8595815093318
 31
0.0
  0
TEXT
  5
46A
  8
SIZE
  6
CONTINUOUS
 62
    30
 10
-1010.384588577858
 20
67.784312125421636
 30
0.0
 40
64.0
  1
185
 50
90.0
 41
0.9
 72
     1
 11
-1010.384588577858
 21
136.35574069685021
 31
0.0
  0
LINE
  5
46B
  8
SIZE
  6
CONTINUOUS
 62
    30
 10
-897.1140099651218
 20
-9.8595815093318055
 30
0.0
 11
-897.11401006857329
 21
-93.859580122426209
 31
0.0
  0
LINE
  5
46C
  8
SIZE
  6
CONTINUOUS
 62
    30
 10
-897.11401006857329
 20
-99.859580122426209
 30
0.0
 11
-897.11401006857329
 21
-93.859580122426209
 31
0.0
  0
LINE
  5
46D
  8
SIZE
  6
CONTINUOUS
 62
    30
 10
-897.1140099651218
 20
-4.8595815093318011
 30
0.0
 11
-897.1140099651218
 21
-9.8595815093318055
 31
0.0
  0
LINE
  5
46E
  8
SIZE
  6
CONTINUOUS
 62
    30
 10
-999.83222524296445
 20
216.7440115827745
 30
0.0
 11
-999.83222524296445
 21
0.1404187676205026
 31
0.0
  0
LINE
  5
46F
  8
SIZE
  6
CONTINUOUS
 62
    30
 10
-897.1140099651218
 20
215.10343469721019
 30
0.0
 11
-897.1140099651218
 21
0.1404187676207016
 31
0.0
  0
LINE
  5
476
  8
NOTE
  6
CONTINUOUS
 62
     4
 10
-599.9999879999998
 20
-185.0
 30
0.0
 11
-616.80240557559205
 21
-204.0855639249414
 31
0.0
  0
LINE
  5
477
  8
NOTE
  6
CONTINUOUS
 62
     4
 10
-599.9999879999998
 20
-185.0
 30
0.0
 11
-603.62844316307041
 21
-210.42093205364191
 31
0.0
  0
LINE
  5
47E
  8
NOTE
  6
CONTINUOUS
 62
     4
 10
-616.99998799999969
 20
-385.0
 30
0.0
 11
-631.71583107109529
 21
-405.73701881718961
 31
0.0
  0
LINE
  5
47F
  8
NOTE
  6
CONTINUOUS
 62
     4
 10
-616.99998799999969
 20
-385.0
 30
0.0
 11
-617.95191887595843
 21
-410.66092946394758
 31
0.0
  0
LINE
  5
486
  8
NOTE
  6
CONTINUOUS
 62
     4
 10
-581.17529950000005
 20
-185.0
 30
0.0
 11
-618.82467650000001
 21
-185.0
 31
0.0
  0
LINE
  5
487
  8
NOTE
  6
CONTINUOUS
 62
     4
 10
-599.9999879999998
 20
-166.17531149999999
 30
0.0
 11
-599.9999879999998
 21
-203.82468850000001
 31
0.0
  0
LINE
  5
50E
  8
SIZE
  6
CONTINUOUS
 62
    30
 10
-616.99998799999969
 20
-436.36313999999999
 30
0.0
 11
-616.99998799999969
 21
-972.34878506746975
 31
0.0
  0
LINE
  5
50F
  8
SIZE
  6
CONTINUOUS
 62
    30
 10
616.99997599999995
 20
-436.36313999999999
 30
0.0
 11
616.99997599999995
 21
-972.34878506746975
 31
0.0
  0
LINE
  5
510
  8
SIZE
  6
CONTINUOUS
 62
    30
 10
-606.9999879999998
 20
-942.34878506746963
 30
0.0
 11
606.99997599999995
 21
-942.34878506746963
 31
0.0
  0
LINE
  5
516
  8
SIZE
  6
CONTINUOUS
 62
    30
 10
631.0
 20
-434.99986999999987
 30
0.0
 11
631.0
 21
-1108.691112251282
 31
0.0
  0
LINE
  5
517
  8
SIZE
  6
CONTINUOUS
 62
    30
 10
-630.99999999999966
 20
-434.99986999999987
 30
0.0
 11
-630.99999999999966
 21
-1108.691112251282
 31
0.0
  0
LINE
  5
518
  8
SIZE
  6
CONTINUOUS
 62
    30
 10
621.0
 20
-1078.6911122512829
 30
0.0
 11
-620.99999999999955
 21
-1078.6911122512829
 31
0.0
  0
CIRCLE
  5
51C
  8
SIZE
  6
CONTINUOUS
 62
    30
 10
-616.99998799999969
 20
-942.34878506746963
 30
0.0
 40
5.0
  0
LINE
  5
51D
  8
SIZE
  6
CONTINUOUS
 62
    30
 10
-611.9999879999998
 20
-942.34878506746963
 30
0.0
 11
-606.9999879999998
 21
-942.34878506746963
 31
0.0
  0
CIRCLE
  5
51E
  8
SIZE
  6
CONTINUOUS
 62
    30
 10
-630.99999999999966
 20
-1078.6911122512829
 30
0.0
 40
5.0
  0
LINE
  5
51F
  8
SIZE
  6
CONTINUOUS
 62
    30
 10
-625.99999999999977
 20
-1078.6911122512829
 30
0.0
 11
-620.99999999999955
 21
-1078.6911122512829
 31
0.0
  0
TEXT
  5
520
  8
SIZE
  6
CONTINUOUS
 62
    30
 10
-95.939232440098678
 20
-919.70934525772327
 30
0.0
 40
64.0
  1
1234
 41
0.9
 72
     1
 11
1.432196131329873
 21
-919.70934525772327
 31
0.0
  0
TEXT
  5
521
  8
SIZE
  6
CONTINUOUS
 62
    30
 10
-104.33093059512341
 20
-1056.3217906583479
 30
0.0
 40
64.0
  1
1262
 41
0.9
 72
     1
 11
-8.3309305951233892
 21
-1056.3217906583479
 31
0.0
  0
CIRCLE
  5
522
  8
SIZE
  6
CONTINUOUS
 62
    30
 10
616.99997599999995
 20
-942.34878506746963
 30
0.0
 40
5.0
  0
LINE
  5
523
  8
SIZE
  6
CONTINUOUS
 62
    30
 10
611.99997599999995
 20
-942.34878506746963
 30
0.0
 11
606.99997599999995
 21
-942.34878506746963
 31
0.0
  0
CIRCLE
  5
524
  8
SIZE
  6
CONTINUOUS
 62
    30
 10
631.0
 20
-1078.6911122512829
 30
0.0
 40
5.0
  0
LINE
  5
525
  8
SIZE
  6
CONTINUOUS
 62
    30
 10
626.00000000000011
 20
-1078.6911122512829
 30
0.0
 11
621.0
 21
-1078.6911122512829
 31
0.0
  0
LINE
  5
96A
  8
SIZE
  6
CONTINUOUS
 62
    30
 10
-599.9999879999998
 20
20.0
 30
0.0
 11
-599.9999879999998
 21
374.01496221926539
 31
0.0
  0
LINE
  5
96B
  8
SIZE
  6
CONTINUOUS
 62
    30
 10
599.99997599999995
 20
20.0
 30
0.0
 11
599.99997599999995
 21
374.01496221926539
 31
0.0
  0
LINE
  5
96C
  8
SIZE
  6
CONTINUOUS
 62
    30
 10
-589.99998799999946
 20
344.01496221926561
 30
0.0
 11
589.99997599999995
 21
344.01496221926561
 31
0.0
  0
LINE
  5
972
  8
SIZE
  6
CONTINUOUS
 62
    30
 10
418.00000599999959
 20
1.0
 30
0.0
 11
418.00000599999959
 21
285.48258209967372
 31
0.0
  0
LINE
  5
973
  8
SIZE
  6
CONTINUOUS
 62
    30
 10
448.00000599999998
 20
-19.0
 30
0.0
 11
448.00000599999998
 21
285.48258209967372
 31
0.0
  0
LINE
  5
974
  8
SIZE
  6
CONTINUOUS
 62
    30
 10
438.00000599999993
 20
255.48258209967361
 30
0.0
 11
428.00000599999981
 21
255.48258209967361
 31
0.0
  0
LINE
  5
975
  8
SIZE
  6
CONTINUOUS
 62
    30
 10
418.00000599999959
 20
255.48258209967361
 30
0.0
 11
309.87227826064202
 21
255.48258209967361
 31
0.0
  0
LINE
  5
979
  8
SIZE
  6
CONTINUOUS
 62
    30
 10
599.99997599999995
 20
20.0
 30
0.0
 11
599.99997599999995
 21
285.48258209967372
 31
0.0
  0
LINE
  5
97A
  8
SIZE
  6
CONTINUOUS
 62
    30
 10
448.00000599999998
 20
-19.0
 30
0.0
 11
448.00000599999998
 21
285.48258209967372
 31
0.0
  0
LINE
  5
97B
  8
SIZE
  6
CONTINUOUS
 62
    30
 10
589.99997599999995
 20
255.48258209967361
 30
0.0
 11
458.00000599999993
 21
255.48258209967361
 31
0.0
  0
LINE
  5
97F
  8
SIZE
  6
CONTINUOUS
 62
    30
 10
438.00000599999981
 20
-19.0
 30
0.0
 11
767.09583653593825
 21
-19.00000000000011
 31
0.0
  0
LINE
  5
980
  8
SIZE
  6
CONTINUOUS
 62
    30
 10
619.99997599999995
 20
0.0
 30
0.0
 11
767.09583653593825
 21
0.0
 31
0.0
  0
LINE
  5
981
  8
SIZE
  6
CONTINUOUS
 62
    30
 10
737.09583653593825
 20
-29.00000000000011
 30
0.0
 11
737.09583653593825
 21
-39.000000000000099
 31
0.0
  0
LINE
  5
982
  8
SIZE
  6
CONTINUOUS
 62
    30
 10
737.09583653593825
 20
10.0
 30
0.0
 11
737.09583653593825
 21
146.27165558260091
 31
0.0
  0
LINE
  5
983
  8
SIZE
  6
CONTINUOUS
 62
    30
 10
737.09583653593825
 20
-19.00000000000011
 30
0.0
 11
737.09583653593825
 21
0.0
 31
0.0
  0
LINE
  5
987
  8
SIZE
  6
CONTINUOUS
 62
    30
 10
438.00000599999981
 20
-19.0
 30
0.0
 11
767.09583653593825
 21
-19.00000000000011
 31
0.0
  0
LINE
  5
988
  8
SIZE
  6
CONTINUOUS
 62
    30
 10
468.00000599999998
 20
-39.0
 30
0.0
 11
767.09583653593825
 21
-39.000000000000099
 31
0.0
  0
LINE
  5
989
  8
SIZE
  6
CONTINUOUS
 62
    30
 10
737.09583653593825
 20
-9.0000000000001137
 30
0.0
 11
737.09583653593825
 21
0.9999999999998864
 31
0.0
  0
LINE
  5
98A
  8
SIZE
  6
CONTINUOUS
 62
    30
 10
737.09583653593825
 20
-49.000000000000107
 30
0.0
 11
737.09583653593825
 21
-152.4371428571429
 31
0.0
  0
LINE
  5
98B
  8
SIZE
  6
CONTINUOUS
 62
    30
 10
737.09583653593825
 20
-19.00000000000011
 30
0.0
 11
737.09583653593825
 21
-39.000000000000099
 31
0.0
  0
TEXT
  5
98F
  8
SIZE
  6
CONTINUOUS
 62
    30
 10
-94.318409165616856
 20
358.22614996577249
 30
0.0
 40
64.0
  1
1200
 41
0.9
 72
     1
 11
1.6815908343831401
 21
358.22614996577249
 31
0.0
  0
CIRCLE
  5
990
  8
SIZE
  6
CONTINUOUS
 62
    30
 10
599.99997599999995
 20
344.01496221926561
 30
0.0
 40
5.0
  0
LINE
  5
991
  8
SIZE
  6
CONTINUOUS
 62
    30
 10
594.99997599999995
 20
344.01496221926561
 30
0.0
 11
589.99997599999995
 21
344.01496221926561
 31
0.0
  0
CIRCLE
  5
992
  8
SIZE
  6
CONTINUOUS
 62
    30
 10
-599.9999879999998
 20
344.01496221926561
 30
0.0
 40
5.0
  0
LINE
  5
993
  8
SIZE
  6
CONTINUOUS
 62
    30
 10
-594.9999879999998
 20
344.01496221926561
 30
0.0
 11
-589.99998799999946
 21
344.01496221926561
 31
0.0
  0
TEXT
  5
994
  8
SIZE
  6
CONTINUOUS
 62
    30
 10
296.24789166632007
 20
266.32973868812758
 30
0.0
 40
64.0
  1
30
 41
0.9
 72
     1
 11
342.87646309489151
 21
266.32973868812758
 31
0.0
  0
CIRCLE
  5
995
  8
SIZE
  6
CONTINUOUS
 62
    30
 10
418.00000599999959
 20
255.48258209967361
 30
0.0
 40
5.0
  0
LINE
  5
996
  8
SIZE
  6
CONTINUOUS
 62
    30
 10
423.00000599999959
 20
255.48258209967361
 30
0.0
 11
428.00000599999981
 21
255.48258209967361
 31
0.0
  0
CIRCLE
  5
997
  8
SIZE
  6
CONTINUOUS
 62
    30
 10
448.00000599999998
 20
255.48258209967361
 30
0.0
 40
5.0
  0
LINE
  5
998
  8
SIZE
  6
CONTINUOUS
 62
    30
 10
443.00000599999998
 20
255.48258209967361
 30
0.0
 11
438.00000599999993
 21
255.48258209967361
 31
0.0
  0
TEXT
  5
999
  8
SIZE
  6
CONTINUOUS
 62
    30
 10
454.0963606720731
 20
266.32973868812758
 30
0.0
 40
64.0
  1
152
 41
0.9
 72
     1
 11
522.66778924350172
 21
266.32973868812758
 31
0.0
  0
CIRCLE
  5
99A
  8
SIZE
  6
CONTINUOUS
 62
    30
 10
448.00000599999998
 20
255.48258209967361
 30
0.0
 40
5.0
  0
LINE
  5
99B
  8
SIZE
  6
CONTINUOUS
 62
    30
 10
453.00000599999993
 20
255.48258209967361
 30
0.0
 11
458.00000599999993
 21
255.48258209967361
 31
0.0
  0
CIRCLE
  5
99C
  8
SIZE
  6
CONTINUOUS
 62
    30
 10
599.99997599999995
 20
255.48258209967361
 30
0.0
 40
5.0
  0
LINE
  5
99D
  8
SIZE
  6
CONTINUOUS
 62
    30
 10
594.99997599999995
 20
255.48258209967361
 30
0.0
 11
589.99997599999995
 21
255.48258209967361
 31
0.0
  0
TEXT
  5
99E
  8
SIZE
  6
CONTINUOUS
 62
    30
 10
728.07759628701535
 20
-141.24541665425741
 30
0.0
 40
64.0
  1
20
 50
90.0
 41
0.9
 72
     1
 11
728.07759628701535
 21
-94.616845225686049
 31
0.0
  0
CIRCLE
  5
99F
  8
SIZE
  6
CONTINUOUS
 62
    30
 10
737.09583653593825
 20
-39.000000000000099
 30
0.0
 40
5.0
  0
LINE
  5
9A0
  8
SIZE
  6
CONTINUOUS
 62
    30
 10
737.09583653593825
 20
-44.000000000000107
 30
0.0
 11
737.09583653593825
 21
-49.000000000000107
 31
0.0
  0
CIRCLE
  5
9A1
  8
SIZE
  6
CONTINUOUS
 62
    30
 10
737.09583653593825
 20
-19.00000000000011
 30
0.0
 40
5.0
  0
LINE
  5
9A2
  8
SIZE
  6
CONTINUOUS
 62
    30
 10
737.09583653593825
 20
-14.00000000000011
 30
0.0
 11
737.09583653593825
 21
-9.0000000000001137
 31
0.0
  0
TEXT
  5
9A3
  8
SIZE
  6
CONTINUOUS
 62
    30
 10
724.9330394164549
 20
57.1314723140528
 30
0.0
 40
64.0
  1
19
 50
90.0
 41
0.9
 72
     1
 11
724.9330394164549
 21
96.902900885481387
 31
0.0
  0
CIRCLE
  5
9A4
  8
SIZE
  6
CONTINUOUS
 62
    30
 10
737.09583653593825
 20
0.0
 30
0.0
 40
5.0
  0
LINE
  5
9A5
  8
SIZE
  6
CONTINUOUS
 62
    30
 10
737.09583653593825
 20
5.0
 30
0.0
 11
737.09583653593825
 21
10.0
 31
0.0
  0
CIRCLE
  5
9A6
  8
SIZE
  6
CONTINUOUS
 62
    30
 10
737.09583653593825
 20
-19.00000000000011
 30
0.0
 40
5.0
  0
LINE
  5
9A7
  8
SIZE
  6
CONTINUOUS
 62
    30
 10
737.09583653593825
 20
-24.00000000000011
 30
0.0
 11
737.09583653593825
 21
-29.00000000000011
 31
0.0
  0
LINE
  5
9E1
  8
NOTE
  6
CONTINUOUS
 62
     4
 10
-458.49999399999979
 20
-187.0
 30
0.0
 11
-418.49999399999979
 21
-187.0
 31
0.0
  0
LINE
  5
CFC
  8
SERVICESPACE
  6
DASHDOT
 62
     2
 10
-599.99999399999911
 20
50.0
 30
0.0
 11
-599.99999399999911
 21
-1285.0
 31
0.0
  0
LINE
  5
CFD
  8
SERVICESPACE
  6
DASHDOT
 62
     2
 10
-1100.0
 20
50.0
 30
0.0
 11
-1100.0
 21
-1285.0
 31
0.0
  0
LINE
  5
CFE
  8
SERVICESPACE
  6
DASHDOT
 62
     2
 10
599.99997599999983
 20
49.999999750000022
 30
0.0
 11
599.99998199999925
 21
-1285.0
 31
0.0
  0
LINE
  5
CFF
  8
SERVICESPACE
  6
DASHDOT
 62
     2
 10
699.99998199999925
 20
50.0
 30
0.0
 11
699.99998199999925
 21
-1285.0
 31
0.0
  0
LINE
  5
D00
  8
SERVICESPACE
  6
DASHDOT
 62
     2
 10
-599.99999399999911
 20
50.0
 30
0.0
 11
-1100.0
 21
-1285.0
 31
0.0
  0
LINE
  5
D01
  8
SERVICESPACE
  6
DASHDOT
 62
     2
 10
-1100.0
 20
50.0
 30
0.0
 11
-599.99999399999911
 21
-1285.0
 31
0.0
  0
LINE
  5
D02
  8
SERVICESPACE
  6
DASHDOT
 62
     2
 10
699.99998199999925
 20
50.0
 30
0.0
 11
599.99998199999925
 21
-1285.0
 31
0.0
  0
LINE
  5
D03
  8
SERVICESPACE
  6
DASHDOT
 62
     2
 10
599.99998199999925
 20
50.0
 30
0.0
 11
699.99998199999925
 21
-1285.0
 31
0.0
  0
LINE
  5
D04
  8
SERVICESPACE
  6
DASHDOT
 62
     2
 10
599.99998199999925
 20
-484.99999100000002
 30
0.0
 11
-599.99999399999911
 21
-1285.0
 31
0.0
  0
LINE
  5
D05
  8
SERVICESPACE
  6
DASHDOT
 62
     2
 10
-599.99999399999911
 20
-484.99999100000002
 30
0.0
 11
599.99998199999925
 21
-1285.0
 31
0.0
  0
LINE
  5
D06
  8
SERVICESPACE
  6
DASHDOT
 62
     2
 10
-1100.0
 20
-1285.0
 30
0.0
 11
699.99998199999925
 21
-1285.0
 31
0.0
  0
LINE
  5
D07
  8
SERVICESPACE
  6
DASHDOT
 62
     2
 10
-599.99999399999911
 20
0.0
 30
0.0
 11
599.99998199999925
 21
0.0
 31
0.0
  0
LINE
  5
D08
  8
SERVICESPACE
  6
DASHDOT
 62
     2
 10
-1100.0
 20
50.0
 30
0.0
 11
699.99998199999925
 21
50.0
 31
0.0
  0
LINE
  5
D09
  8
SERVICESPACE
  6
DASHDOT
 62
     2
 10
-599.99999399999911
 20
0.0
 30
0.0
 11
599.99998199999925
 21
50.0
 31
0.0
  0
LINE
  5
D0A
  8
SERVICESPACE
  6
DASHDOT
 62
     2
 10
-599.99999399999911
 20
50.0
 30
0.0
 11
599.99998199999925
 21
0.0
 31
0.0
  0
LINE
  5
D0B
  8
SERVICESPACE
  6
DASHDOT
 62
     2
 10
-599.99999399999911
 20
-484.99999100000002
 30
0.0
 11
599.99998199999925
 21
-484.99999100000002
 31
0.0
  0
TEXT
  5
D14
  8
NOTE
  6
CONTINUOUS
 62
     4
 10
692.46235651939787
 20
-1254.986122242186
 30
0.0
 40
50.0
  1
サ－ビススペ－ス
 50
90.000003000000007
 41
0.635417
  7
STANDARD1
  0
TEXT
  5
D28
  8
NOTE
  6
CONTINUOUS
 62
     4
 10
-169.45219421476941
 20
-1229.4629077221221
 30
0.0
 40
50.0
  1
サ－ビススペ－ス
 50
0.000003
 41
0.635417
  7
STANDARD1
  0
LINE
  5
D6B
  8
SIZE
  6
CONTINUOUS
 62
    30
 10
715.59199999999998
 20
-0.0000000000006821
 30
0.0
 11
1416.218901063698
 21
-0.0000000000009095
 31
0.0
  0
LINE
  5
D6C
  8
SIZE
  6
CONTINUOUS
 62
    30
 10
718.97586248857965
 20
49.999999999999318
 30
0.0
 11
1416.218901063698
 21
49.999999999999091
 31
0.0
  0
LINE
  5
D6D
  8
SIZE
  6
CONTINUOUS
 62
    30
 10
1386.218901063696
 20
-10.000000000000909
 30
0.0
 11
1386.218901063696
 21
-20.000000000000909
 31
0.0
  0
LINE
  5
D6E
  8
SIZE
  6
CONTINUOUS
 62
    30
 10
1386.218901063696
 20
59.999999999999091
 30
0.0
 11
1386.218901063696
 21
156.3393765855246
 31
0.0
  0
LINE
  5
D6F
  8
SIZE
  6
CONTINUOUS
 62
    30
 10
1386.218901063696
 20
-0.0000000000009095
 30
0.0
 11
1386.218901063696
 21
49.999999999999091
 31
0.0
  0
LINE
  5
D70
  8
SIZE
  6
CONTINUOUS
 62
    30
 10
715.59199999999998
 20
-0.0000000000006821
 30
0.0
 11
1416.218901063698
 21
-0.0000000000009095
 31
0.0
  0
LINE
  5
D71
  8
SIZE
  6
CONTINUOUS
 62
    30
 10
715.59199999999987
 20
-484.9999910000007
 30
0.0
 11
1416.218901063696
 21
-484.9999910000007
 31
0.0
  0
LINE
  5
D72
  8
SIZE
  6
CONTINUOUS
 62
    30
 10
1386.218901063696
 20
-10.000000000000909
 30
0.0
 11
1386.218901063696
 21
-474.99999100000082
 31
0.0
  0
LINE
  5
D73
  8
SIZE
  6
CONTINUOUS
 62
    30
 10
715.59199999999987
 20
-484.9999909999998
 30
0.0
 11
1416.218901063698
 21
-484.9999909999998
 31
0.0
  0
LINE
  5
D74
  8
SIZE
  6
CONTINUOUS
 62
    30
 10
715.59195857425925
 20
-1285.0000000000009
 30
0.0
 11
1416.218901063696
 21
-1285.0000000000009
 31
0.0
  0
LINE
  5
D75
  8
SIZE
  6
CONTINUOUS
 62
    30
 10
1386.218901063696
 20
-494.9999909999998
 30
0.0
 11
1386.218901063696
 21
-1275.0
 31
0.0
  0
LINE
  5
D76
  8
SIZE
  6
CONTINUOUS
 62
    30
 10
599.99998199999982
 20
-1305.0
 30
0.0
 11
599.99998199999982
 21
-1477.138592301485
 31
0.0
  0
LINE
  5
D77
  8
SIZE
  6
CONTINUOUS
 62
    30
 10
699.99998199999925
 20
-1305.0
 30
0.0
 11
699.99998199999925
 21
-1477.138592301485
 31
0.0
  0
LINE
  5
D78
  8
SIZE
  6
CONTINUOUS
 62
    30
 10
589.9999819999997
 20
-1447.138592301485
 30
0.0
 11
579.99998199999982
 21
-1447.138592301485
 31
0.0
  0
LINE
  5
D79
  8
SIZE
  6
CONTINUOUS
 62
    30
 10
709.99998199999982
 20
-1447.138592301485
 30
0.0
 11
848.21506540769985
 21
-1447.138592301485
 31
0.0
  0
LINE
  5
D7A
  8
SIZE
  6
CONTINUOUS
 62
    30
 10
599.99998199999982
 20
-1447.138592301485
 30
0.0
 11
699.99998199999925
 21
-1447.138592301485
 31
0.0
  0
LINE
  5
D7B
  8
SIZE
  6
CONTINUOUS
 62
    30
 10
-599.99999399999865
 20
-1305.0
 30
0.0
 11
-599.99999399999865
 21
-1477.138592301485
 31
0.0
  0
LINE
  5
D7C
  8
SIZE
  6
CONTINUOUS
 62
    30
 10
-1100.0
 20
-1305.0
 30
0.0
 11
-1100.0
 21
-1477.138592301485
 31
0.0
  0
LINE
  5
D7D
  8
SIZE
  6
CONTINUOUS
 62
    30
 10
-589.99999399999888
 20
-1447.138592301485
 30
0.0
 11
-579.99999399999865
 21
-1447.138592301485
 31
0.0
  0
LINE
  5
D7F
  8
SIZE
  6
CONTINUOUS
 62
    30
 10
-599.99999399999865
 20
-1447.138592301485
 30
0.0
 11
-1100.0
 21
-1447.138592301485
 31
0.0
  0
LINE
  5
D80
  8
SIZE
  6
CONTINUOUS
 62
    30
 10
599.99998199999982
 20
-1305.0
 30
0.0
 11
599.99998199999982
 21
-1477.138592301485
 31
0.0
  0
LINE
  5
D81
  8
SIZE
  6
CONTINUOUS
 62
    30
 10
-599.99999399999865
 20
-1305.0
 30
0.0
 11
-599.99999399999865
 21
-1477.138592301485
 31
0.0
  0
LINE
  5
D82
  8
SIZE
  6
CONTINUOUS
 62
    30
 10
589.9999819999997
 20
-1447.138592301485
 30
0.0
 11
-589.99999399999888
 21
-1447.138592301485
 31
0.0
  0
CIRCLE
  5
D83
  8
SIZE
  6
CONTINUOUS
 62
    30
 10
1386.218901063696
 20
-484.9999909999998
 30
0.0
 40
5.0
  0
LINE
  5
D84
  8
SIZE
  6
CONTINUOUS
 62
    30
 10
1386.218901063696
 20
-489.9999909999998
 30
0.0
 11
1386.218901063696
 21
-494.9999909999998
 31
0.0
  0
TEXT
  5
D85
  8
SIZE
  6
CONTINUOUS
 62
    30
 10
1370.232342538495
 20
-311.92856692857231
 30
0.0
 40
60.0
  1
485
 50
90.0
 41
0.9
 72
     1
 11
1370.232342538495
 21
-242.49999550000081
 31
0.0
  0
CIRCLE
  5
D86
  8
SIZE
  6
CONTINUOUS
 62
    30
 10
1386.218901063696
 20
-484.9999910000007
 30
0.0
 40
5.0
  0
LINE
  5
D87
  8
SIZE
  6
CONTINUOUS
 62
    30
 10
1386.218901063696
 20
-479.9999910000007
 30
0.0
 11
1386.218901063696
 21
-474.99999100000082
 31
0.0
  0
CIRCLE
  5
D88
  8
SIZE
  6
CONTINUOUS
 62
    30
 10
1386.218901063696
 20
-0.0000000000009095
 30
0.0
 40
5.0
  0
LINE
  5
D89
  8
SIZE
  6
CONTINUOUS
 62
    30
 10
1386.218901063696
 20
-5.0000000000009077
 30
0.0
 11
1386.218901063696
 21
-10.000000000000909
 31
0.0
  0
TEXT
  5
D8A
  8
SIZE
  6
CONTINUOUS
 62
    30
 10
1367.5901629587199
 20
62.038052388983303
 30
0.0
 40
60.0
  1
50
 50
90.0
 41
0.9
 72
     1
 11
1367.5901629587199
 21
105.752338103269
 31
0.0
  0
CIRCLE
  5
D8B
  8
SIZE
  6
CONTINUOUS
 62
    30
 10
1386.218901063696
 20
49.999999999999091
 30
0.0
 40
5.0
  0
LINE
  5
D8C
  8
SIZE
  6
CONTINUOUS
 62
    30
 10
1386.218901063696
 20
54.999999999999091
 30
0.0
 11
1386.218901063696
 21
59.999999999999091
 31
0.0
  0
CIRCLE
  5
D8D
  8
SIZE
  6
CONTINUOUS
 62
    30
 10
1386.218901063696
 20
-0.0000000000009095
 30
0.0
 40
5.0
  0
LINE
  5
D8E
  8
SIZE
  6
CONTINUOUS
 62
    30
 10
1386.218901063696
 20
-5.0000000000009077
 30
0.0
 11
1386.218901063696
 21
-10.000000000000909
 31
0.0
  0
TEXT
  5
D8F
  8
SIZE
  6
CONTINUOUS
 62
    30
 10
-919.42856842857088
 20
-1440.342464417085
 30
0.0
 40
60.0
  1
500
 41
0.9
 72
     1
 11
-849.99999699999933
 21
-1440.342464417085
 31
0.0
  0
CIRCLE
  5
D90
  8
SIZE
  6
CONTINUOUS
 62
    30
 10
-1100.0
 20
-1447.138592301485
 30
0.0
 40
5.0
  0
CIRCLE
  5
D92
  8
SIZE
  6
CONTINUOUS
 62
    30
 10
-599.99999399999865
 20
-1447.138592301485
 30
0.0
 40
5.0
  0
LINE
  5
D93
  8
SIZE
  6
CONTINUOUS
 62
    30
 10
-594.99999399999876
 20
-1447.138592301485
 30
0.0
 11
-589.99999399999888
 21
-1447.138592301485
 31
0.0
  0
TEXT
  5
D94
  8
SIZE
  6
CONTINUOUS
 62
    30
 10
-89.379041799206391
 20
-1438.7699830145141
 30
0.0
 40
60.0
  1
1200
 41
0.9
 72
     1
 11
0.6209582007936092
 21
-1438.7699830145141
 31
0.0
  0
CIRCLE
  5
D95
  8
SIZE
  6
CONTINUOUS
 62
    30
 10
-599.99999399999865
 20
-1447.138592301485
 30
0.0
 40
5.0
  0
LINE
  5
D96
  8
SIZE
  6
CONTINUOUS
 62
    30
 10
-594.99999399999876
 20
-1447.138592301485
 30
0.0
 11
-589.99999399999888
 21
-1447.138592301485
 31
0.0
  0
CIRCLE
  5
D97
  8
SIZE
  6
CONTINUOUS
 62
    30
 10
599.99998199999982
 20
-1447.138592301485
 30
0.0
 40
5.0
  0
LINE
  5
D98
  8
SIZE
  6
CONTINUOUS
 62
    30
 10
594.99998199999982
 20
-1447.138592301485
 30
0.0
 11
589.9999819999997
 21
-1447.138592301485
 31
0.0
  0
TEXT
  5
D99
  8
SIZE
  6
CONTINUOUS
 62
    30
 10
713.06142085765782
 20
-1439.8533926186331
 30
0.0
 40
60.0
  1
100
 41
0.9
 72
     1
 11
777.34713514337216
 21
-1439.8533926186331
 31
0.0
  0
CIRCLE
  5
D9A
  8
SIZE
  6
CONTINUOUS
 62
    30
 10
699.99998199999925
 20
-1447.138592301485
 30
0.0
 40
5.0
  0
LINE
  5
D9B
  8
SIZE
  6
CONTINUOUS
 62
    30
 10
704.99998199999982
 20
-1447.138592301485
 30
0.0
 11
709.99998199999982
 21
-1447.138592301485
 31
0.0
  0
CIRCLE
  5
D9C
  8
SIZE
  6
CONTINUOUS
 62
    30
 10
599.99998199999982
 20
-1447.138592301485
 30
0.0
 40
5.0
  0
LINE
  5
D9D
  8
SIZE
  6
CONTINUOUS
 62
    30
 10
594.99998199999982
 20
-1447.138592301485
 30
0.0
 11
589.9999819999997
 21
-1447.138592301485
 31
0.0
  0
TEXT
  5
D9E
  8
SIZE
  6
CONTINUOUS
 62
    30
 10
1367.3850689071501
 20
-954.42856692857129
 30
0.0
 40
60.0
  1
800
 50
90.0
 41
0.9
 72
     1
 11
1367.3850689071501
 21
-884.99999549999995
 31
0.0
  0
CIRCLE
  5
D9F
  8
SIZE
  6
CONTINUOUS
 62
    30
 10
1386.218901063696
 20
-1285.0000000000009
 30
0.0
 40
5.0
  0
LINE
  5
DA0
  8
SIZE
  6
CONTINUOUS
 62
    30
 10
1386.218901063696
 20
-1280.0000000000009
 30
0.0
 11
1386.218901063696
 21
-1275.0
 31
0.0
  0
TEXT
  5
DC2
  8
NOTE
  6
CONTINUOUS
 62
     4
 10
-1011.960163267809
 20
-1209.006352723758
 30
0.0
 40
50.0
  1
サ－ビススペ－ス
 50
0.000003
 41
0.635417
  7
STANDARD1
  0
ENDSEC
  0
EOF
