  0
SECTION
  2
HEADER
  9
$ACADVER
  1
AC1009
  9
$INSBASE
 10
0.0
 20
0.0
 30
0.0
  9
$EXTMIN
 10
-1517.02877543521
 20
-452.49936398176942
 30
-0.000000000000013
  9
$EXTMAX
 10
1618.6523665891141
 20
1009.368913375503
 30
0.0000000000000023
  9
$LIMMIN
 10
-6000.0
 20
-4500.0
  9
$LIMMAX
 10
6000.0
 20
4500.0
  9
$ORTHOMODE
 70
     1
  9
$REGENMODE
 70
     1
  9
$FILLMODE
 70
     1
  9
$QTEXTMODE
 70
     0
  9
$MIRRTEXT
 70
     0
  9
$DRAGMODE
 70
     2
  9
$LTSCALE
 40
20.0
  9
$OSMODE
 70
  3071
  9
$ATTMODE
 70
     1
  9
$TEXTSIZE
 40
64.0
  9
$TRACEWID
 40
0.05
  9
$TEXTSTYLE
  7
STANDARD
  9
$CLAYER
  8
SYMBOLLINE
  9
$CELTYPE
  6
CONTINUOUS
  9
$CECOLOR
 62
     7
  9
$DIMSCALE
 40
1.0
  9
$DIMASZ
 40
10.0
  9
$DIMEXO
 40
20.0
  9
$DIMDLI
 40
200.0
  9
$DIMRND
 40
0.0
  9
$DIMDLE
 40
0.0
  9
$DIMEXE
 40
30.0
  9
$DIMTP
 40
0.0
  9
$DIMTM
 40
0.0
  9
$DIMTXT
 40
64.0
  9
$DIMCEN
 40
0.0
  9
$DIMTSZ
 40
0.0
  9
$DIMTOL
 70
     0
  9
$DIMLIM
 70
     0
  9
$DIMTIH
 70
     0
  9
$DIMTOH
 70
     0
  9
$DIMSE1
 70
     0
  9
$DIMSE2
 70
     0
  9
$DIMTAD
 70
     1
  9
$DIMZIN
 70
     8
  9
$DIMBLK
  1
ORIGIN
  9
$DIMASO
 70
     1
  9
$DIMSHO
 70
     0
  9
$DIMPOST
  1

  9
$DIMAPOST
  1

  9
$DIMALT
 70
     0
  9
$DIMALTD
 70
     2
  9
$DIMALTF
 40
25.399999999999999
  9
$DIMLFAC
 40
1.0
  9
$DIMTOFL
 70
     1
  9
$DIMTVP
 40
0.0
  9
$DIMTIX
 70
     1
  9
$DIMSOXD
 70
     0
  9
$DIMSAH
 70
     0
  9
$DIMBLK1
  1

  9
$DIMBLK2
  1

  9
$DIMSTYLE
  2
STANDARD
  9
$DIMCLRD
 70
     0
  9
$DIMCLRE
 70
     0
  9
$DIMCLRT
 70
     0
  9
$DIMTFAC
 40
1.0
  9
$DIMGAP
 40
0.09
  9
$LUNITS
 70
     2
  9
$LUPREC
 70
     4
  9
$SKETCHINC
 40
0.1
  9
$FILLETRAD
 40
10.0
  9
$AUNITS
 70
     1
  9
$AUPREC
 70
     3
  9
$MENU
  1
ACAD
  9
$ELEVATION
 40
0.0
  9
$PELEVATION
 40
0.0
  9
$THICKNESS
 40
0.0
  9
$LIMCHECK
 70
     0
  9
$BLIPMODE
 70
     0
  9
$CHAMFERA
 40
0.0
  9
$CHAMFERB
 40
0.0
  9
$SKPOLY
 70
     0
  9
$TDCREATE
 40
2450330.4399309959
  9
$TDUPDATE
 40
2456036.7531812042
  9
$TDINDWG
 40
1.3942212036999999
  9
$TDUSRTIMER
 40
1.3942145949
  9
$USRTIMER
 70
     1
  9
$ANGBASE
 50
0.0
  9
$ANGDIR
 70
     0
  9
$PDMODE
 70
     3
  9
$PDSIZE
 40
-2.0
  9
$PLINEWID
 40
0.0
  9
$COORDS
 70
     1
  9
$SPLFRAME
 70
     0
  9
$SPLINETYPE
 70
     6
  9
$SPLINESEGS
 70
     8
  9
$ATTDIA
 70
     0
  9
$ATTREQ
 70
     1
  9
$HANDLING
 70
     1
  9
$HANDSEED
  5
7D9
  9
$SURFTAB1
 70
     6
  9
$SURFTAB2
 70
     6
  9
$SURFTYPE
 70
     6
  9
$SURFU
 70
     6
  9
$SURFV
 70
     6
  9
$UCSNAME
  2

  9
$UCSORG
 10
0.0
 20
0.0
 30
0.0
  9
$UCSXDIR
 10
1.0
 20
0.0
 30
0.0
  9
$UCSYDIR
 10
0.0
 20
1.0
 30
0.0
  9
$PUCSNAME
  2

  9
$PUCSORG
 10
0.0
 20
0.0
 30
0.0
  9
$PUCSXDIR
 10
1.0
 20
0.0
 30
0.0
  9
$PUCSYDIR
 10
0.0
 20
1.0
 30
0.0
  9
$USERI1
 70
     0
  9
$USERI2
 70
     0
  9
$USERI3
 70
     0
  9
$USERI4
 70
     0
  9
$USERI5
 70
     0
  9
$USERR1
 40
20.0
  9
$USERR2
 40
0.0
  9
$USERR3
 40
0.0
  9
$USERR4
 40
0.0
  9
$USERR5
 40
0.0
  9
$WORLDVIEW
 70
     1
  9
$SHADEDGE
 70
     3
  9
$SHADEDIF
 70
    70
  9
$TILEMODE
 70
     1
  9
$MAXACTVP
 70
    48
  9
$PLIMCHECK
 70
     0
  9
$PEXTMIN
 10
1.0000000000000000E+020
 20
1.0000000000000000E+020
 30
1.0000000000000000E+020
  9
$PEXTMAX
 10
-1.0000000000000000E+020
 20
-1.0000000000000000E+020
 30
-1.0000000000000000E+020
  9
$PLIMMIN
 10
0.0
 20
0.0
  9
$PLIMMAX
 10
12.0
 20
9.0
  9
$UNITMODE
 70
     0
  9
$VISRETAIN
 70
     1
  9
$PLINEGEN
 70
     0
  9
$PSLTSCALE
 70
     1
  0
ENDSEC
  0
SECTION
  2
TABLES
  0
TABLE
  2
VPORT
 70
     1
  0
VPORT
  2
*ACTIVE
 70
     0
 10
0.0
 20
0.0
 11
1.0
 21
1.0
 12
0.0000000000002274
 22
0.0
 13
0.0
 23
0.0
 14
50.0
 24
50.0
 15
100.0
 25
100.0
 16
0.0
 26
0.0
 36
1.0
 17
0.0
 27
0.0
 37
0.0
 40
9068.4410646387842
 41
1.552030456852791
 42
50.0
 43
0.0
 44
0.0
 50
0.0
 51
0.0
 71
     0
 72
  1000
 73
     1
 74
     0
 75
     0
 76
     0
 77
     0
 78
     0
  0
ENDTAB
  0
TABLE
  2
LTYPE
 70
     2
  0
LTYPE
  2
CONTINUOUS
 70
     0
  3
実線
 72
    65
 73
     0
 40
0.0
  0
LTYPE
  2
DASHDOT
 70
     0
  3
____ _ ____ _ ____ _ ____ _ ____ _ ____ _ ____
 72
    65
 73
     4
 40
5.5
 49
4.0
 49
-0.6
 49
0.3
 49
-0.6
  0
ENDTAB
  0
TABLE
  2
LAYER
 70
    12
  0
LAYER
  2
0
 70
     0
 62
     7
  6
CONTINUOUS
  0
LAYER
  2
NOTE
 70
     0
 62
     4
  6
CONTINUOUS
  0
LAYER
  2
OUTLINE
 70
     0
 62
     3
  6
CONTINUOUS
  0
LAYER
  2
DETAIL
 70
     0
 62
     5
  6
CONTINUOUS
  0
LAYER
  2
BASIS
 70
     0
 62
     6
  6
DASHDOT
  0
LAYER
  2
SIZE
 70
     0
 62
    30
  6
CONTINUOUS
  0
LAYER
  2
ARRANGE
 70
     0
 62
     1
  6
CONTINUOUS
  0
LAYER
  2
FIX
 70
     0
 62
    11
  6
CONTINUOUS
  0
LAYER
  2
SERVICESPACE
 70
     0
 62
     2
  6
DASHDOT
  0
LAYER
  2
ETC
 70
     0
 62
    61
  6
CONTINUOUS
  0
LAYER
  2
SYMBOLLINE
 70
     0
 62
    15
  6
CONTINUOUS
  0
LAYER
  2
DEFPOINTS
 70
     0
 62
     7
  6
CONTINUOUS
  0
ENDTAB
  0
TABLE
  2
STYLE
 70
     2
  0
STYLE
  2
STANDARD
 70
     0
 40
0.0
 41
0.9
 50
0.0
 71
     0
 42
64.0
  3
SIMPLEX
  4
BIGFONT
  0
STYLE
  2
ANNOTATIVE
 70
     0
 40
0.0
 41
1.0
 50
0.0
 71
     0
 42
0.2
  3
txt
  4

  0
ENDTAB
  0
TABLE
  2
VIEW
 70
     1
  0
VIEW
  2
ALL
 70
     0
 40
9000.0
 10
241.50664699999999
 20
0.0
 41
12483.01
 11
0.0
 21
0.0
 31
1.0
 12
0.0
 22
0.0
 32
0.0
 42
50.0
 43
0.0
 44
0.0
 50
0.0
 71
     0
  0
ENDTAB
  0
TABLE
  2
UCS
 70
     0
  0
ENDTAB
  0
TABLE
  2
APPID
 70
     4
  0
APPID
  2
ACAD
 70
     0
  0
APPID
  2
ACADANNOTATIVE
 70
     0
  0
APPID
  2
ACAD_MLEADERVER
 70
     0
  0
APPID
  2
ACAD_EXEMPT_FROM_CAD_STANDARDS
 70
     0
  0
ENDTAB
  0
TABLE
  2
DIMSTYLE
 70
     2
  0
DIMSTYLE
  2
STANDARD
 70
     0
  3

  4

  5

  6

  7

 40
1.0
 41
0.18
 42
0.0625
 43
0.38
 44
0.18
 45
0.0
 46
0.0
 47
0.0
 48
0.0
140
0.18
141
0.09
142
0.0
143
25.399999999999999
144
1.0
145
0.0
146
1.0
147
0.09
 71
     0
 72
     0
 73
     1
 74
     1
 75
     0
 76
     0
 77
     0
 78
     0
170
     0
171
     2
172
     0
173
     0
174
     0
175
     0
176
     0
177
     0
178
     0
  0
DIMSTYLE
  2
ANNOTATIVE
 70
     0
  3

  4

  5

  6

  7

 40
1.0
 41
0.18
 42
0.0625
 43
0.38
 44
0.18
 45
0.0
 46
0.0
 47
0.0
 48
0.0
140
0.18
141
0.09
142
0.0
143
25.399999999999999
144
1.0
145
0.0
146
1.0
147
0.09
 71
     0
 72
     0
 73
     1
 74
     1
 75
     0
 76
     0
 77
     0
 78
     0
170
     0
171
     2
172
     0
173
     0
174
     0
175
     0
176
     0
177
     0
178
     0
  0
ENDTAB
  0
ENDSEC
  0
SECTION
  2
BLOCKS
  0
BLOCK
  8
0
  2
$MODEL_SPACE
 70
     0
 10
0.0
 20
0.0
 30
0.0
  3
$MODEL_SPACE
  1

  0
ENDBLK
  5
771
  8
0
  0
BLOCK
 67
     1
  8
0
  2
$PAPER_SPACE
 70
     0
 10
0.0
 20
0.0
 30
0.0
  3
$PAPER_SPACE
  1

  0
ENDBLK
  5
76D
 67
     1
  8
0
  0
BLOCK
  8
0
  2
_ORIGIN
 70
     0
 10
0.0
 20
0.0
 30
0.0
  3
_ORIGIN
  1

  0
CIRCLE
  5
30
  8
0
  6
CONTINUOUS
 62
     7
 10
0.0
 20
0.0
 30
0.0
 40
0.5
  0
LINE
  5
31
  8
0
  6
CONTINUOUS
 62
     7
 10
0.0
 20
0.0
 30
0.0
 11
-1.0
 21
0.0
 31
0.0
  0
ENDBLK
  5
32
  8
0
  0
BLOCK
  8
0
  2
_DOTBLANK
 70
     0
 10
0.0
 20
0.0
 30
0.0
  3
_DOTBLANK
  1

  0
CIRCLE
  5
2E3
  8
0
  6
CONTINUOUS
 62
     7
 10
0.0
 20
0.0
 30
0.0
 40
0.5
  0
LINE
  5
2E4
  8
0
  6
CONTINUOUS
 62
     7
 10
-0.5
 20
0.0
 30
0.0
 11
-1.0
 21
0.0
 31
0.0
  0
ENDBLK
  5
2E5
  8
0
  0
BLOCK
  8
0
 62
     7
  2
*D4
 70
     1
 10
0.0
 20
0.0
 30
0.0
  3
*D4
  1

  0
LINE
  5
4CD
  8
SIZE
  6
CONTINUOUS
 62
     0
 10
743.0
 20
338.0
 30
0.0
 11
1219.431368947633
 21
337.99999999999989
 31
0.0
  0
LINE
  5
4CE
  8
SIZE
  6
CONTINUOUS
 62
     0
 10
839.0
 20
215.99999999999989
 30
0.0
 11
1219.431368947633
 21
215.99999999999969
 31
0.0
  0
LINE
  5
4CF
  8
SIZE
  6
CONTINUOUS
 62
     0
 10
1189.431368947633
 20
225.9999999999998
 30
0.0
 11
1189.431368947633
 21
327.99999999999972
 31
0.0
  0
LINE
  5
4D0
  8
SIZE
  6
CONTINUOUS
 62
     0
 10
1189.431368947633
 20
337.99999999999989
 30
0.0
 11
1189.431368947633
 21
485.32285714285689
 31
0.0
  0
INSERT
  5
4D1
  8
SIZE
  6
CONTINUOUS
 62
     0
  2
_ORIGIN
 10
1189.431368947633
 20
215.9999999999998
 30
0.0
 41
10.0
 42
10.0
 43
10.0
 50
270.0
  0
INSERT
  5
4D2
  8
SIZE
  6
CONTINUOUS
 62
     0
  2
_ORIGIN
 10
1189.431368947633
 20
337.99999999999989
 30
0.0
 41
10.0
 42
10.0
 43
10.0
 50
90.0
  0
INSERT
  5
4D3
  8
NOTE
  6
CONTINUOUS
 62
     7
  2
*U5
 10
0.0
 20
0.0
 30
0.0
  0
POINT
  5
4D4
  8
DEFPOINTS
  6
CONTINUOUS
 62
     0
 10
723.0
 20
338.0
 30
0.0
  0
POINT
  5
4D5
  8
DEFPOINTS
  6
CONTINUOUS
 62
     0
 10
819.0
 20
215.99999999999989
 30
0.0
  0
POINT
  5
4D6
  8
DEFPOINTS
  6
CONTINUOUS
 62
     0
 10
1189.431368947633
 20
215.9999999999998
 30
0.0
  0
ENDBLK
  5
48F
  8
0
 62
     7
  0
BLOCK
  8
0
 62
     7
  2
*U5
 70
     1
 10
0.0
 20
0.0
 30
0.0
  3
*U5
  1

  0
TEXT
  5
539
  8
SIZE
  6
CONTINUOUS
 62
     0
 10
1189.3413689476331
 20
348.09000000000009
 30
0.0
 40
64.0
  1
122
 50
90.0
 41
0.9
  0
ENDBLK
  5
53B
  8
0
 62
     7
  0
ENDSEC
  0
SECTION
  2
ENTITIES
  0
LINE
  5
33
  8
NOTE
  6
CONTINUOUS
 62
     4
 10
-931.55663683619787
 20
538.23355133673601
 30
0.0
 11
-1475.779836402186
 21
538.23355133673601
 31
0.0
  0
TEXT
  5
34
  8
NOTE
  6
CONTINUOUS
 62
     4
 10
-1431.4094854021851
 20
559.72877033673626
 30
0.0
 40
55.0
  1
10-%%C2.9取付穴
 41
0.9
  0
TEXT
  5
35
  8
SIZE
  6
CONTINUOUS
 62
    30
 10
1450.4074579999999
 20
142.6411512857143
 30
0.0
 40
55.0
  1
266
 50
90.0
 41
0.9
 72
     1
 11
1450.4074579999999
 21
205.10543699999999
 31
0.0
  0
LINE
  5
36
  8
DETAIL
  6
CONTINUOUS
 62
     5
 10
502.0
 20
287.44999999999999
 30
0.0
 11
502.0
 21
177.44999999999999
 31
0.0
  0
LINE
  5
37
  8
BASIS
  6
DASHDOT
 62
     6
 10
0.0
 20
415.86406599999992
 30
0.0
 11
0.0
 21
-76.418196999999978
 31
0.0
  0
LINE
  5
38
  8
SIZE
  6
CONTINUOUS
 62
    30
 10
-747.0
 20
186.0
 30
0.0
 11
-747.0
 21
848.97478199999989
 31
0.0
  0
LINE
  5
39
  8
DETAIL
  6
CONTINUOUS
 62
     5
 10
-723.0
 20
338.0
 30
0.0
 11
-723.0
 21
45.0
 31
0.0
  0
TEXT
  5
3B
  8
SIZE
  6
CONTINUOUS
 62
    30
 10
-379.89435800000001
 20
176.78571428571431
 30
0.0
 40
55.0
  1
110
 50
90.0
 41
0.9
 72
     1
 11
-379.89435800000001
 21
231.0
 31
0.0
  0
LINE
  5
3C
  8
SIZE
  6
CONTINUOUS
 62
    30
 10
747.0
 20
188.0
 30
0.0
 11
747.0
 21
848.97478199999989
 31
0.0
  0
LINE
  5
3E
  8
DETAIL
  6
CONTINUOUS
 62
     5
 10
723.0
 20
338.0
 30
0.0
 11
723.0
 21
45.0
 31
0.0
  0
TEXT
  5
3F
  8
SIZE
  6
CONTINUOUS
 62
    30
 10
1323.7244109999999
 20
184.07142857142861
 30
0.0
 40
55.0
  1
190
 50
90.0
 41
0.9
 72
     1
 11
1323.7244109999999
 21
243.0
 31
0.0
  0
LINE
  5
40
  8
SIZE
  6
CONTINUOUS
 62
    30
 10
1343.7244109999999
 20
328.0
 30
0.0
 11
1343.7244109999999
 21
158.0
 31
0.0
  0
LINE
  5
41
  8
SIZE
  6
CONTINUOUS
 62
    30
 10
1470.4074579999999
 20
328.0
 30
0.0
 11
1470.4074579999999
 21
82.210874000000004
 31
0.0
  0
LINE
  5
43
  8
SIZE
  6
CONTINUOUS
 62
    30
 10
813.0
 20
72.210874000000004
 30
0.0
 11
1500.4074579999999
 21
72.210874000000004
 31
0.0
  0
LINE
  5
44
  8
SIZE
  6
CONTINUOUS
 62
    30
 10
793.0
 20
148.0
 30
0.0
 11
1373.7244109999999
 21
148.0
 31
0.0
  0
LINE
  5
45
  8
NOTE
  6
CONTINUOUS
 62
     4
 10
477.36591900000002
 20
-153.072731
 30
0.0
 11
-485.16081099999991
 21
-153.072731
 31
0.0
  0
TEXT
  5
46
  8
NOTE
  6
CONTINUOUS
 62
     4
 10
-379.82350000000002
 20
-143.4497529999999
 30
0.0
 40
55.0
  1
分ﾀﾞｸﾄ接続口､別売加湿器接続口
 41
0.9
  0
LINE
  5
47
  8
NOTE
  6
CONTINUOUS
 62
     4
 10
-485.16081099999991
 20
-153.072731
 30
0.0
 11
17.478463000000001
 21
202.171606
 31
0.0
  0
LINE
  5
48
  8
DETAIL
  6
CONTINUOUS
 62
     5
 10
502.0
 20
176.0
 30
0.0
 11
-252.0
 21
176.0
 31
0.0
  0
LINE
  5
49
  8
DETAIL
  6
CONTINUOUS
 62
     5
 10
723.0
 20
72.0
 30
0.0
 11
-723.0
 21
72.0
 31
0.0
  0
TEXT
  5
4A
  8
SIZE
  6
CONTINUOUS
 62
    30
 10
-287.80714285714271
 20
-244.70804200000001
 30
0.0
 40
55.0
  1
1710(天井開口寸法)
 41
0.9
 72
     1
 11
0.0
 21
-244.70804200000001
 31
0.0
  0
LINE
  5
4B
  8
SIZE
  6
CONTINUOUS
 62
    30
 10
-855.0
 20
-271.46994599999999
 30
0.0
 11
855.0
 21
-271.46994599999999
 31
0.0
  0
POINT
  5
4C
  8
ARRANGE
  6
CONTINUOUS
 62
     1
 10
0.0
 20
0.0
 30
0.0
  0
LINE
  5
4D
  8
DETAIL
  6
CONTINUOUS
 62
     5
 10
875.0
 20
0.0
 30
0.0
 11
-875.0
 21
0.0
 31
0.0
  0
LINE
  5
4E
  8
DETAIL
  6
CONTINUOUS
 62
     5
 10
833.0
 20
45.0
 30
0.0
 11
-833.0
 21
45.0
 31
0.0
  0
LINE
  5
4F
  8
DETAIL
  6
CONTINUOUS
 62
     5
 10
-723.0
 20
48.0
 30
0.0
 11
723.0
 21
48.0
 31
0.0
  0
CIRCLE
  5
50
  8
ARRANGE
  6
CONTINUOUS
 62
     1
 10
0.0
 20
0.0
 30
0.0
 40
40.0
  0
TEXT
  5
52
  8
SIZE
  6
CONTINUOUS
 62
    30
 10
-1003.6524449999999
 20
-119.81500622254779
 30
0.0
 40
55.0
  1
20
 50
90.0
 41
0.9
 72
     1
 11
-1003.6524449999999
 21
-79.743577651119267
 31
0.0
  0
LINE
  5
53
  8
SIZE
  6
CONTINUOUS
 62
    30
 10
-983.65244499999983
 20
-30.0
 30
0.0
 11
-983.65244499999983
 21
-127.39072280660911
 31
0.0
  0
LINE
  5
54
  8
SIZE
  6
CONTINUOUS
 62
    30
 10
-855.0
 20
-28.759955000000001
 30
0.0
 11
-855.0
 21
-301.46994599999999
 31
0.0
  0
LINE
  5
55
  8
SIZE
  6
CONTINUOUS
 62
    30
 10
-875.0
 20
-20.0
 30
0.0
 11
-875.0
 21
-301.46994599999999
 31
0.0
  0
LINE
  5
56
  8
SIZE
  6
CONTINUOUS
 62
    30
 10
-855.0
 20
-48.759954999999998
 30
0.0
 11
-855.0
 21
-301.46994599999999
 31
0.0
  0
LINE
  5
57
  8
SIZE
  6
CONTINUOUS
 62
    30
 10
-845.0
 20
-271.46994599999999
 30
0.0
 11
-835.0
 21
-271.46994599999999
 31
0.0
  0
TEXT
  5
58
  8
SIZE
  6
CONTINUOUS
 62
    30
 10
-967.4410030145882
 20
-251.46994599999999
 30
0.0
 40
55.0
  1
20
 41
0.9
 72
     1
 11
-927.36957444315965
 21
-251.46994599999999
 31
0.0
  0
LINE
  5
59
  8
SIZE
  6
CONTINUOUS
 62
    30
 10
-850.0
 20
-271.46994599999999
 30
0.0
 11
-845.0
 21
-271.46994599999999
 31
0.0
  0
CIRCLE
  5
5A
  8
SIZE
  6
CONTINUOUS
 62
    30
 10
-855.0
 20
-271.46994599999999
 30
0.0
 40
5.0
  0
LINE
  5
5B
  8
SIZE
  6
CONTINUOUS
 62
    30
 10
-880.0
 20
-271.46994599999999
 30
0.0
 11
-885.0
 21
-271.46994599999999
 31
0.0
  0
CIRCLE
  5
5C
  8
SIZE
  6
CONTINUOUS
 62
    30
 10
-875.0
 20
-271.46994599999999
 30
0.0
 40
5.0
  0
LINE
  5
5D
  8
SIZE
  6
CONTINUOUS
 62
    30
 10
-875.0
 20
-271.46994599999999
 30
0.0
 11
-855.0
 21
-271.46994599999999
 31
0.0
  0
LINE
  5
5E
  8
SIZE
  6
CONTINUOUS
 62
    30
 10
-885.0
 20
-271.46994599999999
 30
0.0
 11
-977.47721276763991
 21
-271.46994599999999
 31
0.0
  0
LINE
  5
5F
  8
SIZE
  6
CONTINUOUS
 62
    30
 10
-850.0
 20
-271.46994599999999
 30
0.0
 11
-845.0
 21
-271.46994599999999
 31
0.0
  0
CIRCLE
  5
60
  8
SIZE
  6
CONTINUOUS
 62
    30
 10
-855.0
 20
-271.46994599999999
 30
0.0
 40
5.0
  0
LINE
  5
61
  8
SIZE
  6
CONTINUOUS
 62
    30
 10
-827.0
 20
-20.0
 30
0.0
 11
-1013.6524449999999
 21
-20.0
 31
0.0
  0
LINE
  5
62
  8
SIZE
  6
CONTINUOUS
 62
    30
 10
-895.0
 20
0.0
 30
0.0
 11
-1013.6524449999999
 21
0.0
 31
0.0
  0
LINE
  5
63
  8
SIZE
  6
CONTINUOUS
 62
    30
 10
-895.0
 20
0.0
 30
0.0
 11
-1013.6524449999999
 21
0.0
 31
0.0
  0
LINE
  5
64
  8
SIZE
  6
CONTINUOUS
 62
    30
 10
-853.0
 20
45.0
 30
0.0
 11
-1013.6524449999999
 21
45.0
 31
0.0
  0
TEXT
  5
65
  8
SIZE
  6
CONTINUOUS
 62
    30
 10
-996.29511843826901
 20
73.344351428571429
 30
0.0
 40
55.0
  1
45
 50
90.0
 41
0.9
 72
     1
 11
-996.29511843826901
 21
113.41578
 31
0.0
  0
CIRCLE
  5
66
  8
SIZE
  6
CONTINUOUS
 62
    30
 10
-983.65244499999983
 20
0.0
 30
0.0
 40
5.0
  0
CIRCLE
  5
67
  8
SIZE
  6
CONTINUOUS
 62
    30
 10
-983.65244499999983
 20
0.0
 30
0.0
 40
5.0
  0
LINE
  5
68
  8
SIZE
  6
CONTINUOUS
 62
    30
 10
-983.65244499999983
 20
45.0
 30
0.0
 11
-983.65244499999983
 21
0.0
 31
0.0
  0
LINE
  5
69
  8
SIZE
  6
CONTINUOUS
 62
    30
 10
-983.65244499999983
 20
-25.0
 30
0.0
 11
-983.65244499999983
 21
-30.0
 31
0.0
  0
CIRCLE
  5
6A
  8
SIZE
  6
CONTINUOUS
 62
    30
 10
-983.65244499999983
 20
-20.0
 30
0.0
 40
5.0
  0
LINE
  5
6B
  8
SIZE
  6
CONTINUOUS
 62
    30
 10
-983.65244499999983
 20
0.0
 30
0.0
 11
-983.65244499999983
 21
-20.0
 31
0.0
  0
LINE
  5
6C
  8
SIZE
  6
CONTINUOUS
 62
    30
 10
-983.65244499999983
 20
-5.0
 30
0.0
 11
-983.65244499999983
 21
-10.0
 31
0.0
  0
LINE
  5
6D
  8
SIZE
  6
CONTINUOUS
 62
    30
 10
-983.65244499999983
 20
-10.0
 30
0.0
 11
-983.65244499999983
 21
-20.0
 31
0.0
  0
LINE
  5
6E
  8
SIZE
  6
CONTINUOUS
 62
    30
 10
-983.65244499999983
 20
5.0
 30
0.0
 11
-983.65244499999983
 21
10.0
 31
0.0
  0
LINE
  5
6F
  8
SIZE
  6
CONTINUOUS
 62
    30
 10
-983.65244499999983
 20
10.0
 30
0.0
 11
-983.65244499999983
 21
20.0
 31
0.0
  0
LINE
  5
70
  8
SIZE
  6
CONTINUOUS
 62
    30
 10
-983.65244499999983
 20
50.0
 30
0.0
 11
-983.65244499999983
 21
55.0
 31
0.0
  0
CIRCLE
  5
71
  8
SIZE
  6
CONTINUOUS
 62
    30
 10
-983.65244499999983
 20
45.0
 30
0.0
 40
5.0
  0
LINE
  5
72
  8
SIZE
  6
CONTINUOUS
 62
    30
 10
-983.65244499999983
 20
55.0
 30
0.0
 11
-983.65244499999983
 21
162.25375984812851
 31
0.0
  0
ARC
  5
73
  8
DETAIL
  6
CONTINUOUS
 62
     5
 10
-786.90766199999985
 20
173.91395
 30
0.0
 40
194.952102
 50
243.13649500000011
 51
264.08442400000001
  0
LINE
  5
74
  8
DETAIL
  6
CONTINUOUS
 62
     5
 10
-833.0
 20
45.0
 30
0.0
 11
-833.0
 21
0.0
 31
0.0
  0
LINE
  5
76
  8
NOTE
  6
CONTINUOUS
 62
     4
 10
-747.0
 20
148.0
 30
0.0
 11
-879.00195503331634
 21
380.90179128675658
 31
0.0
  0
POLYLINE
  5
77
  8
NOTE
  6
CONTINUOUS
 62
     4
 66
     1
 10
0.0
 20
0.0
 30
0.0
  0
VERTEX
  5
7B5
  8
NOTE
  6
CONTINUOUS
 62
     4
 10
-759.78769699999964
 20
185.90085500000001
 30
0.0
  0
VERTEX
  5
7B6
  8
NOTE
  6
CONTINUOUS
 62
     4
 10
-747.0
 20
148.0
 30
0.0
  0
VERTEX
  5
7B7
  8
NOTE
  6
CONTINUOUS
 62
     4
 10
-777.02489799999989
 20
174.42925500000001
 30
0.0
  0
SEQEND
  5
7B8
  8
NOTE
  6
CONTINUOUS
 62
     4
  0
LINE
  5
7C
  8
DETAIL
  6
CONTINUOUS
 62
     5
 10
-773.0
 20
148.0
 30
0.0
 11
-773.0
 21
140.0
 31
0.0
  0
LINE
  5
7D
  8
DETAIL
  6
CONTINUOUS
 62
     5
 10
-770.0
 20
145.0
 30
0.0
 11
-770.0
 21
140.0
 31
0.0
  0
LINE
  5
7E
  8
DETAIL
  6
CONTINUOUS
 62
     5
 10
-770.0
 20
140.0
 30
0.0
 11
-773.0
 21
140.0
 31
0.0
  0
LINE
  5
7F
  8
DETAIL
  6
CONTINUOUS
 62
     5
 10
-723.0
 20
145.0
 30
0.0
 11
-770.0
 21
145.0
 31
0.0
  0
LINE
  5
80
  8
DETAIL
  6
CONTINUOUS
 62
     5
 10
-723.0
 20
148.0
 30
0.0
 11
-773.0
 21
148.0
 31
0.0
  0
CIRCLE
  5
81
  8
FIX
  6
CONTINUOUS
 62
    11
 10
-747.0
 20
148.0
 30
0.0
 40
5.0
  0
LINE
  5
82
  8
NOTE
  6
CONTINUOUS
 62
     4
 10
-747.0
 20
128.0
 30
0.0
 11
-747.0
 21
168.0
 31
0.0
  0
LINE
  5
83
  8
NOTE
  6
CONTINUOUS
 62
     4
 10
-727.0
 20
148.0
 30
0.0
 11
-767.0
 21
148.0
 31
0.0
  0
LINE
  5
84
  8
SIZE
  6
CONTINUOUS
 62
    30
 10
-252.0
 20
176.0
 30
0.0
 11
-383.66465399999998
 21
176.0
 31
0.0
  0
LINE
  5
85
  8
DETAIL
  6
CONTINUOUS
 62
     5
 10
-806.99999984745318
 20
-20.00000007590916
 30
0.0
 11
807.0
 21
-20.0
 31
0.0
  0
LINE
  5
86
  8
NOTE
  6
CONTINUOUS
 62
     4
 10
13.513684
 20
205.21800099999999
 30
0.0
 11
14.432069
 21
206.13638599999999
 31
0.0
  0
LINE
  5
87
  8
NOTE
  6
CONTINUOUS
 62
     4
 10
13.154208000000001
 20
204.681749
 30
0.0
 11
14.968321
 21
206.49586199999999
 31
0.0
  0
LINE
  5
88
  8
NOTE
  6
CONTINUOUS
 62
     4
 10
12.958427
 20
204.309191
 30
0.0
 11
15.340878999999999
 21
206.691643
 31
0.0
  0
LINE
  5
89
  8
NOTE
  6
CONTINUOUS
 62
     4
 10
12.823947
 20
203.99793399999999
 30
0.0
 11
15.652136
 21
206.826123
 31
0.0
  0
LINE
  5
8A
  8
NOTE
  6
CONTINUOUS
 62
     4
 10
12.724966999999999
 20
203.72217800000001
 30
0.0
 11
15.927892
 21
206.92510300000001
 31
0.0
  0
LINE
  5
8B
  8
NOTE
  6
CONTINUOUS
 62
     4
 10
12.650143
 20
203.47057699999999
 30
0.0
 11
16.179492
 21
206.99992599999999
 31
0.0
  0
LINE
  5
8C
  8
NOTE
  6
CONTINUOUS
 62
     4
 10
12.593273
 20
203.23693
 30
0.0
 11
16.413139000000001
 21
207.05679699999999
 31
0.0
  0
LINE
  5
8D
  8
NOTE
  6
CONTINUOUS
 62
     4
 10
12.550519
 20
203.01740000000001
 30
0.0
 11
16.632670000000001
 21
207.09954999999999
 31
0.0
  0
LINE
  5
8E
  8
NOTE
  6
CONTINUOUS
 62
     4
 10
12.519310000000001
 20
202.809414
 30
0.0
 11
16.840655999999999
 21
207.13076000000001
 31
0.0
  0
LINE
  5
8F
  8
NOTE
  6
CONTINUOUS
 62
     4
 10
12.497821
 20
202.61114799999999
 30
0.0
 11
17.038921999999999
 21
207.15224900000001
 31
0.0
  0
LINE
  5
90
  8
NOTE
  6
CONTINUOUS
 62
     4
 10
12.4847
 20
202.42124999999999
 30
0.0
 11
17.228819999999999
 21
207.16537
 31
0.0
  0
LINE
  5
91
  8
NOTE
  6
CONTINUOUS
 62
     4
 10
12.478913
 20
202.238687
 30
0.0
 11
17.411383000000001
 21
207.171156
 31
0.0
  0
LINE
  5
92
  8
NOTE
  6
CONTINUOUS
 62
     4
 10
12.479651
 20
202.062648
 30
0.0
 11
17.587422
 21
207.17041900000001
 31
0.0
  0
LINE
  5
93
  8
NOTE
  6
CONTINUOUS
 62
     4
 10
12.486261000000001
 20
201.892481
 30
0.0
 11
17.757588999999999
 21
207.16380899999999
 31
0.0
  0
LINE
  5
94
  8
NOTE
  6
CONTINUOUS
 62
     4
 10
12.498212000000001
 20
201.727655
 30
0.0
 11
17.922414
 21
207.151858
 31
0.0
  0
LINE
  5
95
  8
NOTE
  6
CONTINUOUS
 62
     4
 10
12.515064000000001
 20
201.56773100000001
 30
0.0
 11
18.082339000000001
 21
207.135006
 31
0.0
  0
LINE
  5
96
  8
NOTE
  6
CONTINUOUS
 62
     4
 10
12.536448
 20
201.412339
 30
0.0
 11
18.237731
 21
207.11362099999999
 31
0.0
  0
LINE
  5
97
  8
NOTE
  6
CONTINUOUS
 62
     4
 10
12.562052
 20
201.261166
 30
0.0
 11
18.388904
 21
207.08801700000001
 31
0.0
  0
LINE
  5
98
  8
NOTE
  6
CONTINUOUS
 62
     4
 10
12.591608000000001
 20
201.113945
 30
0.0
 11
18.536124999999998
 21
207.05846099999999
 31
0.0
  0
LINE
  5
99
  8
NOTE
  6
CONTINUOUS
 62
     4
 10
12.624886
 20
200.97044600000001
 30
0.0
 11
18.679624
 21
207.025184
 31
0.0
  0
LINE
  5
9A
  8
NOTE
  6
CONTINUOUS
 62
     4
 10
12.661685
 20
200.83046899999999
 30
0.0
 11
18.819600999999999
 21
206.988384
 31
0.0
  0
LINE
  5
9B
  8
NOTE
  6
CONTINUOUS
 62
     4
 10
12.701832
 20
200.693839
 30
0.0
 11
18.956230999999999
 21
206.94823700000001
 31
0.0
  0
LINE
  5
9C
  8
NOTE
  6
CONTINUOUS
 62
     4
 10
12.745174
 20
200.56040400000001
 30
0.0
 11
19.089666000000001
 21
206.90489600000001
 31
0.0
  0
LINE
  5
9D
  8
NOTE
  6
CONTINUOUS
 62
     4
 10
12.791575999999999
 20
200.43002999999999
 30
0.0
 11
19.220040000000001
 21
206.85849300000001
 31
0.0
  0
LINE
  5
9E
  8
NOTE
  6
CONTINUOUS
 62
     4
 10
12.840920000000001
 20
200.30259699999999
 30
0.0
 11
19.347473000000001
 21
206.80914899999999
 31
0.0
  0
LINE
  5
9F
  8
NOTE
  6
CONTINUOUS
 62
     4
 10
12.893102000000001
 20
200.17800199999999
 30
0.0
 11
19.472068
 21
206.756968
 31
0.0
  0
LINE
  5
A0
  8
NOTE
  6
CONTINUOUS
 62
     4
 10
12.948028000000001
 20
200.056151
 30
0.0
 11
19.593919
 21
206.70204200000001
 31
0.0
  0
LINE
  5
A1
  8
NOTE
  6
CONTINUOUS
 62
     4
 10
13.005616
 20
199.93696199999999
 30
0.0
 11
19.713107000000001
 21
206.644454
 31
0.0
  0
LINE
  5
A2
  8
NOTE
  6
CONTINUOUS
 62
     4
 10
13.065792999999999
 20
199.82036299999999
 30
0.0
 11
19.829705999999991
 21
206.58427599999999
 31
0.0
  0
LINE
  5
A3
  8
NOTE
  6
CONTINUOUS
 62
     4
 10
13.128496
 20
199.70629
 30
0.0
 11
19.94378
 21
206.52157299999999
 31
0.0
  0
LINE
  5
A4
  8
NOTE
  6
CONTINUOUS
 62
     4
 10
13.193668000000001
 20
199.594684
 30
0.0
 11
20.055385000000001
 21
206.456402
 31
0.0
  0
LINE
  5
A5
  8
NOTE
  6
CONTINUOUS
 62
     4
 10
13.261258
 20
199.48549800000001
 30
0.0
 11
20.164572
 21
206.388812
 31
0.0
  0
LINE
  5
A6
  8
NOTE
  6
CONTINUOUS
 62
     4
 10
13.331223
 20
199.37868700000001
 30
0.0
 11
20.271383
 21
206.31884600000001
 31
0.0
  0
LINE
  5
A7
  8
NOTE
  6
CONTINUOUS
 62
     4
 10
13.403525999999999
 20
199.274213
 30
0.0
 11
20.375857
 21
206.246543
 31
0.0
  0
LINE
  5
A8
  8
NOTE
  6
CONTINUOUS
 62
     4
 10
13.478135
 20
199.172045
 30
0.0
 11
20.478024999999999
 21
206.17193499999999
 31
0.0
  0
LINE
  5
A9
  8
NOTE
  6
CONTINUOUS
 62
     4
 10
13.555021
 20
199.07215400000001
 30
0.0
 11
20.577915000000001
 21
206.09504799999999
 31
0.0
  0
LINE
  5
AA
  8
NOTE
  6
CONTINUOUS
 62
     4
 10
13.634164
 20
198.97452000000001
 30
0.0
 11
20.675550000000001
 21
206.015906
 31
0.0
  0
LINE
  5
AB
  8
NOTE
  6
CONTINUOUS
 62
     4
 10
13.715544
 20
198.87912399999999
 30
0.0
 11
20.770945999999999
 21
205.93452500000001
 31
0.0
  0
LINE
  5
AC
  8
NOTE
  6
CONTINUOUS
 62
     4
 10
13.799149999999999
 20
198.78595300000001
 30
0.0
 11
20.864117
 21
205.85092
 31
0.0
  0
LINE
  5
AD
  8
NOTE
  6
CONTINUOUS
 62
     4
 10
13.884971
 20
198.694997
 30
0.0
 11
20.955072999999999
 21
205.76509899999999
 31
0.0
  0
LINE
  5
AE
  8
NOTE
  6
CONTINUOUS
 62
     4
 10
13.973003
 20
198.60625300000001
 30
0.0
 11
21.043817000000001
 21
205.67706699999999
 31
0.0
  0
LINE
  5
AF
  8
NOTE
  6
CONTINUOUS
 62
     4
 10
14.063245
 20
198.51971800000001
 30
0.0
 11
21.130351000000001
 21
205.58682400000001
 31
0.0
  0
LINE
  5
B0
  8
NOTE
  6
CONTINUOUS
 62
     4
 10
14.155702
 20
198.43539799999999
 30
0.0
 11
21.214672
 21
205.49436800000001
 31
0.0
  0
LINE
  5
B1
  8
NOTE
  6
CONTINUOUS
 62
     4
 10
14.250379000000001
 20
198.35329899999999
 30
0.0
 11
21.296771
 21
205.39968999999999
 31
0.0
  0
LINE
  5
B2
  8
NOTE
  6
CONTINUOUS
 62
     4
 10
14.347289999999999
 20
198.27343300000001
 30
0.0
 11
21.376636999999999
 21
205.30277899999999
 31
0.0
  0
LINE
  5
B3
  8
NOTE
  6
CONTINUOUS
 62
     4
 10
14.446451
 20
198.19581700000001
 30
0.0
 11
21.454253000000001
 21
205.203619
 31
0.0
  0
LINE
  5
B4
  8
NOTE
  6
CONTINUOUS
 62
     4
 10
14.547882
 20
198.12047200000001
 30
0.0
 11
21.529598
 21
205.10218800000001
 31
0.0
  0
LINE
  5
B5
  8
NOTE
  6
CONTINUOUS
 62
     4
 10
14.651609000000001
 20
198.0474219999999
 30
0.0
 11
21.602647999999999
 21
204.99845999999999
 31
0.0
  0
LINE
  5
B6
  8
NOTE
  6
CONTINUOUS
 62
     4
 10
14.757663000000001
 20
197.976699
 30
0.0
 11
21.673370999999999
 21
204.89240699999999
 31
0.0
  0
LINE
  5
B7
  8
NOTE
  6
CONTINUOUS
 62
     4
 10
14.866078999999999
 20
197.9083389999999
 30
0.0
 11
21.741731000000001
 21
204.78398999999999
 31
0.0
  0
LINE
  5
B8
  8
NOTE
  6
CONTINUOUS
 62
     4
 10
14.976900000000001
 20
197.84238199999999
 30
0.0
 11
21.807687000000001
 21
204.67317
 31
0.0
  0
LINE
  5
B9
  8
NOTE
  6
CONTINUOUS
 62
     4
 10
15.090172000000001
 20
197.77887799999999
 30
0.0
 11
21.871192000000001
 21
204.559898
 31
0.0
  0
LINE
  5
BA
  8
NOTE
  6
CONTINUOUS
 62
     4
 10
15.20595
 20
197.71787900000001
 30
0.0
 11
21.932189999999999
 21
204.44412
 31
0.0
  0
LINE
  5
BB
  8
NOTE
  6
CONTINUOUS
 62
     4
 10
15.324296
 20
197.659449
 30
0.0
 11
21.990621000000001
 21
204.325773
 31
0.0
  0
LINE
  5
BC
  8
NOTE
  6
CONTINUOUS
 62
     4
 10
15.44528
 20
197.603656
 30
0.0
 11
22.046413000000001
 21
204.20478900000001
 31
0.0
  0
LINE
  5
BD
  8
NOTE
  6
CONTINUOUS
 62
     4
 10
15.568981000000001
 20
197.55058099999999
 30
0.0
 11
17.531137000000001
 21
206.11336700000001
 31
0.0
  0
LINE
  5
BE
  8
NOTE
  6
CONTINUOUS
 62
     4
 10
15.695487999999999
 20
197.50031100000001
 30
0.0
 11
22.149759
 21
203.95458099999999
 31
0.0
  0
LINE
  5
BF
  8
NOTE
  6
CONTINUOUS
 62
     4
 10
15.824902
 20
197.45294799999999
 30
0.0
 11
22.197122
 21
203.82516699999999
 31
0.0
  0
LINE
  5
C0
  8
NOTE
  6
CONTINUOUS
 62
     4
 10
15.957337000000001
 20
197.40860599999999
 30
0.0
 11
22.241464000000001
 21
203.692733
 31
0.0
  0
LINE
  5
C1
  8
NOTE
  6
CONTINUOUS
 62
     4
 10
16.092921
 20
197.367413
 30
0.0
 11
22.282657
 21
203.55714900000001
 31
0.0
  0
LINE
  5
C2
  8
NOTE
  6
CONTINUOUS
 62
     4
 10
16.231801000000001
 20
197.32951700000001
 30
0.0
 11
22.320553
 21
203.41826900000001
 31
0.0
  0
LINE
  5
C3
  8
NOTE
  6
CONTINUOUS
 62
     4
 10
16.374144000000001
 20
197.29508300000001
 30
0.0
 11
22.354987000000001
 21
203.275926
 31
0.0
  0
LINE
  5
C4
  8
NOTE
  6
CONTINUOUS
 62
     4
 10
16.520140999999999
 20
197.26430400000001
 30
0.0
 11
22.385766
 21
203.12992800000001
 31
0.0
  0
LINE
  5
C5
  8
NOTE
  6
CONTINUOUS
 62
     4
 10
16.670013000000001
 20
197.23739800000001
 30
0.0
 11
22.412671
 21
202.98005699999999
 31
0.0
  0
LINE
  5
C6
  8
NOTE
  6
CONTINUOUS
 62
     4
 10
16.824013000000001
 20
197.21462199999999
 30
0.0
 11
22.435448000000001
 21
202.82605699999999
 31
0.0
  0
LINE
  5
C7
  8
NOTE
  6
CONTINUOUS
 62
     4
 10
16.982438999999999
 20
197.196271
 30
0.0
 11
22.453799
 21
202.667631
 31
0.0
  0
LINE
  5
C8
  8
NOTE
  6
CONTINUOUS
 62
     4
 10
17.14564
 20
197.18269599999999
 30
0.0
 11
22.467374
 21
202.50443000000001
 31
0.0
  0
LINE
  5
C9
  8
NOTE
  6
CONTINUOUS
 62
     4
 10
17.314032000000001
 20
197.17431099999999
 30
0.0
 11
22.475759
 21
202.336038
 31
0.0
  0
LINE
  5
CA
  8
NOTE
  6
CONTINUOUS
 62
     4
 10
17.488112999999998
 20
197.171616
 30
0.0
 11
22.478453999999999
 21
202.161956
 31
0.0
  0
LINE
  5
CB
  8
NOTE
  6
CONTINUOUS
 62
     4
 10
17.668493000000002
 20
197.175219
 30
0.0
 11
22.474851000000001
 21
201.98157599999999
 31
0.0
  0
LINE
  5
CC
  8
NOTE
  6
CONTINUOUS
 62
     4
 10
17.855926
 20
197.18587400000001
 30
0.0
 11
22.464195
 21
201.79414399999999
 31
0.0
  0
LINE
  5
CD
  8
NOTE
  6
CONTINUOUS
 62
     4
 10
18.051364
 20
197.20453599999999
 30
0.0
 11
22.445533000000001
 21
201.59870599999999
 31
0.0
  0
LINE
  5
CE
  8
NOTE
  6
CONTINUOUS
 62
     4
 10
18.256043999999999
 20
197.23244
 30
0.0
 11
22.417629999999999
 21
201.394026
 31
0.0
  0
LINE
  5
CF
  8
NOTE
  6
CONTINUOUS
 62
     4
 10
18.471615
 20
197.27123399999999
 30
0.0
 11
22.378836
 21
201.17845399999999
 31
0.0
  0
LINE
  5
D0
  8
NOTE
  6
CONTINUOUS
 62
     4
 10
18.700368000000001
 20
197.32320999999999
 30
0.0
 11
22.32686
 21
200.949702
 31
0.0
  0
LINE
  5
D1
  8
NOTE
  6
CONTINUOUS
 62
     4
 10
18.945649
 20
197.39171400000001
 30
0.0
 11
22.258355000000002
 21
200.704421
 31
0.0
  0
LINE
  5
D2
  8
NOTE
  6
CONTINUOUS
 62
     4
 10
19.212714999999999
 20
197.48200399999999
 30
0.0
 11
22.168066
 21
200.437354
 31
0.0
  0
LINE
  5
D3
  8
NOTE
  6
CONTINUOUS
 62
     4
 10
19.510742
 20
197.60325399999999
 30
0.0
 11
22.046816
 21
200.13932800000001
 31
0.0
  0
LINE
  5
D4
  8
NOTE
  6
CONTINUOUS
 62
     4
 10
19.858858999999999
 20
197.77459400000001
 30
0.0
 11
17.478463000000001
 21
202.171606
 31
0.0
  0
LINE
  5
D5
  8
NOTE
  6
CONTINUOUS
 62
     4
 10
20.315376000000001
 20
198.05433400000001
 30
0.0
 11
21.595735000000001
 21
199.33469400000001
 31
0.0
  0
CIRCLE
  5
D6
  8
NOTE
  6
CONTINUOUS
 62
     4
 10
17.478463000000001
 20
202.171606
 30
0.0
 40
5.0
  0
CIRCLE
  5
D7
  8
DETAIL
  6
CONTINUOUS
 62
     5
 10
502.0
 20
145.0
 30
0.0
 40
1.45
  0
LINE
  5
D8
  8
NOTE
  6
CONTINUOUS
 62
     4
 10
502.0
 20
125.0
 30
0.0
 11
502.0
 21
165.0
 31
0.0
  0
LINE
  5
D9
  8
NOTE
  6
CONTINUOUS
 62
     4
 10
522.0
 20
145.0
 30
0.0
 11
482.0
 21
145.0
 31
0.0
  0
LINE
  5
DA
  8
NOTE
  6
CONTINUOUS
 62
     4
 10
773.0
 20
72.210874000000004
 30
0.0
 11
1084.4848091326639
 21
-280.35866752974829
 31
0.0
  0
LINE
  5
DB
  8
SIZE
  6
CONTINUOUS
 62
    30
 10
875.0
 20
-20.0
 30
0.0
 11
875.0
 21
-301.46994599999999
 31
0.0
  0
LINE
  5
DC
  8
SIZE
  6
CONTINUOUS
 62
    30
 10
855.0
 20
-28.759955000000001
 30
0.0
 11
855.0
 21
-301.46994599999999
 31
0.0
  0
LINE
  5
DD
  8
SIZE
  6
CONTINUOUS
 62
    30
 10
855.0
 20
-48.759954999999998
 30
0.0
 11
855.0
 21
-301.46994599999999
 31
0.0
  0
TEXT
  5
DE
  8
SIZE
  6
CONTINUOUS
 62
    30
 10
891.64074697769536
 20
-251.46994599999999
 30
0.0
 40
55.0
  1
20
 41
0.9
 72
     1
 11
931.71217554912414
 21
-251.46994599999999
 31
0.0
  0
LINE
  5
DF
  8
SIZE
  6
CONTINUOUS
 62
    30
 10
845.0
 20
-271.46994599999999
 30
0.0
 11
835.0
 21
-271.46994599999999
 31
0.0
  0
LINE
  5
E0
  8
SIZE
  6
CONTINUOUS
 62
    30
 10
880.0
 20
-271.46994599999999
 30
0.0
 11
885.0
 21
-271.46994599999999
 31
0.0
  0
CIRCLE
  5
E1
  8
SIZE
  6
CONTINUOUS
 62
    30
 10
875.0
 20
-271.46994599999999
 30
0.0
 40
5.0
  0
LINE
  5
E2
  8
SIZE
  6
CONTINUOUS
 62
    30
 10
850.0
 20
-271.46994599999999
 30
0.0
 11
845.0
 21
-271.46994599999999
 31
0.0
  0
CIRCLE
  5
E3
  8
SIZE
  6
CONTINUOUS
 62
    30
 10
855.0
 20
-271.46994599999999
 30
0.0
 40
5.0
  0
LINE
  5
E4
  8
SIZE
  6
CONTINUOUS
 62
    30
 10
855.0
 20
-271.46994599999999
 30
0.0
 11
875.0
 21
-271.46994599999999
 31
0.0
  0
LINE
  5
E5
  8
SIZE
  6
CONTINUOUS
 62
    30
 10
885.0
 20
-271.46994599999999
 30
0.0
 11
981.69951091948315
 21
-271.46994599999999
 31
0.0
  0
LINE
  5
E6
  8
SIZE
  6
CONTINUOUS
 62
    30
 10
850.0
 20
-271.46994599999999
 30
0.0
 11
845.0
 21
-271.46994599999999
 31
0.0
  0
CIRCLE
  5
E7
  8
SIZE
  6
CONTINUOUS
 62
    30
 10
855.0
 20
-271.46994599999999
 30
0.0
 40
5.0
  0
LINE
  5
E9
  8
DETAIL
  6
CONTINUOUS
 62
     5
 10
773.0
 20
97.210874000000004
 30
0.0
 11
773.0
 21
47.210873999999997
 31
0.0
  0
POLYLINE
  5
EA
  8
NOTE
  6
CONTINUOUS
 62
     4
 66
     1
 10
0.0
 20
0.0
 30
0.0
  0
VERTEX
  5
7B9
  8
NOTE
  6
CONTINUOUS
 62
     4
 10
790.17614538305634
 20
36.086367243399252
 30
0.0
  0
VERTEX
  5
7BA
  8
NOTE
  6
CONTINUOUS
 62
     4
 10
773.0
 20
72.210873999999976
 30
0.0
  0
VERTEX
  5
7BB
  8
NOTE
  6
CONTINUOUS
 62
     4
 10
805.93723208939605
 20
49.51420635312985
 30
0.0
  0
SEQEND
  5
7BC
  8
NOTE
  6
CONTINUOUS
 62
     4
  0
LINE
  5
EF
  8
NOTE
  6
CONTINUOUS
 62
     4
 10
773.0
 20
52.210873999999997
 30
0.0
 11
773.0
 21
92.210874000000004
 31
0.0
  0
ARC
  5
F0
  8
DETAIL
  6
CONTINUOUS
 62
     5
 10
786.90766199999985
 20
173.91395
 30
0.0
 40
194.952102
 50
275.91557599999999
 51
296.86350499999992
  0
LINE
  5
F1
  8
DETAIL
  6
CONTINUOUS
 62
     5
 10
833.0
 20
45.0
 30
0.0
 11
833.0
 21
0.0
 31
0.0
  0
LINE
  5
F2
  8
DETAIL
  6
CONTINUOUS
 62
     5
 10
723.0
 20
47.210873999999997
 30
0.0
 11
773.0
 21
47.210873999999997
 31
0.0
  0
LINE
  5
F3
  8
DETAIL
  6
CONTINUOUS
 62
     5
 10
823.0
 20
185.221025
 30
0.0
 11
723.0
 21
162.971373
 31
0.0
  0
LINE
  5
F9
  8
DETAIL
  6
CONTINUOUS
 62
     5
 10
773.0
 20
148.0
 30
0.0
 11
773.0
 21
140.0
 31
0.0
  0
LINE
  5
FA
  8
DETAIL
  6
CONTINUOUS
 62
     5
 10
770.0
 20
145.0
 30
0.0
 11
770.0
 21
140.0
 31
0.0
  0
LINE
  5
FB
  8
DETAIL
  6
CONTINUOUS
 62
     5
 10
773.0
 20
140.0
 30
0.0
 11
770.0
 21
140.0
 31
0.0
  0
CIRCLE
  5
FC
  8
FIX
  6
CONTINUOUS
 62
    11
 10
747.0
 20
148.0
 30
0.0
 40
5.0
  0
LINE
  5
FD
  8
NOTE
  6
CONTINUOUS
 62
     4
 10
747.0
 20
128.0
 30
0.0
 11
747.0
 21
168.0
 31
0.0
  0
LINE
  5
FE
  8
NOTE
  6
CONTINUOUS
 62
     4
 10
767.0
 20
148.0
 30
0.0
 11
727.0
 21
148.0
 31
0.0
  0
LINE
  5
FF
  8
DETAIL
  6
CONTINUOUS
 62
     5
 10
773.0
 20
148.0
 30
0.0
 11
723.0
 21
148.0
 31
0.0
  0
LINE
  5
100
  8
DETAIL
  6
CONTINUOUS
 62
     5
 10
770.0
 20
145.0
 30
0.0
 11
723.0
 21
145.0
 31
0.0
  0
LINE
  5
102
  8
DETAIL
  6
CONTINUOUS
 62
     5
 10
723.0
 20
227.971373
 30
0.0
 11
823.0
 21
227.971373
 31
0.0
  0
LINE
  5
103
  8
DETAIL
  6
CONTINUOUS
 62
     5
 10
823.0
 20
227.971373
 30
0.0
 11
823.0
 21
185.221025
 31
0.0
  0
LINE
  5
104
  8
DETAIL
  6
CONTINUOUS
 62
     5
 10
723.0
 20
97.210874000000004
 30
0.0
 11
773.0
 21
97.210874000000004
 31
0.0
  0
LINE
  5
105
  8
NOTE
  6
CONTINUOUS
 62
     4
 10
793.0
 20
72.210874000000004
 30
0.0
 11
753.0
 21
72.210874000000004
 31
0.0
  0
LINE
  5
106
  8
SIZE
  6
CONTINUOUS
 62
    30
 10
1343.7244109999999
 20
153.0
 30
0.0
 11
1343.7244109999999
 21
158.0
 31
0.0
  0
CIRCLE
  5
107
  8
SIZE
  6
CONTINUOUS
 62
    30
 10
1343.7244109999999
 20
148.0
 30
0.0
 40
5.0
  0
LINE
  5
108
  8
SIZE
  6
CONTINUOUS
 62
    30
 10
1470.4074579999999
 20
77.210874000000004
 30
0.0
 11
1470.4074579999999
 21
82.210874000000004
 31
0.0
  0
CIRCLE
  5
109
  8
SIZE
  6
CONTINUOUS
 62
    30
 10
1470.4074579999999
 20
72.210874000000004
 30
0.0
 40
5.0
  0
TEXT
  5
10A
  8
ETC
  6
CONTINUOUS
 62
    61
 10
497.06841274358868
 20
944.75211267437055
 30
0.0
 40
64.0
  1
PL-RP112_160LA7_5
 41
0.9
  0
LINE
  5
10B
  8
SIZE
  6
CONTINUOUS
 62
    30
 10
743.0
 20
338.0
 30
0.0
 11
1500.4074579999999
 21
338.0
 31
0.0
  0
LINE
  5
10C
  8
SIZE
  6
CONTINUOUS
 62
    30
 10
743.0
 20
338.0
 30
0.0
 11
1373.7244109999999
 21
338.0
 31
0.0
  0
CIRCLE
  5
10D
  8
SIZE
  6
CONTINUOUS
 62
    30
 10
1089.049773432977
 20
338.0
 30
0.0
 40
5.0
  0
LINE
  5
10E
  8
SIZE
  6
CONTINUOUS
 62
    30
 10
743.0
 20
338.0
 30
0.0
 11
1121.411614918426
 21
338.0
 31
0.0
  0
CIRCLE
  5
10F
  8
SIZE
  6
CONTINUOUS
 62
    30
 10
1089.049773432977
 20
278.0
 30
0.0
 40
5.0
  0
LINE
  5
110
  8
SIZE
  6
CONTINUOUS
 62
    30
 10
813.4554320317402
 20
278.0
 30
0.0
 11
1122.26189321572
 21
278.0
 31
0.0
  0
TEXT
  5
111
  8
SIZE
  6
CONTINUOUS
 62
    30
 10
-277.67142857142852
 20
855.73668699999985
 30
0.0
 40
55.0
  1
1494(吊りﾎﾞﾙﾄﾋﾟｯﾁ)
 41
0.9
 72
     1
 11
0.0
 21
855.73668699999985
 31
0.0
  0
LINE
  5
112
  8
SIZE
  6
CONTINUOUS
 62
    30
 10
-747.0
 20
818.974782
 30
0.0
 11
747.0
 21
818.974782
 31
0.0
  0
TEXT
  5
113
  8
SIZE
  6
CONTINUOUS
 62
    30
 10
-81.321428571428584
 20
728.23202100000003
 30
0.0
 40
55.0
  1
1446
 41
0.9
 72
     1
 11
0.0
 21
728.23202100000003
 31
0.0
  0
LINE
  5
114
  8
SIZE
  6
CONTINUOUS
 62
    30
 10
-723.0
 20
708.23202100000003
 30
0.0
 11
723.0
 21
708.23202100000003
 31
0.0
  0
LINE
  5
115
  8
DETAIL
  6
CONTINUOUS
 62
     5
 10
723.0
 20
338.0
 30
0.0
 11
-723.0
 21
338.0
 31
0.0
  0
LINE
  5
116
  8
DETAIL
  6
CONTINUOUS
 62
     5
 10
502.0
 20
286.0
 30
0.0
 11
-252.0
 21
286.0
 31
0.0
  0
CIRCLE
  5
117
  8
SIZE
  6
CONTINUOUS
 62
    30
 10
-723.0
 20
708.23202100000003
 30
0.0
 40
5.0
  0
LINE
  5
118
  8
SIZE
  6
CONTINUOUS
 62
    30
 10
-723.0
 20
358.0
 30
0.0
 11
-723.0
 21
738.23202100000003
 31
0.0
  0
LINE
  5
119
  8
SIZE
  6
CONTINUOUS
 62
    30
 10
-742.0
 20
818.974782
 30
0.0
 11
-737.0
 21
818.974782
 31
0.0
  0
CIRCLE
  5
11A
  8
SIZE
  6
CONTINUOUS
 62
    30
 10
-747.0
 20
818.974782
 30
0.0
 40
5.0
  0
TEXT
  5
11B
  8
SIZE
  6
CONTINUOUS
 62
    30
 10
-377.28274317740579
 20
384.59397059938289
 30
0.0
 40
55.0
  1
52
 50
90.0
 41
0.9
 72
     1
 11
-377.28274317740579
 21
424.66539917081138
 31
0.0
  0
LINE
  5
11C
  8
SIZE
  6
CONTINUOUS
 62
    30
 10
-359.00042400000001
 20
348.0
 30
0.0
 11
-359.00042400000001
 21
463.67781600000001
 31
0.0
  0
LINE
  5
11D
  8
SIZE
  6
CONTINUOUS
 62
    30
 10
-359.00042400000001
 20
343.0
 30
0.0
 11
-359.00042400000001
 21
348.0
 31
0.0
  0
CIRCLE
  5
11E
  8
SIZE
  6
CONTINUOUS
 62
    30
 10
-359.00042400000001
 20
338.0
 30
0.0
 40
5.0
  0
CIRCLE
  5
11F
  8
SIZE
  6
CONTINUOUS
 62
    30
 10
-359.00042400000001
 20
286.0
 30
0.0
 40
5.0
  0
LINE
  5
120
  8
SIZE
  6
CONTINUOUS
 62
    30
 10
-359.00042400000001
 20
176.0
 30
0.0
 11
-359.00042400000001
 21
338.0
 31
0.0
  0
LINE
  5
121
  8
SIZE
  6
CONTINUOUS
 62
    30
 10
-718.0
 20
708.23202100000003
 30
0.0
 11
-713.0
 21
708.23202100000003
 31
0.0
  0
LINE
  5
122
  8
SIZE
  6
CONTINUOUS
 62
    30
 10
718.0
 20
708.23202100000003
 30
0.0
 11
713.0
 21
708.23202100000003
 31
0.0
  0
LINE
  5
123
  8
SIZE
  6
CONTINUOUS
 62
    30
 10
20.0
 20
338.0
 30
0.0
 11
42.222796000000002
 21
338.0
 31
0.0
  0
CIRCLE
  5
124
  8
DETAIL
  6
CONTINUOUS
 62
     5
 10
502.0
 20
304.0
 30
0.0
 40
1.45
  0
LINE
  5
125
  8
NOTE
  6
CONTINUOUS
 62
     4
 10
522.0
 20
304.0
 30
0.0
 11
482.0
 21
304.0
 31
0.0
  0
LINE
  5
126
  8
NOTE
  6
CONTINUOUS
 62
     4
 10
502.0
 20
284.0
 30
0.0
 11
502.0
 21
324.0
 31
0.0
  0
LINE
  5
127
  8
SIZE
  6
CONTINUOUS
 62
    30
 10
723.0
 20
358.0
 30
0.0
 11
723.0
 21
632.38091099999997
 31
0.0
  0
LINE
  5
129
  8
SIZE
  6
CONTINUOUS
 62
    30
 10
723.0
 20
358.0
 30
0.0
 11
723.0
 21
738.23202100000003
 31
0.0
  0
LINE
  5
12D
  8
SIZE
  6
CONTINUOUS
 62
    30
 10
723.0
 20
358.0
 30
0.0
 11
723.0
 21
506.62241999999992
 31
0.0
  0
LINE
  5
12E
  8
NOTE
  6
CONTINUOUS
 62
     4
 10
783.0
 20
278.0
 30
0.0
 11
1071.4313795105479
 21
510.1195863654757
 31
0.0
  0
LINE
  5
139
  8
SIZE
  6
CONTINUOUS
 62
    30
 10
1089.049773432977
 20
348.0
 30
0.0
 11
1089.049773432977
 21
449.8501609913144
 31
0.0
  0
LINE
  5
13A
  8
SIZE
  6
CONTINUOUS
 62
    30
 10
1089.049773432977
 20
343.0
 30
0.0
 11
1089.049773432977
 21
348.0
 31
0.0
  0
LINE
  5
13B
  8
SIZE
  6
CONTINUOUS
 62
    30
 10
1089.049773432977
 20
273.0
 30
0.0
 11
1089.049773432977
 21
268.0
 31
0.0
  0
LINE
  5
13C
  8
SIZE
  6
CONTINUOUS
 62
    30
 10
1089.049773432977
 20
268.0
 30
0.0
 11
1089.049773432977
 21
258.0
 31
0.0
  0
TEXT
  5
13D
  8
SIZE
  6
CONTINUOUS
 62
    30
 10
1078.097352655444
 20
358.79661080153431
 30
0.0
 40
55.0
  1
60
 50
90.0
 41
0.9
 72
     1
 11
1078.097352655444
 21
398.86803937296281
 31
0.0
  0
LINE
  5
13E
  8
SIZE
  6
CONTINUOUS
 62
    30
 10
1089.049773432977
 20
338.0
 30
0.0
 11
1089.049773432977
 21
278.0
 31
0.0
  0
CIRCLE
  5
13F
  8
SIZE
  6
CONTINUOUS
 62
    30
 10
723.0
 20
708.23202100000003
 30
0.0
 40
5.0
  0
LINE
  5
140
  8
SIZE
  6
CONTINUOUS
 62
    30
 10
742.0
 20
818.974782
 30
0.0
 11
737.0
 21
818.974782
 31
0.0
  0
CIRCLE
  5
141
  8
SIZE
  6
CONTINUOUS
 62
    30
 10
747.0
 20
818.974782
 30
0.0
 40
5.0
  0
LINE
  5
142
  8
SIZE
  6
CONTINUOUS
 62
    30
 10
1343.7244109999999
 20
333.0
 30
0.0
 11
1343.7244109999999
 21
328.0
 31
0.0
  0
CIRCLE
  5
143
  8
SIZE
  6
CONTINUOUS
 62
    30
 10
1343.7244109999999
 20
338.0
 30
0.0
 40
5.0
  0
LINE
  5
144
  8
SIZE
  6
CONTINUOUS
 62
    30
 10
1470.4074579999999
 20
333.0
 30
0.0
 11
1470.4074579999999
 21
328.0
 31
0.0
  0
CIRCLE
  5
145
  8
SIZE
  6
CONTINUOUS
 62
    30
 10
1470.4074579999999
 20
338.0
 30
0.0
 40
5.0
  0
LINE
  5
146
  8
DETAIL
  6
CONTINUOUS
 62
     5
 10
-252.0
 20
286.0
 30
0.0
 11
-252.0
 21
176.0
 31
0.0
  0
LINE
  5
147
  8
SIZE
  6
CONTINUOUS
 62
    30
 10
-252.0
 20
286.0
 30
0.0
 11
-382.69656300000003
 21
286.0
 31
0.0
  0
CIRCLE
  5
148
  8
SIZE
  6
CONTINUOUS
 62
    30
 10
-359.00042400000001
 20
176.0
 30
0.0
 40
5.0
  0
LINE
  5
149
  8
NOTE
  6
CONTINUOUS
 62
     4
 10
313.5
 20
123.55
 30
0.0
 11
313.5
 21
163.55000000000001
 31
0.0
  0
LINE
  5
14A
  8
NOTE
  6
CONTINUOUS
 62
     4
 10
333.5
 20
145.0
 30
0.0
 11
293.5
 21
145.0
 31
0.0
  0
CIRCLE
  5
14B
  8
DETAIL
  6
CONTINUOUS
 62
     5
 10
313.5
 20
145.0
 30
0.0
 40
1.45
  0
LINE
  5
14C
  8
NOTE
  6
CONTINUOUS
 62
     4
 10
333.5
 20
304.0
 30
0.0
 11
293.5
 21
304.0
 31
0.0
  0
CIRCLE
  5
14D
  8
DETAIL
  6
CONTINUOUS
 62
     5
 10
313.5
 20
304.0
 30
0.0
 40
1.45
  0
LINE
  5
14E
  8
NOTE
  6
CONTINUOUS
 62
     4
 10
313.5
 20
284.0
 30
0.0
 11
313.5
 21
324.0
 31
0.0
  0
CIRCLE
  5
14F
  8
DETAIL
  6
CONTINUOUS
 62
     5
 10
125.0
 20
145.0
 30
0.0
 40
1.45
  0
LINE
  5
150
  8
NOTE
  6
CONTINUOUS
 62
     4
 10
145.0
 20
145.0
 30
0.0
 11
105.0
 21
145.0
 31
0.0
  0
LINE
  5
151
  8
NOTE
  6
CONTINUOUS
 62
     4
 10
125.0
 20
123.55
 30
0.0
 11
125.0
 21
163.55000000000001
 31
0.0
  0
LINE
  5
152
  8
NOTE
  6
CONTINUOUS
 62
     4
 10
125.0
 20
284.0
 30
0.0
 11
125.0
 21
324.0
 31
0.0
  0
CIRCLE
  5
153
  8
DETAIL
  6
CONTINUOUS
 62
     5
 10
125.0
 20
304.0
 30
0.0
 40
1.45
  0
LINE
  5
154
  8
NOTE
  6
CONTINUOUS
 62
     4
 10
145.0
 20
304.0
 30
0.0
 11
105.0
 21
304.0
 31
0.0
  0
CIRCLE
  5
155
  8
DETAIL
  6
CONTINUOUS
 62
     5
 10
-63.5
 20
145.0
 30
0.0
 40
1.45
  0
LINE
  5
156
  8
NOTE
  6
CONTINUOUS
 62
     4
 10
-43.5
 20
145.0
 30
0.0
 11
-83.499999999999986
 21
145.0
 31
0.0
  0
LINE
  5
157
  8
NOTE
  6
CONTINUOUS
 62
     4
 10
-63.5
 20
123.55
 30
0.0
 11
-63.5
 21
163.55000000000001
 31
0.0
  0
LINE
  5
158
  8
NOTE
  6
CONTINUOUS
 62
     4
 10
-63.5
 20
284.0
 30
0.0
 11
-63.5
 21
324.0
 31
0.0
  0
CIRCLE
  5
159
  8
DETAIL
  6
CONTINUOUS
 62
     5
 10
-63.5
 20
304.0
 30
0.0
 40
1.45
  0
LINE
  5
15A
  8
NOTE
  6
CONTINUOUS
 62
     4
 10
-43.5
 20
304.0
 30
0.0
 11
-83.499999999999986
 21
304.0
 31
0.0
  0
CIRCLE
  5
15B
  8
DETAIL
  6
CONTINUOUS
 62
     5
 10
-252.0
 20
145.0
 30
0.0
 40
1.45
  0
LINE
  5
15C
  8
NOTE
  6
CONTINUOUS
 62
     4
 10
-232.0
 20
145.0
 30
0.0
 11
-272.0
 21
145.0
 31
0.0
  0
LINE
  5
15D
  8
NOTE
  6
CONTINUOUS
 62
     4
 10
-252.0
 20
123.55
 30
0.0
 11
-252.0
 21
163.55000000000001
 31
0.0
  0
LINE
  5
15E
  8
NOTE
  6
CONTINUOUS
 62
     4
 10
-252.0
 20
284.0
 30
0.0
 11
-252.0
 21
324.0
 31
0.0
  0
CIRCLE
  5
15F
  8
DETAIL
  6
CONTINUOUS
 62
     5
 10
-252.0
 20
304.0
 30
0.0
 40
1.45
  0
LINE
  5
160
  8
NOTE
  6
CONTINUOUS
 62
     4
 10
-232.0
 20
304.0
 30
0.0
 11
-272.0
 21
304.0
 31
0.0
  0
LINE
  5
161
  8
NOTE
  6
CONTINUOUS
 62
     4
 10
-252.0
 20
304.0
 30
0.0
 11
-931.55663683619787
 21
538.23355133673601
 31
0.0
  0
POLYLINE
  5
162
  8
NOTE
  6
CONTINUOUS
 62
     4
 66
     1
 10
0.0
 20
0.0
 30
0.0
  0
VERTEX
  5
7BD
  8
NOTE
  6
CONTINUOUS
 62
     4
 10
-285.28232745441261
 20
327.05370913350117
 30
0.0
  0
VERTEX
  5
7BE
  8
NOTE
  6
CONTINUOUS
 62
     4
 10
-252.0
 20
304.0
 30
0.0
  0
VERTEX
  5
7BF
  8
NOTE
  6
CONTINUOUS
 62
     4
 10
-292.92265070118998
 20
307.80938099352318
 30
0.0
  0
SEQEND
  5
7C0
  8
NOTE
  6
CONTINUOUS
 62
     4
  0
LINE
  5
167
  8
SIZE
  6
CONTINUOUS
 62
    30
 10
723.0
 20
358.0
 30
0.0
 11
723.0
 21
626.312093
 31
0.0
  0
LINE
  5
168
  8
SIZE
  6
CONTINUOUS
 62
    30
 10
-875.0
 20
-20.0
 30
0.0
 11
-875.0
 21
-452.41609399999987
 31
0.0
  0
LINE
  5
169
  8
SIZE
  6
CONTINUOUS
 62
    30
 10
875.0
 20
-20.0
 30
0.0
 11
875.0
 21
-452.41609399999987
 31
0.0
  0
LINE
  5
16A
  8
SIZE
  6
CONTINUOUS
 62
    30
 10
-865.0
 20
-422.41609399999987
 30
0.0
 11
865.0
 21
-422.41609399999987
 31
0.0
  0
LINE
  5
16B
  8
OUTLINE
  6
CONTINUOUS
 62
     3
 10
723.0
 20
338.0
 30
0.0
 11
-723.0
 21
338.0
 31
0.0
  0
LINE
  5
16C
  8
OUTLINE
  6
CONTINUOUS
 62
     3
 10
-806.99999984745318
 20
-20.00000007590916
 30
0.0
 11
807.0
 21
-20.0
 31
0.0
  0
LINE
  5
16D
  8
OUTLINE
  6
CONTINUOUS
 62
     3
 10
875.0
 20
0.0
 30
0.0
 11
-875.0
 21
0.0
 31
0.0
  0
ARC
  5
171
  8
OUTLINE
  6
CONTINUOUS
 62
     3
 10
-786.90766199999985
 20
173.91395
 30
0.0
 40
194.952102
 50
243.13649500000011
 51
264.08442400000001
  0
LINE
  5
172
  8
OUTLINE
  6
CONTINUOUS
 62
     3
 10
-833.0
 20
45.0
 30
0.0
 11
-833.0
 21
0.0
 31
0.0
  0
LINE
  5
176
  8
OUTLINE
  6
CONTINUOUS
 62
     3
 10
-723.0
 20
338.0
 30
0.0
 11
-723.0
 21
45.0
 31
0.0
  0
ARC
  5
177
  8
OUTLINE
  6
CONTINUOUS
 62
     3
 10
786.90766199999985
 20
173.91395
 30
0.0
 40
194.952102
 50
275.91557599999999
 51
296.86350499999992
  0
LINE
  5
178
  8
OUTLINE
  6
CONTINUOUS
 62
     3
 10
723.0
 20
338.0
 30
0.0
 11
723.0
 21
45.0
 31
0.0
  0
LINE
  5
187
  8
OUTLINE
  6
CONTINUOUS
 62
     3
 10
833.0
 20
45.0
 30
0.0
 11
833.0
 21
0.0
 31
0.0
  0
LINE
  5
188
  8
OUTLINE
  6
CONTINUOUS
 62
     3
 10
833.0
 20
45.0
 30
0.0
 11
-833.0
 21
45.0
 31
0.0
  0
LINE
  5
191
  8
SIZE
  6
CONTINUOUS
 62
    30
 10
-252.0
 20
324.0
 30
0.0
 11
-252.0
 21
588.48252600000001
 31
0.0
  0
LINE
  5
192
  8
SIZE
  6
CONTINUOUS
 62
    30
 10
502.0
 20
304.0
 30
0.0
 11
502.0
 21
588.48252600000001
 31
0.0
  0
LINE
  5
193
  8
SIZE
  6
CONTINUOUS
 62
    30
 10
-242.0
 20
558.48252600000001
 30
0.0
 11
492.0
 21
558.48252600000001
 31
0.0
  0
CIRCLE
  5
194
  8
SIZE
  6
CONTINUOUS
 62
    30
 10
-252.0
 20
558.48252600000001
 30
0.0
 40
5.0
  0
LINE
  5
195
  8
SIZE
  6
CONTINUOUS
 62
    30
 10
-252.0
 20
558.48252600000001
 30
0.0
 11
-242.0
 21
558.48252600000001
 31
0.0
  0
CIRCLE
  5
196
  8
SIZE
  6
CONTINUOUS
 62
    30
 10
502.0
 20
558.48252600000001
 30
0.0
 40
5.0
  0
LINE
  5
197
  8
SIZE
  6
CONTINUOUS
 62
    30
 10
502.0
 20
558.48252600000001
 30
0.0
 11
492.0
 21
558.48252600000001
 31
0.0
  0
TEXT
  5
198
  8
SIZE
  6
CONTINUOUS
 62
    30
 10
60.178571428571431
 20
588.48252600000001
 30
0.0
 40
55.0
  1
754
 41
0.9
 72
     1
 11
125.0
 21
588.48252600000001
 31
0.0
  0
LINE
  5
199
  8
SIZE
  6
CONTINUOUS
 62
    30
 10
502.0
 20
344.0
 30
0.0
 11
502.0
 21
585.27170499999977
 31
0.0
  0
LINE
  5
19A
  8
SIZE
  6
CONTINUOUS
 62
    30
 10
723.0
 20
358.0
 30
0.0
 11
723.0
 21
585.27170499999977
 31
0.0
  0
LINE
  5
19B
  8
SIZE
  6
CONTINUOUS
 62
    30
 10
512.0
 20
555.271705
 30
0.0
 11
713.0
 21
555.271705
 31
0.0
  0
CIRCLE
  5
19C
  8
SIZE
  6
CONTINUOUS
 62
    30
 10
502.0
 20
555.271705
 30
0.0
 40
5.0
  0
LINE
  5
19D
  8
SIZE
  6
CONTINUOUS
 62
    30
 10
502.0
 20
555.271705
 30
0.0
 11
512.0
 21
555.271705
 31
0.0
  0
CIRCLE
  5
19E
  8
SIZE
  6
CONTINUOUS
 62
    30
 10
723.0
 20
555.271705
 30
0.0
 40
5.0
  0
LINE
  5
19F
  8
SIZE
  6
CONTINUOUS
 62
    30
 10
723.0
 20
555.271705
 30
0.0
 11
713.0
 21
555.271705
 31
0.0
  0
TEXT
  5
1A0
  8
SIZE
  6
CONTINUOUS
 62
    30
 10
559.46428571428567
 20
585.27170499999977
 30
0.0
 40
55.0
  1
221
 41
0.9
 72
     1
 11
612.5
 21
585.27170499999977
 31
0.0
  0
LINE
  5
1A1
  8
SIZE
  6
CONTINUOUS
 62
    30
 10
313.5
 20
324.0
 30
0.0
 11
313.5
 21
475.15102300000001
 31
0.0
  0
LINE
  5
1A2
  8
SIZE
  6
CONTINUOUS
 62
    30
 10
502.0
 20
324.0
 30
0.0
 11
502.0
 21
475.15102300000001
 31
0.0
  0
LINE
  5
1A3
  8
SIZE
  6
CONTINUOUS
 62
    30
 10
323.5
 20
445.15102300000012
 30
0.0
 11
492.0
 21
445.15102300000012
 31
0.0
  0
CIRCLE
  5
1A4
  8
SIZE
  6
CONTINUOUS
 62
    30
 10
313.5
 20
445.15102300000012
 30
0.0
 40
5.0
  0
LINE
  5
1A5
  8
SIZE
  6
CONTINUOUS
 62
    30
 10
313.5
 20
445.15102300000012
 30
0.0
 11
323.5
 21
445.15102300000012
 31
0.0
  0
CIRCLE
  5
1A6
  8
SIZE
  6
CONTINUOUS
 62
    30
 10
502.0
 20
445.15102300000012
 30
0.0
 40
5.0
  0
LINE
  5
1A7
  8
SIZE
  6
CONTINUOUS
 62
    30
 10
502.0
 20
445.15102300000012
 30
0.0
 11
492.0
 21
445.15102300000012
 31
0.0
  0
TEXT
  5
1A8
  8
SIZE
  6
CONTINUOUS
 62
    30
 10
313.46428571428572
 20
475.15102300000001
 30
0.0
 40
55.0
  1
188.5
 41
0.9
 72
     1
 11
407.74999999999989
 21
475.15102300000001
 31
0.0
  0
LINE
  5
1A9
  8
SIZE
  6
CONTINUOUS
 62
    30
 10
125.0
 20
324.0
 30
0.0
 11
125.0
 21
475.15102300000001
 31
0.0
  0
LINE
  5
1AA
  8
SIZE
  6
CONTINUOUS
 62
    30
 10
313.5
 20
324.0
 30
0.0
 11
313.5
 21
475.15102300000001
 31
0.0
  0
LINE
  5
1AB
  8
SIZE
  6
CONTINUOUS
 62
    30
 10
135.0
 20
445.15102300000012
 30
0.0
 11
303.5
 21
445.15102300000012
 31
0.0
  0
CIRCLE
  5
1AC
  8
SIZE
  6
CONTINUOUS
 62
    30
 10
125.0
 20
445.15102300000012
 30
0.0
 40
5.0
  0
LINE
  5
1AD
  8
SIZE
  6
CONTINUOUS
 62
    30
 10
125.0
 20
445.15102300000012
 30
0.0
 11
135.0
 21
445.15102300000012
 31
0.0
  0
CIRCLE
  5
1AE
  8
SIZE
  6
CONTINUOUS
 62
    30
 10
313.5
 20
445.15102300000012
 30
0.0
 40
5.0
  0
LINE
  5
1AF
  8
SIZE
  6
CONTINUOUS
 62
    30
 10
313.5
 20
445.15102300000012
 30
0.0
 11
303.5
 21
445.15102300000012
 31
0.0
  0
TEXT
  5
1B0
  8
SIZE
  6
CONTINUOUS
 62
    30
 10
124.96428571428569
 20
475.15102300000001
 30
0.0
 40
55.0
  1
188.5
 41
0.9
 72
     1
 11
219.25
 21
475.15102300000001
 31
0.0
  0
LINE
  5
1B1
  8
SIZE
  6
CONTINUOUS
 62
    30
 10
-63.5
 20
324.0
 30
0.0
 11
-63.5
 21
475.15102300000001
 31
0.0
  0
LINE
  5
1B2
  8
SIZE
  6
CONTINUOUS
 62
    30
 10
125.0
 20
324.0
 30
0.0
 11
125.0
 21
475.15102300000001
 31
0.0
  0
LINE
  5
1B3
  8
SIZE
  6
CONTINUOUS
 62
    30
 10
-53.5
 20
445.15102300000012
 30
0.0
 11
115.0
 21
445.15102300000012
 31
0.0
  0
CIRCLE
  5
1B4
  8
SIZE
  6
CONTINUOUS
 62
    30
 10
-63.5
 20
445.15102300000012
 30
0.0
 40
5.0
  0
LINE
  5
1B5
  8
SIZE
  6
CONTINUOUS
 62
    30
 10
-63.5
 20
445.15102300000012
 30
0.0
 11
-53.5
 21
445.15102300000012
 31
0.0
  0
CIRCLE
  5
1B6
  8
SIZE
  6
CONTINUOUS
 62
    30
 10
125.0
 20
445.15102300000012
 30
0.0
 40
5.0
  0
LINE
  5
1B7
  8
SIZE
  6
CONTINUOUS
 62
    30
 10
125.0
 20
445.15102300000012
 30
0.0
 11
115.0
 21
445.15102300000012
 31
0.0
  0
TEXT
  5
1B8
  8
SIZE
  6
CONTINUOUS
 62
    30
 10
-63.53571428571427
 20
475.15102300000001
 30
0.0
 40
55.0
  1
188.5
 41
0.9
 72
     1
 11
30.75
 21
475.15102300000001
 31
0.0
  0
LINE
  5
1B9
  8
SIZE
  6
CONTINUOUS
 62
    30
 10
-252.0
 20
324.0
 30
0.0
 11
-252.0
 21
475.15102300000001
 31
0.0
  0
LINE
  5
1BA
  8
SIZE
  6
CONTINUOUS
 62
    30
 10
-63.5
 20
324.0
 30
0.0
 11
-63.5
 21
475.15102300000001
 31
0.0
  0
LINE
  5
1BB
  8
SIZE
  6
CONTINUOUS
 62
    30
 10
-242.0
 20
445.15102300000012
 30
0.0
 11
-73.5
 21
445.15102300000012
 31
0.0
  0
CIRCLE
  5
1BC
  8
SIZE
  6
CONTINUOUS
 62
    30
 10
-252.0
 20
445.15102300000012
 30
0.0
 40
5.0
  0
LINE
  5
1BD
  8
SIZE
  6
CONTINUOUS
 62
    30
 10
-252.0
 20
445.15102300000012
 30
0.0
 11
-242.0
 21
445.15102300000012
 31
0.0
  0
CIRCLE
  5
1BE
  8
SIZE
  6
CONTINUOUS
 62
    30
 10
-63.5
 20
445.15102300000012
 30
0.0
 40
5.0
  0
LINE
  5
1BF
  8
SIZE
  6
CONTINUOUS
 62
    30
 10
-63.5
 20
445.15102300000012
 30
0.0
 11
-73.5
 21
445.15102300000012
 31
0.0
  0
TEXT
  5
1C0
  8
SIZE
  6
CONTINUOUS
 62
    30
 10
-252.03571428571431
 20
475.15102300000001
 30
0.0
 40
55.0
  1
188.5
 41
0.9
 72
     1
 11
-157.75
 21
475.15102300000001
 31
0.0
  0
LINE
  5
1C1
  8
SIZE
  6
CONTINUOUS
 62
    30
 10
542.0
 20
304.0
 30
0.0
 11
648.06043799999986
 21
304.0
 31
0.0
  0
LINE
  5
1C2
  8
SIZE
  6
CONTINUOUS
 62
    30
 10
703.0
 20
338.0
 30
0.0
 11
588.06043799999998
 21
338.0
 31
0.0
  0
LINE
  5
1C3
  8
SIZE
  6
CONTINUOUS
 62
    30
 10
618.06043799999998
 20
294.0
 30
0.0
 11
618.06043799999998
 21
284.0
 31
0.0
  0
LINE
  5
1C4
  8
SIZE
  6
CONTINUOUS
 62
    30
 10
618.06043799999998
 20
348.0
 30
0.0
 11
618.06043799999998
 21
461.28383812357418
 31
0.0
  0
LINE
  5
1C5
  8
SIZE
  6
CONTINUOUS
 62
    30
 10
618.06043799999998
 20
304.0
 30
0.0
 11
618.06043799999998
 21
338.0
 31
0.0
  0
CIRCLE
  5
1C6
  8
SIZE
  6
CONTINUOUS
 62
    30
 10
618.06043799999998
 20
304.0
 30
0.0
 40
5.0
  0
LINE
  5
1C7
  8
SIZE
  6
CONTINUOUS
 62
    30
 10
618.06043799999998
 20
304.0
 30
0.0
 11
618.06043799999998
 21
294.0
 31
0.0
  0
CIRCLE
  5
1C8
  8
SIZE
  6
CONTINUOUS
 62
    30
 10
618.06043799999998
 20
338.0
 30
0.0
 40
5.0
  0
LINE
  5
1C9
  8
SIZE
  6
CONTINUOUS
 62
    30
 10
618.06043799999998
 20
338.0
 30
0.0
 11
618.06043799999998
 21
348.0
 31
0.0
  0
TEXT
  5
1CA
  8
SIZE
  6
CONTINUOUS
 62
    30
 10
606.47105107199604
 20
370.55485125554321
 30
0.0
 40
55.0
  1
34
 50
90.0
 41
0.9
 72
     1
 11
606.47105107199604
 21
411.8048512555431
 31
0.0
  0
LINE
  5
1CB
  8
SIZE
  6
CONTINUOUS
 62
    30
 10
562.0
 20
305.44999999999999
 30
0.0
 11
714.56126099999994
 21
305.44999999999999
 31
0.0
  0
LINE
  5
1CC
  8
SIZE
  6
CONTINUOUS
 62
    30
 10
562.0
 20
146.44999999999999
 30
0.0
 11
714.56126099999994
 21
146.44999999999999
 31
0.0
  0
LINE
  5
1CD
  8
SIZE
  6
CONTINUOUS
 62
    30
 10
684.56126099999994
 20
315.44999999999999
 30
0.0
 11
684.56126099999994
 21
325.44999999999999
 31
0.0
  0
LINE
  5
1CE
  8
SIZE
  6
CONTINUOUS
 62
    30
 10
684.56126099999994
 20
136.44999999999999
 30
0.0
 11
684.56126099999994
 21
126.45
 31
0.0
  0
LINE
  5
1CF
  8
SIZE
  6
CONTINUOUS
 62
    30
 10
684.56126099999994
 20
305.44999999999999
 30
0.0
 11
684.56126099999994
 21
146.44999999999999
 31
0.0
  0
CIRCLE
  5
1D0
  8
SIZE
  6
CONTINUOUS
 62
    30
 10
684.56126099999994
 20
305.44999999999999
 30
0.0
 40
5.0
  0
LINE
  5
1D1
  8
SIZE
  6
CONTINUOUS
 62
    30
 10
684.56126099999994
 20
305.44999999999999
 30
0.0
 11
684.56126099999994
 21
315.44999999999999
 31
0.0
  0
CIRCLE
  5
1D2
  8
SIZE
  6
CONTINUOUS
 62
    30
 10
684.56126099999994
 20
146.44999999999999
 30
0.0
 40
5.0
  0
LINE
  5
1D3
  8
SIZE
  6
CONTINUOUS
 62
    30
 10
684.56126099999994
 20
146.44999999999999
 30
0.0
 11
684.56126099999994
 21
136.44999999999999
 31
0.0
  0
TEXT
  5
1D4
  8
SIZE
  6
CONTINUOUS
 62
    30
 10
654.56126099999994
 20
168.19999999999999
 30
0.0
 40
55.0
  1
159
 50
90.0
 41
0.9
 72
     1
 11
654.56126099999994
 21
225.94999999999999
 31
0.0
  0
LINE
  5
1D5
  8
SIZE
  6
CONTINUOUS
 62
    30
 10
-743.0
 20
338.0
 30
0.0
 11
-1157.4197099999999
 21
338.0
 31
0.0
  0
LINE
  5
1D6
  8
SIZE
  6
CONTINUOUS
 62
    30
 10
-895.0
 20
0.0
 30
0.0
 11
-1157.4197099999999
 21
0.0
 31
0.0
  0
LINE
  5
1D7
  8
SIZE
  6
CONTINUOUS
 62
    30
 10
-1127.4197099999999
 20
328.0
 30
0.0
 11
-1127.4197099999999
 21
10.0
 31
0.0
  0
CIRCLE
  5
1D8
  8
SIZE
  6
CONTINUOUS
 62
    30
 10
-1127.4197099999999
 20
338.0
 30
0.0
 40
5.0
  0
LINE
  5
1D9
  8
SIZE
  6
CONTINUOUS
 62
    30
 10
-1127.4197099999999
 20
338.0
 30
0.0
 11
-1127.4197099999999
 21
328.0
 31
0.0
  0
CIRCLE
  5
1DA
  8
SIZE
  6
CONTINUOUS
 62
    30
 10
-1127.4197099999999
 20
0.0
 30
0.0
 40
5.0
  0
LINE
  5
1DB
  8
SIZE
  6
CONTINUOUS
 62
    30
 10
-1127.4197099999999
 20
0.0
 30
0.0
 11
-1127.4197099999999
 21
10.0
 31
0.0
  0
TEXT
  5
1DC
  8
SIZE
  6
CONTINUOUS
 62
    30
 10
-1157.4197099999999
 20
105.3571428571428
 30
0.0
 40
55.0
  1
338
 50
90.0
 41
0.9
 72
     1
 11
-1157.4197099999999
 21
169.0
 31
0.0
  0
TEXT
  5
1DD
  8
SIZE
  6
CONTINUOUS
 62
    30
 10
-96.0
 20
-392.41609399999999
 30
0.0
 40
55.0
  1
1750
 41
0.9
  0
CIRCLE
  5
1DE
  8
SIZE
  6
CONTINUOUS
 62
    30
 10
875.0
 20
-422.41609399999987
 30
0.0
 40
5.0
  0
LINE
  5
1DF
  8
SIZE
  6
CONTINUOUS
 62
    30
 10
875.0
 20
-422.41609399999987
 30
0.0
 11
865.0
 21
-422.41609399999987
 31
0.0
  0
CIRCLE
  5
1E0
  8
SIZE
  6
CONTINUOUS
 62
    30
 10
-875.0
 20
-422.41609399999987
 30
0.0
 40
5.0
  0
LINE
  5
1E1
  8
SIZE
  6
CONTINUOUS
 62
    30
 10
-875.0
 20
-422.41609399999987
 30
0.0
 11
-865.0
 21
-422.41609399999987
 31
0.0
  0
LINE
  5
32E
  8
NOTE
  6
CONTINUOUS
 62
     4
 10
783.0
 20
262.0
 30
0.0
 11
783.0
 21
294.0
 31
0.0
  0
LINE
  5
32F
  8
DETAIL
  6
CONTINUOUS
 62
     5
 10
783.0
 20
294.0
 30
0.0
 11
783.0
 21
262.0
 31
0.0
  0
LINE
  5
330
  8
NOTE
  6
CONTINUOUS
 62
     4
 10
803.0
 20
278.0
 30
0.0
 11
763.0
 21
278.0
 31
0.0
  0
POLYLINE
  5
331
  8
NOTE
  6
CONTINUOUS
 62
     4
 66
     1
 10
0.0
 20
0.0
 30
0.0
  0
VERTEX
  5
7C1
  8
NOTE
  6
CONTINUOUS
 62
     4
 10
819.96380152133725
 20
293.28651159409958
 30
0.0
  0
VERTEX
  5
7C2
  8
NOTE
  6
CONTINUOUS
 62
     4
 10
783.0
 20
278.0
 30
0.0
  0
VERTEX
  5
7C3
  8
NOTE
  6
CONTINUOUS
 62
     4
 10
807.3683345362216
 20
309.72040710695092
 30
0.0
  0
SEQEND
  5
7C4
  8
NOTE
  6
CONTINUOUS
 62
     4
  0
LINE
  5
332
  8
DETAIL
  6
CONTINUOUS
 62
     5
 10
783.0
 20
262.0
 30
0.0
 11
723.0
 21
262.0
 31
0.0
  0
LINE
  5
333
  8
DETAIL
  6
CONTINUOUS
 62
     5
 10
783.0
 20
294.0
 30
0.0
 11
723.0
 21
294.0
 31
0.0
  0
LINE
  5
33D
  8
NOTE
  6
CONTINUOUS
 62
     4
 10
801.0
 20
216.0
 30
0.0
 11
1134.004212385378
 21
-37.96391758288874
 31
0.0
  0
POLYLINE
  5
33E
  8
NOTE
  6
CONTINUOUS
 62
     4
 66
     1
 10
0.0
 20
0.0
 30
0.0
  0
VERTEX
  5
7C5
  8
NOTE
  6
CONTINUOUS
 62
     4
 10
823.65009105215518
 20
183.03072034146871
 30
0.0
  0
VERTEX
  5
7C6
  8
NOTE
  6
CONTINUOUS
 62
     4
 10
801.0
 20
216.0
 30
0.0
  0
VERTEX
  5
7C7
  8
NOTE
  6
CONTINUOUS
 62
     4
 10
837.10019300179533
 20
198.7728128471112
 30
0.0
  0
SEQEND
  5
7C8
  8
NOTE
  6
CONTINUOUS
 62
     4
  0
LINE
  5
33F
  8
NOTE
  6
CONTINUOUS
 62
     4
 10
790.0
 20
216.0
 30
0.0
 11
1134.004199474271
 21
-139.0854587509055
 31
0.0
  0
POLYLINE
  5
340
  8
NOTE
  6
CONTINUOUS
 62
     4
 66
     1
 10
0.0
 20
0.0
 30
0.0
  0
VERTEX
  5
7C9
  8
NOTE
  6
CONTINUOUS
 62
     4
 10
804.70981016317091
 20
178.80293734552669
 30
0.0
  0
VERTEX
  5
7CA
  8
NOTE
  6
CONTINUOUS
 62
     4
 10
790.0
 20
216.0
 30
0.0
  0
VERTEX
  5
7CB
  8
NOTE
  6
CONTINUOUS
 62
     4
 10
821.33759957398468
 20
191.141303888289
 30
0.0
  0
SEQEND
  5
7CC
  8
NOTE
  6
CONTINUOUS
 62
     4
  0
LINE
  5
342
  8
SIZE
  6
CONTINUOUS
 62
    30
 10
723.0
 20
358.0
 30
0.0
 11
723.0
 21
629.11652867518535
 31
0.0
  0
LINE
  5
343
  8
SIZE
  6
CONTINUOUS
 62
    30
 10
801.0
 20
235.99999999999989
 30
0.0
 11
801.0
 21
629.11652867518535
 31
0.0
  0
LINE
  5
344
  8
SIZE
  6
CONTINUOUS
 62
    30
 10
733.0
 20
599.11652867518535
 30
0.0
 11
791.0
 21
599.11652867518535
 31
0.0
  0
LINE
  5
345
  8
SIZE
  6
CONTINUOUS
 62
    30
 10
801.0
 20
599.11652867518535
 30
0.0
 11
931.39985078498808
 21
599.11652867518535
 31
0.0
  0
LINE
  5
346
  8
SIZE
  6
CONTINUOUS
 62
    30
 10
790.0
 20
239.17500000000001
 30
0.0
 11
790.0
 21
526.19287630041435
 31
0.0
  0
LINE
  5
347
  8
SIZE
  6
CONTINUOUS
 62
    30
 10
733.0
 20
496.19287630041413
 30
0.0
 11
780.0
 21
496.19287630041413
 31
0.0
  0
LINE
  5
348
  8
SIZE
  6
CONTINUOUS
 62
    30
 10
790.0
 20
496.19287630041413
 30
0.0
 11
929.98922093274223
 21
496.19287630041413
 31
0.0
  0
LINE
  5
349
  8
SIZE
  6
CONTINUOUS
 62
    30
 10
783.0
 20
314.0
 30
0.0
 11
783.0
 21
428.90888960621669
 31
0.0
  0
LINE
  5
34A
  8
SIZE
  6
CONTINUOUS
 62
    30
 10
733.0
 20
398.9088896062168
 30
0.0
 11
773.0
 21
398.9088896062168
 31
0.0
  0
LINE
  5
34B
  8
SIZE
  6
CONTINUOUS
 62
    30
 10
783.0
 20
398.9088896062168
 30
0.0
 11
929.98922093274223
 21
398.9088896062168
 31
0.0
  0
TEXT
  5
34C
  8
SIZE
  6
CONTINUOUS
 62
    30
 10
831.9926005280073
 20
614.71557772039148
 30
0.0
 40
55.0
  1
78
 41
0.9
 72
     1
 11
872.06402909943586
 21
614.71557772039148
 31
0.0
  0
CIRCLE
  5
34D
  8
SIZE
  6
CONTINUOUS
 62
    30
 10
801.0
 20
599.11652867518535
 30
0.0
 40
5.0
  0
LINE
  5
34E
  8
SIZE
  6
CONTINUOUS
 62
    30
 10
796.0
 20
599.11652867518535
 30
0.0
 11
791.0
 21
599.11652867518535
 31
0.0
  0
CIRCLE
  5
34F
  8
SIZE
  6
CONTINUOUS
 62
    30
 10
723.0
 20
599.11652867518535
 30
0.0
 40
5.0
  0
LINE
  5
350
  8
SIZE
  6
CONTINUOUS
 62
    30
 10
728.0
 20
599.11652867518535
 30
0.0
 11
733.0
 21
599.11652867518535
 31
0.0
  0
TEXT
  5
351
  8
SIZE
  6
CONTINUOUS
 62
    30
 10
830.58197067576168
 20
511.79192534561992
 30
0.0
 40
55.0
  1
67
 41
0.9
 72
     1
 11
870.65339924719024
 21
511.79192534561992
 31
0.0
  0
CIRCLE
  5
352
  8
SIZE
  6
CONTINUOUS
 62
    30
 10
790.0
 20
496.19287630041413
 30
0.0
 40
5.0
  0
LINE
  5
353
  8
SIZE
  6
CONTINUOUS
 62
    30
 10
785.0
 20
496.19287630041413
 30
0.0
 11
780.0
 21
496.19287630041413
 31
0.0
  0
CIRCLE
  5
354
  8
SIZE
  6
CONTINUOUS
 62
    30
 10
723.0
 20
496.19287630041413
 30
0.0
 40
5.0
  0
LINE
  5
355
  8
SIZE
  6
CONTINUOUS
 62
    30
 10
728.0
 20
496.19287630041413
 30
0.0
 11
733.0
 21
496.19287630041413
 31
0.0
  0
TEXT
  5
356
  8
SIZE
  6
CONTINUOUS
 62
    30
 10
830.58197067576168
 20
414.50793865142248
 30
0.0
 40
55.0
  1
60
 41
0.9
 72
     1
 11
870.65339924719024
 21
414.50793865142248
 31
0.0
  0
CIRCLE
  5
357
  8
SIZE
  6
CONTINUOUS
 62
    30
 10
783.0
 20
398.9088896062168
 30
0.0
 40
5.0
  0
LINE
  5
358
  8
SIZE
  6
CONTINUOUS
 62
    30
 10
778.0
 20
398.9088896062168
 30
0.0
 11
773.0
 21
398.9088896062168
 31
0.0
  0
CIRCLE
  5
359
  8
SIZE
  6
CONTINUOUS
 62
    30
 10
723.0
 20
398.9088896062168
 30
0.0
 40
5.0
  0
LINE
  5
35A
  8
SIZE
  6
CONTINUOUS
 62
    30
 10
728.0
 20
398.9088896062168
 30
0.0
 11
733.0
 21
398.9088896062168
 31
0.0
  0
LINE
  5
35B
  8
NOTE
  6
CONTINUOUS
 62
     4
 10
1134.004199474271
 20
-139.0854587509055
 30
0.0
 11
1536.034962474271
 21
-139.0854587509055
 31
0.0
  0
LINE
  5
35C
  8
NOTE
  6
CONTINUOUS
 62
     4
 10
1134.004212385378
 20
-37.96391758288874
 30
0.0
 11
1617.8403249893961
 21
-37.96391758288874
 31
0.0
  0
TEXT
  5
35D
  8
NOTE
  6
CONTINUOUS
 62
     4
 10
1154.500633758252
 20
-122.18225004386839
 30
0.0
 40
55.0
  1
RL φ9.52
 41
0.9
  0
TEXT
  5
35E
  8
NOTE
  6
CONTINUOUS
 62
     4
 10
1161.7422409893959
 20
-14.318901582888801
 30
0.0
 40
55.0
  1
RG φ15.88
 41
0.9
  0
LINE
  5
467
  8
NOTE
  6
CONTINUOUS
 62
     4
 10
-1516.7039752361129
 20
380.90179128675658
 30
0.0
 11
-879.00195503331634
 21
380.90179128675658
 31
0.0
  0
LINE
  5
468
  8
NOTE
  6
CONTINUOUS
 62
     4
 10
1444.014178555145
 20
510.1195863654757
 30
0.0
 11
1071.4313795105479
 21
510.1195863654757
 31
0.0
  0
TEXT
  5
469
  8
NOTE
  6
CONTINUOUS
 62
     4
 10
-1511.285517902521
 20
395.50956182878372
 30
0.0
 40
55.0
  1
AH 4-14×30長穴
 41
0.9
  0
TEXT
  5
46A
  8
NOTE
  6
CONTINUOUS
 62
     4
 10
1092.947102806567
 20
541.54093782125221
 30
0.0
 40
55.0
  1
D VP-25
 41
0.9
  0
TEXT
  5
46B
  8
NOTE
  6
CONTINUOUS
 62
     4
 10
1109.3239341326639
 20
-355.08615252974869
 30
0.0
 40
55.0
  1
（自然排水口）
 41
0.9
  0
LINE
  5
46C
  8
NOTE
  6
CONTINUOUS
 62
     4
 10
1084.4848091326639
 20
-280.35866752974829
 30
0.0
 11
1553.3498831326631
 21
-280.35866752974829
 31
0.0
  0
TEXT
  5
46D
  8
NOTE
  6
CONTINUOUS
 62
     4
 10
1136.0955701326641
 20
-253.4165515297486
 30
0.0
 40
55.0
  1
D抜き
 41
0.9
  0
LINE
  5
47F
  8
NOTE
  6
CONTINUOUS
 62
     4
 10
819.0
 20
215.99999999999989
 30
0.0
 11
783.0
 21
215.99999999999989
 31
0.0
  0
LINE
  5
480
  8
NOTE
  6
CONTINUOUS
 62
     4
 10
801.0
 20
233.99999999999989
 30
0.0
 11
801.0
 21
197.99999999999989
 31
0.0
  0
LINE
  5
481
  8
NOTE
  6
CONTINUOUS
 62
     4
 10
808.00000000000011
 20
216.0
 30
0.0
 11
772.00000000000011
 21
216.0
 31
0.0
  0
LINE
  5
482
  8
NOTE
  6
CONTINUOUS
 62
     4
 10
790.0
 20
234.0
 30
0.0
 11
790.0
 21
197.99999999999989
 31
0.0
  0
LINE
  5
4D7
  8
SIZE
  6
CONTINUOUS
 62
    30
 10
743.0
 20
338.0
 30
0.0
 11
1219.431368947633
 21
337.99999999999989
 31
0.0
  0
LINE
  5
4D8
  8
SIZE
  6
CONTINUOUS
 62
    30
 10
839.0
 20
215.99999999999989
 30
0.0
 11
1219.431368947633
 21
215.99999999999969
 31
0.0
  0
LINE
  5
4D9
  8
SIZE
  6
CONTINUOUS
 62
    30
 10
1189.431368947633
 20
225.9999999999998
 30
0.0
 11
1189.431368947633
 21
327.99999999999972
 31
0.0
  0
LINE
  5
4DA
  8
SIZE
  6
CONTINUOUS
 62
    30
 10
1189.431368947633
 20
337.99999999999989
 30
0.0
 11
1189.431368947633
 21
492.66210654548922
 31
0.0
  0
TEXT
  5
4E0
  8
SIZE
  6
CONTINUOUS
 62
    30
 10
1177.527902085596
 20
349.30803116154033
 30
0.0
 40
64.0
  1
122
 50
90.0
 41
0.9
 72
     1
 11
1177.527902085596
 21
417.87945973296883
 31
0.0
  0
CIRCLE
  5
4E1
  8
SIZE
  6
CONTINUOUS
 62
    30
 10
1189.431368947633
 20
337.99999999999989
 30
0.0
 40
5.0
  0
LINE
  5
4E2
  8
SIZE
  6
CONTINUOUS
 62
    30
 10
1189.431368947633
 20
337.99999999999989
 30
0.0
 11
1189.431368947633
 21
327.99999999999972
 31
0.0
  0
CIRCLE
  5
4E3
  8
SIZE
  6
CONTINUOUS
 62
    30
 10
1189.431368947633
 20
215.9999999999998
 30
0.0
 40
5.0
  0
LINE
  5
4E4
  8
SIZE
  6
CONTINUOUS
 62
    30
 10
1189.431368947633
 20
215.9999999999998
 30
0.0
 11
1189.431368947633
 21
225.9999999999998
 31
0.0
  0
ENDSEC
  0
EOF
