  0
SECTION
  2
HEADER
  9
$ACADVER
  1
AC1009
  9
$INSBASE
 10
0.0
 20
0.0
 30
0.0
  9
$EXTMIN
 10
-1000.6713529590889
 20
-550.003026204653
 30
-0.0000000000000053
  9
$EXTMAX
 10
1156.311057457129
 20
1128.8452318739689
 30
0.0000000000000099
  9
$LIMMIN
 10
-6000.0
 20
-4500.0
  9
$LIMMAX
 10
6000.0
 20
4500.0
  9
$ORTHOMODE
 70
     1
  9
$REGENMODE
 70
     1
  9
$FILLMODE
 70
     1
  9
$QTEXTMODE
 70
     0
  9
$MIRRTEXT
 70
     0
  9
$DRAGMODE
 70
     2
  9
$LTSCALE
 40
20.0
  9
$OSMODE
 70
   431
  9
$ATTMODE
 70
     1
  9
$TEXTSIZE
 40
64.0
  9
$TRACEWID
 40
0.05
  9
$TEXTSTYLE
  7
STANDARD
  9
$CLAYER
  8
SYMBOLLINE
  9
$CELTYPE
  6
CONTINUOUS
  9
$CECOLOR
 62
     7
  9
$DIMSCALE
 40
1.0
  9
$DIMASZ
 40
10.0
  9
$DIMEXO
 40
20.0
  9
$DIMDLI
 40
200.0
  9
$DIMRND
 40
0.0
  9
$DIMDLE
 40
0.0
  9
$DIMEXE
 40
30.0
  9
$DIMTP
 40
0.0
  9
$DIMTM
 40
0.0
  9
$DIMTXT
 40
55.0
  9
$DIMCEN
 40
0.0
  9
$DIMTSZ
 40
0.0
  9
$DIMTOL
 70
     0
  9
$DIMLIM
 70
     0
  9
$DIMTIH
 70
     0
  9
$DIMTOH
 70
     0
  9
$DIMSE1
 70
     0
  9
$DIMSE2
 70
     0
  9
$DIMTAD
 70
     1
  9
$DIMZIN
 70
     8
  9
$DIMBLK
  1

  9
$DIMASO
 70
     1
  9
$DIMSHO
 70
     0
  9
$DIMPOST
  1

  9
$DIMAPOST
  1

  9
$DIMALT
 70
     0
  9
$DIMALTD
 70
     2
  9
$DIMALTF
 40
25.399999999999999
  9
$DIMLFAC
 40
1.0
  9
$DIMTOFL
 70
     1
  9
$DIMTVP
 40
0.0
  9
$DIMTIX
 70
     1
  9
$DIMSOXD
 70
     0
  9
$DIMSAH
 70
     1
  9
$DIMBLK1
  1
DOTBLANK
  9
$DIMBLK2
  1
DOTBLANK
  9
$DIMSTYLE
  2
STANDARD
  9
$DIMCLRD
 70
     0
  9
$DIMCLRE
 70
     0
  9
$DIMCLRT
 70
     0
  9
$DIMTFAC
 40
1.0
  9
$DIMGAP
 40
0.09
  9
$LUNITS
 70
     2
  9
$LUPREC
 70
     4
  9
$SKETCHINC
 40
0.1
  9
$FILLETRAD
 40
20.0
  9
$AUNITS
 70
     1
  9
$AUPREC
 70
     3
  9
$MENU
  1
ACAD
  9
$ELEVATION
 40
0.0
  9
$PELEVATION
 40
0.0
  9
$THICKNESS
 40
0.0
  9
$LIMCHECK
 70
     0
  9
$BLIPMODE
 70
     0
  9
$CHAMFERA
 40
0.0
  9
$CHAMFERB
 40
0.0
  9
$SKPOLY
 70
     0
  9
$TDCREATE
 40
2450330.4399309959
  9
$TDUPDATE
 40
2456332.6683552782
  9
$TDINDWG
 40
1.4979152083
  9
$TDUSRTIMER
 40
1.4979115971999999
  9
$USRTIMER
 70
     1
  9
$ANGBASE
 50
0.0
  9
$ANGDIR
 70
     0
  9
$PDMODE
 70
     3
  9
$PDSIZE
 40
-2.0
  9
$PLINEWID
 40
0.0
  9
$COORDS
 70
     1
  9
$SPLFRAME
 70
     0
  9
$SPLINETYPE
 70
     6
  9
$SPLINESEGS
 70
     8
  9
$ATTDIA
 70
     0
  9
$ATTREQ
 70
     1
  9
$HANDLING
 70
     1
  9
$HANDSEED
  5
BCD
  9
$SURFTAB1
 70
     6
  9
$SURFTAB2
 70
     6
  9
$SURFTYPE
 70
     6
  9
$SURFU
 70
     6
  9
$SURFV
 70
     6
  9
$UCSNAME
  2

  9
$UCSORG
 10
0.0
 20
0.0
 30
0.0
  9
$UCSXDIR
 10
1.0
 20
0.0
 30
0.0
  9
$UCSYDIR
 10
0.0
 20
1.0
 30
0.0
  9
$PUCSNAME
  2

  9
$PUCSORG
 10
0.0
 20
0.0
 30
0.0
  9
$PUCSXDIR
 10
1.0
 20
0.0
 30
0.0
  9
$PUCSYDIR
 10
0.0
 20
1.0
 30
0.0
  9
$USERI1
 70
     0
  9
$USERI2
 70
     0
  9
$USERI3
 70
     0
  9
$USERI4
 70
     0
  9
$USERI5
 70
     0
  9
$USERR1
 40
20.0
  9
$USERR2
 40
0.0
  9
$USERR3
 40
0.0
  9
$USERR4
 40
0.0
  9
$USERR5
 40
0.0
  9
$WORLDVIEW
 70
     1
  9
$SHADEDGE
 70
     3
  9
$SHADEDIF
 70
    70
  9
$TILEMODE
 70
     1
  9
$MAXACTVP
 70
    48
  9
$PLIMCHECK
 70
     0
  9
$PEXTMIN
 10
1.0000000000000000E+020
 20
1.0000000000000000E+020
 30
1.0000000000000000E+020
  9
$PEXTMAX
 10
-1.0000000000000000E+020
 20
-1.0000000000000000E+020
 30
-1.0000000000000000E+020
  9
$PLIMMIN
 10
0.0
 20
0.0
  9
$PLIMMAX
 10
12.0
 20
9.0
  9
$UNITMODE
 70
     0
  9
$VISRETAIN
 70
     1
  9
$PLINEGEN
 70
     0
  9
$PSLTSCALE
 70
     1
  0
ENDSEC
  0
SECTION
  2
TABLES
  0
TABLE
  2
VPORT
 70
     1
  0
VPORT
  2
*ACTIVE
 70
     0
 10
0.0
 20
0.0
 11
1.0
 21
1.0
 12
77.819852249020187
 22
289.42110283465809
 13
0.0
 23
0.0
 14
50.0
 24
50.0
 15
100.0
 25
100.0
 16
0.0
 26
0.0
 36
1.0
 17
0.0
 27
0.0
 37
0.0
 40
1691.6151649841629
 41
1.552030456852791
 42
50.0
 43
0.0
 44
0.0
 50
0.0
 51
0.0
 71
     0
 72
  1000
 73
     1
 74
     0
 75
     0
 76
     0
 77
     0
 78
     0
  0
ENDTAB
  0
TABLE
  2
LTYPE
 70
     3
  0
LTYPE
  2
CONTINUOUS
 70
     0
  3
実線
 72
    65
 73
     0
 40
0.0
  0
LTYPE
  2
DASHDOT
 70
     0
  3
____ _ ____ _ ____ _ ____ _ ____ _ ____ _ ____
 72
    65
 73
     4
 40
5.5
 49
4.0
 49
-0.6
 49
0.3
 49
-0.6
  0
ENDTAB
  0
TABLE
  2
LAYER
 70
    12
  0
LAYER
  2
0
 70
     0
 62
     7
  6
CONTINUOUS
  0
LAYER
  2
SYMBOLLINE
 70
     0
 62
    15
  6
CONTINUOUS
  0
LAYER
  2
SIZE
 70
     0
 62
    30
  6
CONTINUOUS
  0
LAYER
  2
OUTLINE
 70
     0
 62
     3
  6
CONTINUOUS
  0
LAYER
  2
DETAIL
 70
     0
 62
     5
  6
CONTINUOUS
  0
LAYER
  2
BASIS
 70
     0
 62
     6
  6
DASHDOT
  0
LAYER
  2
NOTE
 70
     0
 62
     4
  6
CONTINUOUS
  0
LAYER
  2
ARRANGE
 70
     0
 62
     1
  6
CONTINUOUS
  0
LAYER
  2
FIX
 70
     0
 62
    11
  6
CONTINUOUS
  0
LAYER
  2
SERVICESPACE
 70
     0
 62
     2
  6
DASHDOT
  0
LAYER
  2
ETC
 70
     0
 62
    61
  6
CONTINUOUS
  0
LAYER
  2
DEFPOINTS
 70
     0
 62
     7
  6
CONTINUOUS
  0
ENDTAB
  0
TABLE
  2
STYLE
 70
     2
  0
STYLE
  2
STANDARD
 70
     0
 40
0.0
 41
0.9
 50
0.0
 71
     0
 42
64.0
  3
SIMPLEX
  4
BIGFONT
  0
STYLE
  2
ANNOTATIVE
 70
     0
 40
0.0
 41
1.0
 50
0.0
 71
     0
 42
0.2
  3
txt
  4

  0
ENDTAB
  0
TABLE
  2
VIEW
 70
     1
  0
VIEW
  2
ALL
 70
     0
 40
9000.0
 10
241.50664699999999
 20
0.0
 41
12483.01
 11
0.0
 21
0.0
 31
1.0
 12
0.0
 22
0.0
 32
0.0
 42
50.0
 43
0.0
 44
0.0
 50
0.0
 71
     0
  0
ENDTAB
  0
TABLE
  2
UCS
 70
     0
  0
ENDTAB
  0
TABLE
  2
APPID
 70
     6
  0
APPID
  2
ACAD
 70
     0
  0
APPID
  2
ACADANNOTATIVE
 70
     0
  0
APPID
  2
ACAD_MLEADERVER
 70
     0
  0
APPID
  2
ACAD_EXEMPT_FROM_CAD_STANDARDS
 70
     0
  0
APPID
  2
ACAD_DSTYLE_DIMJAG
 70
     0
  0
APPID
  2
ACAD_DSTYLE_DIMTALN
 70
     0
  0
ENDTAB
  0
TABLE
  2
DIMSTYLE
 70
     3
  0
DIMSTYLE
  2
STANDARD
 70
     0
  3

  4

  5

  6

  7

 40
1.0
 41
0.18
 42
0.0625
 43
0.38
 44
0.18
 45
0.0
 46
0.0
 47
0.0
 48
0.0
140
0.18
141
0.09
142
0.0
143
25.399999999999999
144
1.0
145
0.0
146
1.0
147
0.09
 71
     0
 72
     0
 73
     1
 74
     1
 75
     0
 76
     0
 77
     0
 78
     0
170
     0
171
     2
172
     0
173
     0
174
     0
175
     0
176
     0
177
     0
178
     0
  0
DIMSTYLE
  2
ANNOTATIVE
 70
     0
  3

  4

  5

  6

  7

 40
1.0
 41
0.18
 42
0.0625
 43
0.38
 44
0.18
 45
0.0
 46
0.0
 47
0.0
 48
0.0
140
0.18
141
0.09
142
0.0
143
25.399999999999999
144
1.0
145
0.0
146
1.0
147
0.09
 71
     0
 72
     0
 73
     1
 74
     1
 75
     0
 76
     0
 77
     0
 78
     0
170
     0
171
     2
172
     0
173
     0
174
     0
175
     0
176
     0
177
     0
178
     0
  0
ENDTAB
  0
ENDSEC
  0
SECTION
  2
BLOCKS
  0
BLOCK
  8
0
  2
$MODEL_SPACE
 70
     0
 10
0.0
 20
0.0
 30
0.0
  3
$MODEL_SPACE
  1

  0
ENDBLK
  5
784
  8
0
  0
BLOCK
 67
     1
  8
0
  2
$PAPER_SPACE
 70
     0
 10
0.0
 20
0.0
 30
0.0
  3
$PAPER_SPACE
  1

  0
ENDBLK
  5
780
 67
     1
  8
0
  0
BLOCK
  8
0
  2
_DOTBLANK
 70
     0
 10
0.0
 20
0.0
 30
0.0
  3
_DOTBLANK
  1

  0
CIRCLE
  5
30
  8
0
  6
CONTINUOUS
 62
     7
 10
0.0
 20
0.0
 30
0.0
 40
0.5
  0
LINE
  5
31
  8
0
  6
CONTINUOUS
 62
     7
 10
-0.5
 20
0.0
 30
0.0
 11
-1.0
 21
0.0
 31
0.0
  0
ENDBLK
  5
32
  8
0
  0
BLOCK
  8
0
  2
_ORIGIN
 70
     0
 10
0.0
 20
0.0
 30
0.0
  3
_ORIGIN
  1

  0
CIRCLE
  5
7A9
  8
0
  6
CONTINUOUS
 62
     7
 10
0.0
 20
0.0
 30
0.0
 40
0.5
  0
LINE
  5
7AA
  8
0
  6
CONTINUOUS
 62
     7
 10
0.0
 20
0.0
 30
0.0
 11
-1.0
 21
0.0
 31
0.0
  0
ENDBLK
  5
7AB
  8
0
  0
BLOCK
  8
0
 62
     7
  2
*D8
 70
     1
 10
0.0
 20
0.0
 30
0.0
  3
*D8
  1

  0
LINE
  5
AC7
  8
SIZE
  6
CONTINUOUS
 62
     0
 10
-120.0
 20
57.0
 30
0.0
 11
-120.0
 21
-334.97683814567517
 31
0.0
  0
LINE
  5
AC8
  8
SIZE
  6
CONTINUOUS
 62
     0
 10
120.0
 20
57.0
 30
0.0
 11
119.9999999999999
 21
-334.97683814567517
 31
0.0
  0
LINE
  5
AC9
  8
SIZE
  6
CONTINUOUS
 62
     0
 10
-110.0
 20
-304.97683814567517
 30
0.0
 11
109.9999999999999
 21
-304.97683814567517
 31
0.0
  0
INSERT
  5
ACA
  8
SIZE
  6
CONTINUOUS
 62
     0
  2
_DOTBLANK
 10
-120.0
 20
-304.97683814567517
 30
0.0
 41
10.0
 42
10.0
 43
10.0
 50
180.0
  0
INSERT
  5
ACB
  8
SIZE
  6
CONTINUOUS
 62
     0
  2
_DOTBLANK
 10
119.9999999999999
 20
-304.97683814567517
 30
0.0
 41
10.0
 42
10.0
 43
10.0
  0
INSERT
  5
ACC
  8
SYMBOLLINE
  6
CONTINUOUS
 62
     7
  2
*U26
 10
0.0
 20
0.0
 30
0.0
  0
POINT
  5
ACD
  8
DEFPOINTS
  6
CONTINUOUS
 62
     0
 10
-120.0
 20
77.0
 30
0.0
  0
POINT
  5
ACE
  8
DEFPOINTS
  6
CONTINUOUS
 62
     0
 10
120.0
 20
77.0
 30
0.0
  0
POINT
  5
ACF
  8
DEFPOINTS
  6
CONTINUOUS
 62
     0
 10
119.9999999999999
 20
-304.97683814567517
 30
0.0
  0
ENDBLK
  5
8DD
  8
0
 62
     7
  0
BLOCK
  8
0
 62
     7
  2
*D9
 70
     1
 10
0.0
 20
0.0
 30
0.0
  3
*D9
  1

  0
LINE
  5
ABE
  8
SIZE
  6
CONTINUOUS
 62
     0
 10
120.0
 20
57.0
 30
0.0
 11
119.9999999999999
 21
-334.97683814567517
 31
0.0
  0
LINE
  5
ABF
  8
SIZE
  6
CONTINUOUS
 62
     0
 10
317.0
 20
-20.0
 30
0.0
 11
317.0
 21
-334.97683814567517
 31
0.0
  0
LINE
  5
AC0
  8
SIZE
  6
CONTINUOUS
 62
     0
 10
130.0
 20
-304.97683814567517
 30
0.0
 11
307.0
 21
-304.97683814567517
 31
0.0
  0
INSERT
  5
AC1
  8
SIZE
  6
CONTINUOUS
 62
     0
  2
_DOTBLANK
 10
119.9999999999999
 20
-304.97683814567517
 30
0.0
 41
10.0
 42
10.0
 43
10.0
 50
180.0
  0
INSERT
  5
AC2
  8
SIZE
  6
CONTINUOUS
 62
     0
  2
_DOTBLANK
 10
317.0
 20
-304.97683814567517
 30
0.0
 41
10.0
 42
10.0
 43
10.0
  0
INSERT
  5
AC3
  8
SYMBOLLINE
  6
CONTINUOUS
 62
     7
  2
*U25
 10
0.0
 20
0.0
 30
0.0
  0
POINT
  5
AC4
  8
DEFPOINTS
  6
CONTINUOUS
 62
     0
 10
120.0
 20
77.0
 30
0.0
  0
POINT
  5
AC5
  8
DEFPOINTS
  6
CONTINUOUS
 62
     0
 10
317.0
 20
0.0
 30
0.0
  0
POINT
  5
AC6
  8
DEFPOINTS
  6
CONTINUOUS
 62
     0
 10
317.0
 20
-304.97683814567517
 30
0.0
  0
ENDBLK
  5
8EA
  8
0
 62
     7
  0
BLOCK
  8
0
 62
     7
  2
*D10
 70
     1
 10
0.0
 20
0.0
 30
0.0
  3
*D10
  1

  0
LINE
  5
AB5
  8
SIZE
  6
CONTINUOUS
 62
     0
 10
95.0
 20
28.0
 30
0.0
 11
94.999999999999986
 21
-175.41151272954269
 31
0.0
  0
LINE
  5
AB6
  8
SIZE
  6
CONTINUOUS
 62
     0
 10
317.0
 20
-20.0
 30
0.0
 11
317.0
 21
-175.41151272954269
 31
0.0
  0
LINE
  5
AB7
  8
SIZE
  6
CONTINUOUS
 62
     0
 10
105.0
 20
-145.41151272954261
 30
0.0
 11
307.0
 21
-145.41151272954261
 31
0.0
  0
INSERT
  5
AB8
  8
SIZE
  6
CONTINUOUS
 62
     0
  2
_DOTBLANK
 10
94.999999999999986
 20
-145.41151272954261
 30
0.0
 41
10.0
 42
10.0
 43
10.0
 50
180.0
  0
INSERT
  5
AB9
  8
SIZE
  6
CONTINUOUS
 62
     0
  2
_DOTBLANK
 10
317.0
 20
-145.41151272954261
 30
0.0
 41
10.0
 42
10.0
 43
10.0
  0
INSERT
  5
ABA
  8
SYMBOLLINE
  6
CONTINUOUS
 62
     7
  2
*U24
 10
0.0
 20
0.0
 30
0.0
  0
POINT
  5
ABB
  8
DEFPOINTS
  6
CONTINUOUS
 62
     0
 10
95.0
 20
48.0
 30
0.0
  0
POINT
  5
ABC
  8
DEFPOINTS
  6
CONTINUOUS
 62
     0
 10
317.0
 20
0.0
 30
0.0
  0
POINT
  5
ABD
  8
DEFPOINTS
  6
CONTINUOUS
 62
     0
 10
317.0
 20
-145.41151272954261
 30
0.0
  0
ENDBLK
  5
909
  8
0
 62
     7
  0
BLOCK
  8
0
 62
     7
  2
*D11
 70
     1
 10
0.0
 20
0.0
 30
0.0
  3
*D11
  1

  0
LINE
  5
AAC
  8
SIZE
  6
CONTINUOUS
 62
     0
 10
-95.0
 20
28.0
 30
0.0
 11
-95.000000000000014
 21
-175.41151272954269
 31
0.0
  0
LINE
  5
AAD
  8
SIZE
  6
CONTINUOUS
 62
     0
 10
95.0
 20
28.0
 30
0.0
 11
94.999999999999986
 21
-175.41151272954269
 31
0.0
  0
LINE
  5
AAE
  8
SIZE
  6
CONTINUOUS
 62
     0
 10
-85.000000000000014
 20
-145.41151272954261
 30
0.0
 11
84.999999999999986
 21
-145.41151272954261
 31
0.0
  0
INSERT
  5
AAF
  8
SIZE
  6
CONTINUOUS
 62
     0
  2
_DOTBLANK
 10
-95.000000000000014
 20
-145.41151272954261
 30
0.0
 41
10.0
 42
10.0
 43
10.0
 50
180.0
  0
INSERT
  5
AB0
  8
SIZE
  6
CONTINUOUS
 62
     0
  2
_DOTBLANK
 10
94.999999999999986
 20
-145.41151272954261
 30
0.0
 41
10.0
 42
10.0
 43
10.0
  0
INSERT
  5
AB1
  8
SYMBOLLINE
  6
CONTINUOUS
 62
     7
  2
*U23
 10
0.0
 20
0.0
 30
0.0
  0
POINT
  5
AB2
  8
DEFPOINTS
  6
CONTINUOUS
 62
     0
 10
-95.0
 20
48.0
 30
0.0
  0
POINT
  5
AB3
  8
DEFPOINTS
  6
CONTINUOUS
 62
     0
 10
95.0
 20
48.0
 30
0.0
  0
POINT
  5
AB4
  8
DEFPOINTS
  6
CONTINUOUS
 62
     0
 10
94.999999999999986
 20
-145.41151272954261
 30
0.0
  0
ENDBLK
  5
916
  8
0
 62
     7
  0
BLOCK
  8
0
 62
     7
  2
*D12
 70
     1
 10
0.0
 20
0.0
 30
0.0
  3
*D12
  1

  0
LINE
  5
924
  8
SYMBOLLINE
  6
CONTINUOUS
 62
     0
 10
140.0
 20
77.0
 30
0.0
 11
239.34985306349881
 21
76.999999999999943
 31
0.0
  0
LINE
  5
925
  8
SYMBOLLINE
  6
CONTINUOUS
 62
     0
 10
140.0
 20
122.0
 30
0.0
 11
239.34985306349881
 21
121.9999999999999
 31
0.0
  0
LINE
  5
926
  8
SYMBOLLINE
  6
CONTINUOUS
 62
     0
 10
209.34985306349881
 20
66.999999999999986
 30
0.0
 11
209.34985306349881
 21
56.999999999999979
 31
0.0
  0
LINE
  5
927
  8
SYMBOLLINE
  6
CONTINUOUS
 62
     0
 10
209.34985306349881
 20
132.0
 30
0.0
 11
209.34985306349881
 21
141.99999999999989
 31
0.0
  0
LINE
  5
928
  8
SYMBOLLINE
  6
CONTINUOUS
 62
     0
 10
209.34985306349881
 20
76.999999999999986
 30
0.0
 11
209.34985306349881
 21
122.0
 31
0.0
  0
INSERT
  5
929
  8
SYMBOLLINE
  6
CONTINUOUS
 62
     0
  2
_DOTBLANK
 10
209.34985306349881
 20
76.999999999999986
 30
0.0
 41
10.0
 42
10.0
 43
10.0
 50
90.0
  0
INSERT
  5
92A
  8
SYMBOLLINE
  6
CONTINUOUS
 62
     0
  2
_DOTBLANK
 10
209.34985306349881
 20
122.0
 30
0.0
 41
10.0
 42
10.0
 43
10.0
 50
270.0
  0
INSERT
  5
92B
  8
SYMBOLLINE
  6
CONTINUOUS
 62
     7
  2
*U19
 10
0.0
 20
0.0
 30
0.0
  0
POINT
  5
92C
  8
DEFPOINTS
  6
CONTINUOUS
 62
     0
 10
120.0
 20
77.0
 30
0.0
  0
POINT
  5
92D
  8
DEFPOINTS
  6
CONTINUOUS
 62
     0
 10
120.0
 20
122.0
 30
0.0
  0
POINT
  5
92E
  8
DEFPOINTS
  6
CONTINUOUS
 62
     0
 10
209.34985306349881
 20
122.0
 30
0.0
  0
ENDBLK
  5
923
  8
0
 62
     7
  0
BLOCK
  8
0
 62
     7
  2
*D13
 70
     1
 10
0.0
 20
0.0
 30
0.0
  3
*D13
  1

  0
LINE
  5
ADA
  8
SIZE
  6
CONTINUOUS
 62
     0
 10
-130.0
 20
136.0
 30
0.0
 11
-589.03019678277633
 21
136.00000000000011
 31
0.0
  0
LINE
  5
ADB
  8
SIZE
  6
CONTINUOUS
 62
     0
 10
-130.0
 20
63.0
 30
0.0
 11
-589.03019678277633
 21
63.000000000000142
 31
0.0
  0
LINE
  5
ADC
  8
SIZE
  6
CONTINUOUS
 62
     0
 10
-559.03019678277633
 20
126.0000000000001
 30
0.0
 11
-559.03019678277633
 21
73.000000000000128
 31
0.0
  0
LINE
  5
ADD
  8
SIZE
  6
CONTINUOUS
 62
     0
 10
-559.03019678277633
 20
63.000000000000128
 30
0.0
 11
-559.03019678277633
 21
-50.115133210419849
 31
0.0
  0
INSERT
  5
ADE
  8
SIZE
  6
CONTINUOUS
 62
     0
  2
_DOTBLANK
 10
-559.03019678277633
 20
136.00000000000011
 30
0.0
 41
10.0
 42
10.0
 43
10.0
 50
90.0
  0
INSERT
  5
ADF
  8
SIZE
  6
CONTINUOUS
 62
     0
  2
_DOTBLANK
 10
-559.03019678277633
 20
63.000000000000128
 30
0.0
 41
10.0
 42
10.0
 43
10.0
 50
270.0
  0
INSERT
  5
AE0
  8
SYMBOLLINE
  6
CONTINUOUS
 62
     7
  2
*U28
 10
0.0
 20
0.0
 30
0.0
  0
POINT
  5
AE1
  8
DEFPOINTS
  6
CONTINUOUS
 62
     0
 10
-110.0
 20
136.0
 30
0.0
  0
POINT
  5
AE2
  8
DEFPOINTS
  6
CONTINUOUS
 62
     0
 10
-110.0
 20
63.0
 30
0.0
  0
POINT
  5
AE3
  8
DEFPOINTS
  6
CONTINUOUS
 62
     0
 10
-559.03019678277633
 20
63.000000000000128
 30
0.0
  0
ENDBLK
  5
932
  8
0
 62
     7
  0
BLOCK
  8
0
 62
     7
  2
*D14
 70
     1
 10
0.0
 20
0.0
 30
0.0
  3
*D14
  1

  0
LINE
  5
AA1
  8
SIZE
  6
CONTINUOUS
 62
     0
 10
375.00000161000588
 20
0.000000656499077
 30
0.0
 11
585.0898289999999
 21
0.0000006564990175
 31
0.0
  0
LINE
  5
AA2
  8
SIZE
  6
CONTINUOUS
 62
     0
 10
307.0
 20
-20.0
 30
0.0
 11
585.0898289999999
 21
-20.000000000000082
 31
0.0
  0
LINE
  5
AA3
  8
SIZE
  6
CONTINUOUS
 62
     0
 10
555.08982900000001
 20
10.00000065649902
 30
0.0
 11
555.08982900000001
 21
20.000000656499029
 31
0.0
  0
LINE
  5
AA4
  8
SIZE
  6
CONTINUOUS
 62
     0
 10
555.08982900000001
 20
-30.000000000000082
 30
0.0
 11
555.08982900000001
 21
-133.470853594293
 31
0.0
  0
LINE
  5
AA5
  8
SIZE
  6
CONTINUOUS
 62
     0
 10
555.08982900000001
 20
0.000000656499026
 30
0.0
 11
555.08982900000001
 21
-20.000000000000082
 31
0.0
  0
INSERT
  5
AA6
  8
SIZE
  6
CONTINUOUS
 62
     0
  2
_DOTBLANK
 10
555.08982900000001
 20
0.000000656499026
 30
0.0
 41
10.0
 42
10.0
 43
10.0
 50
270.0
  0
INSERT
  5
AA7
  8
SIZE
  6
CONTINUOUS
 62
     0
  2
_DOTBLANK
 10
555.08982900000001
 20
-20.000000000000082
 30
0.0
 41
10.0
 42
10.0
 43
10.0
 50
90.0
  0
INSERT
  5
AA8
  8
SYMBOLLINE
  6
CONTINUOUS
 62
     7
  2
*U22
 10
0.0
 20
0.0
 30
0.0
  0
POINT
  5
AA9
  8
DEFPOINTS
  6
CONTINUOUS
 62
     0
 10
355.00000161000588
 20
0.0000006564990827
 30
0.0
  0
POINT
  5
AAA
  8
DEFPOINTS
  6
CONTINUOUS
 62
     0
 10
287.0
 20
-20.0
 30
0.0
  0
POINT
  5
AAB
  8
DEFPOINTS
  6
CONTINUOUS
 62
     0
 10
555.08982900000001
 20
-20.000000000000082
 30
0.0
  0
ENDBLK
  5
941
  8
0
 62
     7
  0
BLOCK
  8
0
 62
     7
  2
*D15
 70
     1
 10
0.0
 20
0.0
 30
0.0
  3
*D15
  1

  0
LINE
  5
A98
  8
SIZE
  6
CONTINUOUS
 62
     0
 10
337.0
 20
338.0
 30
0.0
 11
750.2595767626882
 21
337.99999999999989
 31
0.0
  0
LINE
  5
A99
  8
SIZE
  6
CONTINUOUS
 62
     0
 10
332.0
 20
147.99999999999989
 30
0.0
 11
750.25957676268797
 21
147.9999999999998
 31
0.0
  0
LINE
  5
A9A
  8
SIZE
  6
CONTINUOUS
 62
     0
 10
720.25957676268808
 20
327.99999999999989
 30
0.0
 11
720.25957676268797
 21
157.9999999999998
 31
0.0
  0
INSERT
  5
A9B
  8
SIZE
  6
CONTINUOUS
 62
     0
  2
_DOTBLANK
 10
720.25957676268808
 20
337.99999999999989
 30
0.0
 41
10.0
 42
10.0
 43
10.0
 50
90.0
  0
INSERT
  5
A9C
  8
SIZE
  6
CONTINUOUS
 62
     0
  2
_DOTBLANK
 10
720.25957676268797
 20
147.9999999999998
 30
0.0
 41
10.0
 42
10.0
 43
10.0
 50
270.0
  0
INSERT
  5
A9D
  8
SYMBOLLINE
  6
CONTINUOUS
 62
     7
  2
*U21
 10
0.0
 20
0.0
 30
0.0
  0
POINT
  5
A9E
  8
DEFPOINTS
  6
CONTINUOUS
 62
     0
 10
317.0
 20
338.0
 30
0.0
  0
POINT
  5
A9F
  8
DEFPOINTS
  6
CONTINUOUS
 62
     0
 10
312.0
 20
148.0
 30
0.0
  0
POINT
  5
AA0
  8
DEFPOINTS
  6
CONTINUOUS
 62
     0
 10
720.25957676268797
 20
147.9999999999998
 30
0.0
  0
ENDBLK
  5
950
  8
0
 62
     7
  0
BLOCK
  8
0
 62
     7
  2
*D16
 70
     1
 10
0.0
 20
0.0
 30
0.0
  3
*D16
  1

  0
LINE
  5
A8F
  8
SIZE
  6
CONTINUOUS
 62
     0
 10
337.0
 20
338.0
 30
0.0
 11
870.28257645922349
 21
337.99999999999989
 31
0.0
  0
LINE
  5
A90
  8
SIZE
  6
CONTINUOUS
 62
     0
 10
337.0
 20
47.999999999999993
 30
0.0
 11
870.28257645922349
 21
47.999999999999837
 31
0.0
  0
LINE
  5
A91
  8
SIZE
  6
CONTINUOUS
 62
     0
 10
840.28257645922361
 20
327.99999999999977
 30
0.0
 11
840.28257645922338
 21
57.999999999999851
 31
0.0
  0
INSERT
  5
A92
  8
SIZE
  6
CONTINUOUS
 62
     0
  2
_DOTBLANK
 10
840.28257645922361
 20
337.99999999999989
 30
0.0
 41
10.0
 42
10.0
 43
10.0
 50
90.0
  0
INSERT
  5
A93
  8
SIZE
  6
CONTINUOUS
 62
     0
  2
_DOTBLANK
 10
840.28257645922338
 20
47.999999999999851
 30
0.0
 41
10.0
 42
10.0
 43
10.0
 50
270.0
  0
INSERT
  5
A94
  8
SYMBOLLINE
  6
CONTINUOUS
 62
     7
  2
*U20
 10
0.0
 20
0.0
 30
0.0
  0
POINT
  5
A95
  8
DEFPOINTS
  6
CONTINUOUS
 62
     0
 10
317.0
 20
338.0
 30
0.0
  0
POINT
  5
A96
  8
DEFPOINTS
  6
CONTINUOUS
 62
     0
 10
317.0
 20
48.0
 30
0.0
  0
POINT
  5
A97
  8
DEFPOINTS
  6
CONTINUOUS
 62
     0
 10
840.28257645922338
 20
47.999999999999851
 30
0.0
  0
ENDBLK
  5
96F
  8
0
 62
     7
  0
BLOCK
  8
0
 62
     7
  2
*D17
 70
     1
 10
0.0
 20
0.0
 30
0.0
  3
*D17
  1

  0
LINE
  5
AD0
  8
SIZE
  6
CONTINUOUS
 62
     0
 10
-140.0
 20
122.0
 30
0.0
 11
-481.28079352094738
 21
122.0000000000001
 31
0.0
  0
LINE
  5
AD1
  8
SIZE
  6
CONTINUOUS
 62
     0
 10
-139.99999999999989
 20
77.0
 30
0.0
 11
-481.28079352094738
 21
77.000000000000114
 31
0.0
  0
LINE
  5
AD2
  8
SIZE
  6
CONTINUOUS
 62
     0
 10
-451.28079352094738
 20
112.0
 30
0.0
 11
-451.28079352094738
 21
87.000000000000085
 31
0.0
  0
LINE
  5
AD3
  8
SIZE
  6
CONTINUOUS
 62
     0
 10
-451.28079352094738
 20
77.000000000000085
 30
0.0
 11
-451.28079352094738
 21
-49.036253336915081
 31
0.0
  0
INSERT
  5
AD4
  8
SIZE
  6
CONTINUOUS
 62
     0
  2
_DOTBLANK
 10
-451.28079352094738
 20
122.0000000000001
 30
0.0
 41
10.0
 42
10.0
 43
10.0
 50
90.0
  0
INSERT
  5
AD5
  8
SIZE
  6
CONTINUOUS
 62
     0
  2
_DOTBLANK
 10
-451.28079352094738
 20
77.000000000000085
 30
0.0
 41
10.0
 42
10.0
 43
10.0
 50
270.0
  0
INSERT
  5
AD6
  8
SYMBOLLINE
  6
CONTINUOUS
 62
     7
  2
*U27
 10
0.0
 20
0.0
 30
0.0
  0
POINT
  5
AD7
  8
DEFPOINTS
  6
CONTINUOUS
 62
     0
 10
-120.0
 20
122.0
 30
0.0
  0
POINT
  5
AD8
  8
DEFPOINTS
  6
CONTINUOUS
 62
     0
 10
-120.0
 20
77.0
 30
0.0
  0
POINT
  5
AD9
  8
DEFPOINTS
  6
CONTINUOUS
 62
     0
 10
-451.28079352094738
 20
77.000000000000085
 30
0.0
  0
ENDBLK
  5
98F
  8
0
 62
     7
  0
BLOCK
  8
0
 62
     7
  2
*U19
 70
     1
 10
0.0
 20
0.0
 30
0.0
  3
*U19
  1

  0
TEXT
  5
BA6
  8
SYMBOLLINE
  6
CONTINUOUS
 62
     0
 10
209.25985306349881
 20
52.871428571428588
 30
0.0
 40
64.0
  1
45
 50
90.0
 41
0.9
  0
ENDBLK
  5
BA8
  8
0
 62
     7
  0
BLOCK
  8
0
 62
     7
  2
*U20
 70
     1
 10
0.0
 20
0.0
 30
0.0
  3
*U20
  1

  0
TEXT
  5
BAA
  8
SIZE
  6
CONTINUOUS
 62
     0
 10
840.19257645922346
 20
102.5157120250315
 30
0.0
 40
64.0
  1
290
 50
90.0
 41
0.9
  0
ENDBLK
  5
BAC
  8
0
 62
     7
  0
BLOCK
  8
0
 62
     7
  2
*U21
 70
     1
 10
0.0
 20
0.0
 30
0.0
  3
*U21
  1

  0
TEXT
  5
BAE
  8
SIZE
  6
CONTINUOUS
 62
     0
 10
720.16957676268805
 20
167.98587668057451
 30
0.0
 40
64.0
  1
190
 50
90.0
 41
0.9
  0
ENDBLK
  5
BB0
  8
0
 62
     7
  0
BLOCK
  8
0
 62
     7
  2
*U22
 70
     1
 10
0.0
 20
0.0
 30
0.0
  3
*U22
  1

  0
TEXT
  5
BB2
  8
SIZE
  6
CONTINUOUS
 62
     0
 10
554.99982899999986
 20
-133.38085359429289
 30
0.0
 40
64.0
  1
20
 50
90.0
 41
0.9
  0
ENDBLK
  5
BB4
  8
0
 62
     7
  0
BLOCK
  8
0
 62
     7
  2
*U23
 70
     1
 10
0.0
 20
0.0
 30
0.0
  3
*U23
  1

  0
TEXT
  5
BB6
  8
SIZE
  6
CONTINUOUS
 62
     0
 10
-68.571428571428584
 20
-145.3215127295426
 30
0.0
 40
64.0
  1
190
 41
0.9
  0
ENDBLK
  5
BB8
  8
0
 62
     7
  0
BLOCK
  8
0
 62
     7
  2
*U24
 70
     1
 10
0.0
 20
0.0
 30
0.0
  3
*U24
  1

  0
TEXT
  5
BBA
  8
SIZE
  6
CONTINUOUS
 62
     0
 10
131.94285714285721
 20
-145.3215127295426
 30
0.0
 40
64.0
  1
222
 41
0.9
  0
ENDBLK
  5
BBC
  8
0
 62
     7
  0
BLOCK
  8
0
 62
     7
  2
*U25
 70
     1
 10
0.0
 20
0.0
 30
0.0
  3
*U25
  1

  0
TEXT
  5
BBE
  8
SIZE
  6
CONTINUOUS
 62
     0
 10
149.92857142857139
 20
-304.8868381456752
 30
0.0
 40
64.0
  1
197
 41
0.9
  0
ENDBLK
  5
BC0
  8
0
 62
     7
  0
BLOCK
  8
0
 62
     7
  2
*U26
 70
     1
 10
0.0
 20
0.0
 30
0.0
  3
*U26
  1

  0
TEXT
  5
BC2
  8
SIZE
  6
CONTINUOUS
 62
     0
 10
-74.057142857142878
 20
-304.8868381456752
 30
0.0
 40
64.0
  1
240
 41
0.9
  0
ENDBLK
  5
BC4
  8
0
 62
     7
  0
BLOCK
  8
0
 62
     7
  2
*U27
 70
     1
 10
0.0
 20
0.0
 30
0.0
  3
*U27
  1

  0
TEXT
  5
BC6
  8
SIZE
  6
CONTINUOUS
 62
     0
 10
-451.37079352094742
 20
-48.946253336915142
 30
0.0
 40
64.0
  1
45
 50
90.0
 41
0.9
  0
ENDBLK
  5
BC8
  8
0
 62
     7
  0
BLOCK
  8
0
 62
     7
  2
*U28
 70
     1
 10
0.0
 20
0.0
 30
0.0
  3
*U28
  1

  0
TEXT
  5
BCA
  8
SIZE
  6
CONTINUOUS
 62
     0
 10
-559.12019678277625
 20
-50.025133210419938
 30
0.0
 40
64.0
  1
73
 50
90.0
 41
0.9
  0
ENDBLK
  5
BCC
  8
0
 62
     7
  0
ENDSEC
  0
SECTION
  2
ENTITIES
  0
TEXT
  5
34
  8
ETC
  6
CONTINUOUS
 62
    61
 10
82.928668031825509
 20
1064.330105545054
 30
0.0
 40
64.0
  1
PL-RP112_160LA8_3
 41
0.9
  0
LINE
  5
35
  8
DETAIL
  6
CONTINUOUS
 62
     5
 10
-317.0
 20
338.0
 30
0.0
 11
317.0
 21
338.0
 31
0.0
  0
LINE
  5
36
  8
DETAIL
  6
CONTINUOUS
 62
     5
 10
-355.0
 20
0.0
 30
0.0
 11
355.0
 21
0.0
 31
0.0
  0
LINE
  5
37
  8
DETAIL
  6
CONTINUOUS
 62
     5
 10
-317.0
 20
45.0
 30
0.0
 11
317.0
 21
45.0
 31
0.0
  0
LINE
  5
38
  8
DETAIL
  6
CONTINUOUS
 62
     5
 10
-317.0
 20
48.0
 30
0.0
 11
317.0
 21
48.0
 31
0.0
  0
LINE
  5
39
  8
DETAIL
  6
CONTINUOUS
 62
     5
 10
317.0
 20
0.0
 30
0.0
 11
317.0
 21
338.0
 31
0.0
  0
LINE
  5
3C
  8
DETAIL
  6
CONTINUOUS
 62
     5
 10
312.0
 20
108.0
 30
0.0
 11
262.0
 21
108.0
 31
0.0
  0
LINE
  5
3D
  8
DETAIL
  6
CONTINUOUS
 62
     5
 10
312.0
 20
138.0
 30
0.0
 11
262.0
 21
138.0
 31
0.0
  0
LINE
  5
3E
  8
DETAIL
  6
CONTINUOUS
 62
     5
 10
312.0
 20
148.0
 30
0.0
 11
262.0
 21
148.0
 31
0.0
  0
LINE
  5
3F
  8
NOTE
  6
CONTINUOUS
 62
     4
 10
307.0
 20
148.0
 30
0.0
 11
267.0
 21
148.0
 31
0.0
  0
LINE
  5
40
  8
NOTE
  6
CONTINUOUS
 62
     4
 10
287.0
 20
128.0
 30
0.0
 11
287.0
 21
168.0
 31
0.0
  0
POLYLINE
  5
41
  8
NOTE
  6
CONTINUOUS
 62
     4
 66
     1
 10
0.0
 20
0.0
 30
0.0
  0
VERTEX
  5
B7F
  8
NOTE
  6
CONTINUOUS
 62
     4
 10
322.50551507800731
 20
166.42168237288561
 30
0.0
  0
VERTEX
  5
B80
  8
NOTE
  6
CONTINUOUS
 62
     4
 10
287.0
 20
148.0
 30
0.0
  0
VERTEX
  5
B81
  8
NOTE
  6
CONTINUOUS
 62
     4
 10
308.53783664454602
 20
181.7064022419388
 30
0.0
  0
SEQEND
  5
B82
  8
NOTE
  6
CONTINUOUS
 62
     4
  0
LINE
  5
46
  8
NOTE
  6
CONTINUOUS
 62
     4
 10
287.0
 20
148.0
 30
0.0
 11
547.19860756560945
 21
386.57267749777373
 31
0.0
  0
LINE
  5
47
  8
DETAIL
  6
CONTINUOUS
 62
     5
 10
312.0
 20
108.0
 30
0.0
 11
312.0
 21
148.0
 31
0.0
  0
CIRCLE
  5
48
  8
FIX
  6
CONTINUOUS
 62
    11
 10
287.0
 20
148.0
 30
0.0
 40
5.0
  0
LINE
  5
49
  8
NOTE
  6
CONTINUOUS
 62
     4
 10
307.0
 20
148.0
 30
0.0
 11
267.0
 21
148.0
 31
0.0
  0
LINE
  5
4A
  8
DETAIL
  6
CONTINUOUS
 62
     5
 10
262.0
 20
108.0
 30
0.0
 11
262.0
 21
148.0
 31
0.0
  0
CIRCLE
  5
4C
  8
ARRANGE
  6
CONTINUOUS
 62
     1
 10
0.0
 20
0.0
 30
0.0
 40
40.0
  0
LINE
  5
4D
  8
DETAIL
  6
CONTINUOUS
 62
     5
 10
-317.0
 20
0.0
 30
0.0
 11
-317.0
 21
338.0
 31
0.0
  0
LINE
  5
4E
  8
BASIS
  6
DASHDOT
 62
     6
 10
0.0
 20
-65.755581000000006
 30
0.0
 11
0.0
 21
414.21727499999992
 31
0.0
  0
POINT
  5
4F
  8
ARRANGE
  6
CONTINUOUS
 62
     1
 10
0.0
 20
0.0
 30
0.0
  0
LINE
  5
52
  8
NOTE
  6
CONTINUOUS
 62
     4
 10
-267.0
 20
148.0
 30
0.0
 11
-307.0
 21
148.0
 31
0.0
  0
LINE
  5
53
  8
NOTE
  6
CONTINUOUS
 62
     4
 10
-287.0
 20
128.0
 30
0.0
 11
-287.0
 21
168.0
 31
0.0
  0
LINE
  5
5A
  8
DETAIL
  6
CONTINUOUS
 62
     5
 10
-262.0
 20
138.0
 30
0.0
 11
-312.0
 21
138.0
 31
0.0
  0
LINE
  5
5B
  8
DETAIL
  6
CONTINUOUS
 62
     5
 10
-262.0
 20
108.0
 30
0.0
 11
-312.0
 21
108.0
 31
0.0
  0
LINE
  5
5C
  8
DETAIL
  6
CONTINUOUS
 62
     5
 10
-262.0
 20
148.0
 30
0.0
 11
-312.0
 21
148.0
 31
0.0
  0
LINE
  5
5D
  8
DETAIL
  6
CONTINUOUS
 62
     5
 10
-312.0
 20
108.0
 30
0.0
 11
-312.0
 21
148.0
 31
0.0
  0
LINE
  5
5E
  8
DETAIL
  6
CONTINUOUS
 62
     5
 10
-262.0
 20
108.0
 30
0.0
 11
-262.0
 21
148.0
 31
0.0
  0
CIRCLE
  5
5F
  8
FIX
  6
CONTINUOUS
 62
    11
 10
-287.0
 20
148.0
 30
0.0
 40
5.0
  0
LINE
  5
60
  8
NOTE
  6
CONTINUOUS
 62
     4
 10
-267.0
 20
148.0
 30
0.0
 11
-307.0
 21
148.0
 31
0.0
  0
LINE
  5
61
  8
NOTE
  6
CONTINUOUS
 62
     4
 10
-267.0
 20
148.0
 30
0.0
 11
-307.0
 21
148.0
 31
0.0
  0
LINE
  5
62
  8
DETAIL
  6
CONTINUOUS
 62
     5
 10
-287.0
 20
-20.0
 30
0.0
 11
287.0
 21
-20.0
 31
0.0
  0
ARC
  5
63
  8
DETAIL
  6
CONTINUOUS
 62
     5
 10
266.90766200000002
 20
173.91395
 30
0.0
 40
194.952102
 50
275.91557599999999
 51
296.86350499999992
  0
ARC
  5
64
  8
DETAIL
  6
CONTINUOUS
 62
     5
 10
-266.90766200000002
 20
173.91395
 30
0.0
 40
194.952102
 50
243.13649500000011
 51
264.08442400000001
  0
LINE
  5
65
  8
OUTLINE
  6
CONTINUOUS
 62
     3
 10
-317.0
 20
338.0
 30
0.0
 11
317.0
 21
338.0
 31
0.0
  0
LINE
  5
66
  8
OUTLINE
  6
CONTINUOUS
 62
     3
 10
-355.0
 20
0.0
 30
0.0
 11
355.0
 21
0.0
 31
0.0
  0
LINE
  5
67
  8
OUTLINE
  6
CONTINUOUS
 62
     3
 10
317.0
 20
0.0
 30
0.0
 11
317.0
 21
338.0
 31
0.0
  0
LINE
  5
68
  8
OUTLINE
  6
CONTINUOUS
 62
     3
 10
-317.0
 20
0.0
 30
0.0
 11
-317.0
 21
338.0
 31
0.0
  0
LINE
  5
69
  8
OUTLINE
  6
CONTINUOUS
 62
     3
 10
-287.0
 20
-20.0
 30
0.0
 11
287.0
 21
-20.0
 31
0.0
  0
ARC
  5
6A
  8
OUTLINE
  6
CONTINUOUS
 62
     3
 10
266.90766200000002
 20
173.91395
 30
0.0
 40
194.952102
 50
275.91557599999999
 51
296.86350499999992
  0
ARC
  5
6B
  8
OUTLINE
  6
CONTINUOUS
 62
     3
 10
-266.90766200000002
 20
173.91395
 30
0.0
 40
194.952102
 50
243.13649500000011
 51
264.08442400000001
  0
LINE
  5
6D
  8
SIZE
  6
CONTINUOUS
 62
    30
 10
335.0
 20
-10.80913540718848
 30
0.0
 11
335.0
 21
-549.561200565131
 31
0.0
  0
LINE
  5
6E
  8
SIZE
  6
CONTINUOUS
 62
    30
 10
-335.0
 20
-335.49879456513099
 30
0.0
 11
-335.0
 21
-549.561200565131
 31
0.0
  0
LINE
  5
6F
  8
SIZE
  6
CONTINUOUS
 62
    30
 10
325.0
 20
-519.561200565131
 30
0.0
 11
-325.0
 21
-519.561200565131
 31
0.0
  0
CIRCLE
  5
70
  8
SIZE
  6
CONTINUOUS
 62
    30
 10
335.0
 20
-519.561200565131
 30
0.0
 40
5.0
  0
LINE
  5
71
  8
SIZE
  6
CONTINUOUS
 62
    30
 10
330.0
 20
-519.561200565131
 30
0.0
 11
325.0
 21
-519.561200565131
 31
0.0
  0
CIRCLE
  5
72
  8
SIZE
  6
CONTINUOUS
 62
    30
 10
-335.0
 20
-519.561200565131
 30
0.0
 40
5.0
  0
LINE
  5
73
  8
SIZE
  6
CONTINUOUS
 62
    30
 10
-330.0
 20
-519.561200565131
 30
0.0
 11
-325.0
 21
-519.561200565131
 31
0.0
  0
TEXT
  5
74
  8
SIZE
  6
CONTINUOUS
 62
    30
 10
-290.74309671428563
 20
-499.98088201168042
 30
0.0
 40
55.0
  1
670(天井開口寸法)
 41
0.9
 72
     1
 11
-17.078810999999991
 21
-499.98088201168042
 31
0.0
  0
LINE
  5
75
  8
SIZE
  6
CONTINUOUS
 62
    30
 10
287.0
 20
188.0
 30
0.0
 11
287.0
 21
928.81841099999986
 31
0.0
  0
LINE
  5
76
  8
SIZE
  6
CONTINUOUS
 62
    30
 10
-287.0
 20
188.0
 30
0.0
 11
-287.0
 21
928.81841099999986
 31
0.0
  0
LINE
  5
77
  8
SIZE
  6
CONTINUOUS
 62
    30
 10
277.0
 20
898.81841099999986
 30
0.0
 11
-277.0
 21
898.81841099999986
 31
0.0
  0
CIRCLE
  5
78
  8
SIZE
  6
CONTINUOUS
 62
    30
 10
287.0
 20
898.81841099999986
 30
0.0
 40
5.0
  0
LINE
  5
79
  8
SIZE
  6
CONTINUOUS
 62
    30
 10
282.0
 20
898.81841099999986
 30
0.0
 11
277.0
 21
898.81841099999986
 31
0.0
  0
CIRCLE
  5
7A
  8
SIZE
  6
CONTINUOUS
 62
    30
 10
-287.0
 20
898.81841099999986
 30
0.0
 40
5.0
  0
LINE
  5
7B
  8
SIZE
  6
CONTINUOUS
 62
    30
 10
-282.0
 20
898.81841099999986
 30
0.0
 11
-277.0
 21
898.81841099999986
 31
0.0
  0
TEXT
  5
7C
  8
SIZE
  6
CONTINUOUS
 62
    30
 10
-258.8142857142858
 20
933.22317300000009
 30
0.0
 40
55.0
  1
574(吊りﾎﾞﾙﾄﾋﾟｯﾁ)
 41
0.9
 72
     1
 11
0.0
 21
933.22317300000009
 31
0.0
  0
LINE
  5
7D
  8
SIZE
  6
CONTINUOUS
 62
    30
 10
-287.0
 20
188.0
 30
0.0
 11
-287.0
 21
929.07000200000004
 31
0.0
  0
LINE
  5
7E
  8
SIZE
  6
CONTINUOUS
 62
    30
 10
-355.0
 20
8.5264569658938854
 30
0.0
 11
-355.0
 21
929.07000200000004
 31
0.0
  0
LINE
  5
7F
  8
SIZE
  6
CONTINUOUS
 62
    30
 10
-297.0
 20
899.07000200000004
 30
0.0
 11
-345.0
 21
899.07000200000004
 31
0.0
  0
CIRCLE
  5
80
  8
SIZE
  6
CONTINUOUS
 62
    30
 10
-287.0
 20
899.07000200000004
 30
0.0
 40
5.0
  0
LINE
  5
81
  8
SIZE
  6
CONTINUOUS
 62
    30
 10
-292.0
 20
899.07000200000004
 30
0.0
 11
-297.0
 21
899.07000200000004
 31
0.0
  0
CIRCLE
  5
82
  8
SIZE
  6
CONTINUOUS
 62
    30
 10
-355.0
 20
899.07000200000004
 30
0.0
 40
5.0
  0
LINE
  5
83
  8
SIZE
  6
CONTINUOUS
 62
    30
 10
-350.0
 20
899.07000200000004
 30
0.0
 11
-345.0
 21
899.07000200000004
 31
0.0
  0
LINE
  5
85
  8
SIZE
  6
CONTINUOUS
 62
    30
 10
355.0
 20
13.47784459844479
 30
0.0
 11
355.0
 21
927.97224000000006
 31
0.0
  0
LINE
  5
86
  8
SIZE
  6
CONTINUOUS
 62
    30
 10
287.0
 20
188.0
 30
0.0
 11
287.0
 21
927.97224000000006
 31
0.0
  0
LINE
  5
87
  8
SIZE
  6
CONTINUOUS
 62
    30
 10
345.0
 20
897.97223999999983
 30
0.0
 11
297.0
 21
897.97223999999983
 31
0.0
  0
CIRCLE
  5
88
  8
SIZE
  6
CONTINUOUS
 62
    30
 10
355.0
 20
897.97223999999983
 30
0.0
 40
5.0
  0
LINE
  5
89
  8
SIZE
  6
CONTINUOUS
 62
    30
 10
350.0
 20
897.97223999999983
 30
0.0
 11
345.0
 21
897.97223999999983
 31
0.0
  0
CIRCLE
  5
8A
  8
SIZE
  6
CONTINUOUS
 62
    30
 10
287.0
 20
897.97223999999983
 30
0.0
 40
5.0
  0
LINE
  5
8B
  8
SIZE
  6
CONTINUOUS
 62
    30
 10
292.0
 20
897.97223999999983
 30
0.0
 11
297.0
 21
897.97223999999983
 31
0.0
  0
LINE
  5
8D
  8
SIZE
  6
CONTINUOUS
 62
    30
 10
-355.0
 20
-7.0498653954036854
 30
0.0
 11
-355.0
 21
-549.06526856513085
 31
0.0
  0
LINE
  5
8E
  8
SIZE
  6
CONTINUOUS
 62
    30
 10
-335.0
 20
-7.04185005542422
 30
0.0
 11
-335.0
 21
-549.06526856513085
 31
0.0
  0
LINE
  5
8F
  8
SIZE
  6
CONTINUOUS
 62
    30
 10
-325.0
 20
-519.06526856513085
 30
0.0
 11
-315.0
 21
-519.06526856513085
 31
0.0
  0
LINE
  5
90
  8
SIZE
  6
CONTINUOUS
 62
    30
 10
-365.0
 20
-519.06526856513085
 30
0.0
 11
-526.92779299999995
 21
-519.06526856513085
 31
0.0
  0
LINE
  5
91
  8
SIZE
  6
CONTINUOUS
 62
    30
 10
-335.0
 20
-519.06526856513085
 30
0.0
 11
-355.0
 21
-519.06526856513085
 31
0.0
  0
CIRCLE
  5
92
  8
SIZE
  6
CONTINUOUS
 62
    30
 10
-335.0
 20
-519.06526856513085
 30
0.0
 40
5.0
  0
LINE
  5
93
  8
SIZE
  6
CONTINUOUS
 62
    30
 10
-330.0
 20
-519.06526856513085
 30
0.0
 11
-325.0
 21
-519.06526856513085
 31
0.0
  0
CIRCLE
  5
94
  8
SIZE
  6
CONTINUOUS
 62
    30
 10
-355.0
 20
-519.06526856513085
 30
0.0
 40
5.0
  0
LINE
  5
95
  8
SIZE
  6
CONTINUOUS
 62
    30
 10
-360.0
 20
-519.06526856513085
 30
0.0
 11
-365.0
 21
-519.06526856513085
 31
0.0
  0
TEXT
  5
96
  8
SIZE
  6
CONTINUOUS
 62
    30
 10
-500.37064957142849
 20
-499.06526856513102
 30
0.0
 40
55.0
  1
20
 41
0.9
 72
     1
 11
-460.29922099999999
 21
-499.06526856513102
 31
0.0
  0
LINE
  5
97
  8
SIZE
  6
CONTINUOUS
 62
    30
 10
355.0
 20
-10.80913540718848
 30
0.0
 11
355.0
 21
-549.06526856513085
 31
0.0
  0
LINE
  5
98
  8
SIZE
  6
CONTINUOUS
 62
    30
 10
335.0
 20
-10.80913540718848
 30
0.0
 11
335.0
 21
-549.06526856513085
 31
0.0
  0
LINE
  5
99
  8
SIZE
  6
CONTINUOUS
 62
    30
 10
325.0
 20
-519.06526856513085
 30
0.0
 11
315.0
 21
-519.06526856513085
 31
0.0
  0
LINE
  5
9A
  8
SIZE
  6
CONTINUOUS
 62
    30
 10
365.0
 20
-519.06526856513085
 30
0.0
 11
515.11297100000002
 21
-519.06526856513085
 31
0.0
  0
LINE
  5
9B
  8
SIZE
  6
CONTINUOUS
 62
    30
 10
335.0
 20
-519.06526856513085
 30
0.0
 11
355.0
 21
-519.06526856513085
 31
0.0
  0
CIRCLE
  5
9C
  8
SIZE
  6
CONTINUOUS
 62
    30
 10
335.0
 20
-519.06526856513085
 30
0.0
 40
5.0
  0
LINE
  5
9D
  8
SIZE
  6
CONTINUOUS
 62
    30
 10
330.0
 20
-519.06526856513085
 30
0.0
 11
325.0
 21
-519.06526856513085
 31
0.0
  0
CIRCLE
  5
9E
  8
SIZE
  6
CONTINUOUS
 62
    30
 10
355.0
 20
-519.06526856513085
 30
0.0
 40
5.0
  0
LINE
  5
9F
  8
SIZE
  6
CONTINUOUS
 62
    30
 10
360.0
 20
-519.06526856513085
 30
0.0
 11
365.0
 21
-519.06526856513085
 31
0.0
  0
TEXT
  5
A0
  8
SIZE
  6
CONTINUOUS
 62
    30
 10
408.41297142857138
 20
-499.06526856513102
 30
0.0
 40
55.0
  1
20
 41
0.9
 72
     1
 11
448.48439999999988
 21
-499.06526856513102
 31
0.0
  0
LINE
  5
A1
  8
SIZE
  6
CONTINUOUS
 62
    30
 10
337.0
 20
45.0
 30
0.0
 11
585.0898289999999
 21
45.0
 31
0.0
  0
LINE
  5
A2
  8
SIZE
  6
CONTINUOUS
 62
    30
 10
375.0
 20
0.0
 30
0.0
 11
585.0898289999999
 21
0.0
 31
0.0
  0
LINE
  5
A3
  8
SIZE
  6
CONTINUOUS
 62
    30
 10
555.08982900000001
 20
55.0
 30
0.0
 11
555.08982900000001
 21
143.8731056190008
 31
0.0
  0
LINE
  5
A4
  8
SIZE
  6
CONTINUOUS
 62
    30
 10
555.08982900000001
 20
-10.0
 30
0.0
 11
555.08982900000001
 21
-20.0
 31
0.0
  0
LINE
  5
A5
  8
SIZE
  6
CONTINUOUS
 62
    30
 10
555.08982900000001
 20
45.0
 30
0.0
 11
555.08982900000001
 21
0.0
 31
0.0
  0
CIRCLE
  5
A6
  8
SIZE
  6
CONTINUOUS
 62
    30
 10
555.08982900000001
 20
45.0
 30
0.0
 40
5.0
  0
LINE
  5
A7
  8
SIZE
  6
CONTINUOUS
 62
    30
 10
555.08982900000001
 20
50.0
 30
0.0
 11
555.08982900000001
 21
55.0
 31
0.0
  0
CIRCLE
  5
A8
  8
SIZE
  6
CONTINUOUS
 62
    30
 10
555.08982900000001
 20
0.0
 30
0.0
 40
5.0
  0
LINE
  5
A9
  8
SIZE
  6
CONTINUOUS
 62
    30
 10
555.08982900000001
 20
-5.0
 30
0.0
 11
555.08982900000001
 21
-10.0
 31
0.0
  0
TEXT
  5
AA
  8
SIZE
  6
CONTINUOUS
 62
    30
 10
535.0898289999999
 20
59.582434039110801
 30
0.0
 40
55.0
  1
45
 50
90.0
 41
0.9
 72
     1
 11
535.0898289999999
 21
99.653862610539363
 31
0.0
  0
LINE
  5
BD
  8
SIZE
  6
CONTINUOUS
 62
    30
 10
-329.82863886432278
 20
338.0
 30
0.0
 11
-588.89143597499424
 21
338.0
 31
0.0
  0
LINE
  5
C5
  8
SIZE
  6
CONTINUOUS
 62
    30
 10
317.0
 20
358.0
 30
0.0
 11
317.0
 21
811.09944900000005
 31
0.0
  0
LINE
  5
C6
  8
SIZE
  6
CONTINUOUS
 62
    30
 10
-317.0
 20
358.0
 30
0.0
 11
-317.0
 21
811.09944900000005
 31
0.0
  0
LINE
  5
C7
  8
SIZE
  6
CONTINUOUS
 62
    30
 10
307.0
 20
781.09944900000005
 30
0.0
 11
-307.0
 21
781.09944900000005
 31
0.0
  0
CIRCLE
  5
C8
  8
SIZE
  6
CONTINUOUS
 62
    30
 10
317.0
 20
781.09944900000005
 30
0.0
 40
5.0
  0
LINE
  5
C9
  8
SIZE
  6
CONTINUOUS
 62
    30
 10
312.0
 20
781.09944900000005
 30
0.0
 11
307.0
 21
781.09944900000005
 31
0.0
  0
CIRCLE
  5
CA
  8
SIZE
  6
CONTINUOUS
 62
    30
 10
-317.0
 20
781.09944900000005
 30
0.0
 40
5.0
  0
LINE
  5
CB
  8
SIZE
  6
CONTINUOUS
 62
    30
 10
-312.0
 20
781.09944900000005
 30
0.0
 11
-307.0
 21
781.09944900000005
 31
0.0
  0
TEXT
  5
CC
  8
SIZE
  6
CONTINUOUS
 62
    30
 10
-64.821428571428569
 20
801.09944899999982
 30
0.0
 40
55.0
  1
634
 41
0.9
 72
     1
 11
0.0
 21
801.09944899999982
 31
0.0
  0
LINE
  5
212
  8
NOTE
  6
CONTINUOUS
 62
     4
 10
-101.0
 20
216.0
 30
0.0
 11
-440.20691499999992
 21
588.26417900000001
 31
0.0
  0
LINE
  5
213
  8
NOTE
  6
CONTINUOUS
 62
     4
 10
180.0
 20
278.0
 30
0.0
 11
419.51172899999989
 21
541.61084999999991
 31
0.0
  0
TEXT
  5
214
  8
NOTE
  6
CONTINUOUS
 62
     4
 10
-776.0309354285713
 20
607.45526299999995
 30
0.0
 40
55.0
  1
RL φ9.52
 41
0.9
  0
LINE
  5
215
  8
NOTE
  6
CONTINUOUS
 62
     4
 10
200.0
 20
278.0
 30
0.0
 11
160.0
 21
278.0
 31
0.0
  0
LINE
  5
216
  8
NOTE
  6
CONTINUOUS
 62
     4
 10
180.0
 20
258.0
 30
0.0
 11
180.0
 21
298.0
 31
0.0
  0
POLYLINE
  5
217
  8
NOTE
  6
CONTINUOUS
 62
     4
 66
     1
 10
0.0
 20
0.0
 30
0.0
  0
VERTEX
  5
B83
  8
NOTE
  6
CONTINUOUS
 62
     4
 10
213.44429700000001
 20
299.94262900000001
 30
0.0
  0
VERTEX
  5
B84
  8
NOTE
  6
CONTINUOUS
 62
     4
 10
180.0
 20
278.0
 30
0.0
  0
VERTEX
  5
B85
  8
NOTE
  6
CONTINUOUS
 62
     4
 10
197.99229600000001
 20
313.72502300000002
 30
0.0
  0
SEQEND
  5
B86
  8
NOTE
  6
CONTINUOUS
 62
     4
  0
LINE
  5
218
  8
NOTE
  6
CONTINUOUS
 62
     4
 10
-440.20691499999992
 20
480.38403199999988
 30
0.0
 11
-842.23767799999985
 21
480.38403199999988
 31
0.0
  0
LINE
  5
219
  8
NOTE
  6
CONTINUOUS
 62
     4
 10
-171.0
 20
216.0
 30
0.0
 11
-440.20691499999992
 21
480.38403199999988
 31
0.0
  0
LINE
  5
21A
  8
NOTE
  6
CONTINUOUS
 62
     4
 10
-81.0
 20
216.0
 30
0.0
 11
-121.0
 21
216.0
 31
0.0
  0
POLYLINE
  5
21B
  8
NOTE
  6
CONTINUOUS
 62
     4
 66
     1
 10
0.0
 20
0.0
 30
0.0
  0
VERTEX
  5
B87
  8
NOTE
  6
CONTINUOUS
 62
     4
 10
-119.3226549999999
 20
251.55672000000001
 30
0.0
  0
VERTEX
  5
B88
  8
NOTE
  6
CONTINUOUS
 62
     4
 10
-101.0
 20
216.0
 30
0.0
  0
VERTEX
  5
B89
  8
NOTE
  6
CONTINUOUS
 62
     4
 10
-134.646244
 20
237.63169500000001
 30
0.0
  0
SEQEND
  5
B8A
  8
NOTE
  6
CONTINUOUS
 62
     4
  0
LINE
  5
21C
  8
NOTE
  6
CONTINUOUS
 62
     4
 10
-101.0
 20
196.0
 30
0.0
 11
-101.0
 21
236.0
 31
0.0
  0
LINE
  5
21D
  8
NOTE
  6
CONTINUOUS
 62
     4
 10
-151.0
 20
216.0
 30
0.0
 11
-191.0
 21
216.0
 31
0.0
  0
LINE
  5
21E
  8
NOTE
  6
CONTINUOUS
 62
     4
 10
-171.0
 20
196.0
 30
0.0
 11
-171.0
 21
236.0
 31
0.0
  0
POLYLINE
  5
21F
  8
NOTE
  6
CONTINUOUS
 62
     4
 66
     1
 10
0.0
 20
0.0
 30
0.0
  0
VERTEX
  5
B8B
  8
NOTE
  6
CONTINUOUS
 62
     4
 10
-190.57015700000011
 20
250.88565500000001
 30
0.0
  0
VERTEX
  5
B8C
  8
NOTE
  6
CONTINUOUS
 62
     4
 10
-171.0
 20
216.0
 30
0.0
  0
VERTEX
  5
B8D
  8
NOTE
  6
CONTINUOUS
 62
     4
 10
-205.39108100000001
 20
236.426785
 30
0.0
  0
SEQEND
  5
B8E
  8
NOTE
  6
CONTINUOUS
 62
     4
  0
LINE
  5
220
  8
NOTE
  6
CONTINUOUS
 62
     4
 10
-440.20691499999992
 20
588.26417900000001
 30
0.0
 11
-799.28284980758303
 21
588.26417900000001
 31
0.0
  0
TEXT
  5
221
  8
NOTE
  6
CONTINUOUS
 62
     4
 10
-835.69125926311244
 20
498.44178099999999
 30
0.0
 40
55.0
  1
RG φ15.88
 41
0.9
  0
LINE
  5
222
  8
SIZE
  6
CONTINUOUS
 62
    30
 10
180.0
 20
318.0
 30
0.0
 11
180.0
 21
687.099919
 31
0.0
  0
LINE
  5
223
  8
SIZE
  6
CONTINUOUS
 62
    30
 10
170.0
 20
657.099919
 30
0.0
 11
-307.0
 21
657.099919
 31
0.0
  0
CIRCLE
  5
224
  8
SIZE
  6
CONTINUOUS
 62
    30
 10
180.0
 20
657.099919
 30
0.0
 40
5.0
  0
LINE
  5
225
  8
SIZE
  6
CONTINUOUS
 62
    30
 10
175.0
 20
657.099919
 30
0.0
 11
170.0
 21
657.099919
 31
0.0
  0
CIRCLE
  5
226
  8
SIZE
  6
CONTINUOUS
 62
    30
 10
-317.0
 20
657.099919
 30
0.0
 40
5.0
  0
LINE
  5
227
  8
SIZE
  6
CONTINUOUS
 62
    30
 10
-312.0
 20
657.099919
 30
0.0
 11
-307.0
 21
657.099919
 31
0.0
  0
TEXT
  5
228
  8
SIZE
  6
CONTINUOUS
 62
    30
 10
-132.14285714285711
 20
677.099919
 30
0.0
 40
55.0
  1
497
 41
0.9
 72
     1
 11
-68.5
 21
677.099919
 31
0.0
  0
LINE
  5
231
  8
SIZE
  6
CONTINUOUS
 62
    30
 10
-139.33146490137
 20
216.0
 30
0.0
 11
-588.41647837398614
 21
216.0
 31
0.0
  0
LINE
  5
232
  8
SIZE
  6
CONTINUOUS
 62
    30
 10
-558.41647837398614
 20
348.0
 30
0.0
 11
-558.41647837398614
 21
474.4668570671347
 31
0.0
  0
LINE
  5
233
  8
SIZE
  6
CONTINUOUS
 62
    30
 10
-558.41647837398614
 20
206.0
 30
0.0
 11
-558.41647837398614
 21
196.0
 31
0.0
  0
LINE
  5
234
  8
SIZE
  6
CONTINUOUS
 62
    30
 10
-558.41647837398614
 20
338.0
 30
0.0
 11
-558.41647837398614
 21
216.0
 31
0.0
  0
CIRCLE
  5
235
  8
SIZE
  6
CONTINUOUS
 62
    30
 10
-558.41647837398614
 20
338.0
 30
0.0
 40
5.0
  0
LINE
  5
236
  8
SIZE
  6
CONTINUOUS
 62
    30
 10
-558.41647837398614
 20
343.0
 30
0.0
 11
-558.41647837398614
 21
348.0
 31
0.0
  0
CIRCLE
  5
237
  8
SIZE
  6
CONTINUOUS
 62
    30
 10
-558.41647837398614
 20
216.0
 30
0.0
 40
5.0
  0
LINE
  5
238
  8
SIZE
  6
CONTINUOUS
 62
    30
 10
-558.41647837398614
 20
211.0
 30
0.0
 11
-558.41647837398614
 21
206.0
 31
0.0
  0
TEXT
  5
239
  8
SIZE
  6
CONTINUOUS
 62
    30
 10
-574.76285839063132
 20
348.61636971725329
 30
0.0
 40
55.0
  1
122
 50
90.0
 41
0.9
 72
     1
 11
-574.76285839063132
 21
407.54494114582468
 31
0.0
  0
LINE
  5
23A
  8
SIZE
  6
CONTINUOUS
 62
    30
 10
-101.0
 20
256.0
 30
0.0
 11
-101.0
 21
566.59300800000005
 31
0.0
  0
LINE
  5
23B
  8
SIZE
  6
CONTINUOUS
 62
    30
 10
-171.0
 20
256.0
 30
0.0
 11
-171.0
 21
566.59300800000005
 31
0.0
  0
LINE
  5
23C
  8
SIZE
  6
CONTINUOUS
 62
    30
 10
-111.0
 20
536.59300800000005
 30
0.0
 11
-161.0
 21
536.59300800000005
 31
0.0
  0
CIRCLE
  5
23D
  8
SIZE
  6
CONTINUOUS
 62
    30
 10
-101.0
 20
536.59300800000005
 30
0.0
 40
5.0
  0
LINE
  5
23E
  8
SIZE
  6
CONTINUOUS
 62
    30
 10
-106.0
 20
536.59300800000005
 30
0.0
 11
-111.0
 21
536.59300800000005
 31
0.0
  0
CIRCLE
  5
23F
  8
SIZE
  6
CONTINUOUS
 62
    30
 10
-171.0
 20
536.59300800000005
 30
0.0
 40
5.0
  0
LINE
  5
240
  8
SIZE
  6
CONTINUOUS
 62
    30
 10
-166.0
 20
536.59300800000005
 30
0.0
 11
-161.0
 21
536.59300800000005
 31
0.0
  0
TEXT
  5
241
  8
SIZE
  6
CONTINUOUS
 62
    30
 10
-176.0714285714285
 20
556.59300800000005
 30
0.0
 40
55.0
  1
70
 41
0.9
 72
     1
 11
-136.0
 21
556.59300800000005
 31
0.0
  0
LINE
  5
242
  8
SIZE
  6
CONTINUOUS
 62
    30
 10
-171.0
 20
256.0
 30
0.0
 11
-171.0
 21
566.59300800000005
 31
0.0
  0
LINE
  5
243
  8
SIZE
  6
CONTINUOUS
 62
    30
 10
-307.0
 20
536.59300800000005
 30
0.0
 11
-181.0
 21
536.59300800000005
 31
0.0
  0
CIRCLE
  5
244
  8
SIZE
  6
CONTINUOUS
 62
    30
 10
-317.0
 20
536.59300800000005
 30
0.0
 40
5.0
  0
LINE
  5
245
  8
SIZE
  6
CONTINUOUS
 62
    30
 10
-312.0
 20
536.59300800000005
 30
0.0
 11
-307.0
 21
536.59300800000005
 31
0.0
  0
CIRCLE
  5
246
  8
SIZE
  6
CONTINUOUS
 62
    30
 10
-171.0
 20
536.59300800000005
 30
0.0
 40
5.0
  0
LINE
  5
247
  8
SIZE
  6
CONTINUOUS
 62
    30
 10
-176.0
 20
536.59300800000005
 30
0.0
 11
-181.0
 21
536.59300800000005
 31
0.0
  0
TEXT
  5
248
  8
SIZE
  6
CONTINUOUS
 62
    30
 10
-301.75
 20
556.59300800000005
 30
0.0
 40
55.0
  1
146
 41
0.9
 72
     1
 11
-244.0
 21
556.59300800000005
 31
0.0
  0
LINE
  5
249
  8
SIZE
  6
CONTINUOUS
 62
    30
 10
337.0
 20
338.0
 30
0.0
 11
467.9467246906932
 21
338.0
 31
0.0
  0
LINE
  5
24A
  8
SIZE
  6
CONTINUOUS
 62
    30
 10
220.0
 20
278.0
 30
0.0
 11
467.29344022207073
 21
278.0
 31
0.0
  0
LINE
  5
24B
  8
SIZE
  6
CONTINUOUS
 62
    30
 10
441.69492332787678
 20
348.0
 30
0.0
 11
441.69492332787678
 21
442.25086532052927
 31
0.0
  0
LINE
  5
24C
  8
SIZE
  6
CONTINUOUS
 62
    30
 10
441.69492332787678
 20
268.0
 30
0.0
 11
441.69492332787678
 21
258.0
 31
0.0
  0
LINE
  5
24D
  8
SIZE
  6
CONTINUOUS
 62
    30
 10
441.69492332787678
 20
338.0
 30
0.0
 11
441.69492332787678
 21
278.0
 31
0.0
  0
CIRCLE
  5
24E
  8
SIZE
  6
CONTINUOUS
 62
    30
 10
441.69492332787678
 20
338.0
 30
0.0
 40
5.0
  0
LINE
  5
24F
  8
SIZE
  6
CONTINUOUS
 62
    30
 10
441.69492332787678
 20
343.0
 30
0.0
 11
441.69492332787678
 21
348.0
 31
0.0
  0
CIRCLE
  5
250
  8
SIZE
  6
CONTINUOUS
 62
    30
 10
441.69492332787678
 20
278.0
 30
0.0
 40
5.0
  0
LINE
  5
251
  8
SIZE
  6
CONTINUOUS
 62
    30
 10
441.69492332787678
 20
273.0
 30
0.0
 11
441.69492332787678
 21
268.0
 31
0.0
  0
TEXT
  5
252
  8
SIZE
  6
CONTINUOUS
 62
    30
 10
423.05324400000012
 20
360.19878142414598
 30
0.0
 40
55.0
  1
60
 50
90.0
 41
0.9
 72
     1
 11
423.05324400000012
 21
400.27020999557459
 31
0.0
  0
LINE
  5
253
  8
NOTE
  6
CONTINUOUS
 62
     4
 10
547.19860756560945
 20
386.57267749777373
 30
0.0
 11
1155.9868029083441
 21
386.57267749777373
 31
0.0
  0
LINE
  5
254
  8
NOTE
  6
CONTINUOUS
 62
     4
 10
419.51172899999989
 20
541.61084999999991
 30
0.0
 11
808.29138127061015
 21
541.61084999999991
 31
0.0
  0
TEXT
  5
255
  8
NOTE
  6
CONTINUOUS
 62
     4
 10
552.61706489920175
 20
401.18044803980092
 30
0.0
 40
55.0
  1
AH 4-14×30長穴
 41
0.9
  0
TEXT
  5
256
  8
NOTE
  6
CONTINUOUS
 62
     4
 10
445.61004116275558
 20
573.03220145577654
 30
0.0
 40
55.0
  1
D1 VP-25
 41
0.9
  0
LINE
  5
273
  8
SIZE
  6
CONTINUOUS
 62
    30
 10
365.0
 20
897.97223999999983
 30
0.0
 11
462.57217991587822
 21
897.97223999999983
 31
0.0
  0
LINE
  5
274
  8
SIZE
  6
CONTINUOUS
 62
    30
 10
360.0
 20
897.97223999999983
 30
0.0
 11
365.0
 21
897.97223999999983
 31
0.0
  0
TEXT
  5
275
  8
SIZE
  6
CONTINUOUS
 62
    30
 10
370.71302363490292
 20
917.97224000000006
 30
0.0
 40
55.0
  1
68
 41
0.9
 72
     1
 11
410.78445220633142
 21
917.97224000000006
 31
0.0
  0
LINE
  5
276
  8
SIZE
  6
CONTINUOUS
 62
    30
 10
-365.0
 20
899.07000200000004
 30
0.0
 11
-463.3924199757821
 21
899.07000200000004
 31
0.0
  0
LINE
  5
277
  8
SIZE
  6
CONTINUOUS
 62
    30
 10
-360.0
 20
899.07000200000004
 30
0.0
 11
-365.0
 21
899.07000200000004
 31
0.0
  0
TEXT
  5
278
  8
SIZE
  6
CONTINUOUS
 62
    30
 10
-455.1063819619813
 20
919.07000200000004
 30
0.0
 40
55.0
  1
68
 41
0.9
 72
     1
 11
-415.0349533905528
 21
919.07000200000004
 31
0.0
  0
LINE
  5
82A
  8
NOTE
  6
CONTINUOUS
 62
     4
 10
-1000.544079492038
 20
-275.2634090374595
 30
0.0
 11
-532.01530277870188
 21
-275.2634090374595
 31
0.0
  0
LINE
  5
82B
  8
DETAIL
  6
CONTINUOUS
 62
     5
 10
-120.0
 20
122.0
 30
0.0
 11
120.0
 21
122.0
 31
0.0
  0
LINE
  5
82C
  8
DETAIL
  6
CONTINUOUS
 62
     5
 10
-120.0
 20
77.0
 30
0.0
 11
120.0
 21
77.0
 31
0.0
  0
TEXT
  5
82D
  8
NOTE
  6
CONTINUOUS
 62
     4
 10
-805.16075207714073
 20
-153.43853402383499
 30
0.0
 40
55.0
  1
外気取入口
 41
0.9
  0
LINE
  5
82E
  8
NOTE
  6
CONTINUOUS
 62
     4
 10
-834.0501710771407
 20
-163.06151202383509
 30
0.0
 11
-454.87534499366308
 21
-163.06151202383509
 31
0.0
  0
LINE
  5
82F
  8
NOTE
  6
CONTINUOUS
 62
     4
 10
-454.87534499366308
 20
-163.06151202383509
 30
0.0
 11
-102.6923239969024
 21
90.998556438001401
 31
0.0
  0
TEXT
  5
830
  8
NOTE
  6
CONTINUOUS
 62
     4
 10
-980.90515289101143
 20
-253.7681900374595
 30
0.0
 40
55.0
  1
4-%%C2.9取付穴
 41
0.9
  0
LINE
  5
831
  8
NOTE
  6
CONTINUOUS
 62
     4
 10
-95.0
 20
63.0
 30
0.0
 11
-532.01530277870188
 21
-275.2634090374595
 31
0.0
  0
LINE
  5
832
  8
DETAIL
  6
CONTINUOUS
 62
     5
 10
120.0
 20
122.0
 30
0.0
 11
120.0
 21
77.0
 31
0.0
  0
POLYLINE
  5
833
  8
NOTE
  6
CONTINUOUS
 62
     4
 66
     1
 10
0.0
 20
0.0
 30
0.0
  0
VERTEX
  5
B9E
  8
NOTE
  6
CONTINUOUS
 62
     4
 10
-119.0553891864417
 20
31.041616821502728
 30
0.0
  0
VERTEX
  5
B9F
  8
NOTE
  6
CONTINUOUS
 62
     4
 10
-95.0
 20
63.0
 30
0.0
  0
VERTEX
  5
BA0
  8
NOTE
  6
CONTINUOUS
 62
     4
 10
-131.8117698395771
 20
47.350922677569002
 30
0.0
  0
SEQEND
  5
BA1
  8
NOTE
  6
CONTINUOUS
 62
     4
  0
CIRCLE
  5
834
  8
NOTE
  6
CONTINUOUS
 62
     4
 10
-102.6923239969024
 20
90.998556438001401
 30
0.0
 40
5.0
  0
LINE
  5
835
  8
NOTE
  6
CONTINUOUS
 62
     4
 10
-105.5292369969024
 20
86.881284438001444
 30
0.0
 11
-106.8095959969024
 21
88.161644438001417
 31
0.0
  0
LINE
  5
836
  8
NOTE
  6
CONTINUOUS
 62
     4
 10
-105.07271999690241
 20
86.601544438001383
 30
0.0
 11
-107.0893369969024
 21
88.618161438001394
 31
0.0
  0
LINE
  5
837
  8
NOTE
  6
CONTINUOUS
 62
     4
 10
-104.72460299690241
 20
86.430204438001397
 30
0.0
 11
-107.2606769969024
 21
88.966278438001368
 31
0.0
  0
LINE
  5
838
  8
NOTE
  6
CONTINUOUS
 62
     4
 10
-104.4265759969024
 20
86.308954438001365
 30
0.0
 11
-107.38192699690239
 21
89.264304438001432
 31
0.0
  0
LINE
  5
839
  8
NOTE
  6
CONTINUOUS
 62
     4
 10
-104.1595099969024
 20
86.218664438001383
 30
0.0
 11
-107.47221599690241
 21
89.531371438001429
 31
0.0
  0
LINE
  5
83A
  8
NOTE
  6
CONTINUOUS
 62
     4
 10
-103.91422899690239
 20
86.150160438001421
 30
0.0
 11
-107.54072099690239
 21
89.776652438001406
 31
0.0
  0
LINE
  5
83B
  8
NOTE
  6
CONTINUOUS
 62
     4
 10
-103.6854759969024
 20
86.098184438001454
 30
0.0
 11
-107.5926969969024
 21
90.005404438001378
 31
0.0
  0
LINE
  5
83C
  8
NOTE
  6
CONTINUOUS
 62
     4
 10
-103.4699049969024
 20
86.059390438001387
 30
0.0
 11
-107.6314909969024
 21
90.220976438001344
 31
0.0
  0
LINE
  5
83D
  8
NOTE
  6
CONTINUOUS
 62
     4
 10
-103.2652249969024
 20
86.031486438001366
 30
0.0
 11
-107.65939399690239
 21
90.425656438001397
 31
0.0
  0
LINE
  5
83E
  8
NOTE
  6
CONTINUOUS
 62
     4
 10
-103.06978699690239
 20
86.012824438001417
 30
0.0
 11
-107.6780559969024
 21
90.621094438001364
 31
0.0
  0
LINE
  5
83F
  8
NOTE
  6
CONTINUOUS
 62
     4
 10
-102.8823539969024
 20
86.002169438001374
 30
0.0
 11
-107.6887119969024
 21
90.808526438001422
 31
0.0
  0
LINE
  5
840
  8
NOTE
  6
CONTINUOUS
 62
     4
 10
-102.7019739969024
 20
85.998566438001376
 30
0.0
 11
-107.6923149969024
 21
90.988906438001436
 31
0.0
  0
LINE
  5
841
  8
NOTE
  6
CONTINUOUS
 62
     4
 10
-102.52789299690239
 20
86.001261438001393
 30
0.0
 11
-107.68961999690239
 21
91.162988438001435
 31
0.0
  0
LINE
  5
842
  8
NOTE
  6
CONTINUOUS
 62
     4
 10
-102.3595009969024
 20
86.009646438001369
 30
0.0
 11
-107.6812349969024
 21
91.331380438001347
 31
0.0
  0
LINE
  5
843
  8
NOTE
  6
CONTINUOUS
 62
     4
 10
-102.1962999969024
 20
86.023221438001414
 30
0.0
 11
-107.6676599969024
 21
91.494581438001447
 31
0.0
  0
LINE
  5
844
  8
NOTE
  6
CONTINUOUS
 62
     4
 10
-102.03787399690241
 20
86.041572438001353
 30
0.0
 11
-107.64930899690241
 21
91.653007438001396
 31
0.0
  0
LINE
  5
845
  8
NOTE
  6
CONTINUOUS
 62
     4
 10
-101.88387399690239
 20
86.064348438001389
 30
0.0
 11
-107.6265319969024
 21
91.807007438001392
 31
0.0
  0
LINE
  5
846
  8
NOTE
  6
CONTINUOUS
 62
     4
 10
-101.73400199690241
 20
86.091254438001428
 30
0.0
 11
-107.5996269969024
 21
91.956878438001468
 31
0.0
  0
LINE
  5
847
  8
NOTE
  6
CONTINUOUS
 62
     4
 10
-101.5880049969024
 20
86.122033438001367
 30
0.0
 11
-107.56884799690241
 21
92.102876438001431
 31
0.0
  0
LINE
  5
848
  8
NOTE
  6
CONTINUOUS
 62
     4
 10
-101.4456619969024
 20
86.156467438001414
 30
0.0
 11
-107.5344139969024
 21
92.245219438001413
 31
0.0
  0
LINE
  5
849
  8
NOTE
  6
CONTINUOUS
 62
     4
 10
-101.3067819969024
 20
86.194363438001346
 30
0.0
 11
-107.4965179969024
 21
92.384099438001385
 31
0.0
  0
LINE
  5
84A
  8
NOTE
  6
CONTINUOUS
 62
     4
 10
-101.17119799690239
 20
86.235556438001353
 30
0.0
 11
-107.45532499690241
 21
92.51968343800138
 31
0.0
  0
LINE
  5
84B
  8
NOTE
  6
CONTINUOUS
 62
     4
 10
-101.03876299690241
 20
86.279898438001396
 30
0.0
 11
-107.4109829969024
 21
92.652117438001355
 31
0.0
  0
LINE
  5
84C
  8
NOTE
  6
CONTINUOUS
 62
     4
 10
-100.90934899690239
 20
86.327261438001415
 30
0.0
 11
-107.3636199969024
 21
92.781531438001366
 31
0.0
  0
LINE
  5
84D
  8
NOTE
  6
CONTINUOUS
 62
     4
 10
-100.78284199690241
 20
86.377531438001384
 30
0.0
 11
-107.3133499969024
 21
92.908038438001427
 31
0.0
  0
LINE
  5
84E
  8
NOTE
  6
CONTINUOUS
 62
     4
 10
-100.65914099690239
 20
86.430606438001405
 30
0.0
 11
-107.2602739969024
 21
93.031739438001409
 31
0.0
  0
LINE
  5
84F
  8
NOTE
  6
CONTINUOUS
 62
     4
 10
-100.5381569969024
 20
86.486399438001385
 30
0.0
 11
-107.2044819969024
 21
93.152723438001445
 31
0.0
  0
LINE
  5
850
  8
NOTE
  6
CONTINUOUS
 62
     4
 10
-100.4198109969024
 20
86.544829438001443
 30
0.0
 11
-107.1460509969024
 21
93.271070438001402
 31
0.0
  0
LINE
  5
851
  8
NOTE
  6
CONTINUOUS
 62
     4
 10
-100.30403299690239
 20
86.605828438001367
 30
0.0
 11
-107.08505299690241
 21
93.386848438001365
 31
0.0
  0
LINE
  5
852
  8
NOTE
  6
CONTINUOUS
 62
     4
 10
-100.1907609969024
 20
86.669332438001433
 30
0.0
 11
-107.0215479969024
 21
93.500120438001431
 31
0.0
  0
LINE
  5
853
  8
NOTE
  6
CONTINUOUS
 62
     4
 10
-100.0799399969024
 20
86.735289438001345
 30
0.0
 11
-106.9555919969024
 21
93.610940438001407
 31
0.0
  0
LINE
  5
854
  8
NOTE
  6
CONTINUOUS
 62
     4
 10
-99.971523996902434
 20
86.803649438001457
 30
0.0
 11
-106.8872319969024
 21
93.719357438001452
 31
0.0
  0
LINE
  5
855
  8
NOTE
  6
CONTINUOUS
 62
     4
 10
-99.865469996902448
 20
86.874372438001274
 30
0.0
 11
-106.8165089969024
 21
93.825410438001427
 31
0.0
  0
LINE
  5
856
  8
NOTE
  6
CONTINUOUS
 62
     4
 10
-99.761742996902456
 20
86.947422438001468
 30
0.0
 11
-106.7434589969024
 21
93.929138438001473
 31
0.0
  0
LINE
  5
857
  8
NOTE
  6
CONTINUOUS
 62
     4
 10
-99.660311996902465
 20
87.022767438001438
 30
0.0
 11
-106.66811399690241
 21
94.030569438001407
 31
0.0
  0
LINE
  5
858
  8
NOTE
  6
CONTINUOUS
 62
     4
 10
-99.561150996902441
 20
87.100383438001487
 30
0.0
 11
-106.5904979969024
 21
94.129729438001405
 31
0.0
  0
LINE
  5
859
  8
NOTE
  6
CONTINUOUS
 62
     4
 10
-99.464239996902464
 20
87.180249438001397
 30
0.0
 11
-106.5106319969024
 21
94.226640438001368
 31
0.0
  0
LINE
  5
85A
  8
NOTE
  6
CONTINUOUS
 62
     4
 10
-99.369562996902459
 20
87.262348438001368
 30
0.0
 11
-106.4285329969024
 21
94.321318438001398
 31
0.0
  0
LINE
  5
85B
  8
NOTE
  6
CONTINUOUS
 62
     4
 10
-99.277105996902435
 20
87.346668438001416
 30
0.0
 11
-106.3442119969024
 21
94.413774438001383
 31
0.0
  0
LINE
  5
85C
  8
NOTE
  6
CONTINUOUS
 62
     4
 10
-99.186863996902446
 20
87.433203438001442
 30
0.0
 11
-106.2576779969024
 21
94.50401743800137
 31
0.0
  0
LINE
  5
85D
  8
NOTE
  6
CONTINUOUS
 62
     4
 10
-99.098831996902447
 20
87.521947438001462
 30
0.0
 11
-106.1689339969024
 21
94.592049438001354
 31
0.0
  0
LINE
  5
85E
  8
NOTE
  6
CONTINUOUS
 62
     4
 10
-99.013010996902423
 20
87.612903438001453
 30
0.0
 11
-106.0779779969024
 21
94.677870438001378
 31
0.0
  0
LINE
  5
85F
  8
NOTE
  6
CONTINUOUS
 62
     4
 10
-98.929404996902477
 20
87.706074438001451
 30
0.0
 11
-105.98480699690241
 21
94.761475438001412
 31
0.0
  0
LINE
  5
860
  8
NOTE
  6
CONTINUOUS
 62
     4
 10
-98.848024996902453
 20
87.801470438001388
 30
0.0
 11
-105.8894109969024
 21
94.842856438001377
 31
0.0
  0
LINE
  5
861
  8
NOTE
  6
CONTINUOUS
 62
     4
 10
-98.768881996902451
 20
87.899104438001359
 30
0.0
 11
-105.7917759969024
 21
94.921998438001424
 31
0.0
  0
LINE
  5
862
  8
NOTE
  6
CONTINUOUS
 62
     4
 10
-98.691995996902449
 20
87.998995438001415
 30
0.0
 11
-105.6918859969024
 21
94.998885438001366
 31
0.0
  0
LINE
  5
863
  8
NOTE
  6
CONTINUOUS
 62
     4
 10
-98.617386996902439
 20
88.101163438001322
 30
0.0
 11
-105.58971799690239
 21
95.073493438001378
 31
0.0
  0
LINE
  5
864
  8
NOTE
  6
CONTINUOUS
 62
     4
 10
-98.545083996902463
 20
88.205637438001403
 30
0.0
 11
-105.4852439969024
 21
95.145796438001412
 31
0.0
  0
LINE
  5
865
  8
NOTE
  6
CONTINUOUS
 62
     4
 10
-98.475118996902438
 20
88.312448438001397
 30
0.0
 11
-105.3784329969024
 21
95.215762438001434
 31
0.0
  0
LINE
  5
866
  8
NOTE
  6
CONTINUOUS
 62
     4
 10
-98.407528996902442
 20
88.421634438001433
 30
0.0
 11
-105.2692459969024
 21
95.283352438001415
 31
0.0
  0
LINE
  5
867
  8
NOTE
  6
CONTINUOUS
 62
     4
 10
-98.342356996902424
 20
88.533240438001371
 30
0.0
 11
-105.1576409969024
 21
95.348523438001394
 31
0.0
  0
LINE
  5
868
  8
NOTE
  6
CONTINUOUS
 62
     4
 10
-98.279653996902425
 20
88.647313438001433
 30
0.0
 11
-105.0435669969024
 21
95.411226438001449
 31
0.0
  0
LINE
  5
869
  8
NOTE
  6
CONTINUOUS
 62
     4
 10
-98.219476996902415
 20
88.763912438001398
 30
0.0
 11
-104.92696799690241
 21
95.4714044380014
 31
0.0
  0
LINE
  5
86A
  8
NOTE
  6
CONTINUOUS
 62
     4
 10
-98.161888996902462
 20
88.883101438001404
 30
0.0
 11
-104.8077799969024
 21
95.528992438001396
 31
0.0
  0
LINE
  5
86B
  8
NOTE
  6
CONTINUOUS
 62
     4
 10
-98.106962996902439
 20
89.004952438001396
 30
0.0
 11
-104.6859289969024
 21
95.583918438001419
 31
0.0
  0
LINE
  5
86C
  8
NOTE
  6
CONTINUOUS
 62
     4
 10
-98.054780996902423
 20
89.129547438001396
 30
0.0
 11
-104.56133399690241
 21
95.636099438001338
 31
0.0
  0
LINE
  5
86D
  8
NOTE
  6
CONTINUOUS
 62
     4
 10
-98.005436996902461
 20
89.256980438001392
 30
0.0
 11
-104.43390099690239
 21
95.685443438001357
 31
0.0
  0
LINE
  5
86E
  8
NOTE
  6
CONTINUOUS
 62
     4
 10
-97.959034996902474
 20
89.387354438001466
 30
0.0
 11
-104.30352699690241
 21
95.731846438001412
 31
0.0
  0
LINE
  5
86F
  8
NOTE
  6
CONTINUOUS
 62
     4
 10
-97.915692996902465
 20
89.520789438001444
 30
0.0
 11
-104.1700919969024
 21
95.775187438001467
 31
0.0
  0
LINE
  5
870
  8
NOTE
  6
CONTINUOUS
 62
     4
 10
-97.875545996902417
 20
89.657419438001384
 30
0.0
 11
-104.0334619969024
 21
95.8153344380014
 31
0.0
  0
LINE
  5
871
  8
NOTE
  6
CONTINUOUS
 62
     4
 10
-97.838746996902444
 20
89.797396438001442
 30
0.0
 11
-103.8934849969024
 21
95.852134438001372
 31
0.0
  0
LINE
  5
872
  8
NOTE
  6
CONTINUOUS
 62
     4
 10
-97.805468996902448
 20
89.940895438001462
 30
0.0
 11
-103.7499859969024
 21
95.88541143800137
 31
0.0
  0
LINE
  5
873
  8
NOTE
  6
CONTINUOUS
 62
     4
 10
-97.775912996902434
 20
90.088116438001407
 30
0.0
 11
-103.60276499690239
 21
95.91496743800144
 31
0.0
  0
LINE
  5
874
  8
NOTE
  6
CONTINUOUS
 62
     4
 10
-97.750308996902447
 20
90.239289438001379
 30
0.0
 11
-103.45159199690239
 21
95.940571438001371
 31
0.0
  0
LINE
  5
875
  8
NOTE
  6
CONTINUOUS
 62
     4
 10
-97.728924996902435
 20
90.394681438001385
 30
0.0
 11
-103.2961999969024
 21
95.96195643800138
 31
0.0
  0
LINE
  5
876
  8
NOTE
  6
CONTINUOUS
 62
     4
 10
-97.712072996902464
 20
90.554605438001417
 30
0.0
 11
-103.1362749969024
 21
95.978808438001352
 31
0.0
  0
LINE
  5
877
  8
NOTE
  6
CONTINUOUS
 62
     4
 10
-97.700121996902453
 20
90.719431438001379
 30
0.0
 11
-102.97144999690239
 21
95.990759438001419
 31
0.0
  0
LINE
  5
878
  8
NOTE
  6
CONTINUOUS
 62
     4
 10
-97.69351199690243
 20
90.889598438001386
 30
0.0
 11
-102.8012829969024
 21
95.997369438001428
 31
0.0
  0
LINE
  5
879
  8
NOTE
  6
CONTINUOUS
 62
     4
 10
-97.692773996902417
 20
91.065637438001417
 30
0.0
 11
-102.6252439969024
 21
95.9981064380014
 31
0.0
  0
LINE
  5
87A
  8
NOTE
  6
CONTINUOUS
 62
     4
 10
-97.698560996902415
 20
91.248200438001405
 30
0.0
 11
-102.4426809969024
 21
95.992320438001329
 31
0.0
  0
LINE
  5
87B
  8
NOTE
  6
CONTINUOUS
 62
     4
 10
-97.711681996902442
 20
91.438098438001362
 30
0.0
 11
-102.2527829969024
 21
95.979199438001388
 31
0.0
  0
LINE
  5
87C
  8
NOTE
  6
CONTINUOUS
 62
     4
 10
-97.733170996902444
 20
91.636364438001465
 30
0.0
 11
-102.05451699690239
 21
95.957710438001413
 31
0.0
  0
LINE
  5
87D
  8
NOTE
  6
CONTINUOUS
 62
     4
 10
-97.764379996902434
 20
91.844350438001356
 30
0.0
 11
-101.8465309969024
 21
95.926500438001426
 31
0.0
  0
LINE
  5
87E
  8
NOTE
  6
CONTINUOUS
 62
     4
 10
-97.807133996902451
 20
92.063880438001434
 30
0.0
 11
-101.6269999969024
 21
95.883747438001365
 31
0.0
  0
LINE
  5
87F
  8
NOTE
  6
CONTINUOUS
 62
     4
 10
-97.864003996902454
 20
92.297527438001467
 30
0.0
 11
-101.39335299690239
 21
95.826876438001364
 31
0.0
  0
LINE
  5
880
  8
NOTE
  6
CONTINUOUS
 62
     4
 10
-97.938827996902447
 20
92.549128438001404
 30
0.0
 11
-101.1417529969024
 21
95.75205343800144
 31
0.0
  0
LINE
  5
881
  8
NOTE
  6
CONTINUOUS
 62
     4
 10
-98.037807996902416
 20
92.824884438001376
 30
0.0
 11
-100.8659969969024
 21
95.653073438001456
 31
0.0
  0
LINE
  5
882
  8
NOTE
  6
CONTINUOUS
 62
     4
 10
-98.172287996902483
 20
93.136141438001459
 30
0.0
 11
-100.5547399969024
 21
95.518593438001403
 31
0.0
  0
LINE
  5
883
  8
NOTE
  6
CONTINUOUS
 62
     4
 10
-98.368068996902423
 20
93.508699438001372
 30
0.0
 11
-100.1821819969024
 21
95.322812438001407
 31
0.0
  0
LINE
  5
884
  8
NOTE
  6
CONTINUOUS
 62
     4
 10
-98.727544996902452
 20
94.044951438001362
 30
0.0
 11
-99.645929996902467
 21
94.963336438001406
 31
0.0
  0
LINE
  5
88C
  8
NOTE
  6
CONTINUOUS
 62
     4
 10
-80.0
 20
136.0
 30
0.0
 11
-110.0
 21
136.0
 31
0.0
  0
CIRCLE
  5
88D
  8
DETAIL
  6
CONTINUOUS
 62
     5
 10
-95.0
 20
136.0
 30
0.0
 40
1.45
  0
LINE
  5
891
  8
NOTE
  6
CONTINUOUS
 62
     4
 10
-95.0
 20
121.0
 30
0.0
 11
-95.0
 21
151.0
 31
0.0
  0
CIRCLE
  5
892
  8
DETAIL
  6
CONTINUOUS
 62
     5
 10
95.0
 20
136.0
 30
0.0
 40
1.45
  0
LINE
  5
893
  8
NOTE
  6
CONTINUOUS
 62
     4
 10
110.0
 20
136.0
 30
0.0
 11
80.0
 21
136.0
 31
0.0
  0
LINE
  5
894
  8
NOTE
  6
CONTINUOUS
 62
     4
 10
95.0
 20
121.0
 30
0.0
 11
95.0
 21
151.0
 31
0.0
  0
LINE
  5
89B
  8
NOTE
  6
CONTINUOUS
 62
     4
 10
-80.0
 20
63.0
 30
0.0
 11
-110.0
 21
63.0
 31
0.0
  0
CIRCLE
  5
89C
  8
DETAIL
  6
CONTINUOUS
 62
     5
 10
-95.0
 20
63.0
 30
0.0
 40
1.45
  0
LINE
  5
8A0
  8
NOTE
  6
CONTINUOUS
 62
     4
 10
-95.0
 20
48.0
 30
0.0
 11
-95.0
 21
78.0
 31
0.0
  0
CIRCLE
  5
8A1
  8
DETAIL
  6
CONTINUOUS
 62
     5
 10
95.0
 20
63.0
 30
0.0
 40
1.45
  0
LINE
  5
8A2
  8
NOTE
  6
CONTINUOUS
 62
     4
 10
95.0
 20
48.0
 30
0.0
 11
95.0
 21
78.0
 31
0.0
  0
LINE
  5
8A3
  8
NOTE
  6
CONTINUOUS
 62
     4
 10
110.0
 20
63.0
 30
0.0
 11
80.0
 21
63.0
 31
0.0
  0
LINE
  5
8C7
  8
DETAIL
  6
CONTINUOUS
 62
     5
 10
-120.0000155656671
 20
121.9999939303234
 30
0.0
 11
-120.0000155656671
 21
76.999993930323399
 31
0.0
  0
LINE
  5
A15
  8
NOTE
  6
CONTINUOUS
 62
     4
 10
-335.0
 20
1.0
 30
0.0
 11
-436.30744900000008
 21
1.0
 31
0.0
  0
LINE
  5
A16
  8
NOTE
  6
CONTINUOUS
 62
     4
 10
-335.0
 20
21.0
 30
0.0
 11
-436.30744900000008
 21
21.0
 31
0.0
  0
LINE
  5
A17
  8
NOTE
  6
CONTINUOUS
 62
     4
 10
-425.2650079999998
 20
1.0
 30
0.0
 11
-405.2650079999998
 21
21.0
 31
0.0
  0
LINE
  5
A18
  8
NOTE
  6
CONTINUOUS
 62
     4
 10
-420.2650079999998
 20
1.0
 30
0.0
 11
-400.2650079999998
 21
21.0
 31
0.0
  0
LINE
  5
A19
  8
NOTE
  6
CONTINUOUS
 62
     4
 10
-415.26500799999991
 20
1.0
 30
0.0
 11
-395.2650079999998
 21
21.0
 31
0.0
  0
LINE
  5
A1A
  8
NOTE
  6
CONTINUOUS
 62
     4
 10
-385.26500799999991
 20
1.0
 30
0.0
 11
-365.26500799999991
 21
21.0
 31
0.0
  0
LINE
  5
A1B
  8
NOTE
  6
CONTINUOUS
 62
     4
 10
-380.26500799999991
 20
1.0
 30
0.0
 11
-360.26500799999991
 21
21.0
 31
0.0
  0
LINE
  5
A1C
  8
NOTE
  6
CONTINUOUS
 62
     4
 10
-375.26500799999991
 20
1.0
 30
0.0
 11
-355.2650079999998
 21
21.0
 31
0.0
  0
POINT
  5
A1D
  8
DEFPOINTS
  6
CONTINUOUS
 62
     7
 10
-335.0
 20
1.0
 30
0.0
  0
POINT
  5
A1E
  8
DEFPOINTS
  6
CONTINUOUS
 62
     7
 10
-335.0
 20
1.0
 30
0.0
  0
POINT
  5
A1F
  8
DEFPOINTS
  6
CONTINUOUS
 62
     7
 10
-335.0
 20
1.0
 30
0.0
  0
LINE
  5
A20
  8
NOTE
  6
CONTINUOUS
 62
     4
 10
-335.0
 20
1.0
 30
0.0
 11
-335.0
 21
21.0
 31
0.0
  0
LINE
  5
A21
  8
NOTE
  6
CONTINUOUS
 62
     4
 10
335.000001610006
 20
1.0000006564991959
 30
0.0
 11
436.30745061000601
 21
1.0000006564991959
 31
0.0
  0
LINE
  5
A22
  8
NOTE
  6
CONTINUOUS
 62
     4
 10
335.000001610006
 20
21.0000006564992
 30
0.0
 11
436.30745061000601
 21
21.0000006564992
 31
0.0
  0
POINT
  5
A23
  8
DEFPOINTS
  6
CONTINUOUS
 62
     7
 10
335.000001610006
 20
1.0000006564991959
 30
0.0
  0
POINT
  5
A24
  8
DEFPOINTS
  6
CONTINUOUS
 62
     7
 10
335.000001610006
 20
1.0000006564991959
 30
0.0
  0
POINT
  5
A25
  8
DEFPOINTS
  6
CONTINUOUS
 62
     7
 10
335.000001610006
 20
1.0000006564991959
 30
0.0
  0
LINE
  5
A26
  8
NOTE
  6
CONTINUOUS
 62
     4
 10
335.000001610006
 20
1.0000006564991959
 30
0.0
 11
335.000001610006
 21
21.0000006564992
 31
0.0
  0
LINE
  5
A27
  8
NOTE
  6
CONTINUOUS
 62
     4
 10
375.26500961000579
 20
1.0000006564991959
 30
0.0
 11
355.26500961000579
 21
21.0000006564992
 31
0.0
  0
LINE
  5
A28
  8
NOTE
  6
CONTINUOUS
 62
     4
 10
380.26500961000579
 20
1.0000006564991959
 30
0.0
 11
360.26500961000579
 21
21.0000006564992
 31
0.0
  0
LINE
  5
A29
  8
NOTE
  6
CONTINUOUS
 62
     4
 10
385.26500961000579
 20
1.0000006564991959
 30
0.0
 11
365.26500961000579
 21
21.0000006564992
 31
0.0
  0
LINE
  5
A2A
  8
NOTE
  6
CONTINUOUS
 62
     4
 10
415.26500961000579
 20
1.0000006564991959
 30
0.0
 11
395.26500961000579
 21
21.0000006564992
 31
0.0
  0
LINE
  5
A2B
  8
NOTE
  6
CONTINUOUS
 62
     4
 10
420.26500961000568
 20
1.0000006564991959
 30
0.0
 11
400.26500961000568
 21
21.0000006564992
 31
0.0
  0
LINE
  5
A2C
  8
NOTE
  6
CONTINUOUS
 62
     4
 10
425.26500961000568
 20
1.0000006564991959
 30
0.0
 11
405.26500961000568
 21
21.0000006564992
 31
0.0
  0
LINE
  5
AE4
  8
SIZE
  6
CONTINUOUS
 62
    30
 10
337.0
 20
338.0
 30
0.0
 11
870.28257645922349
 21
337.99999999999989
 31
0.0
  0
LINE
  5
AE5
  8
SIZE
  6
CONTINUOUS
 62
    30
 10
337.0
 20
47.999999999999993
 30
0.0
 11
870.28257645922349
 21
47.999999999999837
 31
0.0
  0
LINE
  5
AE6
  8
SIZE
  6
CONTINUOUS
 62
    30
 10
840.28257645922361
 20
327.99999999999977
 30
0.0
 11
840.28257645922338
 21
57.999999999999851
 31
0.0
  0
LINE
  5
AEC
  8
SIZE
  6
CONTINUOUS
 62
    30
 10
337.0
 20
338.0
 30
0.0
 11
750.2595767626882
 21
337.99999999999989
 31
0.0
  0
LINE
  5
AED
  8
SIZE
  6
CONTINUOUS
 62
    30
 10
332.0
 20
147.99999999999989
 30
0.0
 11
750.25957676268797
 21
147.9999999999998
 31
0.0
  0
LINE
  5
AEE
  8
SIZE
  6
CONTINUOUS
 62
    30
 10
720.25957676268808
 20
327.99999999999989
 30
0.0
 11
720.25957676268797
 21
157.9999999999998
 31
0.0
  0
LINE
  5
AF2
  8
SIZE
  6
CONTINUOUS
 62
    30
 10
375.00000161000588
 20
0.000000656499077
 30
0.0
 11
585.0898289999999
 21
0.0000006564990175
 31
0.0
  0
LINE
  5
AF3
  8
SIZE
  6
CONTINUOUS
 62
    30
 10
307.0
 20
-20.0
 30
0.0
 11
585.0898289999999
 21
-20.000000000000082
 31
0.0
  0
LINE
  5
AF4
  8
SIZE
  6
CONTINUOUS
 62
    30
 10
555.08982900000001
 20
10.00000065649902
 30
0.0
 11
555.08982900000001
 21
20.000000656499029
 31
0.0
  0
LINE
  5
AF5
  8
SIZE
  6
CONTINUOUS
 62
    30
 10
555.08982900000001
 20
-30.000000000000082
 30
0.0
 11
555.08982900000001
 21
-158.14216271351231
 31
0.0
  0
LINE
  5
AF6
  8
SIZE
  6
CONTINUOUS
 62
    30
 10
555.08982900000001
 20
0.000000656499026
 30
0.0
 11
555.08982900000001
 21
-20.000000000000082
 31
0.0
  0
LINE
  5
AFA
  8
SIZE
  6
CONTINUOUS
 62
    30
 10
-95.0
 20
28.0
 30
0.0
 11
-95.000000000000014
 21
-175.41151272954269
 31
0.0
  0
LINE
  5
AFB
  8
SIZE
  6
CONTINUOUS
 62
    30
 10
95.0
 20
28.0
 30
0.0
 11
94.999999999999986
 21
-175.41151272954269
 31
0.0
  0
LINE
  5
AFC
  8
SIZE
  6
CONTINUOUS
 62
    30
 10
-85.000000000000014
 20
-145.41151272954261
 30
0.0
 11
84.999999999999986
 21
-145.41151272954261
 31
0.0
  0
LINE
  5
B00
  8
SIZE
  6
CONTINUOUS
 62
    30
 10
95.0
 20
28.0
 30
0.0
 11
94.999999999999986
 21
-175.41151272954269
 31
0.0
  0
LINE
  5
B01
  8
SIZE
  6
CONTINUOUS
 62
    30
 10
317.0
 20
-20.0
 30
0.0
 11
317.0
 21
-175.41151272954269
 31
0.0
  0
LINE
  5
B02
  8
SIZE
  6
CONTINUOUS
 62
    30
 10
105.0
 20
-145.41151272954261
 30
0.0
 11
307.0
 21
-145.41151272954261
 31
0.0
  0
LINE
  5
B06
  8
SIZE
  6
CONTINUOUS
 62
    30
 10
120.0
 20
57.0
 30
0.0
 11
119.9999999999999
 21
-334.97683814567517
 31
0.0
  0
LINE
  5
B07
  8
SIZE
  6
CONTINUOUS
 62
    30
 10
317.0
 20
-20.0
 30
0.0
 11
317.0
 21
-334.97683814567517
 31
0.0
  0
LINE
  5
B08
  8
SIZE
  6
CONTINUOUS
 62
    30
 10
130.0
 20
-304.97683814567517
 30
0.0
 11
307.0
 21
-304.97683814567517
 31
0.0
  0
LINE
  5
B0C
  8
SIZE
  6
CONTINUOUS
 62
    30
 10
-120.0
 20
57.0
 30
0.0
 11
-120.0
 21
-334.97683814567517
 31
0.0
  0
LINE
  5
B0D
  8
SIZE
  6
CONTINUOUS
 62
    30
 10
120.0
 20
57.0
 30
0.0
 11
119.9999999999999
 21
-334.97683814567517
 31
0.0
  0
LINE
  5
B0E
  8
SIZE
  6
CONTINUOUS
 62
    30
 10
-110.0
 20
-304.97683814567517
 30
0.0
 11
109.9999999999999
 21
-304.97683814567517
 31
0.0
  0
LINE
  5
B12
  8
SIZE
  6
CONTINUOUS
 62
    30
 10
-140.0
 20
122.0
 30
0.0
 11
-481.28079352094738
 21
122.0000000000001
 31
0.0
  0
LINE
  5
B13
  8
SIZE
  6
CONTINUOUS
 62
    30
 10
-139.99999999999989
 20
77.0
 30
0.0
 11
-481.28079352094738
 21
77.000000000000114
 31
0.0
  0
LINE
  5
B14
  8
SIZE
  6
CONTINUOUS
 62
    30
 10
-451.28079352094738
 20
112.0
 30
0.0
 11
-451.28079352094738
 21
87.000000000000085
 31
0.0
  0
LINE
  5
B15
  8
SIZE
  6
CONTINUOUS
 62
    30
 10
-451.28079352094738
 20
77.000000000000085
 30
0.0
 11
-451.28079352094738
 21
-75.987026214565944
 31
0.0
  0
LINE
  5
B19
  8
SIZE
  6
CONTINUOUS
 62
    30
 10
-130.0
 20
136.0
 30
0.0
 11
-589.03019678277633
 21
136.00000000000011
 31
0.0
  0
LINE
  5
B1A
  8
SIZE
  6
CONTINUOUS
 62
    30
 10
-130.0
 20
63.0
 30
0.0
 11
-589.03019678277633
 21
63.000000000000142
 31
0.0
  0
LINE
  5
B1B
  8
SIZE
  6
CONTINUOUS
 62
    30
 10
-559.03019678277633
 20
126.0000000000001
 30
0.0
 11
-559.03019678277633
 21
73.000000000000128
 31
0.0
  0
LINE
  5
B1C
  8
SIZE
  6
CONTINUOUS
 62
    30
 10
-559.03019678277633
 20
63.000000000000128
 30
0.0
 11
-559.03019678277633
 21
-78.342966550355413
 31
0.0
  0
TEXT
  5
B20
  8
SIZE
  6
CONTINUOUS
 62
    30
 10
-464.33431076121968
 20
-50.092137008735449
 30
0.0
 40
55.0
  1
45
 50
90.0
 41
0.9
 72
     1
 11
-464.33431076121968
 21
-10.02070843730689
 31
0.0
  0
CIRCLE
  5
B21
  8
SIZE
  6
CONTINUOUS
 62
    30
 10
-451.28079352094738
 20
77.000000000000085
 30
0.0
 40
5.0
  0
LINE
  5
B22
  8
SIZE
  6
CONTINUOUS
 62
    30
 10
-451.28079352094738
 20
82.000000000000085
 30
0.0
 11
-451.28079352094738
 21
87.000000000000085
 31
0.0
  0
CIRCLE
  5
B23
  8
SIZE
  6
CONTINUOUS
 62
    30
 10
-451.28079352094738
 20
122.0000000000001
 30
0.0
 40
5.0
  0
LINE
  5
B24
  8
SIZE
  6
CONTINUOUS
 62
    30
 10
-451.28079352094738
 20
117.0000000000001
 30
0.0
 11
-451.28079352094738
 21
112.0
 31
0.0
  0
TEXT
  5
B25
  8
SIZE
  6
CONTINUOUS
 62
    30
 10
828.01063546642581
 20
129.35714285714269
 30
0.0
 40
55.0
  1
290
 50
90.0
 41
0.9
 72
     1
 11
828.01063546642581
 21
192.9999999999998
 31
0.0
  0
CIRCLE
  5
B26
  8
SIZE
  6
CONTINUOUS
 62
    30
 10
840.28257645922338
 20
47.999999999999851
 30
0.0
 40
5.0
  0
LINE
  5
B27
  8
SIZE
  6
CONTINUOUS
 62
    30
 10
840.28257645922338
 20
52.999999999999851
 30
0.0
 11
840.28257645922338
 21
57.999999999999851
 31
0.0
  0
CIRCLE
  5
B28
  8
SIZE
  6
CONTINUOUS
 62
    30
 10
840.28257645922361
 20
337.99999999999989
 30
0.0
 40
5.0
  0
LINE
  5
B29
  8
SIZE
  6
CONTINUOUS
 62
    30
 10
840.28257645922361
 20
332.99999999999977
 30
0.0
 11
840.28257645922361
 21
327.99999999999977
 31
0.0
  0
TEXT
  5
B2A
  8
SIZE
  6
CONTINUOUS
 62
    30
 10
707.98763576989052
 20
184.07142857142841
 30
0.0
 40
55.0
  1
190
 50
90.0
 41
0.9
 72
     1
 11
707.98763576989052
 21
242.99999999999989
 31
0.0
  0
CIRCLE
  5
B2B
  8
SIZE
  6
CONTINUOUS
 62
    30
 10
720.25957676268797
 20
147.9999999999998
 30
0.0
 40
5.0
  0
LINE
  5
B2C
  8
SIZE
  6
CONTINUOUS
 62
    30
 10
720.25957676268797
 20
152.9999999999998
 30
0.0
 11
720.25957676268797
 21
157.9999999999998
 31
0.0
  0
CIRCLE
  5
B2D
  8
SIZE
  6
CONTINUOUS
 62
    30
 10
720.25957676268808
 20
337.99999999999989
 30
0.0
 40
5.0
  0
LINE
  5
B2E
  8
SIZE
  6
CONTINUOUS
 62
    30
 10
720.25957676268808
 20
332.99999999999989
 30
0.0
 11
720.25957676268808
 21
327.99999999999989
 31
0.0
  0
TEXT
  5
B2F
  8
SIZE
  6
CONTINUOUS
 62
    30
 10
542.81788800720244
 20
-137.33134146344139
 30
0.0
 40
55.0
  1
20
 50
90.0
 41
0.9
 72
     1
 11
542.81788800720244
 21
-97.259912892012835
 31
0.0
  0
CIRCLE
  5
B30
  8
SIZE
  6
CONTINUOUS
 62
    30
 10
555.08982900000001
 20
-20.000000000000082
 30
0.0
 40
5.0
  0
LINE
  5
B31
  8
SIZE
  6
CONTINUOUS
 62
    30
 10
555.08982900000001
 20
-25.000000000000082
 30
0.0
 11
555.08982900000001
 21
-30.000000000000082
 31
0.0
  0
CIRCLE
  5
B32
  8
SIZE
  6
CONTINUOUS
 62
    30
 10
555.08982900000001
 20
0.000000656499026
 30
0.0
 40
5.0
  0
LINE
  5
B33
  8
SIZE
  6
CONTINUOUS
 62
    30
 10
555.08982900000001
 20
5.0000006564990249
 30
0.0
 11
555.08982900000001
 21
10.00000065649902
 31
0.0
  0
TEXT
  5
B34
  8
SIZE
  6
CONTINUOUS
 62
    30
 10
-572.08371402304863
 20
-50.092137008735463
 30
0.0
 40
55.0
  1
73
 50
90.0
 41
0.9
 72
     1
 11
-572.08371402304863
 21
-10.02070843730689
 31
0.0
  0
CIRCLE
  5
B35
  8
SIZE
  6
CONTINUOUS
 62
    30
 10
-559.03019678277633
 20
63.000000000000128
 30
0.0
 40
5.0
  0
LINE
  5
B36
  8
SIZE
  6
CONTINUOUS
 62
    30
 10
-559.03019678277633
 20
68.000000000000128
 30
0.0
 11
-559.03019678277633
 21
73.000000000000128
 31
0.0
  0
CIRCLE
  5
B37
  8
SIZE
  6
CONTINUOUS
 62
    30
 10
-559.03019678277633
 20
136.00000000000011
 30
0.0
 40
5.0
  0
LINE
  5
B38
  8
SIZE
  6
CONTINUOUS
 62
    30
 10
-559.03019678277633
 20
131.00000000000011
 30
0.0
 11
-559.03019678277633
 21
126.0000000000001
 31
0.0
  0
TEXT
  5
B39
  8
SIZE
  6
CONTINUOUS
 62
    30
 10
-58.928571428571423
 20
-130.60301193131829
 30
0.0
 40
55.0
  1
190
 41
0.9
 72
     1
 11
-0.0000000000000142
 21
-130.60301193131829
 31
0.0
  0
CIRCLE
  5
B3A
  8
SIZE
  6
CONTINUOUS
 62
    30
 10
94.999999999999986
 20
-145.41151272954261
 30
0.0
 40
5.0
  0
LINE
  5
B3B
  8
SIZE
  6
CONTINUOUS
 62
    30
 10
89.999999999999986
 20
-145.41151272954261
 30
0.0
 11
84.999999999999986
 21
-145.41151272954261
 31
0.0
  0
CIRCLE
  5
B3C
  8
SIZE
  6
CONTINUOUS
 62
    30
 10
-95.000000000000014
 20
-145.41151272954261
 30
0.0
 40
5.0
  0
LINE
  5
B3D
  8
SIZE
  6
CONTINUOUS
 62
    30
 10
-90.000000000000014
 20
-145.41151272954261
 30
0.0
 11
-85.000000000000014
 21
-145.41151272954261
 31
0.0
  0
TEXT
  5
B3E
  8
SIZE
  6
CONTINUOUS
 62
    30
 10
142.3571428571428
 20
-130.60301193131829
 30
0.0
 40
55.0
  1
222
 41
0.9
 72
     1
 11
206.0
 21
-130.60301193131829
 31
0.0
  0
CIRCLE
  5
B3F
  8
SIZE
  6
CONTINUOUS
 62
    30
 10
317.0
 20
-145.41151272954261
 30
0.0
 40
5.0
  0
LINE
  5
B40
  8
SIZE
  6
CONTINUOUS
 62
    30
 10
312.0
 20
-145.41151272954261
 30
0.0
 11
307.0
 21
-145.41151272954261
 31
0.0
  0
CIRCLE
  5
B41
  8
SIZE
  6
CONTINUOUS
 62
    30
 10
94.999999999999986
 20
-145.41151272954261
 30
0.0
 40
5.0
  0
LINE
  5
B42
  8
SIZE
  6
CONTINUOUS
 62
    30
 10
100.0
 20
-145.41151272954261
 30
0.0
 11
105.0
 21
-145.41151272954261
 31
0.0
  0
TEXT
  5
B43
  8
SIZE
  6
CONTINUOUS
 62
    30
 10
159.57142857142861
 20
-290.1683373474508
 30
0.0
 40
55.0
  1
197
 41
0.9
 72
     1
 11
218.5
 21
-290.1683373474508
 31
0.0
  0
CIRCLE
  5
B44
  8
SIZE
  6
CONTINUOUS
 62
    30
 10
317.0
 20
-304.97683814567517
 30
0.0
 40
5.0
  0
LINE
  5
B45
  8
SIZE
  6
CONTINUOUS
 62
    30
 10
312.0
 20
-304.97683814567517
 30
0.0
 11
307.0
 21
-304.97683814567517
 31
0.0
  0
CIRCLE
  5
B46
  8
SIZE
  6
CONTINUOUS
 62
    30
 10
119.9999999999999
 20
-304.97683814567517
 30
0.0
 40
5.0
  0
LINE
  5
B47
  8
SIZE
  6
CONTINUOUS
 62
    30
 10
125.0
 20
-304.97683814567517
 30
0.0
 11
130.0
 21
-304.97683814567517
 31
0.0
  0
TEXT
  5
B48
  8
SIZE
  6
CONTINUOUS
 62
    30
 10
-63.642857142857167
 20
-290.1683373474508
 30
0.0
 40
55.0
  1
240
 41
0.9
 72
     1
 11
-0.0000000000000284
 21
-290.1683373474508
 31
0.0
  0
CIRCLE
  5
B49
  8
SIZE
  6
CONTINUOUS
 62
    30
 10
119.9999999999999
 20
-304.97683814567517
 30
0.0
 40
5.0
  0
LINE
  5
B4A
  8
SIZE
  6
CONTINUOUS
 62
    30
 10
114.9999999999999
 20
-304.97683814567517
 30
0.0
 11
109.9999999999999
 21
-304.97683814567517
 31
0.0
  0
CIRCLE
  5
B4B
  8
SIZE
  6
CONTINUOUS
 62
    30
 10
-120.0
 20
-304.97683814567517
 30
0.0
 40
5.0
  0
LINE
  5
B4C
  8
SIZE
  6
CONTINUOUS
 62
    30
 10
-115.0
 20
-304.97683814567517
 30
0.0
 11
-110.0
 21
-304.97683814567517
 31
0.0
  0
ENDSEC
  0
EOF
