  0
SECTION
  2
HEADER
  9
$ACADVER
  1
AC1009
  9
$INSBASE
 10
0.0
 20
0.0
 30
0.0
  9
$EXTMIN
 10
-797.42428240997833
 20
-550.003026204653
 30
-0.000000000000013
  9
$EXTMAX
 10
927.42922125317625
 20
1275.7873707169049
 30
0.0000000000000023
  9
$LIMMIN
 10
-6000.0
 20
-4500.0
  9
$LIMMAX
 10
6000.0
 20
4500.0
  9
$ORTHOMODE
 70
     1
  9
$REGENMODE
 70
     1
  9
$FILLMODE
 70
     1
  9
$QTEXTMODE
 70
     0
  9
$MIRRTEXT
 70
     0
  9
$DRAGMODE
 70
     2
  9
$LTSCALE
 40
20.0
  9
$OSMODE
 70
   431
  9
$ATTMODE
 70
     1
  9
$TEXTSIZE
 40
64.0
  9
$TRACEWID
 40
0.05
  9
$TEXTSTYLE
  7
STANDARD
  9
$CLAYER
  8
SYMBOLLINE
  9
$CELTYPE
  6
CONTINUOUS
  9
$CECOLOR
 62
     7
  9
$DIMSCALE
 40
1.0
  9
$DIMASZ
 40
10.0
  9
$DIMEXO
 40
20.0
  9
$DIMDLI
 40
200.0
  9
$DIMRND
 40
0.0
  9
$DIMDLE
 40
0.0
  9
$DIMEXE
 40
30.0
  9
$DIMTP
 40
0.0
  9
$DIMTM
 40
0.0
  9
$DIMTXT
 40
55.0
  9
$DIMCEN
 40
0.0
  9
$DIMTSZ
 40
0.0
  9
$DIMTOL
 70
     0
  9
$DIMLIM
 70
     0
  9
$DIMTIH
 70
     0
  9
$DIMTOH
 70
     0
  9
$DIMSE1
 70
     0
  9
$DIMSE2
 70
     0
  9
$DIMTAD
 70
     1
  9
$DIMZIN
 70
     8
  9
$DIMBLK
  1

  9
$DIMASO
 70
     1
  9
$DIMSHO
 70
     0
  9
$DIMPOST
  1

  9
$DIMAPOST
  1

  9
$DIMALT
 70
     0
  9
$DIMALTD
 70
     2
  9
$DIMALTF
 40
25.399999999999999
  9
$DIMLFAC
 40
1.0
  9
$DIMTOFL
 70
     1
  9
$DIMTVP
 40
0.0
  9
$DIMTIX
 70
     1
  9
$DIMSOXD
 70
     0
  9
$DIMSAH
 70
     1
  9
$DIMBLK1
  1
DOTBLANK
  9
$DIMBLK2
  1
DOTBLANK
  9
$DIMSTYLE
  2
STANDARD
  9
$DIMCLRD
 70
     0
  9
$DIMCLRE
 70
     0
  9
$DIMCLRT
 70
     0
  9
$DIMTFAC
 40
1.0
  9
$DIMGAP
 40
0.09
  9
$LUNITS
 70
     2
  9
$LUPREC
 70
     4
  9
$SKETCHINC
 40
0.1
  9
$FILLETRAD
 40
20.0
  9
$AUNITS
 70
     1
  9
$AUPREC
 70
     3
  9
$MENU
  1
ACAD
  9
$ELEVATION
 40
0.0
  9
$PELEVATION
 40
0.0
  9
$THICKNESS
 40
0.0
  9
$LIMCHECK
 70
     0
  9
$BLIPMODE
 70
     0
  9
$CHAMFERA
 40
0.0
  9
$CHAMFERB
 40
0.0
  9
$SKPOLY
 70
     0
  9
$TDCREATE
 40
2450330.4399309959
  9
$TDUPDATE
 40
2456990.7799503822
  9
$TDINDWG
 40
1.5169164931000001
  9
$TDUSRTIMER
 40
1.5169087037
  9
$USRTIMER
 70
     1
  9
$ANGBASE
 50
0.0
  9
$ANGDIR
 70
     0
  9
$PDMODE
 70
     3
  9
$PDSIZE
 40
-2.0
  9
$PLINEWID
 40
0.0
  9
$COORDS
 70
     1
  9
$SPLFRAME
 70
     0
  9
$SPLINETYPE
 70
     6
  9
$SPLINESEGS
 70
     8
  9
$ATTDIA
 70
     1
  9
$ATTREQ
 70
     1
  9
$HANDLING
 70
     1
  9
$HANDSEED
  5
F28
  9
$SURFTAB1
 70
     6
  9
$SURFTAB2
 70
     6
  9
$SURFTYPE
 70
     6
  9
$SURFU
 70
     6
  9
$SURFV
 70
     6
  9
$UCSNAME
  2

  9
$UCSORG
 10
0.0
 20
0.0
 30
0.0
  9
$UCSXDIR
 10
1.0
 20
0.0
 30
0.0
  9
$UCSYDIR
 10
0.0
 20
1.0
 30
0.0
  9
$PUCSNAME
  2

  9
$PUCSORG
 10
0.0
 20
0.0
 30
0.0
  9
$PUCSXDIR
 10
1.0
 20
0.0
 30
0.0
  9
$PUCSYDIR
 10
0.0
 20
1.0
 30
0.0
  9
$USERI1
 70
     0
  9
$USERI2
 70
     0
  9
$USERI3
 70
     0
  9
$USERI4
 70
     0
  9
$USERI5
 70
     0
  9
$USERR1
 40
20.0
  9
$USERR2
 40
0.0
  9
$USERR3
 40
0.0
  9
$USERR4
 40
0.0
  9
$USERR5
 40
0.0
  9
$WORLDVIEW
 70
     1
  9
$SHADEDGE
 70
     3
  9
$SHADEDIF
 70
    70
  9
$TILEMODE
 70
     1
  9
$MAXACTVP
 70
    48
  9
$PLIMCHECK
 70
     0
  9
$PEXTMIN
 10
1.0000000000000000E+020
 20
1.0000000000000000E+020
 30
1.0000000000000000E+020
  9
$PEXTMAX
 10
-1.0000000000000000E+020
 20
-1.0000000000000000E+020
 30
-1.0000000000000000E+020
  9
$PLIMMIN
 10
0.0
 20
0.0
  9
$PLIMMAX
 10
12.0
 20
9.0
  9
$UNITMODE
 70
     0
  9
$VISRETAIN
 70
     1
  9
$PLINEGEN
 70
     0
  9
$PSLTSCALE
 70
     1
  0
ENDSEC
  0
SECTION
  2
TABLES
  0
TABLE
  2
VPORT
 70
     1
  0
VPORT
  2
*ACTIVE
 70
     0
 10
0.0
 20
0.0
 11
1.0
 21
1.0
 12
65.002469421598903
 22
362.8921722561264
 13
0.0
 23
0.0
 14
50.0
 24
50.0
 15
100.0
 25
100.0
 16
0.0
 26
0.0
 36
1.0
 17
0.0
 27
0.0
 37
0.0
 40
1840.129064960209
 41
1.6159895150720831
 42
50.0
 43
0.0
 44
0.0
 50
0.0
 51
0.0
 71
     0
 72
  1000
 73
     1
 74
     0
 75
     0
 76
     0
 77
     0
 78
     0
  0
ENDTAB
  0
TABLE
  2
LTYPE
 70
     4
  0
LTYPE
  2
CONTINUOUS
 70
     0
  3
実線
 72
    65
 73
     0
 40
0.0
  0
LTYPE
  2
DASHDOT
 70
     0
  3
____ _ ____ _ ____ _ ____ _ ____ _ ____ _ ____
 72
    65
 73
     4
 40
5.5
 49
4.0
 49
-0.6
 49
0.3
 49
-0.6
  0
ENDTAB
  0
TABLE
  2
LAYER
 70
    12
  0
LAYER
  2
0
 70
     0
 62
     7
  6
CONTINUOUS
  0
LAYER
  2
SYMBOLLINE
 70
     0
 62
    15
  6
CONTINUOUS
  0
LAYER
  2
SIZE
 70
     0
 62
    30
  6
CONTINUOUS
  0
LAYER
  2
OUTLINE
 70
     0
 62
     3
  6
CONTINUOUS
  0
LAYER
  2
DETAIL
 70
     0
 62
     5
  6
CONTINUOUS
  0
LAYER
  2
BASIS
 70
     0
 62
     6
  6
DASHDOT
  0
LAYER
  2
NOTE
 70
     0
 62
     4
  6
CONTINUOUS
  0
LAYER
  2
ARRANGE
 70
     0
 62
     1
  6
CONTINUOUS
  0
LAYER
  2
FIX
 70
     0
 62
    11
  6
CONTINUOUS
  0
LAYER
  2
SERVICESPACE
 70
     0
 62
     2
  6
DASHDOT
  0
LAYER
  2
ETC
 70
     0
 62
    61
  6
CONTINUOUS
  0
LAYER
  2
DEFPOINTS
 70
     0
 62
     7
  6
CONTINUOUS
  0
ENDTAB
  0
TABLE
  2
STYLE
 70
     2
  0
STYLE
  2
STANDARD
 70
     0
 40
0.0
 41
0.9
 50
0.0
 71
     0
 42
64.0
  3
SIMPLEX
  4
BIGFONT
  0
STYLE
  2
ANNOTATIVE
 70
     0
 40
0.0
 41
1.0
 50
0.0
 71
     0
 42
0.2
  3
txt
  4

  0
ENDTAB
  0
TABLE
  2
VIEW
 70
     1
  0
VIEW
  2
ALL
 70
     0
 40
9000.0
 10
241.50664699999999
 20
0.0
 41
12483.01
 11
0.0
 21
0.0
 31
1.0
 12
0.0
 22
0.0
 32
0.0
 42
50.0
 43
0.0
 44
0.0
 50
0.0
 71
     0
  0
ENDTAB
  0
TABLE
  2
UCS
 70
     0
  0
ENDTAB
  0
TABLE
  2
APPID
 70
     7
  0
APPID
  2
ACAD
 70
     0
  0
APPID
  2
ACADANNOTATIVE
 70
     0
  0
APPID
  2
ACAD_MLEADERVER
 70
     0
  0
APPID
  2
ACAD_EXEMPT_FROM_CAD_STANDARDS
 70
     0
  0
APPID
  2
ACAD_DSTYLE_DIMJAG
 70
     0
  0
APPID
  2
ACAD_DSTYLE_DIMTALN
 70
     0
  0
APPID
  2
ACAD_NAV_VCDISPLAY
 70
     0
  0
ENDTAB
  0
TABLE
  2
DIMSTYLE
 70
     3
  0
DIMSTYLE
  2
STANDARD
 70
     0
  3

  4

  5

  6

  7

 40
1.0
 41
0.18
 42
0.0625
 43
0.38
 44
0.18
 45
0.0
 46
0.0
 47
0.0
 48
0.0
140
0.18
141
0.09
142
0.0
143
25.399999999999999
144
1.0
145
0.0
146
1.0
147
0.09
 71
     0
 72
     0
 73
     1
 74
     1
 75
     0
 76
     0
 77
     0
 78
     0
170
     0
171
     2
172
     0
173
     0
174
     0
175
     0
176
     0
177
     0
178
     0
  0
DIMSTYLE
  2
ANNOTATIVE
 70
     0
  3

  4

  5

  6

  7

 40
1.0
 41
0.18
 42
0.0625
 43
0.38
 44
0.18
 45
0.0
 46
0.0
 47
0.0
 48
0.0
140
0.18
141
0.09
142
0.0
143
25.399999999999999
144
1.0
145
0.0
146
1.0
147
0.09
 71
     0
 72
     0
 73
     1
 74
     1
 75
     0
 76
     0
 77
     0
 78
     0
170
     0
171
     2
172
     0
173
     0
174
     0
175
     0
176
     0
177
     0
178
     0
  0
ENDTAB
  0
ENDSEC
  0
SECTION
  2
BLOCKS
  0
BLOCK
  8
0
  2
$MODEL_SPACE
 70
     0
 10
0.0
 20
0.0
 30
0.0
  3
$MODEL_SPACE
  1

  0
ENDBLK
  5
E59
  8
0
  0
BLOCK
 67
     1
  8
0
  2
$PAPER_SPACE
 70
     0
 10
0.0
 20
0.0
 30
0.0
  3
$PAPER_SPACE
  1

  0
ENDBLK
  5
E55
 67
     1
  8
0
  0
BLOCK
  8
0
  2
_DOTBLANK
 70
     0
 10
0.0
 20
0.0
 30
0.0
  3
_DOTBLANK
  1

  0
CIRCLE
  5
30
  8
0
  6
CONTINUOUS
 62
     7
 10
0.0
 20
0.0
 30
0.0
 40
0.5
  0
LINE
  5
31
  8
0
  6
CONTINUOUS
 62
     7
 10
-0.5
 20
0.0
 30
0.0
 11
-1.0
 21
0.0
 31
0.0
  0
ENDBLK
  5
32
  8
0
  0
BLOCK
  8
0
  2
_ORIGIN
 70
     0
 10
0.0
 20
0.0
 30
0.0
  3
_ORIGIN
  1

  0
CIRCLE
  5
7A9
  8
0
  6
CONTINUOUS
 62
     7
 10
0.0
 20
0.0
 30
0.0
 40
0.5
  0
LINE
  5
7AA
  8
0
  6
CONTINUOUS
 62
     7
 10
0.0
 20
0.0
 30
0.0
 11
-1.0
 21
0.0
 31
0.0
  0
ENDBLK
  5
7AB
  8
0
  0
BLOCK
  8
0
 62
     7
  2
*D4
 70
     1
 10
0.0
 20
0.0
 30
0.0
  3
*D4
  1

  0
LINE
  5
AC7
  8
SIZE
  6
CONTINUOUS
 62
     0
 10
-120.0
 20
57.0
 30
0.0
 11
-120.0
 21
-334.97683814567517
 31
0.0
  0
LINE
  5
AC8
  8
SIZE
  6
CONTINUOUS
 62
     0
 10
120.0
 20
57.0
 30
0.0
 11
119.9999999999999
 21
-334.97683814567517
 31
0.0
  0
LINE
  5
AC9
  8
SIZE
  6
CONTINUOUS
 62
     0
 10
-110.0
 20
-304.97683814567517
 30
0.0
 11
109.9999999999999
 21
-304.97683814567517
 31
0.0
  0
INSERT
  5
ACA
  8
SIZE
  6
CONTINUOUS
 62
     0
  2
_DOTBLANK
 10
-120.0
 20
-304.97683814567517
 30
0.0
 41
10.0
 42
10.0
 43
10.0
 50
180.0
  0
INSERT
  5
ACB
  8
SIZE
  6
CONTINUOUS
 62
     0
  2
_DOTBLANK
 10
119.9999999999999
 20
-304.97683814567517
 30
0.0
 41
10.0
 42
10.0
 43
10.0
  0
INSERT
  5
ACC
  8
SYMBOLLINE
  6
CONTINUOUS
 62
     7
  2
*U5
 10
0.0
 20
0.0
 30
0.0
  0
POINT
  5
ACD
  8
DEFPOINTS
  6
CONTINUOUS
 62
     0
 10
-120.0
 20
77.0
 30
0.0
  0
POINT
  5
ACE
  8
DEFPOINTS
  6
CONTINUOUS
 62
     0
 10
120.0
 20
77.0
 30
0.0
  0
POINT
  5
ACF
  8
DEFPOINTS
  6
CONTINUOUS
 62
     0
 10
119.9999999999999
 20
-304.97683814567517
 30
0.0
  0
ENDBLK
  5
8DD
  8
0
 62
     7
  0
BLOCK
  8
0
 62
     7
  2
*U5
 70
     1
 10
0.0
 20
0.0
 30
0.0
  3
*U5
  1

  0
TEXT
  5
BC2
  8
SIZE
  6
CONTINUOUS
 62
     0
 10
-74.057142857142878
 20
-304.8868381456752
 30
0.0
 40
64.0
  1
240
 41
0.9
  0
ENDBLK
  5
BC4
  8
0
 62
     7
  0
BLOCK
  8
0
 62
     7
  2
*D6
 70
     1
 10
0.0
 20
0.0
 30
0.0
  3
*D6
  1

  0
LINE
  5
ABE
  8
SIZE
  6
CONTINUOUS
 62
     0
 10
120.0
 20
57.0
 30
0.0
 11
119.9999999999999
 21
-334.97683814567517
 31
0.0
  0
LINE
  5
ABF
  8
SIZE
  6
CONTINUOUS
 62
     0
 10
317.0
 20
-20.0
 30
0.0
 11
317.0
 21
-334.97683814567517
 31
0.0
  0
LINE
  5
AC0
  8
SIZE
  6
CONTINUOUS
 62
     0
 10
130.0
 20
-304.97683814567517
 30
0.0
 11
307.0
 21
-304.97683814567517
 31
0.0
  0
INSERT
  5
AC1
  8
SIZE
  6
CONTINUOUS
 62
     0
  2
_DOTBLANK
 10
119.9999999999999
 20
-304.97683814567517
 30
0.0
 41
10.0
 42
10.0
 43
10.0
 50
180.0
  0
INSERT
  5
AC2
  8
SIZE
  6
CONTINUOUS
 62
     0
  2
_DOTBLANK
 10
317.0
 20
-304.97683814567517
 30
0.0
 41
10.0
 42
10.0
 43
10.0
  0
INSERT
  5
AC3
  8
SYMBOLLINE
  6
CONTINUOUS
 62
     7
  2
*U7
 10
0.0
 20
0.0
 30
0.0
  0
POINT
  5
AC4
  8
DEFPOINTS
  6
CONTINUOUS
 62
     0
 10
120.0
 20
77.0
 30
0.0
  0
POINT
  5
AC5
  8
DEFPOINTS
  6
CONTINUOUS
 62
     0
 10
317.0
 20
0.0
 30
0.0
  0
POINT
  5
AC6
  8
DEFPOINTS
  6
CONTINUOUS
 62
     0
 10
317.0
 20
-304.97683814567517
 30
0.0
  0
ENDBLK
  5
8EA
  8
0
 62
     7
  0
BLOCK
  8
0
 62
     7
  2
*U7
 70
     1
 10
0.0
 20
0.0
 30
0.0
  3
*U7
  1

  0
TEXT
  5
BBE
  8
SIZE
  6
CONTINUOUS
 62
     0
 10
149.92857142857139
 20
-304.8868381456752
 30
0.0
 40
64.0
  1
197
 41
0.9
  0
ENDBLK
  5
BC0
  8
0
 62
     7
  0
BLOCK
  8
0
 62
     7
  2
*D8
 70
     1
 10
0.0
 20
0.0
 30
0.0
  3
*D8
  1

  0
LINE
  5
AB5
  8
SIZE
  6
CONTINUOUS
 62
     0
 10
95.0
 20
28.0
 30
0.0
 11
94.999999999999986
 21
-175.41151272954269
 31
0.0
  0
LINE
  5
AB6
  8
SIZE
  6
CONTINUOUS
 62
     0
 10
317.0
 20
-20.0
 30
0.0
 11
317.0
 21
-175.41151272954269
 31
0.0
  0
LINE
  5
AB7
  8
SIZE
  6
CONTINUOUS
 62
     0
 10
105.0
 20
-145.41151272954261
 30
0.0
 11
307.0
 21
-145.41151272954261
 31
0.0
  0
INSERT
  5
AB8
  8
SIZE
  6
CONTINUOUS
 62
     0
  2
_DOTBLANK
 10
94.999999999999986
 20
-145.41151272954261
 30
0.0
 41
10.0
 42
10.0
 43
10.0
 50
180.0
  0
INSERT
  5
AB9
  8
SIZE
  6
CONTINUOUS
 62
     0
  2
_DOTBLANK
 10
317.0
 20
-145.41151272954261
 30
0.0
 41
10.0
 42
10.0
 43
10.0
  0
INSERT
  5
ABA
  8
SYMBOLLINE
  6
CONTINUOUS
 62
     7
  2
*U9
 10
0.0
 20
0.0
 30
0.0
  0
POINT
  5
ABB
  8
DEFPOINTS
  6
CONTINUOUS
 62
     0
 10
95.0
 20
48.0
 30
0.0
  0
POINT
  5
ABC
  8
DEFPOINTS
  6
CONTINUOUS
 62
     0
 10
317.0
 20
0.0
 30
0.0
  0
POINT
  5
ABD
  8
DEFPOINTS
  6
CONTINUOUS
 62
     0
 10
317.0
 20
-145.41151272954261
 30
0.0
  0
ENDBLK
  5
909
  8
0
 62
     7
  0
BLOCK
  8
0
 62
     7
  2
*U9
 70
     1
 10
0.0
 20
0.0
 30
0.0
  3
*U9
  1

  0
TEXT
  5
BBA
  8
SIZE
  6
CONTINUOUS
 62
     0
 10
131.94285714285721
 20
-145.3215127295426
 30
0.0
 40
64.0
  1
222
 41
0.9
  0
ENDBLK
  5
BBC
  8
0
 62
     7
  0
BLOCK
  8
0
 62
     7
  2
*D10
 70
     1
 10
0.0
 20
0.0
 30
0.0
  3
*D10
  1

  0
LINE
  5
AAC
  8
SIZE
  6
CONTINUOUS
 62
     0
 10
-95.0
 20
28.0
 30
0.0
 11
-95.0
 21
-175.41151272954269
 31
0.0
  0
LINE
  5
AAD
  8
SIZE
  6
CONTINUOUS
 62
     0
 10
95.0
 20
28.0
 30
0.0
 11
94.999999999999986
 21
-175.41151272954269
 31
0.0
  0
LINE
  5
AAE
  8
SIZE
  6
CONTINUOUS
 62
     0
 10
-85.000000000000014
 20
-145.41151272954261
 30
0.0
 11
84.999999999999986
 21
-145.41151272954261
 31
0.0
  0
INSERT
  5
AAF
  8
SIZE
  6
CONTINUOUS
 62
     0
  2
_DOTBLANK
 10
-95.0
 20
-145.41151272954261
 30
0.0
 41
10.0
 42
10.0
 43
10.0
 50
180.0
  0
INSERT
  5
AB0
  8
SIZE
  6
CONTINUOUS
 62
     0
  2
_DOTBLANK
 10
94.999999999999986
 20
-145.41151272954261
 30
0.0
 41
10.0
 42
10.0
 43
10.0
  0
INSERT
  5
AB1
  8
SYMBOLLINE
  6
CONTINUOUS
 62
     7
  2
*U11
 10
0.0
 20
0.0
 30
0.0
  0
POINT
  5
AB2
  8
DEFPOINTS
  6
CONTINUOUS
 62
     0
 10
-95.0
 20
48.0
 30
0.0
  0
POINT
  5
AB3
  8
DEFPOINTS
  6
CONTINUOUS
 62
     0
 10
95.0
 20
48.0
 30
0.0
  0
POINT
  5
AB4
  8
DEFPOINTS
  6
CONTINUOUS
 62
     0
 10
94.999999999999986
 20
-145.41151272954261
 30
0.0
  0
ENDBLK
  5
916
  8
0
 62
     7
  0
BLOCK
  8
0
 62
     7
  2
*U11
 70
     1
 10
0.0
 20
0.0
 30
0.0
  3
*U11
  1

  0
TEXT
  5
BB6
  8
SIZE
  6
CONTINUOUS
 62
     0
 10
-68.571428571428569
 20
-145.3215127295426
 30
0.0
 40
64.0
  1
190
 41
0.9
  0
ENDBLK
  5
BB8
  8
0
 62
     7
  0
BLOCK
  8
0
 62
     7
  2
*D12
 70
     1
 10
0.0
 20
0.0
 30
0.0
  3
*D12
  1

  0
LINE
  5
924
  8
SYMBOLLINE
  6
CONTINUOUS
 62
     0
 10
140.0
 20
77.0
 30
0.0
 11
239.34985306349881
 21
76.999999999999929
 31
0.0
  0
LINE
  5
925
  8
SYMBOLLINE
  6
CONTINUOUS
 62
     0
 10
140.0
 20
122.0
 30
0.0
 11
239.34985306349881
 21
121.9999999999999
 31
0.0
  0
LINE
  5
926
  8
SYMBOLLINE
  6
CONTINUOUS
 62
     0
 10
209.34985306349881
 20
66.999999999999986
 30
0.0
 11
209.34985306349881
 21
56.999999999999979
 31
0.0
  0
LINE
  5
927
  8
SYMBOLLINE
  6
CONTINUOUS
 62
     0
 10
209.34985306349881
 20
132.0
 30
0.0
 11
209.34985306349881
 21
141.9999999999998
 31
0.0
  0
LINE
  5
928
  8
SYMBOLLINE
  6
CONTINUOUS
 62
     0
 10
209.34985306349881
 20
76.999999999999986
 30
0.0
 11
209.34985306349881
 21
122.0
 31
0.0
  0
INSERT
  5
929
  8
SYMBOLLINE
  6
CONTINUOUS
 62
     0
  2
_DOTBLANK
 10
209.34985306349881
 20
76.999999999999986
 30
0.0
 41
10.0
 42
10.0
 43
10.0
 50
90.0
  0
INSERT
  5
92A
  8
SYMBOLLINE
  6
CONTINUOUS
 62
     0
  2
_DOTBLANK
 10
209.34985306349881
 20
122.0
 30
0.0
 41
10.0
 42
10.0
 43
10.0
 50
270.0
  0
INSERT
  5
92B
  8
SYMBOLLINE
  6
CONTINUOUS
 62
     7
  2
*U13
 10
0.0
 20
0.0
 30
0.0
  0
POINT
  5
92C
  8
DEFPOINTS
  6
CONTINUOUS
 62
     0
 10
120.0
 20
77.0
 30
0.0
  0
POINT
  5
92D
  8
DEFPOINTS
  6
CONTINUOUS
 62
     0
 10
120.0
 20
122.0
 30
0.0
  0
POINT
  5
92E
  8
DEFPOINTS
  6
CONTINUOUS
 62
     0
 10
209.34985306349881
 20
122.0
 30
0.0
  0
ENDBLK
  5
923
  8
0
 62
     7
  0
BLOCK
  8
0
 62
     7
  2
*U13
 70
     1
 10
0.0
 20
0.0
 30
0.0
  3
*U13
  1

  0
TEXT
  5
BA6
  8
SYMBOLLINE
  6
CONTINUOUS
 62
     0
 10
209.25985306349881
 20
52.871428571428567
 30
0.0
 40
64.0
  1
45
 50
90.0
 41
0.9
  0
ENDBLK
  5
BA8
  8
0
 62
     7
  0
BLOCK
  8
0
 62
     7
  2
*D14
 70
     1
 10
0.0
 20
0.0
 30
0.0
  3
*D14
  1

  0
LINE
  5
ADA
  8
SIZE
  6
CONTINUOUS
 62
     0
 10
-130.0
 20
136.0
 30
0.0
 11
-589.03019678277644
 21
136.00000000000011
 31
0.0
  0
LINE
  5
ADB
  8
SIZE
  6
CONTINUOUS
 62
     0
 10
-130.0
 20
63.0
 30
0.0
 11
-589.03019678277644
 21
63.000000000000142
 31
0.0
  0
LINE
  5
ADC
  8
SIZE
  6
CONTINUOUS
 62
     0
 10
-559.03019678277633
 20
126.0000000000001
 30
0.0
 11
-559.03019678277633
 21
73.000000000000128
 31
0.0
  0
LINE
  5
ADD
  8
SIZE
  6
CONTINUOUS
 62
     0
 10
-559.03019678277633
 20
63.000000000000142
 30
0.0
 11
-559.03019678277633
 21
-50.115133210419849
 31
0.0
  0
INSERT
  5
ADE
  8
SIZE
  6
CONTINUOUS
 62
     0
  2
_DOTBLANK
 10
-559.03019678277633
 20
136.00000000000011
 30
0.0
 41
10.0
 42
10.0
 43
10.0
 50
90.0
  0
INSERT
  5
ADF
  8
SIZE
  6
CONTINUOUS
 62
     0
  2
_DOTBLANK
 10
-559.03019678277633
 20
63.000000000000142
 30
0.0
 41
10.0
 42
10.0
 43
10.0
 50
270.0
  0
INSERT
  5
AE0
  8
SYMBOLLINE
  6
CONTINUOUS
 62
     7
  2
*U15
 10
0.0
 20
0.0
 30
0.0
  0
POINT
  5
AE1
  8
DEFPOINTS
  6
CONTINUOUS
 62
     0
 10
-110.0
 20
136.0
 30
0.0
  0
POINT
  5
AE2
  8
DEFPOINTS
  6
CONTINUOUS
 62
     0
 10
-110.0
 20
63.0
 30
0.0
  0
POINT
  5
AE3
  8
DEFPOINTS
  6
CONTINUOUS
 62
     0
 10
-559.03019678277633
 20
63.000000000000142
 30
0.0
  0
ENDBLK
  5
932
  8
0
 62
     7
  0
BLOCK
  8
0
 62
     7
  2
*U15
 70
     1
 10
0.0
 20
0.0
 30
0.0
  3
*U15
  1

  0
TEXT
  5
BCA
  8
SIZE
  6
CONTINUOUS
 62
     0
 10
-559.12019678277625
 20
-50.025133210419938
 30
0.0
 40
64.0
  1
73
 50
90.0
 41
0.9
  0
ENDBLK
  5
BCC
  8
0
 62
     7
  0
BLOCK
  8
0
 62
     7
  2
*D16
 70
     1
 10
0.0
 20
0.0
 30
0.0
  3
*D16
  1

  0
LINE
  5
AA1
  8
SIZE
  6
CONTINUOUS
 62
     0
 10
375.00000161000571
 20
0.000000656499077
 30
0.0
 11
585.0898289999999
 21
0.0000006564990175
 31
0.0
  0
LINE
  5
AA2
  8
SIZE
  6
CONTINUOUS
 62
     0
 10
307.0
 20
-20.0
 30
0.0
 11
585.0898289999999
 21
-20.000000000000082
 31
0.0
  0
LINE
  5
AA3
  8
SIZE
  6
CONTINUOUS
 62
     0
 10
555.08982900000001
 20
10.00000065649902
 30
0.0
 11
555.08982900000001
 21
20.000000656499029
 31
0.0
  0
LINE
  5
AA4
  8
SIZE
  6
CONTINUOUS
 62
     0
 10
555.08982900000001
 20
-30.000000000000071
 30
0.0
 11
555.08982900000001
 21
-133.470853594293
 31
0.0
  0
LINE
  5
AA5
  8
SIZE
  6
CONTINUOUS
 62
     0
 10
555.08982900000001
 20
0.000000656499026
 30
0.0
 11
555.08982900000001
 21
-20.000000000000082
 31
0.0
  0
INSERT
  5
AA6
  8
SIZE
  6
CONTINUOUS
 62
     0
  2
_DOTBLANK
 10
555.08982900000001
 20
0.000000656499026
 30
0.0
 41
10.0
 42
10.0
 43
10.0
 50
270.0
  0
INSERT
  5
AA7
  8
SIZE
  6
CONTINUOUS
 62
     0
  2
_DOTBLANK
 10
555.08982900000001
 20
-20.000000000000082
 30
0.0
 41
10.0
 42
10.0
 43
10.0
 50
90.0
  0
INSERT
  5
AA8
  8
SYMBOLLINE
  6
CONTINUOUS
 62
     7
  2
*U17
 10
0.0
 20
0.0
 30
0.0
  0
POINT
  5
AA9
  8
DEFPOINTS
  6
CONTINUOUS
 62
     0
 10
355.00000161000588
 20
0.0000006564990827
 30
0.0
  0
POINT
  5
AAA
  8
DEFPOINTS
  6
CONTINUOUS
 62
     0
 10
287.0
 20
-20.0
 30
0.0
  0
POINT
  5
AAB
  8
DEFPOINTS
  6
CONTINUOUS
 62
     0
 10
555.08982900000001
 20
-20.000000000000082
 30
0.0
  0
ENDBLK
  5
941
  8
0
 62
     7
  0
BLOCK
  8
0
 62
     7
  2
*U17
 70
     1
 10
0.0
 20
0.0
 30
0.0
  3
*U17
  1

  0
TEXT
  5
BB2
  8
SIZE
  6
CONTINUOUS
 62
     0
 10
554.99982899999986
 20
-133.3808535942928
 30
0.0
 40
64.0
  1
20
 50
90.0
 41
0.9
  0
ENDBLK
  5
BB4
  8
0
 62
     7
  0
BLOCK
  8
0
 62
     7
  2
*D18
 70
     1
 10
0.0
 20
0.0
 30
0.0
  3
*D18
  1

  0
LINE
  5
A98
  8
SIZE
  6
CONTINUOUS
 62
     0
 10
337.0
 20
338.0
 30
0.0
 11
750.25957676268843
 21
337.99999999999989
 31
0.0
  0
LINE
  5
A99
  8
SIZE
  6
CONTINUOUS
 62
     0
 10
332.0
 20
147.9999999999998
 30
0.0
 11
750.25957676268763
 21
147.9999999999998
 31
0.0
  0
LINE
  5
A9A
  8
SIZE
  6
CONTINUOUS
 62
     0
 10
720.25957676268786
 20
327.99999999999989
 30
0.0
 11
720.25957676268786
 21
157.9999999999998
 31
0.0
  0
INSERT
  5
A9B
  8
SIZE
  6
CONTINUOUS
 62
     0
  2
_DOTBLANK
 10
720.25957676268786
 20
337.99999999999989
 30
0.0
 41
10.0
 42
10.0
 43
10.0
 50
90.0
  0
INSERT
  5
A9C
  8
SIZE
  6
CONTINUOUS
 62
     0
  2
_DOTBLANK
 10
720.25957676268786
 20
147.9999999999998
 30
0.0
 41
10.0
 42
10.0
 43
10.0
 50
270.0
  0
INSERT
  5
A9D
  8
SYMBOLLINE
  6
CONTINUOUS
 62
     7
  2
*U19
 10
0.0
 20
0.0
 30
0.0
  0
POINT
  5
A9E
  8
DEFPOINTS
  6
CONTINUOUS
 62
     0
 10
317.0
 20
338.0
 30
0.0
  0
POINT
  5
A9F
  8
DEFPOINTS
  6
CONTINUOUS
 62
     0
 10
312.0
 20
148.0
 30
0.0
  0
POINT
  5
AA0
  8
DEFPOINTS
  6
CONTINUOUS
 62
     0
 10
720.25957676268786
 20
147.9999999999998
 30
0.0
  0
ENDBLK
  5
950
  8
0
 62
     7
  0
BLOCK
  8
0
 62
     7
  2
*U19
 70
     1
 10
0.0
 20
0.0
 30
0.0
  3
*U19
  1

  0
TEXT
  5
BAE
  8
SIZE
  6
CONTINUOUS
 62
     0
 10
720.16957676268817
 20
167.98587668057451
 30
0.0
 40
64.0
  1
190
 50
90.0
 41
0.9
  0
ENDBLK
  5
BB0
  8
0
 62
     7
  0
BLOCK
  8
0
 62
     7
  2
*D20
 70
     1
 10
0.0
 20
0.0
 30
0.0
  3
*D20
  1

  0
LINE
  5
A8F
  8
SIZE
  6
CONTINUOUS
 62
     0
 10
337.0
 20
338.0
 30
0.0
 11
870.28257645922349
 21
337.99999999999989
 31
0.0
  0
LINE
  5
A90
  8
SIZE
  6
CONTINUOUS
 62
     0
 10
337.0
 20
47.999999999999993
 30
0.0
 11
870.28257645922349
 21
47.999999999999851
 31
0.0
  0
LINE
  5
A91
  8
SIZE
  6
CONTINUOUS
 62
     0
 10
840.28257645922361
 20
327.99999999999972
 30
0.0
 11
840.28257645922315
 21
57.999999999999851
 31
0.0
  0
INSERT
  5
A92
  8
SIZE
  6
CONTINUOUS
 62
     0
  2
_DOTBLANK
 10
840.28257645922361
 20
337.99999999999989
 30
0.0
 41
10.0
 42
10.0
 43
10.0
 50
90.0
  0
INSERT
  5
A93
  8
SIZE
  6
CONTINUOUS
 62
     0
  2
_DOTBLANK
 10
840.28257645922315
 20
47.999999999999851
 30
0.0
 41
10.0
 42
10.0
 43
10.0
 50
270.0
  0
INSERT
  5
A94
  8
SYMBOLLINE
  6
CONTINUOUS
 62
     7
  2
*U21
 10
0.0
 20
0.0
 30
0.0
  0
POINT
  5
A95
  8
DEFPOINTS
  6
CONTINUOUS
 62
     0
 10
317.0
 20
338.0
 30
0.0
  0
POINT
  5
A96
  8
DEFPOINTS
  6
CONTINUOUS
 62
     0
 10
317.0
 20
48.0
 30
0.0
  0
POINT
  5
A97
  8
DEFPOINTS
  6
CONTINUOUS
 62
     0
 10
840.28257645922315
 20
47.999999999999851
 30
0.0
  0
ENDBLK
  5
96F
  8
0
 62
     7
  0
BLOCK
  8
0
 62
     7
  2
*U21
 70
     1
 10
0.0
 20
0.0
 30
0.0
  3
*U21
  1

  0
TEXT
  5
BAA
  8
SIZE
  6
CONTINUOUS
 62
     0
 10
840.19257645922335
 20
102.5157120250315
 30
0.0
 40
64.0
  1
290
 50
90.0
 41
0.9
  0
ENDBLK
  5
BAC
  8
0
 62
     7
  0
BLOCK
  8
0
 62
     7
  2
*D22
 70
     1
 10
0.0
 20
0.0
 30
0.0
  3
*D22
  1

  0
LINE
  5
AD0
  8
SIZE
  6
CONTINUOUS
 62
     0
 10
-140.0
 20
122.0
 30
0.0
 11
-481.2807935209471
 21
122.0000000000001
 31
0.0
  0
LINE
  5
AD1
  8
SIZE
  6
CONTINUOUS
 62
     0
 10
-139.9999999999998
 20
77.0
 30
0.0
 11
-481.2807935209471
 21
77.000000000000071
 31
0.0
  0
LINE
  5
AD2
  8
SIZE
  6
CONTINUOUS
 62
     0
 10
-451.28079352094721
 20
112.0
 30
0.0
 11
-451.28079352094721
 21
87.000000000000085
 31
0.0
  0
LINE
  5
AD3
  8
SIZE
  6
CONTINUOUS
 62
     0
 10
-451.28079352094721
 20
77.000000000000071
 30
0.0
 11
-451.28079352094721
 21
-49.036253336915081
 31
0.0
  0
INSERT
  5
AD4
  8
SIZE
  6
CONTINUOUS
 62
     0
  2
_DOTBLANK
 10
-451.28079352094721
 20
122.0000000000001
 30
0.0
 41
10.0
 42
10.0
 43
10.0
 50
90.0
  0
INSERT
  5
AD5
  8
SIZE
  6
CONTINUOUS
 62
     0
  2
_DOTBLANK
 10
-451.28079352094721
 20
77.000000000000071
 30
0.0
 41
10.0
 42
10.0
 43
10.0
 50
270.0
  0
INSERT
  5
AD6
  8
SYMBOLLINE
  6
CONTINUOUS
 62
     7
  2
*U23
 10
0.0
 20
0.0
 30
0.0
  0
POINT
  5
AD7
  8
DEFPOINTS
  6
CONTINUOUS
 62
     0
 10
-120.0
 20
122.0
 30
0.0
  0
POINT
  5
AD8
  8
DEFPOINTS
  6
CONTINUOUS
 62
     0
 10
-120.0
 20
77.0
 30
0.0
  0
POINT
  5
AD9
  8
DEFPOINTS
  6
CONTINUOUS
 62
     0
 10
-451.28079352094721
 20
77.000000000000071
 30
0.0
  0
ENDBLK
  5
98F
  8
0
 62
     7
  0
BLOCK
  8
0
 62
     7
  2
*U23
 70
     1
 10
0.0
 20
0.0
 30
0.0
  3
*U23
  1

  0
TEXT
  5
BC6
  8
SIZE
  6
CONTINUOUS
 62
     0
 10
-451.3707935209473
 20
-48.946253336915142
 30
0.0
 40
64.0
  1
45
 50
90.0
 41
0.9
  0
ENDBLK
  5
BC8
  8
0
 62
     7
  0
ENDSEC
  0
SECTION
  2
ENTITIES
  0
LINE
  5
35
  8
DETAIL
  6
CONTINUOUS
 62
     5
 10
-317.0
 20
391.0
 30
0.0
 11
317.0
 21
391.0
 31
0.0
  0
LINE
  5
36
  8
DETAIL
  6
CONTINUOUS
 62
     5
 10
-355.0
 20
0.0
 30
0.0
 11
355.0
 21
0.0
 31
0.0
  0
LINE
  5
37
  8
DETAIL
  6
CONTINUOUS
 62
     5
 10
-317.0
 20
45.0
 30
0.0
 11
317.0
 21
45.0
 31
0.0
  0
LINE
  5
38
  8
DETAIL
  6
CONTINUOUS
 62
     5
 10
-317.0
 20
60.0
 30
0.0
 11
317.0
 21
60.0
 31
0.0
  0
LINE
  5
39
  8
DETAIL
  6
CONTINUOUS
 62
     5
 10
317.0
 20
0.0
 30
0.0
 11
317.0
 21
391.0
 31
0.0
  0
LINE
  5
3C
  8
DETAIL
  6
CONTINUOUS
 62
     5
 10
312.0
 20
120.0
 30
0.0
 11
262.0
 21
120.0
 31
0.0
  0
LINE
  5
3D
  8
DETAIL
  6
CONTINUOUS
 62
     5
 10
312.0
 20
150.0
 30
0.0
 11
262.0
 21
150.0
 31
0.0
  0
LINE
  5
3E
  8
DETAIL
  6
CONTINUOUS
 62
     5
 10
312.0
 20
160.0
 30
0.0
 11
262.0
 21
160.0
 31
0.0
  0
LINE
  5
3F
  8
NOTE
  6
CONTINUOUS
 62
     4
 10
307.0
 20
160.0
 30
0.0
 11
267.0
 21
160.0
 31
0.0
  0
LINE
  5
40
  8
NOTE
  6
CONTINUOUS
 62
     4
 10
287.0
 20
140.0
 30
0.0
 11
287.0
 21
180.0
 31
0.0
  0
LINE
  5
47
  8
DETAIL
  6
CONTINUOUS
 62
     5
 10
312.0
 20
120.0
 30
0.0
 11
312.0
 21
160.0
 31
0.0
  0
CIRCLE
  5
48
  8
FIX
  6
CONTINUOUS
 62
    11
 10
287.0
 20
160.0
 30
0.0
 40
5.0
  0
LINE
  5
49
  8
NOTE
  6
CONTINUOUS
 62
     4
 10
307.0
 20
160.0
 30
0.0
 11
267.0
 21
160.0
 31
0.0
  0
LINE
  5
4A
  8
DETAIL
  6
CONTINUOUS
 62
     5
 10
262.0
 20
120.0
 30
0.0
 11
262.0
 21
160.0
 31
0.0
  0
CIRCLE
  5
4C
  8
ARRANGE
  6
CONTINUOUS
 62
     1
 10
0.0
 20
0.0
 30
0.0
 40
40.0
  0
LINE
  5
4D
  8
DETAIL
  6
CONTINUOUS
 62
     5
 10
-317.0
 20
0.0
 30
0.0
 11
-317.0
 21
391.0
 31
0.0
  0
LINE
  5
4E
  8
BASIS
  6
DASHDOT
 62
     6
 10
0.0
 20
-53.755581000000006
 30
0.0
 11
0.0
 21
467.21727499999992
 31
0.0
  0
POINT
  5
4F
  8
ARRANGE
  6
CONTINUOUS
 62
     1
 10
0.0
 20
0.0
 30
0.0
  0
LINE
  5
52
  8
NOTE
  6
CONTINUOUS
 62
     4
 10
-267.0
 20
160.0
 30
0.0
 11
-307.0
 21
160.0
 31
0.0
  0
LINE
  5
53
  8
NOTE
  6
CONTINUOUS
 62
     4
 10
-287.0
 20
140.0
 30
0.0
 11
-287.0
 21
180.0
 31
0.0
  0
LINE
  5
5A
  8
DETAIL
  6
CONTINUOUS
 62
     5
 10
-262.0
 20
150.0
 30
0.0
 11
-312.0
 21
150.0
 31
0.0
  0
LINE
  5
5B
  8
DETAIL
  6
CONTINUOUS
 62
     5
 10
-262.0
 20
120.0
 30
0.0
 11
-312.0
 21
120.0
 31
0.0
  0
LINE
  5
5C
  8
DETAIL
  6
CONTINUOUS
 62
     5
 10
-262.0
 20
160.0
 30
0.0
 11
-312.0
 21
160.0
 31
0.0
  0
LINE
  5
5D
  8
DETAIL
  6
CONTINUOUS
 62
     5
 10
-312.0
 20
120.0
 30
0.0
 11
-312.0
 21
160.0
 31
0.0
  0
LINE
  5
5E
  8
DETAIL
  6
CONTINUOUS
 62
     5
 10
-262.0
 20
120.0
 30
0.0
 11
-262.0
 21
160.0
 31
0.0
  0
CIRCLE
  5
5F
  8
FIX
  6
CONTINUOUS
 62
    11
 10
-287.0
 20
160.0
 30
0.0
 40
5.0
  0
LINE
  5
60
  8
NOTE
  6
CONTINUOUS
 62
     4
 10
-267.0
 20
160.0
 30
0.0
 11
-307.0
 21
160.0
 31
0.0
  0
LINE
  5
61
  8
NOTE
  6
CONTINUOUS
 62
     4
 10
-267.0
 20
160.0
 30
0.0
 11
-307.0
 21
160.0
 31
0.0
  0
LINE
  5
62
  8
DETAIL
  6
CONTINUOUS
 62
     5
 10
-287.0
 20
-20.0
 30
0.0
 11
287.0
 21
-20.0
 31
0.0
  0
ARC
  5
63
  8
DETAIL
  6
CONTINUOUS
 62
     5
 10
266.90766200000002
 20
173.91395
 30
0.0
 40
194.952102
 50
275.91557599999999
 51
296.86350499999992
  0
ARC
  5
64
  8
DETAIL
  6
CONTINUOUS
 62
     5
 10
-266.90766200000002
 20
173.91395
 30
0.0
 40
194.952102
 50
243.13649500000011
 51
264.08442400000001
  0
LINE
  5
65
  8
OUTLINE
  6
CONTINUOUS
 62
     3
 10
-317.0
 20
391.0
 30
0.0
 11
317.0
 21
391.0
 31
0.0
  0
LINE
  5
66
  8
OUTLINE
  6
CONTINUOUS
 62
     3
 10
-355.0
 20
0.0
 30
0.0
 11
355.0
 21
0.0
 31
0.0
  0
LINE
  5
67
  8
OUTLINE
  6
CONTINUOUS
 62
     3
 10
317.0
 20
0.0
 30
0.0
 11
317.0
 21
391.0
 31
0.0
  0
LINE
  5
68
  8
OUTLINE
  6
CONTINUOUS
 62
     3
 10
-317.0
 20
0.0
 30
0.0
 11
-317.0
 21
391.0
 31
0.0
  0
LINE
  5
69
  8
OUTLINE
  6
CONTINUOUS
 62
     3
 10
-287.0
 20
-20.0
 30
0.0
 11
287.0
 21
-20.0
 31
0.0
  0
ARC
  5
6A
  8
OUTLINE
  6
CONTINUOUS
 62
     3
 10
266.90766200000002
 20
173.91395
 30
0.0
 40
194.952102
 50
275.91557599999999
 51
296.86350499999992
  0
ARC
  5
6B
  8
OUTLINE
  6
CONTINUOUS
 62
     3
 10
-266.90766200000002
 20
173.91395
 30
0.0
 40
194.952102
 50
243.13649500000011
 51
264.08442400000001
  0
LINE
  5
6D
  8
SIZE
  6
CONTINUOUS
 62
    30
 10
335.0
 20
-10.80913540718848
 30
0.0
 11
335.0
 21
-549.561200565131
 31
0.0
  0
LINE
  5
6E
  8
SIZE
  6
CONTINUOUS
 62
    30
 10
-335.0
 20
-335.49879456513099
 30
0.0
 11
-335.0
 21
-549.561200565131
 31
0.0
  0
LINE
  5
6F
  8
SIZE
  6
CONTINUOUS
 62
    30
 10
325.0
 20
-519.561200565131
 30
0.0
 11
-325.0
 21
-519.561200565131
 31
0.0
  0
CIRCLE
  5
70
  8
SIZE
  6
CONTINUOUS
 62
    30
 10
335.0
 20
-519.561200565131
 30
0.0
 40
5.0
  0
LINE
  5
71
  8
SIZE
  6
CONTINUOUS
 62
    30
 10
330.0
 20
-519.561200565131
 30
0.0
 11
325.0
 21
-519.561200565131
 31
0.0
  0
CIRCLE
  5
72
  8
SIZE
  6
CONTINUOUS
 62
    30
 10
-335.0
 20
-519.561200565131
 30
0.0
 40
5.0
  0
LINE
  5
73
  8
SIZE
  6
CONTINUOUS
 62
    30
 10
-330.0
 20
-519.561200565131
 30
0.0
 11
-325.0
 21
-519.561200565131
 31
0.0
  0
TEXT
  5
74
  8
SIZE
  6
CONTINUOUS
 62
    30
 10
-290.74309671428563
 20
-499.98088201168031
 30
0.0
 40
55.0
  1
670(天井開口寸法)
 41
0.9
 72
     1
 11
-17.078810999999991
 21
-499.98088201168031
 31
0.0
  0
LINE
  5
75
  8
SIZE
  6
CONTINUOUS
 62
    30
 10
287.0
 20
200.0
 30
0.0
 11
287.0
 21
981.81841099999974
 31
0.0
  0
LINE
  5
76
  8
SIZE
  6
CONTINUOUS
 62
    30
 10
-287.0
 20
200.0
 30
0.0
 11
-287.0
 21
981.81841099999974
 31
0.0
  0
LINE
  5
77
  8
SIZE
  6
CONTINUOUS
 62
    30
 10
277.0
 20
951.81841099999986
 30
0.0
 11
-277.0
 21
951.81841099999986
 31
0.0
  0
CIRCLE
  5
78
  8
SIZE
  6
CONTINUOUS
 62
    30
 10
287.0
 20
951.81841099999986
 30
0.0
 40
5.0
  0
LINE
  5
79
  8
SIZE
  6
CONTINUOUS
 62
    30
 10
282.0
 20
951.81841099999986
 30
0.0
 11
277.0
 21
951.81841099999986
 31
0.0
  0
CIRCLE
  5
7A
  8
SIZE
  6
CONTINUOUS
 62
    30
 10
-287.0
 20
951.81841099999986
 30
0.0
 40
5.0
  0
LINE
  5
7B
  8
SIZE
  6
CONTINUOUS
 62
    30
 10
-282.0
 20
951.81841099999986
 30
0.0
 11
-277.0
 21
951.81841099999986
 31
0.0
  0
TEXT
  5
7C
  8
SIZE
  6
CONTINUOUS
 62
    30
 10
-258.8142857142858
 20
986.22317300000032
 30
0.0
 40
55.0
  1
574(吊りﾎﾞﾙﾄﾋﾟｯﾁ)
 41
0.9
 72
     1
 11
0.0
 21
986.22317300000032
 31
0.0
  0
LINE
  5
7D
  8
SIZE
  6
CONTINUOUS
 62
    30
 10
-287.0
 20
200.0
 30
0.0
 11
-287.0
 21
982.07000200000004
 31
0.0
  0
LINE
  5
7E
  8
SIZE
  6
CONTINUOUS
 62
    30
 10
-355.0
 20
20.526456965893878
 30
0.0
 11
-355.0
 21
982.07000200000004
 31
0.0
  0
LINE
  5
7F
  8
SIZE
  6
CONTINUOUS
 62
    30
 10
-297.0
 20
952.07000200000004
 30
0.0
 11
-345.0
 21
952.07000200000004
 31
0.0
  0
CIRCLE
  5
80
  8
SIZE
  6
CONTINUOUS
 62
    30
 10
-287.0
 20
952.07000200000004
 30
0.0
 40
5.0
  0
LINE
  5
81
  8
SIZE
  6
CONTINUOUS
 62
    30
 10
-292.0
 20
952.07000200000004
 30
0.0
 11
-297.0
 21
952.07000200000004
 31
0.0
  0
CIRCLE
  5
82
  8
SIZE
  6
CONTINUOUS
 62
    30
 10
-355.0
 20
952.07000200000004
 30
0.0
 40
5.0
  0
LINE
  5
83
  8
SIZE
  6
CONTINUOUS
 62
    30
 10
-350.0
 20
952.07000200000004
 30
0.0
 11
-345.0
 21
952.07000200000004
 31
0.0
  0
LINE
  5
85
  8
SIZE
  6
CONTINUOUS
 62
    30
 10
355.0
 20
25.47784459844479
 30
0.0
 11
355.0
 21
980.97224000000006
 31
0.0
  0
LINE
  5
86
  8
SIZE
  6
CONTINUOUS
 62
    30
 10
287.0
 20
200.0
 30
0.0
 11
287.0
 21
980.97224000000006
 31
0.0
  0
LINE
  5
87
  8
SIZE
  6
CONTINUOUS
 62
    30
 10
345.0
 20
950.97223999999994
 30
0.0
 11
297.0
 21
950.97223999999994
 31
0.0
  0
CIRCLE
  5
88
  8
SIZE
  6
CONTINUOUS
 62
    30
 10
355.0
 20
950.97223999999994
 30
0.0
 40
5.0
  0
LINE
  5
89
  8
SIZE
  6
CONTINUOUS
 62
    30
 10
350.0
 20
950.97223999999994
 30
0.0
 11
345.0
 21
950.97223999999994
 31
0.0
  0
CIRCLE
  5
8A
  8
SIZE
  6
CONTINUOUS
 62
    30
 10
287.0
 20
950.97223999999994
 30
0.0
 40
5.0
  0
LINE
  5
8B
  8
SIZE
  6
CONTINUOUS
 62
    30
 10
292.0
 20
950.97223999999994
 30
0.0
 11
297.0
 21
950.97223999999994
 31
0.0
  0
LINE
  5
8D
  8
SIZE
  6
CONTINUOUS
 62
    30
 10
-355.0
 20
-7.0498653954036818
 30
0.0
 11
-355.0
 21
-549.06526856513085
 31
0.0
  0
LINE
  5
8E
  8
SIZE
  6
CONTINUOUS
 62
    30
 10
-335.0
 20
-7.0418500554242192
 30
0.0
 11
-335.0
 21
-549.06526856513085
 31
0.0
  0
LINE
  5
8F
  8
SIZE
  6
CONTINUOUS
 62
    30
 10
-325.0
 20
-519.06526856513085
 30
0.0
 11
-315.0
 21
-519.06526856513085
 31
0.0
  0
LINE
  5
90
  8
SIZE
  6
CONTINUOUS
 62
    30
 10
-365.0
 20
-519.06526856513085
 30
0.0
 11
-526.92779299999995
 21
-519.06526856513085
 31
0.0
  0
LINE
  5
91
  8
SIZE
  6
CONTINUOUS
 62
    30
 10
-335.0
 20
-519.06526856513085
 30
0.0
 11
-355.0
 21
-519.06526856513085
 31
0.0
  0
CIRCLE
  5
92
  8
SIZE
  6
CONTINUOUS
 62
    30
 10
-335.0
 20
-519.06526856513085
 30
0.0
 40
5.0
  0
LINE
  5
93
  8
SIZE
  6
CONTINUOUS
 62
    30
 10
-330.0
 20
-519.06526856513085
 30
0.0
 11
-325.0
 21
-519.06526856513085
 31
0.0
  0
CIRCLE
  5
94
  8
SIZE
  6
CONTINUOUS
 62
    30
 10
-355.0
 20
-519.06526856513085
 30
0.0
 40
5.0
  0
LINE
  5
95
  8
SIZE
  6
CONTINUOUS
 62
    30
 10
-360.0
 20
-519.06526856513085
 30
0.0
 11
-365.0
 21
-519.06526856513085
 31
0.0
  0
TEXT
  5
96
  8
SIZE
  6
CONTINUOUS
 62
    30
 10
-500.37064957142849
 20
-499.06526856513102
 30
0.0
 40
55.0
  1
20
 41
0.9
 72
     1
 11
-460.29922099999999
 21
-499.06526856513102
 31
0.0
  0
LINE
  5
97
  8
SIZE
  6
CONTINUOUS
 62
    30
 10
355.0
 20
-10.80913540718848
 30
0.0
 11
355.0
 21
-549.06526856513085
 31
0.0
  0
LINE
  5
98
  8
SIZE
  6
CONTINUOUS
 62
    30
 10
335.0
 20
-10.80913540718848
 30
0.0
 11
335.0
 21
-549.06526856513085
 31
0.0
  0
LINE
  5
99
  8
SIZE
  6
CONTINUOUS
 62
    30
 10
325.0
 20
-519.06526856513085
 30
0.0
 11
315.0
 21
-519.06526856513085
 31
0.0
  0
LINE
  5
9A
  8
SIZE
  6
CONTINUOUS
 62
    30
 10
365.0
 20
-519.06526856513085
 30
0.0
 11
515.11297100000002
 21
-519.06526856513085
 31
0.0
  0
LINE
  5
9B
  8
SIZE
  6
CONTINUOUS
 62
    30
 10
335.0
 20
-519.06526856513085
 30
0.0
 11
355.0
 21
-519.06526856513085
 31
0.0
  0
CIRCLE
  5
9C
  8
SIZE
  6
CONTINUOUS
 62
    30
 10
335.0
 20
-519.06526856513085
 30
0.0
 40
5.0
  0
LINE
  5
9D
  8
SIZE
  6
CONTINUOUS
 62
    30
 10
330.0
 20
-519.06526856513085
 30
0.0
 11
325.0
 21
-519.06526856513085
 31
0.0
  0
CIRCLE
  5
9E
  8
SIZE
  6
CONTINUOUS
 62
    30
 10
355.0
 20
-519.06526856513085
 30
0.0
 40
5.0
  0
LINE
  5
9F
  8
SIZE
  6
CONTINUOUS
 62
    30
 10
360.0
 20
-519.06526856513085
 30
0.0
 11
365.0
 21
-519.06526856513085
 31
0.0
  0
TEXT
  5
A0
  8
SIZE
  6
CONTINUOUS
 62
    30
 10
408.41297142857138
 20
-499.06526856513102
 30
0.0
 40
55.0
  1
20
 41
0.9
 72
     1
 11
448.48439999999988
 21
-499.06526856513102
 31
0.0
  0
LINE
  5
A1
  8
SIZE
  6
CONTINUOUS
 62
    30
 10
337.0
 20
45.0
 30
0.0
 11
585.0898289999999
 21
45.0
 31
0.0
  0
LINE
  5
A2
  8
SIZE
  6
CONTINUOUS
 62
    30
 10
375.0
 20
0.0
 30
0.0
 11
585.0898289999999
 21
0.0
 31
0.0
  0
LINE
  5
A3
  8
SIZE
  6
CONTINUOUS
 62
    30
 10
555.08982900000001
 20
55.0
 30
0.0
 11
555.08982900000001
 21
143.8731056190008
 31
0.0
  0
LINE
  5
A4
  8
SIZE
  6
CONTINUOUS
 62
    30
 10
555.08982900000001
 20
-10.0
 30
0.0
 11
555.08982900000001
 21
-20.0
 31
0.0
  0
LINE
  5
A5
  8
SIZE
  6
CONTINUOUS
 62
    30
 10
555.08982900000001
 20
45.0
 30
0.0
 11
555.08982900000001
 21
0.0
 31
0.0
  0
CIRCLE
  5
A6
  8
SIZE
  6
CONTINUOUS
 62
    30
 10
555.08982900000001
 20
45.0
 30
0.0
 40
5.0
  0
LINE
  5
A7
  8
SIZE
  6
CONTINUOUS
 62
    30
 10
555.08982900000001
 20
50.0
 30
0.0
 11
555.08982900000001
 21
55.0
 31
0.0
  0
CIRCLE
  5
A8
  8
SIZE
  6
CONTINUOUS
 62
    30
 10
555.08982900000001
 20
0.0
 30
0.0
 40
5.0
  0
LINE
  5
A9
  8
SIZE
  6
CONTINUOUS
 62
    30
 10
555.08982900000001
 20
-5.0
 30
0.0
 11
555.08982900000001
 21
-10.0
 31
0.0
  0
TEXT
  5
AA
  8
SIZE
  6
CONTINUOUS
 62
    30
 10
535.0898289999999
 20
59.582434039110801
 30
0.0
 40
55.0
  1
45
 50
90.0
 41
0.9
 72
     1
 11
535.0898289999999
 21
99.653862610539363
 31
0.0
  0
LINE
  5
BD
  8
SIZE
  6
CONTINUOUS
 62
    30
 10
-329.82863886432278
 20
391.0
 30
0.0
 11
-588.89143597499424
 21
391.0
 31
0.0
  0
LINE
  5
C5
  8
SIZE
  6
CONTINUOUS
 62
    30
 10
317.0
 20
411.0
 30
0.0
 11
317.0
 21
864.09944900000005
 31
0.0
  0
LINE
  5
C6
  8
SIZE
  6
CONTINUOUS
 62
    30
 10
-317.0
 20
411.0
 30
0.0
 11
-317.0
 21
864.09944900000005
 31
0.0
  0
LINE
  5
C7
  8
SIZE
  6
CONTINUOUS
 62
    30
 10
307.0
 20
834.09944899999994
 30
0.0
 11
-307.0
 21
834.09944899999994
 31
0.0
  0
CIRCLE
  5
C8
  8
SIZE
  6
CONTINUOUS
 62
    30
 10
317.0
 20
834.09944899999994
 30
0.0
 40
5.0
  0
LINE
  5
C9
  8
SIZE
  6
CONTINUOUS
 62
    30
 10
312.0
 20
834.09944899999994
 30
0.0
 11
307.0
 21
834.09944899999994
 31
0.0
  0
CIRCLE
  5
CA
  8
SIZE
  6
CONTINUOUS
 62
    30
 10
-317.0
 20
834.09944899999994
 30
0.0
 40
5.0
  0
LINE
  5
CB
  8
SIZE
  6
CONTINUOUS
 62
    30
 10
-312.0
 20
834.09944899999994
 30
0.0
 11
-307.0
 21
834.09944899999994
 31
0.0
  0
TEXT
  5
CC
  8
SIZE
  6
CONTINUOUS
 62
    30
 10
-64.821428571428569
 20
854.09944899999994
 30
0.0
 40
55.0
  1
634
 41
0.9
 72
     1
 11
0.0
 21
854.09944899999994
 31
0.0
  0
LINE
  5
212
  8
NOTE
  6
CONTINUOUS
 62
     4
 10
-101.0
 20
228.0
 30
0.0
 11
-395.29991685895419
 21
684.32978661542245
 31
0.0
  0
LINE
  5
213
  8
NOTE
  6
CONTINUOUS
 62
     4
 10
180.0
 20
290.0
 30
0.0
 11
408.9842284300039
 21
647.00032478919263
 31
0.0
  0
TEXT
  5
214
  8
NOTE
  6
CONTINUOUS
 62
     4
 10
-731.12393728752545
 20
703.52087061542238
 30
0.0
 40
55.0
  1
RL \U+03C69.52
 41
0.9
  0
LINE
  5
215
  8
NOTE
  6
CONTINUOUS
 62
     4
 10
200.0
 20
290.0
 30
0.0
 11
160.0
 21
290.0
 31
0.0
  0
LINE
  5
216
  8
NOTE
  6
CONTINUOUS
 62
     4
 10
180.0
 20
270.0
 30
0.0
 11
180.0
 21
310.0
 31
0.0
  0
POLYLINE
  5
217
  8
NOTE
  6
CONTINUOUS
 62
     4
 66
     1
 10
0.0
 20
0.0
 30
0.0
  0
VERTEX
  5
ED5
  8
NOTE
  6
CONTINUOUS
 62
     4
 10
209.7093832731893
 20
316.78343732202018
 30
0.0
  0
VERTEX
  5
ED6
  8
NOTE
  6
CONTINUOUS
 62
     4
 10
180.0
 20
290.0
 30
0.0
  0
VERTEX
  5
ED7
  8
NOTE
  6
CONTINUOUS
 62
     4
 10
192.33736161939891
 20
328.04982906629567
 30
0.0
  0
SEQEND
  5
ED8
  8
NOTE
  6
CONTINUOUS
 62
     4
  0
LINE
  5
218
  8
NOTE
  6
CONTINUOUS
 62
     4
 10
-395.29991685895419
 20
576.44963961542271
 30
0.0
 11
-797.330679858954
 21
576.44963961542271
 31
0.0
  0
LINE
  5
219
  8
NOTE
  6
CONTINUOUS
 62
     4
 10
-171.0
 20
228.0
 30
0.0
 11
-395.29991685895419
 21
576.44963961542271
 31
0.0
  0
LINE
  5
21A
  8
NOTE
  6
CONTINUOUS
 62
     4
 10
-81.0
 20
228.0
 30
0.0
 11
-121.0
 21
228.0
 31
0.0
  0
POLYLINE
  5
21B
  8
NOTE
  6
CONTINUOUS
 62
     4
 66
     1
 10
0.0
 20
0.0
 30
0.0
  0
VERTEX
  5
ED9
  8
NOTE
  6
CONTINUOUS
 62
     4
 10
-112.8960055670921
 20
254.19011750381421
 30
0.0
  0
VERTEX
  5
EDA
  8
NOTE
  6
CONTINUOUS
 62
     4
 10
-101.0
 20
216.0
 30
0.0
  0
VERTEX
  5
EDB
  8
NOTE
  6
CONTINUOUS
 62
     4
 10
-130.39730114333619
 20
243.12560873729021
 30
0.0
  0
SEQEND
  5
EDC
  8
NOTE
  6
CONTINUOUS
 62
     4
  0
LINE
  5
21C
  8
NOTE
  6
CONTINUOUS
 62
     4
 10
-101.0
 20
196.0
 30
0.0
 11
-101.0
 21
236.0
 31
0.0
  0
LINE
  5
21D
  8
NOTE
  6
CONTINUOUS
 62
     4
 10
-151.0
 20
228.0
 30
0.0
 11
-191.0
 21
228.0
 31
0.0
  0
LINE
  5
21E
  8
NOTE
  6
CONTINUOUS
 62
     4
 10
-171.0
 20
208.0
 30
0.0
 11
-171.0
 21
248.0
 31
0.0
  0
POLYLINE
  5
21F
  8
NOTE
  6
CONTINUOUS
 62
     4
 66
     1
 10
0.0
 20
0.0
 30
0.0
  0
VERTEX
  5
EDD
  8
NOTE
  6
CONTINUOUS
 62
     4
 10
-182.0133863172066
 20
266.45393727060531
 30
0.0
  0
VERTEX
  5
EDE
  8
NOTE
  6
CONTINUOUS
 62
     4
 10
-171.0
 20
228.0
 30
0.0
  0
VERTEX
  5
EDF
  8
NOTE
  6
CONTINUOUS
 62
     4
 10
-199.76484132963921
 20
255.79539352240701
 30
0.0
  0
SEQEND
  5
EE0
  8
NOTE
  6
CONTINUOUS
 62
     4
  0
LINE
  5
220
  8
NOTE
  6
CONTINUOUS
 62
     4
 10
-395.29991685895419
 20
684.32978661542245
 30
0.0
 11
-754.37585166653673
 21
684.32978661542245
 31
0.0
  0
TEXT
  5
221
  8
NOTE
  6
CONTINUOUS
 62
     4
 10
-790.7842611220666
 20
594.50738861542254
 30
0.0
 40
55.0
  1
RG \U+03C615.88
 41
0.9
  0
LINE
  5
222
  8
SIZE
  6
CONTINUOUS
 62
    30
 10
180.0
 20
371.0
 30
0.0
 11
180.0
 21
740.099919
 31
0.0
  0
LINE
  5
223
  8
SIZE
  6
CONTINUOUS
 62
    30
 10
170.0
 20
710.099919
 30
0.0
 11
-307.0
 21
710.099919
 31
0.0
  0
CIRCLE
  5
224
  8
SIZE
  6
CONTINUOUS
 62
    30
 10
180.0
 20
710.099919
 30
0.0
 40
5.0
  0
LINE
  5
225
  8
SIZE
  6
CONTINUOUS
 62
    30
 10
175.0
 20
710.099919
 30
0.0
 11
170.0
 21
710.099919
 31
0.0
  0
CIRCLE
  5
226
  8
SIZE
  6
CONTINUOUS
 62
    30
 10
-317.0
 20
710.099919
 30
0.0
 40
5.0
  0
LINE
  5
227
  8
SIZE
  6
CONTINUOUS
 62
    30
 10
-312.0
 20
710.099919
 30
0.0
 11
-307.0
 21
710.099919
 31
0.0
  0
TEXT
  5
228
  8
SIZE
  6
CONTINUOUS
 62
    30
 10
-132.14285714285711
 20
730.09991899999989
 30
0.0
 40
55.0
  1
497
 41
0.9
 72
     1
 11
-68.5
 21
730.09991899999989
 31
0.0
  0
LINE
  5
231
  8
SIZE
  6
CONTINUOUS
 62
    30
 10
-139.33146490137
 20
228.0
 30
0.0
 11
-588.41647837398614
 21
228.0
 31
0.0
  0
LINE
  5
234
  8
SIZE
  6
CONTINUOUS
 62
    30
 10
-558.41647837398602
 20
386.0
 30
0.0
 11
-558.41647837398602
 21
233.0
 31
0.0
  0
CIRCLE
  5
235
  8
SIZE
  6
CONTINUOUS
 62
    30
 10
-558.41647837398602
 20
391.0
 30
0.0
 40
5.0
  0
CIRCLE
  5
237
  8
SIZE
  6
CONTINUOUS
 62
    30
 10
-558.41647837398602
 20
228.0
 30
0.0
 40
5.0
  0
TEXT
  5
239
  8
SIZE
  6
CONTINUOUS
 62
    30
 10
-574.76285839063121
 20
250.57142857142861
 30
0.0
 40
55.0
  1
163
 50
90.0
 41
0.9
 72
     1
 11
-574.76285839063121
 21
309.5
 31
0.0
  0
LINE
  5
23A
  8
SIZE
  6
CONTINUOUS
 62
    30
 10
-101.0
 20
268.0
 30
0.0
 11
-101.0
 21
619.59300800000005
 31
0.0
  0
LINE
  5
23B
  8
SIZE
  6
CONTINUOUS
 62
    30
 10
-171.0
 20
268.0
 30
0.0
 11
-171.0
 21
619.59300800000005
 31
0.0
  0
LINE
  5
23C
  8
SIZE
  6
CONTINUOUS
 62
    30
 10
-111.0
 20
589.59300800000017
 30
0.0
 11
-161.0
 21
589.59300800000017
 31
0.0
  0
CIRCLE
  5
23D
  8
SIZE
  6
CONTINUOUS
 62
    30
 10
-101.0
 20
589.59300800000017
 30
0.0
 40
5.0
  0
LINE
  5
23E
  8
SIZE
  6
CONTINUOUS
 62
    30
 10
-106.0
 20
589.59300800000017
 30
0.0
 11
-111.0
 21
589.59300800000017
 31
0.0
  0
CIRCLE
  5
23F
  8
SIZE
  6
CONTINUOUS
 62
    30
 10
-171.0
 20
589.59300800000017
 30
0.0
 40
5.0
  0
LINE
  5
240
  8
SIZE
  6
CONTINUOUS
 62
    30
 10
-166.0
 20
589.59300800000017
 30
0.0
 11
-161.0
 21
589.59300800000017
 31
0.0
  0
TEXT
  5
241
  8
SIZE
  6
CONTINUOUS
 62
    30
 10
-176.0714285714285
 20
609.59300800000017
 30
0.0
 40
55.0
  1
70
 41
0.9
 72
     1
 11
-136.0
 21
609.59300800000017
 31
0.0
  0
LINE
  5
242
  8
SIZE
  6
CONTINUOUS
 62
    30
 10
-171.0
 20
268.0
 30
0.0
 11
-171.0
 21
619.59300800000005
 31
0.0
  0
LINE
  5
243
  8
SIZE
  6
CONTINUOUS
 62
    30
 10
-307.0
 20
589.59300800000017
 30
0.0
 11
-181.0
 21
589.59300800000017
 31
0.0
  0
CIRCLE
  5
244
  8
SIZE
  6
CONTINUOUS
 62
    30
 10
-317.0
 20
589.59300800000017
 30
0.0
 40
5.0
  0
LINE
  5
245
  8
SIZE
  6
CONTINUOUS
 62
    30
 10
-312.0
 20
589.59300800000017
 30
0.0
 11
-307.0
 21
589.59300800000017
 31
0.0
  0
CIRCLE
  5
246
  8
SIZE
  6
CONTINUOUS
 62
    30
 10
-171.0
 20
589.59300800000017
 30
0.0
 40
5.0
  0
LINE
  5
247
  8
SIZE
  6
CONTINUOUS
 62
    30
 10
-176.0
 20
589.59300800000017
 30
0.0
 11
-181.0
 21
589.59300800000017
 31
0.0
  0
TEXT
  5
248
  8
SIZE
  6
CONTINUOUS
 62
    30
 10
-301.75
 20
609.59300800000017
 30
0.0
 40
55.0
  1
146
 41
0.9
 72
     1
 11
-244.0
 21
609.59300800000017
 31
0.0
  0
LINE
  5
249
  8
SIZE
  6
CONTINUOUS
 62
    30
 10
337.0
 20
391.0
 30
0.0
 11
467.9467246906932
 21
391.0
 31
0.0
  0
LINE
  5
24A
  8
SIZE
  6
CONTINUOUS
 62
    30
 10
220.0
 20
290.0
 30
0.0
 11
467.29344022207073
 21
290.0
 31
0.0
  0
LINE
  5
24D
  8
SIZE
  6
CONTINUOUS
 62
    30
 10
441.69492332787678
 20
386.0
 30
0.0
 11
441.69492332787678
 21
295.0
 31
0.0
  0
CIRCLE
  5
24E
  8
SIZE
  6
CONTINUOUS
 62
    30
 10
441.69492332787678
 20
391.0
 30
0.0
 40
5.0
  0
CIRCLE
  5
250
  8
SIZE
  6
CONTINUOUS
 62
    30
 10
441.69492332787678
 20
290.0
 30
0.0
 40
5.0
  0
TEXT
  5
252
  8
SIZE
  6
CONTINUOUS
 62
    30
 10
423.05324400000012
 20
288.74808468439772
 30
0.0
 40
55.0
  1
101
 50
90.0
 41
0.9
 72
     1
 11
423.05324400000012
 21
337.06951325582628
 31
0.0
  0
LINE
  5
254
  8
NOTE
  6
CONTINUOUS
 62
     4
 10
408.9842284300039
 20
647.00032478919263
 30
0.0
 11
797.76388070061432
 21
647.00032478919263
 31
0.0
  0
TEXT
  5
256
  8
NOTE
  6
CONTINUOUS
 62
     4
 10
435.08254059275959
 20
678.42167624496915
 30
0.0
 40
55.0
  1
D1 VP-25
 41
0.9
  0
LINE
  5
273
  8
SIZE
  6
CONTINUOUS
 62
    30
 10
365.0
 20
950.97223999999994
 30
0.0
 11
462.57217991587822
 21
950.97223999999994
 31
0.0
  0
LINE
  5
274
  8
SIZE
  6
CONTINUOUS
 62
    30
 10
360.0
 20
950.97223999999994
 30
0.0
 11
365.0
 21
950.97223999999994
 31
0.0
  0
TEXT
  5
275
  8
SIZE
  6
CONTINUOUS
 62
    30
 10
370.71302363490292
 20
970.97224000000006
 30
0.0
 40
55.0
  1
68
 41
0.9
 72
     1
 11
410.78445220633142
 21
970.97224000000006
 31
0.0
  0
LINE
  5
276
  8
SIZE
  6
CONTINUOUS
 62
    30
 10
-365.0
 20
952.07000200000004
 30
0.0
 11
-463.3924199757821
 21
952.07000200000004
 31
0.0
  0
LINE
  5
277
  8
SIZE
  6
CONTINUOUS
 62
    30
 10
-360.0
 20
952.07000200000004
 30
0.0
 11
-365.0
 21
952.07000200000004
 31
0.0
  0
TEXT
  5
278
  8
SIZE
  6
CONTINUOUS
 62
    30
 10
-455.1063819619813
 20
972.07000200000004
 30
0.0
 40
55.0
  1
68
 41
0.9
 72
     1
 11
-415.0349533905528
 21
972.07000200000004
 31
0.0
  0
LINE
  5
82B
  8
DETAIL
  6
CONTINUOUS
 62
     5
 10
-120.0
 20
134.0
 30
0.0
 11
120.0
 21
134.0
 31
0.0
  0
LINE
  5
82C
  8
DETAIL
  6
CONTINUOUS
 62
     5
 10
-120.0
 20
89.0
 30
0.0
 11
120.0
 21
89.0
 31
0.0
  0
TEXT
  5
82D
  8
NOTE
  6
CONTINUOUS
 62
     4
 10
-737.22740188000751
 20
452.4137307391058
 30
0.0
 40
55.0
  1
外気取入口
 41
0.9
  0
LINE
  5
82E
  8
NOTE
  6
CONTINUOUS
 62
     4
 10
-766.11682088000737
 20
442.7907527391057
 30
0.0
 11
-386.9419947965298
 21
442.7907527391057
 31
0.0
  0
LINE
  5
82F
  8
NOTE
  6
CONTINUOUS
 62
     4
 10
-386.9419947965298
 20
442.7907527391057
 30
0.0
 11
-109.3734031020081
 21
121.1777327598835
 31
0.0
  0
LINE
  5
832
  8
DETAIL
  6
CONTINUOUS
 62
     5
 10
120.0
 20
134.0
 30
0.0
 11
120.0
 21
89.0
 31
0.0
  0
CIRCLE
  5
834
  8
NOTE
  6
CONTINUOUS
 62
     4
 10
-109.3734031020081
 20
121.1777327598835
 30
0.0
 40
5.0
  0
LINE
  5
835
  8
NOTE
  6
CONTINUOUS
 62
     4
 10
-112.21031610200809
 20
117.0604607598835
 30
0.0
 11
-113.4906751020081
 21
118.3408207598835
 31
0.0
  0
LINE
  5
836
  8
NOTE
  6
CONTINUOUS
 62
     4
 10
-111.7537991020081
 20
116.78072075988339
 30
0.0
 11
-113.7704161020081
 21
118.7973377598834
 31
0.0
  0
LINE
  5
837
  8
NOTE
  6
CONTINUOUS
 62
     4
 10
-111.4056821020081
 20
116.60938075988351
 30
0.0
 11
-113.9417561020081
 21
119.14545475988341
 31
0.0
  0
LINE
  5
838
  8
NOTE
  6
CONTINUOUS
 62
     4
 10
-111.1076551020081
 20
116.4881307598834
 30
0.0
 11
-114.0630061020081
 21
119.4434807598835
 31
0.0
  0
LINE
  5
839
  8
NOTE
  6
CONTINUOUS
 62
     4
 10
-110.8405891020081
 20
116.39784075988339
 30
0.0
 11
-114.1532951020081
 21
119.7105477598835
 31
0.0
  0
LINE
  5
83A
  8
NOTE
  6
CONTINUOUS
 62
     4
 10
-110.5953081020081
 20
116.3293367598835
 30
0.0
 11
-114.2218001020081
 21
119.9558287598835
 31
0.0
  0
LINE
  5
83B
  8
NOTE
  6
CONTINUOUS
 62
     4
 10
-110.36655510200811
 20
116.27736075988351
 30
0.0
 11
-114.2737761020081
 21
120.1845807598834
 31
0.0
  0
LINE
  5
83C
  8
NOTE
  6
CONTINUOUS
 62
     4
 10
-110.1509841020081
 20
116.2385667598834
 30
0.0
 11
-114.3125701020081
 21
120.4001527598834
 31
0.0
  0
LINE
  5
83D
  8
NOTE
  6
CONTINUOUS
 62
     4
 10
-109.9463041020081
 20
116.21066275988341
 30
0.0
 11
-114.3404731020081
 21
120.60483275988339
 31
0.0
  0
LINE
  5
83E
  8
NOTE
  6
CONTINUOUS
 62
     4
 10
-109.7508661020081
 20
116.1920007598835
 30
0.0
 11
-114.3591351020081
 21
120.8002707598834
 31
0.0
  0
LINE
  5
83F
  8
NOTE
  6
CONTINUOUS
 62
     4
 10
-109.5634331020081
 20
116.1813457598834
 30
0.0
 11
-114.36979110200809
 21
120.9877027598835
 31
0.0
  0
LINE
  5
840
  8
NOTE
  6
CONTINUOUS
 62
     4
 10
-109.38305310200811
 20
116.1777427598834
 30
0.0
 11
-114.37339410200811
 21
121.1680827598835
 31
0.0
  0
LINE
  5
841
  8
NOTE
  6
CONTINUOUS
 62
     4
 10
-109.2089721020081
 20
116.1804377598835
 30
0.0
 11
-114.3706991020081
 21
121.3421647598835
 31
0.0
  0
LINE
  5
842
  8
NOTE
  6
CONTINUOUS
 62
     4
 10
-109.04058010200809
 20
116.18882275988339
 30
0.0
 11
-114.3623141020081
 21
121.5105567598834
 31
0.0
  0
LINE
  5
843
  8
NOTE
  6
CONTINUOUS
 62
     4
 10
-108.87737910200811
 20
116.2023977598835
 30
0.0
 11
-114.3487391020081
 21
121.6737577598835
 31
0.0
  0
LINE
  5
844
  8
NOTE
  6
CONTINUOUS
 62
     4
 10
-108.7189531020081
 20
116.22074875988341
 30
0.0
 11
-114.3303881020081
 21
121.83218375988351
 31
0.0
  0
LINE
  5
845
  8
NOTE
  6
CONTINUOUS
 62
     4
 10
-108.5649531020081
 20
116.2435247598834
 30
0.0
 11
-114.3076111020081
 21
121.9861837598835
 31
0.0
  0
LINE
  5
846
  8
NOTE
  6
CONTINUOUS
 62
     4
 10
-108.4150811020081
 20
116.2704307598835
 30
0.0
 11
-114.2807061020081
 21
122.13605475988351
 31
0.0
  0
LINE
  5
847
  8
NOTE
  6
CONTINUOUS
 62
     4
 10
-108.26908410200809
 20
116.30120975988341
 30
0.0
 11
-114.2499271020081
 21
122.2820527598835
 31
0.0
  0
LINE
  5
848
  8
NOTE
  6
CONTINUOUS
 62
     4
 10
-108.1267411020081
 20
116.3356437598835
 30
0.0
 11
-114.2154931020081
 21
122.4243957598835
 31
0.0
  0
LINE
  5
849
  8
NOTE
  6
CONTINUOUS
 62
     4
 10
-107.9878611020081
 20
116.3735397598834
 30
0.0
 11
-114.17759710200799
 21
122.5632757598834
 31
0.0
  0
LINE
  5
84A
  8
NOTE
  6
CONTINUOUS
 62
     4
 10
-107.8522771020081
 20
116.41473275988341
 30
0.0
 11
-114.1364041020081
 21
122.6988597598834
 31
0.0
  0
LINE
  5
84B
  8
NOTE
  6
CONTINUOUS
 62
     4
 10
-107.7198421020081
 20
116.45907475988341
 30
0.0
 11
-114.0920621020081
 21
122.83129375988339
 31
0.0
  0
LINE
  5
84C
  8
NOTE
  6
CONTINUOUS
 62
     4
 10
-107.5904281020081
 20
116.5064377598835
 30
0.0
 11
-114.0446991020081
 21
122.96070775988341
 31
0.0
  0
LINE
  5
84D
  8
NOTE
  6
CONTINUOUS
 62
     4
 10
-107.4639211020081
 20
116.55670775988339
 30
0.0
 11
-113.9944291020081
 21
123.08721475988349
 31
0.0
  0
LINE
  5
84E
  8
NOTE
  6
CONTINUOUS
 62
     4
 10
-107.3402201020081
 20
116.6097827598835
 30
0.0
 11
-113.94135310200809
 21
123.21091575988351
 31
0.0
  0
LINE
  5
84F
  8
NOTE
  6
CONTINUOUS
 62
     4
 10
-107.2192361020081
 20
116.6655757598834
 30
0.0
 11
-113.8855611020081
 21
123.3318997598835
 31
0.0
  0
LINE
  5
850
  8
NOTE
  6
CONTINUOUS
 62
     4
 10
-107.10089010200799
 20
116.7240057598835
 30
0.0
 11
-113.8271301020081
 21
123.4502467598835
 31
0.0
  0
LINE
  5
851
  8
NOTE
  6
CONTINUOUS
 62
     4
 10
-106.9851121020081
 20
116.78500475988341
 30
0.0
 11
-113.7661321020081
 21
123.5660247598834
 31
0.0
  0
LINE
  5
852
  8
NOTE
  6
CONTINUOUS
 62
     4
 10
-106.87184010200799
 20
116.8485087598835
 30
0.0
 11
-113.70262710200809
 21
123.6792967598835
 31
0.0
  0
LINE
  5
853
  8
NOTE
  6
CONTINUOUS
 62
     4
 10
-106.76101910200811
 20
116.9144657598834
 30
0.0
 11
-113.63667110200809
 21
123.7901167598835
 31
0.0
  0
LINE
  5
854
  8
NOTE
  6
CONTINUOUS
 62
     4
 10
-106.6526031020081
 20
116.9828257598835
 30
0.0
 11
-113.5683111020081
 21
123.89853375988351
 31
0.0
  0
LINE
  5
855
  8
NOTE
  6
CONTINUOUS
 62
     4
 10
-106.5465491020081
 20
117.0535487598833
 30
0.0
 11
-113.497588102008
 21
124.0045867598834
 31
0.0
  0
LINE
  5
856
  8
NOTE
  6
CONTINUOUS
 62
     4
 10
-106.44282210200809
 20
117.12659875988351
 30
0.0
 11
-113.4245381020081
 21
124.1083147598835
 31
0.0
  0
LINE
  5
857
  8
NOTE
  6
CONTINUOUS
 62
     4
 10
-106.3413911020081
 20
117.20194375988351
 30
0.0
 11
-113.3491931020081
 21
124.2097457598835
 31
0.0
  0
LINE
  5
858
  8
NOTE
  6
CONTINUOUS
 62
     4
 10
-106.24223010200809
 20
117.2795597598835
 30
0.0
 11
-113.2715771020081
 21
124.3089057598835
 31
0.0
  0
LINE
  5
859
  8
NOTE
  6
CONTINUOUS
 62
     4
 10
-106.1453191020081
 20
117.35942575988339
 30
0.0
 11
-113.1917111020081
 21
124.40581675988339
 31
0.0
  0
LINE
  5
85A
  8
NOTE
  6
CONTINUOUS
 62
     4
 10
-106.0506421020081
 20
117.44152475988339
 30
0.0
 11
-113.1096121020081
 21
124.5004947598834
 31
0.0
  0
LINE
  5
85B
  8
NOTE
  6
CONTINUOUS
 62
     4
 10
-105.9581851020081
 20
117.5258447598835
 30
0.0
 11
-113.0252911020081
 21
124.59295075988339
 31
0.0
  0
LINE
  5
85C
  8
NOTE
  6
CONTINUOUS
 62
     4
 10
-105.8679431020081
 20
117.6123797598835
 30
0.0
 11
-112.9387571020081
 21
124.68319375988339
 31
0.0
  0
LINE
  5
85D
  8
NOTE
  6
CONTINUOUS
 62
     4
 10
-105.7799111020081
 20
117.7011237598835
 30
0.0
 11
-112.85001310200811
 21
124.77122575988339
 31
0.0
  0
LINE
  5
85E
  8
NOTE
  6
CONTINUOUS
 62
     4
 10
-105.6940901020081
 20
117.79207975988351
 30
0.0
 11
-112.7590571020081
 21
124.8570467598834
 31
0.0
  0
LINE
  5
85F
  8
NOTE
  6
CONTINUOUS
 62
     4
 10
-105.6104841020082
 20
117.8852507598835
 30
0.0
 11
-112.6658861020081
 21
124.94065175988349
 31
0.0
  0
LINE
  5
860
  8
NOTE
  6
CONTINUOUS
 62
     4
 10
-105.52910410200811
 20
117.9806467598834
 30
0.0
 11
-112.57049010200809
 21
125.0220327598834
 31
0.0
  0
LINE
  5
861
  8
NOTE
  6
CONTINUOUS
 62
     4
 10
-105.4499611020081
 20
118.0782807598834
 30
0.0
 11
-112.4728551020081
 21
125.10117475988351
 31
0.0
  0
LINE
  5
862
  8
NOTE
  6
CONTINUOUS
 62
     4
 10
-105.3730751020081
 20
118.1781717598835
 30
0.0
 11
-112.3729651020081
 21
125.17806175988341
 31
0.0
  0
LINE
  5
863
  8
NOTE
  6
CONTINUOUS
 62
     4
 10
-105.29846610200811
 20
118.2803397598834
 30
0.0
 11
-112.2707971020081
 21
125.2526697598834
 31
0.0
  0
LINE
  5
864
  8
NOTE
  6
CONTINUOUS
 62
     4
 10
-105.2261631020081
 20
118.3848137598835
 30
0.0
 11
-112.16632310200811
 21
125.32497275988349
 31
0.0
  0
LINE
  5
865
  8
NOTE
  6
CONTINUOUS
 62
     4
 10
-105.1561981020081
 20
118.49162475988339
 30
0.0
 11
-112.0595121020081
 21
125.3949387598835
 31
0.0
  0
LINE
  5
866
  8
NOTE
  6
CONTINUOUS
 62
     4
 10
-105.0886081020081
 20
118.6008107598835
 30
0.0
 11
-111.95032510200809
 21
125.4625287598835
 31
0.0
  0
LINE
  5
867
  8
NOTE
  6
CONTINUOUS
 62
     4
 10
-105.02343610200811
 20
118.7124167598834
 30
0.0
 11
-111.8387201020081
 21
125.5276997598835
 31
0.0
  0
LINE
  5
868
  8
NOTE
  6
CONTINUOUS
 62
     4
 10
-104.96073310200811
 20
118.8264897598835
 30
0.0
 11
-111.72464610200799
 21
125.5904027598835
 31
0.0
  0
LINE
  5
869
  8
NOTE
  6
CONTINUOUS
 62
     4
 10
-104.9005561020081
 20
118.94308875988339
 30
0.0
 11
-111.6080471020081
 21
125.6505807598835
 31
0.0
  0
LINE
  5
86A
  8
NOTE
  6
CONTINUOUS
 62
     4
 10
-104.8429681020081
 20
119.0622777598835
 30
0.0
 11
-111.48885910200811
 21
125.70816875988351
 31
0.0
  0
LINE
  5
86B
  8
NOTE
  6
CONTINUOUS
 62
     4
 10
-104.78804210200811
 20
119.18412875988351
 30
0.0
 11
-111.3670081020081
 21
125.7630947598835
 31
0.0
  0
LINE
  5
86C
  8
NOTE
  6
CONTINUOUS
 62
     4
 10
-104.7358601020081
 20
119.30872375988341
 30
0.0
 11
-111.2424131020081
 21
125.81527575988341
 31
0.0
  0
LINE
  5
86D
  8
NOTE
  6
CONTINUOUS
 62
     4
 10
-104.6865161020081
 20
119.4361567598834
 30
0.0
 11
-111.1149801020081
 21
125.8646197598834
 31
0.0
  0
LINE
  5
86E
  8
NOTE
  6
CONTINUOUS
 62
     4
 10
-104.6401141020082
 20
119.56653075988351
 30
0.0
 11
-110.9846061020081
 21
125.91102275988339
 31
0.0
  0
LINE
  5
86F
  8
NOTE
  6
CONTINUOUS
 62
     4
 10
-104.5967721020081
 20
119.6999657598835
 30
0.0
 11
-110.8511711020081
 21
125.95436375988351
 31
0.0
  0
LINE
  5
870
  8
NOTE
  6
CONTINUOUS
 62
     4
 10
-104.5566251020081
 20
119.83659575988339
 30
0.0
 11
-110.7145411020081
 21
125.9945107598835
 31
0.0
  0
LINE
  5
871
  8
NOTE
  6
CONTINUOUS
 62
     4
 10
-104.5198261020081
 20
119.9765727598835
 30
0.0
 11
-110.5745641020081
 21
126.0313107598834
 31
0.0
  0
LINE
  5
872
  8
NOTE
  6
CONTINUOUS
 62
     4
 10
-104.4865481020081
 20
120.1200717598835
 30
0.0
 11
-110.43106510200811
 21
126.06458775988339
 31
0.0
  0
LINE
  5
873
  8
NOTE
  6
CONTINUOUS
 62
     4
 10
-104.4569921020081
 20
120.2672927598835
 30
0.0
 11
-110.2838441020081
 21
126.09414375988349
 31
0.0
  0
LINE
  5
874
  8
NOTE
  6
CONTINUOUS
 62
     4
 10
-104.4313881020081
 20
120.4184657598834
 30
0.0
 11
-110.1326711020081
 21
126.1197477598834
 31
0.0
  0
LINE
  5
875
  8
NOTE
  6
CONTINUOUS
 62
     4
 10
-104.4100041020081
 20
120.5738577598834
 30
0.0
 11
-109.9772791020081
 21
126.1411327598834
 31
0.0
  0
LINE
  5
876
  8
NOTE
  6
CONTINUOUS
 62
     4
 10
-104.3931521020081
 20
120.7337817598835
 30
0.0
 11
-109.8173541020081
 21
126.1579847598834
 31
0.0
  0
LINE
  5
877
  8
NOTE
  6
CONTINUOUS
 62
     4
 10
-104.38120110200811
 20
120.8986077598834
 30
0.0
 11
-109.6525291020081
 21
126.1699357598835
 31
0.0
  0
LINE
  5
878
  8
NOTE
  6
CONTINUOUS
 62
     4
 10
-104.3745911020081
 20
121.0687747598835
 30
0.0
 11
-109.4823621020081
 21
126.1765457598835
 31
0.0
  0
LINE
  5
879
  8
NOTE
  6
CONTINUOUS
 62
     4
 10
-104.3738531020081
 20
121.2448137598835
 30
0.0
 11
-109.30632310200799
 21
126.1772827598835
 31
0.0
  0
LINE
  5
87A
  8
NOTE
  6
CONTINUOUS
 62
     4
 10
-104.3796401020081
 20
121.4273767598835
 30
0.0
 11
-109.12376010200811
 21
126.1714967598834
 31
0.0
  0
LINE
  5
87B
  8
NOTE
  6
CONTINUOUS
 62
     4
 10
-104.39276110200809
 20
121.6172747598834
 30
0.0
 11
-108.93386210200811
 21
126.1583757598834
 31
0.0
  0
LINE
  5
87C
  8
NOTE
  6
CONTINUOUS
 62
     4
 10
-104.4142501020081
 20
121.8155407598835
 30
0.0
 11
-108.7355961020081
 21
126.1368867598835
 31
0.0
  0
LINE
  5
87D
  8
NOTE
  6
CONTINUOUS
 62
     4
 10
-104.4454591020081
 20
122.0235267598834
 30
0.0
 11
-108.5276101020081
 21
126.10567675988349
 31
0.0
  0
LINE
  5
87E
  8
NOTE
  6
CONTINUOUS
 62
     4
 10
-104.4882131020081
 20
122.2430567598835
 30
0.0
 11
-108.30807910200809
 21
126.0629237598834
 31
0.0
  0
LINE
  5
87F
  8
NOTE
  6
CONTINUOUS
 62
     4
 10
-104.54508310200811
 20
122.47670375988351
 30
0.0
 11
-108.0744321020081
 21
126.0060527598834
 31
0.0
  0
LINE
  5
880
  8
NOTE
  6
CONTINUOUS
 62
     4
 10
-104.6199071020081
 20
122.7283047598835
 30
0.0
 11
-107.82283210200811
 21
125.93122975988349
 31
0.0
  0
LINE
  5
881
  8
NOTE
  6
CONTINUOUS
 62
     4
 10
-104.7188871020081
 20
123.0040607598834
 30
0.0
 11
-107.54707610200811
 21
125.8322497598835
 31
0.0
  0
LINE
  5
882
  8
NOTE
  6
CONTINUOUS
 62
     4
 10
-104.85336710200821
 20
123.3153177598835
 30
0.0
 11
-107.23581910200809
 21
125.6977697598835
 31
0.0
  0
LINE
  5
883
  8
NOTE
  6
CONTINUOUS
 62
     4
 10
-105.0491481020081
 20
123.6878757598835
 30
0.0
 11
-106.8632611020081
 21
125.5019887598835
 31
0.0
  0
LINE
  5
884
  8
NOTE
  6
CONTINUOUS
 62
     4
 10
-105.4086241020081
 20
124.2241277598834
 30
0.0
 11
-106.32700910200811
 21
125.1425127598835
 31
0.0
  0
LINE
  5
88C
  8
NOTE
  6
CONTINUOUS
 62
     4
 10
-80.0
 20
148.0
 30
0.0
 11
-110.0
 21
148.0
 31
0.0
  0
CIRCLE
  5
88D
  8
DETAIL
  6
CONTINUOUS
 62
     5
 10
-95.0
 20
148.0
 30
0.0
 40
1.45
  0
LINE
  5
891
  8
NOTE
  6
CONTINUOUS
 62
     4
 10
-95.0
 20
133.0
 30
0.0
 11
-95.0
 21
163.0
 31
0.0
  0
CIRCLE
  5
892
  8
DETAIL
  6
CONTINUOUS
 62
     5
 10
95.0
 20
148.0
 30
0.0
 40
1.45
  0
LINE
  5
893
  8
NOTE
  6
CONTINUOUS
 62
     4
 10
110.0
 20
148.0
 30
0.0
 11
80.0
 21
148.0
 31
0.0
  0
LINE
  5
894
  8
NOTE
  6
CONTINUOUS
 62
     4
 10
95.0
 20
133.0
 30
0.0
 11
95.0
 21
163.0
 31
0.0
  0
LINE
  5
89B
  8
NOTE
  6
CONTINUOUS
 62
     4
 10
-80.0
 20
75.0
 30
0.0
 11
-110.0
 21
75.0
 31
0.0
  0
CIRCLE
  5
89C
  8
DETAIL
  6
CONTINUOUS
 62
     5
 10
-95.0
 20
75.0
 30
0.0
 40
1.45
  0
LINE
  5
8A0
  8
NOTE
  6
CONTINUOUS
 62
     4
 10
-95.0
 20
60.0
 30
0.0
 11
-95.0
 21
90.0
 31
0.0
  0
CIRCLE
  5
8A1
  8
DETAIL
  6
CONTINUOUS
 62
     5
 10
95.0
 20
75.0
 30
0.0
 40
1.45
  0
LINE
  5
8A2
  8
NOTE
  6
CONTINUOUS
 62
     4
 10
95.0
 20
60.0
 30
0.0
 11
95.0
 21
90.0
 31
0.0
  0
LINE
  5
8A3
  8
NOTE
  6
CONTINUOUS
 62
     4
 10
110.0
 20
75.0
 30
0.0
 11
80.0
 21
75.0
 31
0.0
  0
LINE
  5
8C7
  8
DETAIL
  6
CONTINUOUS
 62
     5
 10
-120.0000155656671
 20
133.9999939303234
 30
0.0
 11
-120.0000155656671
 21
88.999993930323413
 31
0.0
  0
LINE
  5
A15
  8
NOTE
  6
CONTINUOUS
 62
     4
 10
-335.0
 20
1.0
 30
0.0
 11
-436.30744900000002
 21
1.0
 31
0.0
  0
LINE
  5
A16
  8
NOTE
  6
CONTINUOUS
 62
     4
 10
-335.0
 20
21.0
 30
0.0
 11
-436.30744900000002
 21
21.0
 31
0.0
  0
LINE
  5
A17
  8
NOTE
  6
CONTINUOUS
 62
     4
 10
-425.2650079999998
 20
1.0
 30
0.0
 11
-405.2650079999998
 21
21.0
 31
0.0
  0
LINE
  5
A18
  8
NOTE
  6
CONTINUOUS
 62
     4
 10
-420.2650079999998
 20
1.0
 30
0.0
 11
-400.2650079999998
 21
21.0
 31
0.0
  0
LINE
  5
A19
  8
NOTE
  6
CONTINUOUS
 62
     4
 10
-415.26500799999991
 20
1.0
 30
0.0
 11
-395.2650079999998
 21
21.0
 31
0.0
  0
LINE
  5
A1A
  8
NOTE
  6
CONTINUOUS
 62
     4
 10
-385.26500799999991
 20
1.0
 30
0.0
 11
-365.26500799999991
 21
21.0
 31
0.0
  0
LINE
  5
A1B
  8
NOTE
  6
CONTINUOUS
 62
     4
 10
-380.26500799999991
 20
1.0
 30
0.0
 11
-360.26500799999991
 21
21.0
 31
0.0
  0
LINE
  5
A1C
  8
NOTE
  6
CONTINUOUS
 62
     4
 10
-375.26500799999991
 20
1.0
 30
0.0
 11
-355.2650079999998
 21
21.0
 31
0.0
  0
POINT
  5
A1D
  8
DEFPOINTS
  6
CONTINUOUS
 62
     7
 10
-335.0
 20
1.0
 30
0.0
  0
POINT
  5
A1E
  8
DEFPOINTS
  6
CONTINUOUS
 62
     7
 10
-335.0
 20
1.0
 30
0.0
  0
POINT
  5
A1F
  8
DEFPOINTS
  6
CONTINUOUS
 62
     7
 10
-335.0
 20
1.0
 30
0.0
  0
LINE
  5
A20
  8
NOTE
  6
CONTINUOUS
 62
     4
 10
-335.0
 20
1.0
 30
0.0
 11
-335.0
 21
21.0
 31
0.0
  0
LINE
  5
A21
  8
NOTE
  6
CONTINUOUS
 62
     4
 10
335.000001610006
 20
1.000000656499195
 30
0.0
 11
436.30745061000601
 21
1.000000656499195
 31
0.0
  0
LINE
  5
A22
  8
NOTE
  6
CONTINUOUS
 62
     4
 10
335.000001610006
 20
21.0000006564992
 30
0.0
 11
436.30745061000601
 21
21.0000006564992
 31
0.0
  0
POINT
  5
A23
  8
DEFPOINTS
  6
CONTINUOUS
 62
     7
 10
335.000001610006
 20
1.000000656499195
 30
0.0
  0
POINT
  5
A24
  8
DEFPOINTS
  6
CONTINUOUS
 62
     7
 10
335.000001610006
 20
1.000000656499195
 30
0.0
  0
POINT
  5
A25
  8
DEFPOINTS
  6
CONTINUOUS
 62
     7
 10
335.000001610006
 20
1.000000656499195
 30
0.0
  0
LINE
  5
A26
  8
NOTE
  6
CONTINUOUS
 62
     4
 10
335.000001610006
 20
1.000000656499195
 30
0.0
 11
335.000001610006
 21
21.0000006564992
 31
0.0
  0
LINE
  5
A27
  8
NOTE
  6
CONTINUOUS
 62
     4
 10
375.26500961000568
 20
1.000000656499195
 30
0.0
 11
355.26500961000568
 21
21.0000006564992
 31
0.0
  0
LINE
  5
A28
  8
NOTE
  6
CONTINUOUS
 62
     4
 10
380.26500961000568
 20
1.000000656499195
 30
0.0
 11
360.26500961000568
 21
21.0000006564992
 31
0.0
  0
LINE
  5
A29
  8
NOTE
  6
CONTINUOUS
 62
     4
 10
385.26500961000568
 20
1.000000656499195
 30
0.0
 11
365.26500961000568
 21
21.0000006564992
 31
0.0
  0
LINE
  5
A2A
  8
NOTE
  6
CONTINUOUS
 62
     4
 10
415.26500961000568
 20
1.000000656499195
 30
0.0
 11
395.26500961000568
 21
21.0000006564992
 31
0.0
  0
LINE
  5
A2B
  8
NOTE
  6
CONTINUOUS
 62
     4
 10
420.26500961000568
 20
1.000000656499195
 30
0.0
 11
400.26500961000568
 21
21.0000006564992
 31
0.0
  0
LINE
  5
A2C
  8
NOTE
  6
CONTINUOUS
 62
     4
 10
425.26500961000568
 20
1.000000656499195
 30
0.0
 11
405.26500961000568
 21
21.0000006564992
 31
0.0
  0
LINE
  5
AE4
  8
SIZE
  6
CONTINUOUS
 62
    30
 10
337.0
 20
391.0
 30
0.0
 11
870.28257645922349
 21
391.0
 31
0.0
  0
LINE
  5
AE5
  8
SIZE
  6
CONTINUOUS
 62
    30
 10
337.0
 20
60.0
 30
0.0
 11
870.28257645922349
 21
59.999999999999851
 31
0.0
  0
LINE
  5
AE6
  8
SIZE
  6
CONTINUOUS
 62
    30
 10
840.28257645922361
 20
380.99999999999972
 30
0.0
 11
840.28257645922315
 21
69.999999999999844
 31
0.0
  0
LINE
  5
AEC
  8
SIZE
  6
CONTINUOUS
 62
    30
 10
337.0
 20
391.0
 30
0.0
 11
750.25957676268843
 21
391.0
 31
0.0
  0
LINE
  5
AED
  8
SIZE
  6
CONTINUOUS
 62
    30
 10
332.0
 20
159.9999999999998
 30
0.0
 11
750.25957676268763
 21
159.9999999999998
 31
0.0
  0
LINE
  5
AEE
  8
SIZE
  6
CONTINUOUS
 62
    30
 10
720.25957676268786
 20
381.0
 30
0.0
 11
720.25957676268786
 21
169.9999999999998
 31
0.0
  0
LINE
  5
AF2
  8
SIZE
  6
CONTINUOUS
 62
    30
 10
375.00000161000571
 20
0.000000656499077
 30
0.0
 11
585.0898289999999
 21
0.0000006564990175
 31
0.0
  0
LINE
  5
AF3
  8
SIZE
  6
CONTINUOUS
 62
    30
 10
307.0
 20
-20.0
 30
0.0
 11
585.0898289999999
 21
-20.000000000000082
 31
0.0
  0
LINE
  5
AF4
  8
SIZE
  6
CONTINUOUS
 62
    30
 10
555.08982900000001
 20
10.00000065649902
 30
0.0
 11
555.08982900000001
 21
20.000000656499029
 31
0.0
  0
LINE
  5
AF5
  8
SIZE
  6
CONTINUOUS
 62
    30
 10
555.08982900000001
 20
-30.000000000000071
 30
0.0
 11
555.08982900000001
 21
-158.14216271351231
 31
0.0
  0
LINE
  5
AF6
  8
SIZE
  6
CONTINUOUS
 62
    30
 10
555.08982900000001
 20
0.000000656499026
 30
0.0
 11
555.08982900000001
 21
-20.000000000000082
 31
0.0
  0
LINE
  5
AFA
  8
SIZE
  6
CONTINUOUS
 62
    30
 10
-95.0
 20
28.0
 30
0.0
 11
-95.0
 21
-175.41151272954269
 31
0.0
  0
LINE
  5
AFB
  8
SIZE
  6
CONTINUOUS
 62
    30
 10
95.0
 20
28.0
 30
0.0
 11
94.999999999999986
 21
-175.41151272954269
 31
0.0
  0
LINE
  5
AFC
  8
SIZE
  6
CONTINUOUS
 62
    30
 10
-85.000000000000014
 20
-145.41151272954261
 30
0.0
 11
84.999999999999986
 21
-145.41151272954261
 31
0.0
  0
LINE
  5
B00
  8
SIZE
  6
CONTINUOUS
 62
    30
 10
95.0
 20
28.0
 30
0.0
 11
94.999999999999986
 21
-175.41151272954269
 31
0.0
  0
LINE
  5
B01
  8
SIZE
  6
CONTINUOUS
 62
    30
 10
317.0
 20
-20.0
 30
0.0
 11
317.0
 21
-175.41151272954269
 31
0.0
  0
LINE
  5
B02
  8
SIZE
  6
CONTINUOUS
 62
    30
 10
105.0
 20
-145.41151272954261
 30
0.0
 11
307.0
 21
-145.41151272954261
 31
0.0
  0
LINE
  5
B06
  8
SIZE
  6
CONTINUOUS
 62
    30
 10
120.0
 20
57.0
 30
0.0
 11
119.9999999999999
 21
-334.97683814567517
 31
0.0
  0
LINE
  5
B07
  8
SIZE
  6
CONTINUOUS
 62
    30
 10
317.0
 20
-20.0
 30
0.0
 11
317.0
 21
-334.97683814567517
 31
0.0
  0
LINE
  5
B08
  8
SIZE
  6
CONTINUOUS
 62
    30
 10
130.0
 20
-304.97683814567517
 30
0.0
 11
307.0
 21
-304.97683814567517
 31
0.0
  0
LINE
  5
B0C
  8
SIZE
  6
CONTINUOUS
 62
    30
 10
-120.0
 20
57.0
 30
0.0
 11
-120.0
 21
-334.97683814567517
 31
0.0
  0
LINE
  5
B0D
  8
SIZE
  6
CONTINUOUS
 62
    30
 10
120.0
 20
57.0
 30
0.0
 11
119.9999999999999
 21
-334.97683814567517
 31
0.0
  0
LINE
  5
B0E
  8
SIZE
  6
CONTINUOUS
 62
    30
 10
-110.0
 20
-304.97683814567517
 30
0.0
 11
109.9999999999999
 21
-304.97683814567517
 31
0.0
  0
LINE
  5
B12
  8
SIZE
  6
CONTINUOUS
 62
    30
 10
-140.0
 20
134.0
 30
0.0
 11
-481.2807935209471
 21
134.00000000000011
 31
0.0
  0
LINE
  5
B13
  8
SIZE
  6
CONTINUOUS
 62
    30
 10
-139.9999999999998
 20
89.0
 30
0.0
 11
-481.2807935209471
 21
89.000000000000071
 31
0.0
  0
LINE
  5
B14
  8
SIZE
  6
CONTINUOUS
 62
    30
 10
-451.28079352094721
 20
124.0
 30
0.0
 11
-451.28079352094721
 21
99.000000000000071
 31
0.0
  0
LINE
  5
B15
  8
SIZE
  6
CONTINUOUS
 62
    30
 10
-451.28079352094721
 20
89.000000000000071
 30
0.0
 11
-451.28079352094721
 21
-63.987026214565923
 31
0.0
  0
LINE
  5
B19
  8
SIZE
  6
CONTINUOUS
 62
    30
 10
-130.0
 20
148.0
 30
0.0
 11
-589.03019678277644
 21
148.00000000000011
 31
0.0
  0
LINE
  5
B1A
  8
SIZE
  6
CONTINUOUS
 62
    30
 10
-130.0
 20
75.0
 30
0.0
 11
-589.03019678277644
 21
75.000000000000142
 31
0.0
  0
LINE
  5
B1B
  8
SIZE
  6
CONTINUOUS
 62
    30
 10
-559.03019678277633
 20
138.00000000000011
 30
0.0
 11
-559.03019678277633
 21
85.000000000000114
 31
0.0
  0
LINE
  5
B1C
  8
SIZE
  6
CONTINUOUS
 62
    30
 10
-559.03019678277633
 20
75.000000000000142
 30
0.0
 11
-559.03019678277633
 21
-66.342966550355399
 31
0.0
  0
TEXT
  5
B20
  8
SIZE
  6
CONTINUOUS
 62
    30
 10
-464.33431076121968
 20
-38.092137008735449
 30
0.0
 40
55.0
  1
45
 50
90.0
 41
0.9
 72
     1
 11
-464.33431076121968
 21
1.9792915626931089
 31
0.0
  0
CIRCLE
  5
B21
  8
SIZE
  6
CONTINUOUS
 62
    30
 10
-451.28079352094721
 20
89.000000000000071
 30
0.0
 40
5.0
  0
LINE
  5
B22
  8
SIZE
  6
CONTINUOUS
 62
    30
 10
-451.28079352094721
 20
94.000000000000071
 30
0.0
 11
-451.28079352094721
 21
99.000000000000071
 31
0.0
  0
CIRCLE
  5
B23
  8
SIZE
  6
CONTINUOUS
 62
    30
 10
-451.28079352094721
 20
134.00000000000011
 30
0.0
 40
5.0
  0
LINE
  5
B24
  8
SIZE
  6
CONTINUOUS
 62
    30
 10
-451.28079352094721
 20
129.00000000000011
 30
0.0
 11
-451.28079352094721
 21
124.0
 31
0.0
  0
TEXT
  5
B25
  8
SIZE
  6
CONTINUOUS
 62
    30
 10
828.01063546642581
 20
151.9642857142855
 30
0.0
 40
55.0
  1
331
 50
90.0
 41
0.9
 72
     1
 11
828.01063546642581
 21
204.9999999999998
 31
0.0
  0
CIRCLE
  5
B26
  8
SIZE
  6
CONTINUOUS
 62
    30
 10
840.28257645922315
 20
59.999999999999851
 30
0.0
 40
5.0
  0
LINE
  5
B27
  8
SIZE
  6
CONTINUOUS
 62
    30
 10
840.28257645922315
 20
64.999999999999844
 30
0.0
 11
840.28257645922315
 21
69.999999999999844
 31
0.0
  0
CIRCLE
  5
B28
  8
SIZE
  6
CONTINUOUS
 62
    30
 10
840.28257645922361
 20
391.0
 30
0.0
 40
5.0
  0
LINE
  5
B29
  8
SIZE
  6
CONTINUOUS
 62
    30
 10
840.28257645922361
 20
385.99999999999972
 30
0.0
 11
840.28257645922361
 21
380.99999999999972
 31
0.0
  0
TEXT
  5
B2A
  8
SIZE
  6
CONTINUOUS
 62
    30
 10
707.98763576989029
 20
201.96428571428561
 30
0.0
 40
55.0
  1
231
 50
90.0
 41
0.9
 72
     1
 11
707.98763576989029
 21
254.99999999999989
 31
0.0
  0
CIRCLE
  5
B2B
  8
SIZE
  6
CONTINUOUS
 62
    30
 10
720.25957676268786
 20
159.9999999999998
 30
0.0
 40
5.0
  0
LINE
  5
B2C
  8
SIZE
  6
CONTINUOUS
 62
    30
 10
720.25957676268786
 20
164.9999999999998
 30
0.0
 11
720.25957676268786
 21
169.9999999999998
 31
0.0
  0
CIRCLE
  5
B2D
  8
SIZE
  6
CONTINUOUS
 62
    30
 10
720.25957676268786
 20
391.0
 30
0.0
 40
5.0
  0
LINE
  5
B2E
  8
SIZE
  6
CONTINUOUS
 62
    30
 10
720.25957676268786
 20
385.99999999999989
 30
0.0
 11
720.25957676268786
 21
381.0
 31
0.0
  0
TEXT
  5
B2F
  8
SIZE
  6
CONTINUOUS
 62
    30
 10
542.81788800720233
 20
-137.33134146344139
 30
0.0
 40
55.0
  1
20
 50
90.0
 41
0.9
 72
     1
 11
542.81788800720233
 21
-97.259912892012849
 31
0.0
  0
CIRCLE
  5
B30
  8
SIZE
  6
CONTINUOUS
 62
    30
 10
555.08982900000001
 20
-20.000000000000082
 30
0.0
 40
5.0
  0
LINE
  5
B31
  8
SIZE
  6
CONTINUOUS
 62
    30
 10
555.08982900000001
 20
-25.000000000000071
 30
0.0
 11
555.08982900000001
 21
-30.000000000000071
 31
0.0
  0
CIRCLE
  5
B32
  8
SIZE
  6
CONTINUOUS
 62
    30
 10
555.08982900000001
 20
0.000000656499026
 30
0.0
 40
5.0
  0
LINE
  5
B33
  8
SIZE
  6
CONTINUOUS
 62
    30
 10
555.08982900000001
 20
5.0000006564990231
 30
0.0
 11
555.08982900000001
 21
10.00000065649902
 31
0.0
  0
TEXT
  5
B34
  8
SIZE
  6
CONTINUOUS
 62
    30
 10
-572.08371402304863
 20
-38.09213700873547
 30
0.0
 40
55.0
  1
73
 50
90.0
 41
0.9
 72
     1
 11
-572.08371402304863
 21
1.9792915626931089
 31
0.0
  0
CIRCLE
  5
B35
  8
SIZE
  6
CONTINUOUS
 62
    30
 10
-559.03019678277633
 20
75.000000000000142
 30
0.0
 40
5.0
  0
LINE
  5
B36
  8
SIZE
  6
CONTINUOUS
 62
    30
 10
-559.03019678277633
 20
80.000000000000114
 30
0.0
 11
-559.03019678277633
 21
85.000000000000114
 31
0.0
  0
CIRCLE
  5
B37
  8
SIZE
  6
CONTINUOUS
 62
    30
 10
-559.03019678277633
 20
148.00000000000011
 30
0.0
 40
5.0
  0
LINE
  5
B38
  8
SIZE
  6
CONTINUOUS
 62
    30
 10
-559.03019678277633
 20
143.00000000000011
 30
0.0
 11
-559.03019678277633
 21
138.00000000000011
 31
0.0
  0
TEXT
  5
B39
  8
SIZE
  6
CONTINUOUS
 62
    30
 10
-58.928571428571423
 20
-130.60301193131829
 30
0.0
 40
55.0
  1
190
 41
0.9
 72
     1
 11
-0.0000000000000142
 21
-130.60301193131829
 31
0.0
  0
CIRCLE
  5
B3A
  8
SIZE
  6
CONTINUOUS
 62
    30
 10
94.999999999999986
 20
-145.41151272954261
 30
0.0
 40
5.0
  0
LINE
  5
B3B
  8
SIZE
  6
CONTINUOUS
 62
    30
 10
89.999999999999986
 20
-145.41151272954261
 30
0.0
 11
84.999999999999986
 21
-145.41151272954261
 31
0.0
  0
CIRCLE
  5
B3C
  8
SIZE
  6
CONTINUOUS
 62
    30
 10
-95.0
 20
-145.41151272954261
 30
0.0
 40
5.0
  0
LINE
  5
B3D
  8
SIZE
  6
CONTINUOUS
 62
    30
 10
-90.000000000000014
 20
-145.41151272954261
 30
0.0
 11
-85.000000000000014
 21
-145.41151272954261
 31
0.0
  0
TEXT
  5
B3E
  8
SIZE
  6
CONTINUOUS
 62
    30
 10
142.3571428571428
 20
-130.60301193131829
 30
0.0
 40
55.0
  1
222
 41
0.9
 72
     1
 11
206.0
 21
-130.60301193131829
 31
0.0
  0
CIRCLE
  5
B3F
  8
SIZE
  6
CONTINUOUS
 62
    30
 10
317.0
 20
-145.41151272954261
 30
0.0
 40
5.0
  0
LINE
  5
B40
  8
SIZE
  6
CONTINUOUS
 62
    30
 10
312.0
 20
-145.41151272954261
 30
0.0
 11
307.0
 21
-145.41151272954261
 31
0.0
  0
CIRCLE
  5
B41
  8
SIZE
  6
CONTINUOUS
 62
    30
 10
94.999999999999986
 20
-145.41151272954261
 30
0.0
 40
5.0
  0
LINE
  5
B42
  8
SIZE
  6
CONTINUOUS
 62
    30
 10
100.0
 20
-145.41151272954261
 30
0.0
 11
105.0
 21
-145.41151272954261
 31
0.0
  0
TEXT
  5
B43
  8
SIZE
  6
CONTINUOUS
 62
    30
 10
159.57142857142861
 20
-290.1683373474508
 30
0.0
 40
55.0
  1
197
 41
0.9
 72
     1
 11
218.5
 21
-290.1683373474508
 31
0.0
  0
CIRCLE
  5
B44
  8
SIZE
  6
CONTINUOUS
 62
    30
 10
317.0
 20
-304.97683814567517
 30
0.0
 40
5.0
  0
LINE
  5
B45
  8
SIZE
  6
CONTINUOUS
 62
    30
 10
312.0
 20
-304.97683814567517
 30
0.0
 11
307.0
 21
-304.97683814567517
 31
0.0
  0
CIRCLE
  5
B46
  8
SIZE
  6
CONTINUOUS
 62
    30
 10
119.9999999999999
 20
-304.97683814567517
 30
0.0
 40
5.0
  0
LINE
  5
B47
  8
SIZE
  6
CONTINUOUS
 62
    30
 10
125.0
 20
-304.97683814567517
 30
0.0
 11
130.0
 21
-304.97683814567517
 31
0.0
  0
TEXT
  5
B48
  8
SIZE
  6
CONTINUOUS
 62
    30
 10
-63.642857142857167
 20
-290.1683373474508
 30
0.0
 40
55.0
  1
240
 41
0.9
 72
     1
 11
-0.0000000000000284
 21
-290.1683373474508
 31
0.0
  0
CIRCLE
  5
B49
  8
SIZE
  6
CONTINUOUS
 62
    30
 10
119.9999999999999
 20
-304.97683814567517
 30
0.0
 40
5.0
  0
LINE
  5
B4A
  8
SIZE
  6
CONTINUOUS
 62
    30
 10
114.9999999999999
 20
-304.97683814567517
 30
0.0
 11
109.9999999999999
 21
-304.97683814567517
 31
0.0
  0
CIRCLE
  5
B4B
  8
SIZE
  6
CONTINUOUS
 62
    30
 10
-120.0
 20
-304.97683814567517
 30
0.0
 40
5.0
  0
LINE
  5
B4C
  8
SIZE
  6
CONTINUOUS
 62
    30
 10
-115.0
 20
-304.97683814567517
 30
0.0
 11
-110.0
 21
-304.97683814567517
 31
0.0
  0
LINE
  5
D9B
  8
NOTE
  6
CONTINUOUS
 62
     4
 10
428.19996236599928
 20
483.37785384483772
 30
0.0
 11
896.7287390793357
 21
483.37785384483772
 31
0.0
  0
TEXT
  5
D9C
  8
NOTE
  6
CONTINUOUS
 62
     4
 10
447.83888896702598
 20
504.87307284483768
 30
0.0
 40
55.0
  1
4-%%C2.9取付穴
 41
0.9
  0
LINE
  5
D9D
  8
NOTE
  6
CONTINUOUS
 62
     4
 10
95.0
 20
148.0
 30
0.0
 11
428.19996236599928
 21
483.37785384483772
 31
0.0
  0
POLYLINE
  5
D9E
  8
NOTE
  6
CONTINUOUS
 62
     4
 66
     1
 10
0.0
 20
0.0
 30
0.0
  0
VERTEX
  5
EE1
  8
NOTE
  6
CONTINUOUS
 62
     4
 10
114.19884779617649
 20
183.0913699874211
 30
0.0
  0
VERTEX
  5
EE2
  8
NOTE
  6
CONTINUOUS
 62
     4
 10
95.0
 20
148.0
 30
0.0
  0
VERTEX
  5
EE3
  8
NOTE
  6
CONTINUOUS
 62
     4
 10
129.17237499273031
 20
168.7905941983783
 30
0.0
  0
SEQEND
  5
EE4
  8
NOTE
  6
CONTINUOUS
 62
     4
  0
TEXT
  5
EA8
  8
ETC
  6
CONTINUOUS
 62
    61
 10
-36.111212167587837
 20
1114.423405890333
 30
0.0
 40
64.0
  1
PL-RP112_160LA10_3
 41
0.9
  0
TEXT
  5
EA9
  8
ETC
  6
CONTINUOUS
 62
    61
 10
-36.111212167587837
 20
1211.634058554145
 30
0.0
 40
64.0
  1
PL-RP112_160LA9_3
 41
0.9
  0
ENDSEC
  0
EOF
