  0
SECTION
  2
HEADER
  9
$ACADVER
  1
AC1009
  9
$INSBASE
 10
0.0
 20
0.0
 30
0.0
  9
$EXTMIN
 10
-1226.8066071285971
 20
-341.94943709525978
 30
-0.0000000000112498
  9
$EXTMAX
 10
1155.3955301123131
 20
1067.047136098899
 30
0.0000000000002956
  9
$LIMMIN
 10
-6000.0
 20
-4500.0
  9
$LIMMAX
 10
6000.0
 20
4500.0
  9
$ORTHOMODE
 70
     0
  9
$REGENMODE
 70
     1
  9
$FILLMODE
 70
     1
  9
$QTEXTMODE
 70
     0
  9
$MIRRTEXT
 70
     0
  9
$DRAGMODE
 70
     2
  9
$LTSCALE
 40
20.0
  9
$OSMODE
 70
   431
  9
$ATTMODE
 70
     1
  9
$TEXTSIZE
 40
64.0
  9
$TRACEWID
 40
0.05
  9
$TEXTSTYLE
  7
STANDARD
  9
$CLAYER
  8
SYMBOLLINE
  9
$CELTYPE
  6
CONTINUOUS
  9
$CECOLOR
 62
     7
  9
$DIMSCALE
 40
1.0
  9
$DIMASZ
 40
10.0
  9
$DIMEXO
 40
20.0
  9
$DIMDLI
 40
200.0
  9
$DIMRND
 40
0.0
  9
$DIMDLE
 40
0.0
  9
$DIMEXE
 40
30.0
  9
$DIMTP
 40
0.0
  9
$DIMTM
 40
0.0
  9
$DIMTXT
 40
64.0
  9
$DIMCEN
 40
0.0
  9
$DIMTSZ
 40
0.0
  9
$DIMTOL
 70
     0
  9
$DIMLIM
 70
     0
  9
$DIMTIH
 70
     0
  9
$DIMTOH
 70
     0
  9
$DIMSE1
 70
     0
  9
$DIMSE2
 70
     0
  9
$DIMTAD
 70
     1
  9
$DIMZIN
 70
     8
  9
$DIMBLK
  1

  9
$DIMASO
 70
     1
  9
$DIMSHO
 70
     0
  9
$DIMPOST
  1

  9
$DIMAPOST
  1

  9
$DIMALT
 70
     0
  9
$DIMALTD
 70
     2
  9
$DIMALTF
 40
25.399999999999999
  9
$DIMLFAC
 40
1.0
  9
$DIMTOFL
 70
     1
  9
$DIMTVP
 40
0.0
  9
$DIMTIX
 70
     1
  9
$DIMSOXD
 70
     0
  9
$DIMSAH
 70
     1
  9
$DIMBLK1
  1
DOTBLANK
  9
$DIMBLK2
  1
DOTBLANK
  9
$DIMSTYLE
  2
STANDARD
  9
$DIMCLRD
 70
     0
  9
$DIMCLRE
 70
     0
  9
$DIMCLRT
 70
     0
  9
$DIMTFAC
 40
1.0
  9
$DIMGAP
 40
0.09
  9
$LUNITS
 70
     2
  9
$LUPREC
 70
     4
  9
$SKETCHINC
 40
0.1
  9
$FILLETRAD
 40
20.0
  9
$AUNITS
 70
     1
  9
$AUPREC
 70
     3
  9
$MENU
  1
ACAD
  9
$ELEVATION
 40
0.0
  9
$PELEVATION
 40
0.0
  9
$THICKNESS
 40
0.0
  9
$LIMCHECK
 70
     0
  9
$BLIPMODE
 70
     0
  9
$CHAMFERA
 40
0.0
  9
$CHAMFERB
 40
0.0
  9
$SKPOLY
 70
     0
  9
$TDCREATE
 40
2450330.4399309959
  9
$TDUPDATE
 40
2455866.794375787
  9
$TDINDWG
 40
1.4826929282000001
  9
$TDUSRTIMER
 40
1.4826573032000001
  9
$USRTIMER
 70
     1
  9
$ANGBASE
 50
0.0
  9
$ANGDIR
 70
     0
  9
$PDMODE
 70
     3
  9
$PDSIZE
 40
-2.0
  9
$PLINEWID
 40
0.0
  9
$COORDS
 70
     0
  9
$SPLFRAME
 70
     0
  9
$SPLINETYPE
 70
     6
  9
$SPLINESEGS
 70
     8
  9
$ATTDIA
 70
     0
  9
$ATTREQ
 70
     1
  9
$HANDLING
 70
     1
  9
$HANDSEED
  5
88B
  9
$SURFTAB1
 70
     6
  9
$SURFTAB2
 70
     6
  9
$SURFTYPE
 70
     6
  9
$SURFU
 70
     6
  9
$SURFV
 70
     6
  9
$UCSNAME
  2

  9
$UCSORG
 10
0.0
 20
0.0
 30
0.0
  9
$UCSXDIR
 10
1.0
 20
0.0
 30
0.0
  9
$UCSYDIR
 10
0.0
 20
1.0
 30
0.0
  9
$PUCSNAME
  2

  9
$PUCSORG
 10
0.0
 20
0.0
 30
0.0
  9
$PUCSXDIR
 10
1.0
 20
0.0
 30
0.0
  9
$PUCSYDIR
 10
0.0
 20
1.0
 30
0.0
  9
$USERI1
 70
     0
  9
$USERI2
 70
     0
  9
$USERI3
 70
     0
  9
$USERI4
 70
     0
  9
$USERI5
 70
     0
  9
$USERR1
 40
20.0
  9
$USERR2
 40
0.0
  9
$USERR3
 40
0.0
  9
$USERR4
 40
0.0
  9
$USERR5
 40
0.0
  9
$WORLDVIEW
 70
     1
  9
$SHADEDGE
 70
     3
  9
$SHADEDIF
 70
    70
  9
$TILEMODE
 70
     1
  9
$MAXACTVP
 70
    48
  9
$PLIMCHECK
 70
     0
  9
$PEXTMIN
 10
1.0000000000000000E+020
 20
1.0000000000000000E+020
 30
1.0000000000000000E+020
  9
$PEXTMAX
 10
-1.0000000000000000E+020
 20
-1.0000000000000000E+020
 30
-1.0000000000000000E+020
  9
$PLIMMIN
 10
0.0
 20
0.0
  9
$PLIMMAX
 10
12.0
 20
9.0
  9
$UNITMODE
 70
     0
  9
$VISRETAIN
 70
     1
  9
$PLINEGEN
 70
     0
  9
$PSLTSCALE
 70
     1
  0
ENDSEC
  0
SECTION
  2
TABLES
  0
TABLE
  2
VPORT
 70
     1
  0
VPORT
  2
*ACTIVE
 70
     0
 10
0.0
 20
0.0
 11
1.0
 21
1.0
 12
-0.0000000000001137
 22
0.0
 13
0.0
 23
0.0
 14
50.0
 24
50.0
 15
100.0
 25
100.0
 16
0.0
 26
0.0
 36
1.0
 17
0.0
 27
0.0
 37
0.0
 40
9068.6149936467591
 41
1.555979643765903
 42
50.0
 43
0.0
 44
0.0
 50
0.0
 51
0.0
 71
     0
 72
  1000
 73
     1
 74
     0
 75
     0
 76
     0
 77
     0
 78
     0
  0
ENDTAB
  0
TABLE
  2
LTYPE
 70
     2
  0
LTYPE
  2
CONTINUOUS
 70
     0
  3
実線
 72
    65
 73
     0
 40
0.0
  0
LTYPE
  2
DASHDOT
 70
     0
  3
____ _ ____ _ ____ _ ____ _ ____ _ ____ _ ____
 72
    65
 73
     4
 40
5.5
 49
4.0
 49
-0.6
 49
0.3
 49
-0.6
  0
ENDTAB
  0
TABLE
  2
LAYER
 70
    12
  0
LAYER
  2
0
 70
     0
 62
     7
  6
CONTINUOUS
  0
LAYER
  2
SYMBOLLINE
 70
     0
 62
    15
  6
CONTINUOUS
  0
LAYER
  2
SIZE
 70
     0
 62
    30
  6
CONTINUOUS
  0
LAYER
  2
OUTLINE
 70
     0
 62
     3
  6
CONTINUOUS
  0
LAYER
  2
DETAIL
 70
     0
 62
     5
  6
CONTINUOUS
  0
LAYER
  2
BASIS
 70
     0
 62
     6
  6
DASHDOT
  0
LAYER
  2
NOTE
 70
     0
 62
     4
  6
CONTINUOUS
  0
LAYER
  2
ARRANGE
 70
     0
 62
     1
  6
CONTINUOUS
  0
LAYER
  2
FIX
 70
     0
 62
    11
  6
CONTINUOUS
  0
LAYER
  2
SERVICESPACE
 70
     0
 62
     2
  6
DASHDOT
  0
LAYER
  2
ETC
 70
     0
 62
    61
  6
CONTINUOUS
  0
LAYER
  2
DEFPOINTS
 70
     0
 62
     7
  6
CONTINUOUS
  0
ENDTAB
  0
TABLE
  2
STYLE
 70
     2
  0
STYLE
  2
STANDARD
 70
     0
 40
0.0
 41
0.9
 50
0.0
 71
     0
 42
64.0
  3
SIMPLEX
  4
BIGFONT
  0
STYLE
  2
ANNOTATIVE
 70
     0
 40
0.0
 41
1.0
 50
0.0
 71
     0
 42
0.2
  3
txt
  4

  0
ENDTAB
  0
TABLE
  2
VIEW
 70
     3
  0
VIEW
  2
ALL
 70
     0
 40
9000.0
 10
241.50664699999999
 20
0.0
 41
12483.01
 11
0.0
 21
0.0
 31
1.0
 12
0.0
 22
0.0
 32
0.0
 42
50.0
 43
0.0
 44
0.0
 50
0.0
 71
     0
  0
ENDTAB
  0
TABLE
  2
UCS
 70
     0
  0
ENDTAB
  0
TABLE
  2
APPID
 70
     4
  0
APPID
  2
ACAD
 70
     0
  0
APPID
  2
ACADANNOTATIVE
 70
     0
  0
APPID
  2
ACAD_MLEADERVER
 70
     0
  0
APPID
  2
ACAD_EXEMPT_FROM_CAD_STANDARDS
 70
     0
  0
ENDTAB
  0
TABLE
  2
DIMSTYLE
 70
     2
  0
DIMSTYLE
  2
STANDARD
 70
     0
  3

  4

  5

  6

  7

 40
1.0
 41
0.18
 42
0.0625
 43
0.38
 44
0.18
 45
0.0
 46
0.0
 47
0.0
 48
0.0
140
0.18
141
0.09
142
0.0
143
25.399999999999999
144
1.0
145
0.0
146
1.0
147
0.09
 71
     0
 72
     0
 73
     1
 74
     1
 75
     0
 76
     0
 77
     0
 78
     0
170
     0
171
     2
172
     0
173
     0
174
     0
175
     0
176
     0
177
     0
178
     0
  0
DIMSTYLE
  2
ANNOTATIVE
 70
     0
  3

  4

  5

  6

  7

 40
1.0
 41
0.18
 42
0.0625
 43
0.38
 44
0.18
 45
0.0
 46
0.0
 47
0.0
 48
0.0
140
0.18
141
0.09
142
0.0
143
25.399999999999999
144
1.0
145
0.0
146
1.0
147
0.09
 71
     0
 72
     0
 73
     1
 74
     1
 75
     0
 76
     0
 77
     0
 78
     0
170
     0
171
     2
172
     0
173
     0
174
     0
175
     0
176
     0
177
     0
178
     0
  0
ENDTAB
  0
ENDSEC
  0
SECTION
  2
BLOCKS
  0
BLOCK
  8
0
  2
$MODEL_SPACE
 70
     0
 10
0.0
 20
0.0
 30
0.0
  3
$MODEL_SPACE
  1

  0
ENDBLK
  5
7E7
  8
0
  0
BLOCK
 67
     1
  8
0
  2
$PAPER_SPACE
 70
     0
 10
0.0
 20
0.0
 30
0.0
  3
$PAPER_SPACE
  1

  0
ENDBLK
  5
7E3
 67
     1
  8
0
  0
BLOCK
  8
0
  2
_DOTBLANK
 70
     0
 10
0.0
 20
0.0
 30
0.0
  3
_DOTBLANK
  1

  0
CIRCLE
  5
30
  8
0
  6
CONTINUOUS
 62
     7
 10
0.0
 20
0.0
 30
0.0
 40
0.5
  0
LINE
  5
31
  8
0
  6
CONTINUOUS
 62
     7
 10
-0.5
 20
0.0
 30
0.0
 11
-1.0
 21
0.0
 31
0.0
  0
ENDBLK
  5
32
  8
0
  0
BLOCK
  8
0
 62
     7
  2
*D3
 70
     1
 10
0.0
 20
0.0
 30
0.0
  3
*D3
  1

  0
LINE
  5
382
  8
SIZE
  6
CONTINUOUS
 62
     0
 10
-388.0
 20
358.0
 30
0.0
 11
-388.0
 21
428.90888960621669
 31
0.0
  0
LINE
  5
383
  8
SIZE
  6
CONTINUOUS
 62
     0
 10
-448.0
 20
314.0
 30
0.0
 11
-448.0
 21
428.90888960621669
 31
0.0
  0
LINE
  5
384
  8
SIZE
  6
CONTINUOUS
 62
     0
 10
-398.0
 20
398.9088896062168
 30
0.0
 11
-438.0
 21
398.9088896062168
 31
0.0
  0
LINE
  5
385
  8
SIZE
  6
CONTINUOUS
 62
     0
 10
-448.0
 20
398.9088896062168
 30
0.0
 11
-594.98922093274246
 21
398.9088896062168
 31
0.0
  0
INSERT
  5
386
  8
SIZE
  6
CONTINUOUS
 62
     0
  2
_DOTBLANK
 10
-388.0
 20
398.9088896062168
 30
0.0
 41
10.0
 42
10.0
 43
10.0
  0
INSERT
  5
387
  8
SIZE
  6
CONTINUOUS
 62
     0
  2
_DOTBLANK
 10
-448.0
 20
398.9088896062168
 30
0.0
 41
10.0
 42
10.0
 43
10.0
 50
180.0
  0
INSERT
  5
388
  8
SYMBOLLINE
  6
CONTINUOUS
 62
     7
  2
*U4
 10
0.0
 20
0.0
 30
0.0
  0
POINT
  5
389
  8
DEFPOINTS
  6
CONTINUOUS
 62
     0
 10
-388.0
 20
338.0
 30
0.0
  0
POINT
  5
38A
  8
DEFPOINTS
  6
CONTINUOUS
 62
     0
 10
-448.0
 20
294.0
 30
0.0
  0
POINT
  5
38B
  8
DEFPOINTS
  6
CONTINUOUS
 62
     0
 10
-448.0
 20
398.9088896062168
 30
0.0
  0
ENDBLK
  5
308
  8
0
 62
     7
  0
BLOCK
  8
0
 62
     7
  2
*U4
 70
     1
 10
0.0
 20
0.0
 30
0.0
  3
*U4
  1

  0
TEXT
  5
424
  8
SIZE
  6
CONTINUOUS
 62
     0
 10
-594.89922093274242
 20
398.99888960621672
 30
0.0
 40
64.0
  1
60
 41
0.9
  0
ENDBLK
  5
426
  8
0
 62
     7
  0
BLOCK
  8
0
 62
     7
  2
*D5
 70
     1
 10
0.0
 20
0.0
 30
0.0
  3
*D5
  1

  0
LINE
  5
378
  8
SIZE
  6
CONTINUOUS
 62
     0
 10
-388.0
 20
358.0
 30
0.0
 11
-388.0
 21
526.19287630041435
 31
0.0
  0
LINE
  5
379
  8
SIZE
  6
CONTINUOUS
 62
     0
 10
-455.0
 20
239.17500000000001
 30
0.0
 11
-455.0
 21
526.19287630041435
 31
0.0
  0
LINE
  5
37A
  8
SIZE
  6
CONTINUOUS
 62
     0
 10
-398.0
 20
496.19287630041413
 30
0.0
 11
-445.0
 21
496.19287630041413
 31
0.0
  0
LINE
  5
37B
  8
SIZE
  6
CONTINUOUS
 62
     0
 10
-455.0
 20
496.19287630041413
 30
0.0
 11
-594.98922093274246
 21
496.19287630041413
 31
0.0
  0
INSERT
  5
37C
  8
SIZE
  6
CONTINUOUS
 62
     0
  2
_DOTBLANK
 10
-388.0
 20
496.19287630041413
 30
0.0
 41
10.0
 42
10.0
 43
10.0
  0
INSERT
  5
37D
  8
SIZE
  6
CONTINUOUS
 62
     0
  2
_DOTBLANK
 10
-455.0
 20
496.19287630041413
 30
0.0
 41
10.0
 42
10.0
 43
10.0
 50
180.0
  0
INSERT
  5
37E
  8
SYMBOLLINE
  6
CONTINUOUS
 62
     7
  2
*U6
 10
0.0
 20
0.0
 30
0.0
  0
POINT
  5
37F
  8
DEFPOINTS
  6
CONTINUOUS
 62
     0
 10
-388.0
 20
338.0
 30
0.0
  0
POINT
  5
380
  8
DEFPOINTS
  6
CONTINUOUS
 62
     0
 10
-455.0
 20
219.17500000000001
 30
0.0
  0
POINT
  5
381
  8
DEFPOINTS
  6
CONTINUOUS
 62
     0
 10
-455.0
 20
496.19287630041413
 30
0.0
  0
ENDBLK
  5
317
  8
0
 62
     7
  0
BLOCK
  8
0
 62
     7
  2
*U6
 70
     1
 10
0.0
 20
0.0
 30
0.0
  3
*U6
  1

  0
TEXT
  5
420
  8
SIZE
  6
CONTINUOUS
 62
     0
 10
-594.89922093274242
 20
496.28287630041422
 30
0.0
 40
64.0
  1
67
 41
0.9
  0
ENDBLK
  5
422
  8
0
 62
     7
  0
BLOCK
  8
0
 62
     7
  2
*D7
 70
     1
 10
0.0
 20
0.0
 30
0.0
  3
*D7
  1

  0
LINE
  5
36E
  8
SIZE
  6
CONTINUOUS
 62
     0
 10
-388.0
 20
358.0
 30
0.0
 11
-388.0
 21
629.11652867518535
 31
0.0
  0
LINE
  5
36F
  8
SIZE
  6
CONTINUOUS
 62
     0
 10
-466.00000000000011
 20
235.99999999999989
 30
0.0
 11
-466.00000000000011
 21
629.11652867518535
 31
0.0
  0
LINE
  5
370
  8
SIZE
  6
CONTINUOUS
 62
     0
 10
-398.0
 20
599.11652867518535
 30
0.0
 11
-456.0
 21
599.11652867518535
 31
0.0
  0
LINE
  5
371
  8
SIZE
  6
CONTINUOUS
 62
     0
 10
-466.00000000000011
 20
599.11652867518535
 30
0.0
 11
-596.39985078498796
 21
599.11652867518535
 31
0.0
  0
INSERT
  5
372
  8
SIZE
  6
CONTINUOUS
 62
     0
  2
_DOTBLANK
 10
-388.0
 20
599.11652867518535
 30
0.0
 41
10.0
 42
10.0
 43
10.0
  0
INSERT
  5
373
  8
SIZE
  6
CONTINUOUS
 62
     0
  2
_DOTBLANK
 10
-466.00000000000011
 20
599.11652867518535
 30
0.0
 41
10.0
 42
10.0
 43
10.0
 50
180.0
  0
INSERT
  5
374
  8
SYMBOLLINE
  6
CONTINUOUS
 62
     7
  2
*U8
 10
0.0
 20
0.0
 30
0.0
  0
POINT
  5
375
  8
DEFPOINTS
  6
CONTINUOUS
 62
     0
 10
-388.0
 20
338.0
 30
0.0
  0
POINT
  5
376
  8
DEFPOINTS
  6
CONTINUOUS
 62
     0
 10
-466.00000000000011
 20
215.99999999999989
 30
0.0
  0
POINT
  5
377
  8
DEFPOINTS
  6
CONTINUOUS
 62
     0
 10
-466.00000000000011
 20
599.11652867518535
 30
0.0
  0
ENDBLK
  5
326
  8
0
 62
     7
  0
BLOCK
  8
0
 62
     7
  2
*U8
 70
     1
 10
0.0
 20
0.0
 30
0.0
  3
*U8
  1

  0
TEXT
  5
41C
  8
SIZE
  6
CONTINUOUS
 62
     0
 10
-596.30985078498804
 20
599.20652867518561
 30
0.0
 40
64.0
  1
78
 41
0.9
  0
ENDBLK
  5
41E
  8
0
 62
     7
  0
ENDSEC
  0
SECTION
  2
ENTITIES
  0
TEXT
  5
34
  8
ETC
  6
CONTINUOUS
 62
    61
 10
310.25927748038521
 20
1002.961110863598
 30
0.0
 40
64.0
  1
PL-RP40_56LA6_4
 41
0.9
  0
LINE
  5
35
  8
NOTE
  6
CONTINUOUS
 62
     4
 10
-448.0
 20
262.0
 30
0.0
 11
-448.0
 21
294.0
 31
0.0
  0
LINE
  5
36
  8
DETAIL
  6
CONTINUOUS
 62
     5
 10
-448.0
 20
294.0
 30
0.0
 11
-448.0
 21
262.0
 31
0.0
  0
LINE
  5
38
  8
NOTE
  6
CONTINUOUS
 62
     4
 10
-438.0
 20
72.210874000000004
 30
0.0
 11
-693.57953866599019
 21
-266.71635500000002
 31
0.0
  0
LINE
  5
39
  8
DETAIL
  6
CONTINUOUS
 62
     5
 10
-388.0
 20
338.0
 30
0.0
 11
388.0
 21
338.0
 31
0.0
  0
CIRCLE
  5
3A
  8
ARRANGE
  6
CONTINUOUS
 62
     1
 10
0.0
 20
0.0
 30
0.0
 40
40.0
  0
LINE
  5
3B
  8
DETAIL
  6
CONTINUOUS
 62
     5
 10
388.0
 20
48.0
 30
0.0
 11
-388.0
 21
48.0
 31
0.0
  0
LINE
  5
3C
  8
DETAIL
  6
CONTINUOUS
 62
     5
 10
-498.0
 20
45.0
 30
0.0
 11
498.0
 21
45.0
 31
0.0
  0
LINE
  5
3D
  8
DETAIL
  6
CONTINUOUS
 62
     5
 10
-540.0
 20
0.0
 30
0.0
 11
540.0
 21
0.0
 31
0.0
  0
POINT
  5
3E
  8
ARRANGE
  6
CONTINUOUS
 62
     1
 10
0.0
 20
0.0
 30
0.0
  0
LINE
  5
3F
  8
DETAIL
  6
CONTINUOUS
 62
     5
 10
498.0
 20
45.0
 30
0.0
 11
498.0
 21
0.0
 31
0.0
  0
LINE
  5
41
  8
DETAIL
  6
CONTINUOUS
 62
     5
 10
388.0
 20
338.0
 30
0.0
 11
388.0
 21
45.0
 31
0.0
  0
LINE
  5
43
  8
NOTE
  6
CONTINUOUS
 62
     4
 10
392.0
 20
148.0
 30
0.0
 11
432.0
 21
148.0
 31
0.0
  0
LINE
  5
44
  8
NOTE
  6
CONTINUOUS
 62
     4
 10
412.0
 20
128.0
 30
0.0
 11
412.0
 21
168.0
 31
0.0
  0
POLYLINE
  5
45
  8
NOTE
  6
CONTINUOUS
 62
     4
 66
     1
 10
0.0
 20
0.0
 30
0.0
  0
VERTEX
  5
834
  8
NOTE
  6
CONTINUOUS
 62
     4
 10
424.78769699999998
 20
185.90085500000001
 30
0.0
  0
VERTEX
  5
835
  8
NOTE
  6
CONTINUOUS
 62
     4
 10
412.0
 20
148.0
 30
0.0
  0
VERTEX
  5
836
  8
NOTE
  6
CONTINUOUS
 62
     4
 10
442.02489800000012
 20
174.42925500000001
 30
0.0
  0
SEQEND
  5
837
  8
NOTE
  6
CONTINUOUS
 62
     4
  0
LINE
  5
4A
  8
NOTE
  6
CONTINUOUS
 62
     4
 10
412.0
 20
148.0
 30
0.0
 11
460.7723469999998
 21
221.33069699999999
 31
0.0
  0
CIRCLE
  5
4B
  8
FIX
  6
CONTINUOUS
 62
    11
 10
412.0
 20
148.0
 30
0.0
 40
5.0
  0
LINE
  5
4C
  8
DETAIL
  6
CONTINUOUS
 62
     5
 10
388.0
 20
148.0
 30
0.0
 11
438.0
 21
148.0
 31
0.0
  0
LINE
  5
4D
  8
DETAIL
  6
CONTINUOUS
 62
     5
 10
388.0
 20
145.0
 30
0.0
 11
435.0
 21
145.0
 31
0.0
  0
LINE
  5
4E
  8
DETAIL
  6
CONTINUOUS
 62
     5
 10
435.0
 20
140.0
 30
0.0
 11
438.0
 21
140.0
 31
0.0
  0
LINE
  5
4F
  8
DETAIL
  6
CONTINUOUS
 62
     5
 10
435.0
 20
145.0
 30
0.0
 11
435.0
 21
140.0
 31
0.0
  0
LINE
  5
50
  8
DETAIL
  6
CONTINUOUS
 62
     5
 10
438.0
 20
148.0
 30
0.0
 11
438.0
 21
140.0
 31
0.0
  0
LINE
  5
51
  8
DETAIL
  6
CONTINUOUS
 62
     5
 10
-498.0
 20
45.0
 30
0.0
 11
-498.0
 21
0.0
 31
0.0
  0
LINE
  5
52
  8
BASIS
  6
DASHDOT
 62
     6
 10
0.0
 20
415.86406599999992
 30
0.0
 11
0.0
 21
-76.418196999999978
 31
0.0
  0
LINE
  5
56
  8
DETAIL
  6
CONTINUOUS
 62
     5
 10
-388.0
 20
338.0
 30
0.0
 11
-388.0
 21
45.0
 31
0.0
  0
LINE
  5
57
  8
NOTE
  6
CONTINUOUS
 62
     4
 10
-458.0
 20
72.210874000000004
 30
0.0
 11
-418.0
 21
72.210874000000004
 31
0.0
  0
LINE
  5
58
  8
DETAIL
  6
CONTINUOUS
 62
     5
 10
-388.0
 20
47.210873999999997
 30
0.0
 11
-438.0
 21
47.210873999999997
 31
0.0
  0
LINE
  5
59
  8
DETAIL
  6
CONTINUOUS
 62
     5
 10
-388.0
 20
97.210874000000004
 30
0.0
 11
-438.0
 21
97.210874000000004
 31
0.0
  0
LINE
  5
5A
  8
DETAIL
  6
CONTINUOUS
 62
     5
 10
-435.0
 20
145.0
 30
0.0
 11
-388.0
 21
145.0
 31
0.0
  0
LINE
  5
5B
  8
DETAIL
  6
CONTINUOUS
 62
     5
 10
-438.0
 20
148.0
 30
0.0
 11
-388.0
 21
148.0
 31
0.0
  0
LINE
  5
5C
  8
NOTE
  6
CONTINUOUS
 62
     4
 10
-432.0
 20
148.0
 30
0.0
 11
-392.0
 21
148.0
 31
0.0
  0
LINE
  5
5D
  8
NOTE
  6
CONTINUOUS
 62
     4
 10
-412.0
 20
128.0
 30
0.0
 11
-412.0
 21
168.0
 31
0.0
  0
CIRCLE
  5
64
  8
FIX
  6
CONTINUOUS
 62
    11
 10
-412.0
 20
148.0
 30
0.0
 40
5.0
  0
LINE
  5
65
  8
NOTE
  6
CONTINUOUS
 62
     4
 10
-438.0
 20
52.210873999999997
 30
0.0
 11
-438.0
 21
92.210874000000004
 31
0.0
  0
POLYLINE
  5
66
  8
NOTE
  6
CONTINUOUS
 62
     4
 66
     1
 10
0.0
 20
0.0
 30
0.0
  0
VERTEX
  5
838
  8
NOTE
  6
CONTINUOUS
 62
     4
 10
-453.02017429415088
 20
35.138049413776343
 30
0.0
  0
VERTEX
  5
839
  8
NOTE
  6
CONTINUOUS
 62
     4
 10
-438.0
 20
72.210874000000004
 30
0.0
  0
VERTEX
  5
83A
  8
NOTE
  6
CONTINUOUS
 62
     4
 10
-469.54426528305288
 20
47.614953449315301
 30
0.0
  0
SEQEND
  5
83B
  8
NOTE
  6
CONTINUOUS
 62
     4
  0
LINE
  5
6B
  8
DETAIL
  6
CONTINUOUS
 62
     5
 10
-488.0
 20
227.971373
 30
0.0
 11
-488.0
 21
185.221025
 31
0.0
  0
LINE
  5
6C
  8
DETAIL
  6
CONTINUOUS
 62
     5
 10
-438.0
 20
140.0
 30
0.0
 11
-435.0
 21
140.0
 31
0.0
  0
LINE
  5
6D
  8
DETAIL
  6
CONTINUOUS
 62
     5
 10
-435.0
 20
145.0
 30
0.0
 11
-435.0
 21
140.0
 31
0.0
  0
LINE
  5
6E
  8
DETAIL
  6
CONTINUOUS
 62
     5
 10
-438.0
 20
148.0
 30
0.0
 11
-438.0
 21
140.0
 31
0.0
  0
LINE
  5
6F
  8
NOTE
  6
CONTINUOUS
 62
     4
 10
-468.0
 20
278.0
 30
0.0
 11
-428.0
 21
278.0
 31
0.0
  0
POLYLINE
  5
70
  8
NOTE
  6
CONTINUOUS
 62
     4
 66
     1
 10
0.0
 20
0.0
 30
0.0
  0
VERTEX
  5
83C
  8
NOTE
  6
CONTINUOUS
 62
     4
 10
-483.96975994918108
 20
295.49789784013041
 30
0.0
  0
VERTEX
  5
83D
  8
NOTE
  6
CONTINUOUS
 62
     4
 10
-448.0
 20
278.0
 30
0.0
  0
VERTEX
  5
83E
  8
NOTE
  6
CONTINUOUS
 62
     4
 10
-470.40177622314928
 20
311.138502940656
 30
0.0
  0
SEQEND
  5
83F
  8
NOTE
  6
CONTINUOUS
 62
     4
  0
LINE
  5
75
  8
NOTE
  6
CONTINUOUS
 62
     4
 10
-448.0
 20
278.0
 30
0.0
 11
-735.63925220409885
 21
500.4605357164146
 31
0.0
  0
LINE
  5
76
  8
DETAIL
  6
CONTINUOUS
 62
     5
 10
-448.0
 20
262.0
 30
0.0
 11
-388.0
 21
262.0
 31
0.0
  0
LINE
  5
77
  8
DETAIL
  6
CONTINUOUS
 62
     5
 10
-448.0
 20
294.0
 30
0.0
 11
-388.0
 21
294.0
 31
0.0
  0
LINE
  5
7A
  8
DETAIL
  6
CONTINUOUS
 62
     5
 10
-471.99999984745313
 20
-20.00000007590916
 30
0.0
 11
472.0
 21
-20.0
 31
0.0
  0
ARC
  5
7B
  8
DETAIL
  6
CONTINUOUS
 62
     5
 10
451.90766199999979
 20
173.91395
 30
0.0
 40
194.952102
 50
275.91557599999999
 51
296.86350499999992
  0
ARC
  5
7D
  8
DETAIL
  6
CONTINUOUS
 62
     5
 10
-451.90766199999979
 20
173.91395
 30
0.0
 40
194.952102
 50
243.13649500000011
 51
264.08442400000001
  0
LINE
  5
7E
  8
DETAIL
  6
CONTINUOUS
 62
     5
 10
-388.0
 20
72.0
 30
0.0
 11
388.0
 21
72.0
 31
0.0
  0
LINE
  5
80
  8
DETAIL
  6
CONTINUOUS
 62
     5
 10
-488.0
 20
185.221025
 30
0.0
 11
-388.0
 21
162.971373
 31
0.0
  0
LINE
  5
82
  8
DETAIL
  6
CONTINUOUS
 62
     5
 10
-438.0
 20
97.210874000000004
 30
0.0
 11
-438.0
 21
47.210873999999997
 31
0.0
  0
POLYLINE
  5
83
  8
NOTE
  6
CONTINUOUS
 62
     4
 66
     1
 10
0.0
 20
0.0
 30
0.0
  0
VERTEX
  5
840
  8
NOTE
  6
CONTINUOUS
 62
     4
 10
295.80080099999998
 20
332.759615
 30
0.0
  0
VERTEX
  5
841
  8
NOTE
  6
CONTINUOUS
 62
     4
 10
268.0
 20
304.0
 30
0.0
  0
VERTEX
  5
842
  8
NOTE
  6
CONTINUOUS
 62
     4
 10
306.456007
 20
315.00615800000008
 30
0.0
  0
SEQEND
  5
843
  8
NOTE
  6
CONTINUOUS
 62
     4
  0
LINE
  5
88
  8
NOTE
  6
CONTINUOUS
 62
     4
 10
268.0
 20
304.0
 30
0.0
 11
579.43318899999986
 21
499.56117499999999
 31
0.0
  0
TEXT
  5
89
  8
NOTE
  6
CONTINUOUS
 62
     4
 10
579.13976400000001
 20
516.98559800000021
 30
0.0
 40
64.0
  1
6-%%C2.9取付穴
 41
0.9
  0
LINE
  5
8A
  8
NOTE
  6
CONTINUOUS
 62
     4
 10
579.43318899999986
 20
499.56117499999999
 30
0.0
 11
1102.14922
 21
499.56117499999999
 31
0.0
  0
LINE
  5
8B
  8
NOTE
  6
CONTINUOUS
 62
     4
 10
-477.36591900000002
 20
-153.072731
 30
0.0
 11
-121.07352899999999
 21
250.10499200000001
 31
0.0
  0
TEXT
  5
8C
  8
NOTE
  6
CONTINUOUS
 62
     4
 10
-390.271411
 20
-145.604545
 30
0.0
 40
55.0
  1
分ﾀﾞｸﾄ接続口､別売加湿器接続口
 41
0.9
  0
LINE
  5
8D
  8
NOTE
  6
CONTINUOUS
 62
     4
 10
-477.36591900000002
 20
-153.072731
 30
0.0
 11
485.16081099999991
 21
-153.072731
 31
0.0
  0
CIRCLE
  5
8E
  8
NOTE
  6
CONTINUOUS
 62
     4
 10
-123.22924999999999
 20
250.10499200000001
 30
0.0
 40
5.0
  0
LINE
  5
8F
  8
NOTE
  6
CONTINUOUS
 62
     4
 10
-119.26447
 20
253.151387
 30
0.0
 11
-120.182855
 21
254.069772
 31
0.0
  0
LINE
  5
90
  8
NOTE
  6
CONTINUOUS
 62
     4
 10
-118.904995
 20
252.61513400000001
 30
0.0
 11
-120.71910800000001
 21
254.429247
 31
0.0
  0
LINE
  5
91
  8
NOTE
  6
CONTINUOUS
 62
     4
 10
-118.70921300000001
 20
252.24257600000001
 30
0.0
 11
-121.091666
 21
254.62502900000001
 31
0.0
  0
LINE
  5
92
  8
NOTE
  6
CONTINUOUS
 62
     4
 10
-118.57473299999999
 20
251.93132
 30
0.0
 11
-121.402923
 21
254.75950900000001
 31
0.0
  0
LINE
  5
93
  8
NOTE
  6
CONTINUOUS
 62
     4
 10
-118.47575399999999
 20
251.655563
 30
0.0
 11
-121.678679
 21
254.85848799999999
 31
0.0
  0
LINE
  5
94
  8
NOTE
  6
CONTINUOUS
 62
     4
 10
-118.40093
 20
251.403963
 30
0.0
 11
-121.930279
 21
254.933312
 31
0.0
  0
LINE
  5
95
  8
NOTE
  6
CONTINUOUS
 62
     4
 10
-118.34406
 20
251.17031600000001
 30
0.0
 11
-122.163926
 21
254.990182
 31
0.0
  0
LINE
  5
96
  8
NOTE
  6
CONTINUOUS
 62
     4
 10
-118.301306
 20
250.95078599999999
 30
0.0
 11
-122.38345700000001
 21
255.03293600000001
 31
0.0
  0
LINE
  5
97
  8
NOTE
  6
CONTINUOUS
 62
     4
 10
-118.27009700000001
 20
250.74279999999999
 30
0.0
 11
-122.591442
 21
255.064145
 31
0.0
  0
LINE
  5
98
  8
NOTE
  6
CONTINUOUS
 62
     4
 10
-118.24860700000001
 20
250.544533
 30
0.0
 11
-122.789709
 21
255.085635
 31
0.0
  0
LINE
  5
99
  8
NOTE
  6
CONTINUOUS
 62
     4
 10
-118.23548599999999
 20
250.354636
 30
0.0
 11
-122.979606
 21
255.09875600000001
 31
0.0
  0
LINE
  5
9A
  8
NOTE
  6
CONTINUOUS
 62
     4
 10
-118.22969999999999
 20
250.17207300000001
 30
0.0
 11
-123.16216900000001
 21
255.10454200000001
 31
0.0
  0
LINE
  5
9B
  8
NOTE
  6
CONTINUOUS
 62
     4
 10
-118.23043800000001
 20
249.99603300000001
 30
0.0
 11
-123.33820900000001
 21
255.10380499999999
 31
0.0
  0
LINE
  5
9C
  8
NOTE
  6
CONTINUOUS
 62
     4
 10
-118.237047
 20
249.82586699999999
 30
0.0
 11
-123.508375
 21
255.097195
 31
0.0
  0
LINE
  5
9D
  8
NOTE
  6
CONTINUOUS
 62
     4
 10
-118.248998
 20
249.66104100000001
 30
0.0
 11
-123.67320100000001
 21
255.08524399999999
 31
0.0
  0
LINE
  5
9E
  8
NOTE
  6
CONTINUOUS
 62
     4
 10
-118.265851
 20
249.50111699999999
 30
0.0
 11
-123.83312599999999
 21
255.06839099999999
 31
0.0
  0
LINE
  5
9F
  8
NOTE
  6
CONTINUOUS
 62
     4
 10
-118.287235
 20
249.34572399999999
 30
0.0
 11
-123.988518
 21
255.04700700000001
 31
0.0
  0
LINE
  5
A0
  8
NOTE
  6
CONTINUOUS
 62
     4
 10
-118.312839
 20
249.19455199999999
 30
0.0
 11
-124.139691
 21
255.02140299999999
 31
0.0
  0
LINE
  5
A1
  8
NOTE
  6
CONTINUOUS
 62
     4
 10
-118.342395
 20
249.04733100000001
 30
0.0
 11
-124.286911
 21
254.99184700000001
 31
0.0
  0
LINE
  5
A2
  8
NOTE
  6
CONTINUOUS
 62
     4
 10
-118.37567300000001
 20
248.90383199999999
 30
0.0
 11
-124.43040999999999
 21
254.95856900000001
 31
0.0
  0
LINE
  5
A3
  8
NOTE
  6
CONTINUOUS
 62
     4
 10
-118.41247199999999
 20
248.76385500000001
 30
0.0
 11
-124.57038799999999
 21
254.92177000000001
 31
0.0
  0
LINE
  5
A4
  8
NOTE
  6
CONTINUOUS
 62
     4
 10
-118.452619
 20
248.62722500000001
 30
0.0
 11
-124.70701699999999
 21
254.88162299999999
 31
0.0
  0
LINE
  5
A5
  8
NOTE
  6
CONTINUOUS
 62
     4
 10
-118.49596099999999
 20
248.49378999999999
 30
0.0
 11
-124.840452
 21
254.83828099999999
 31
0.0
  0
LINE
  5
A6
  8
NOTE
  6
CONTINUOUS
 62
     4
 10
-118.54236299999999
 20
248.363415
 30
0.0
 11
-124.970827
 21
254.79187899999999
 31
0.0
  0
LINE
  5
A7
  8
NOTE
  6
CONTINUOUS
 62
     4
 10
-118.591707
 20
248.235983
 30
0.0
 11
-125.098259
 21
254.742535
 31
0.0
  0
LINE
  5
A8
  8
NOTE
  6
CONTINUOUS
 62
     4
 10
-118.643889
 20
248.11138700000001
 30
0.0
 11
-125.222855
 21
254.69035400000001
 31
0.0
  0
LINE
  5
A9
  8
NOTE
  6
CONTINUOUS
 62
     4
 10
-118.698814
 20
247.98953700000001
 30
0.0
 11
-125.344706
 21
254.63542799999999
 31
0.0
  0
LINE
  5
AA
  8
NOTE
  6
CONTINUOUS
 62
     4
 10
-118.75640199999999
 20
247.87034800000001
 30
0.0
 11
-125.463894
 21
254.57784000000001
 31
0.0
  0
LINE
  5
AB
  8
NOTE
  6
CONTINUOUS
 62
     4
 10
-118.81658
 20
247.753749
 30
0.0
 11
-125.580493
 21
254.517662
 31
0.0
  0
LINE
  5
AC
  8
NOTE
  6
CONTINUOUS
 62
     4
 10
-118.879283
 20
247.63967500000001
 30
0.0
 11
-125.69456700000001
 21
254.454959
 31
0.0
  0
LINE
  5
AD
  8
NOTE
  6
CONTINUOUS
 62
     4
 10
-118.944455
 20
247.52807000000001
 30
0.0
 11
-125.806172
 21
254.38978800000001
 31
0.0
  0
LINE
  5
AE
  8
NOTE
  6
CONTINUOUS
 62
     4
 10
-119.012045
 20
247.41888399999999
 30
0.0
 11
-125.915359
 21
254.32219699999999
 31
0.0
  0
LINE
  5
AF
  8
NOTE
  6
CONTINUOUS
 62
     4
 10
-119.08201
 20
247.312072
 30
0.0
 11
-126.02217
 21
254.25223199999999
 31
0.0
  0
LINE
  5
B0
  8
NOTE
  6
CONTINUOUS
 62
     4
 10
-119.154313
 20
247.20759899999999
 30
0.0
 11
-126.126644
 21
254.17992899999999
 31
0.0
  0
LINE
  5
B1
  8
NOTE
  6
CONTINUOUS
 62
     4
 10
-119.228922
 20
247.10543000000001
 30
0.0
 11
-126.228812
 21
254.105321
 31
0.0
  0
LINE
  5
B2
  8
NOTE
  6
CONTINUOUS
 62
     4
 10
-119.305808
 20
247.00554
 30
0.0
 11
-126.32870200000001
 21
254.028434
 31
0.0
  0
LINE
  5
B3
  8
NOTE
  6
CONTINUOUS
 62
     4
 10
-119.38495
 20
246.907906
 30
0.0
 11
-126.42633600000001
 21
253.94929200000001
 31
0.0
  0
LINE
  5
B4
  8
NOTE
  6
CONTINUOUS
 62
     4
 10
-119.466331
 20
246.81251
 30
0.0
 11
-126.521732
 21
253.86791099999999
 31
0.0
  0
LINE
  5
B5
  8
NOTE
  6
CONTINUOUS
 62
     4
 10
-119.549936
 20
246.71933799999999
 30
0.0
 11
-126.614904
 21
253.78430599999999
 31
0.0
  0
LINE
  5
B6
  8
NOTE
  6
CONTINUOUS
 62
     4
 10
-119.635758
 20
246.62838300000001
 30
0.0
 11
-126.705859
 21
253.69848400000001
 31
0.0
  0
LINE
  5
B7
  8
NOTE
  6
CONTINUOUS
 62
     4
 10
-119.72378999999999
 20
246.539638
 30
0.0
 11
-126.79460400000001
 21
253.61045200000001
 31
0.0
  0
LINE
  5
B8
  8
NOTE
  6
CONTINUOUS
 62
     4
 10
-119.814032
 20
246.453104
 30
0.0
 11
-126.88113800000001
 21
253.52020999999999
 31
0.0
  0
LINE
  5
B9
  8
NOTE
  6
CONTINUOUS
 62
     4
 10
-119.906488
 20
246.36878300000001
 30
0.0
 11
-126.965459
 21
253.42775399999999
 31
0.0
  0
LINE
  5
BA
  8
NOTE
  6
CONTINUOUS
 62
     4
 10
-120.001166
 20
246.28668400000001
 30
0.0
 11
-127.047558
 21
253.33307600000001
 31
0.0
  0
LINE
  5
BB
  8
NOTE
  6
CONTINUOUS
 62
     4
 10
-120.098077
 20
246.206819
 30
0.0
 11
-127.12742299999999
 21
253.236165
 31
0.0
  0
LINE
  5
BC
  8
NOTE
  6
CONTINUOUS
 62
     4
 10
-120.197238
 20
246.12920299999999
 30
0.0
 11
-127.205039
 21
253.13700399999999
 31
0.0
  0
LINE
  5
BD
  8
NOTE
  6
CONTINUOUS
 62
     4
 10
-120.298669
 20
246.05385699999999
 30
0.0
 11
-127.280385
 21
253.035573
 31
0.0
  0
LINE
  5
BE
  8
NOTE
  6
CONTINUOUS
 62
     4
 10
-120.402396
 20
245.980808
 30
0.0
 11
-127.35343399999999
 21
252.93184600000001
 31
0.0
  0
LINE
  5
BF
  8
NOTE
  6
CONTINUOUS
 62
     4
 10
-120.50845
 20
245.91008500000001
 30
0.0
 11
-127.42415699999999
 21
252.82579200000001
 31
0.0
  0
LINE
  5
C0
  8
NOTE
  6
CONTINUOUS
 62
     4
 10
-120.616866
 20
245.841724
 30
0.0
 11
-127.492518
 21
252.717376
 31
0.0
  0
LINE
  5
C1
  8
NOTE
  6
CONTINUOUS
 62
     4
 10
-120.727687
 20
245.775768
 30
0.0
 11
-127.558474
 21
252.60655600000001
 31
0.0
  0
LINE
  5
C2
  8
NOTE
  6
CONTINUOUS
 62
     4
 10
-120.840959
 20
245.71226300000001
 30
0.0
 11
-127.621979
 21
252.49328299999999
 31
0.0
  0
LINE
  5
C3
  8
NOTE
  6
CONTINUOUS
 62
     4
 10
-120.956737
 20
245.651265
 30
0.0
 11
-127.68297699999999
 21
252.37750500000001
 31
0.0
  0
LINE
  5
C4
  8
NOTE
  6
CONTINUOUS
 62
     4
 10
-121.07508300000001
 20
245.59283500000001
 30
0.0
 11
-127.74140800000001
 21
252.25915900000001
 31
0.0
  0
LINE
  5
C5
  8
NOTE
  6
CONTINUOUS
 62
     4
 10
-121.196067
 20
245.53704200000001
 30
0.0
 11
-127.7972
 21
252.13817499999999
 31
0.0
  0
LINE
  5
C6
  8
NOTE
  6
CONTINUOUS
 62
     4
 10
-121.319768
 20
245.48396600000001
 30
0.0
 11
-127.85027599999999
 21
252.01447400000001
 31
0.0
  0
LINE
  5
C7
  8
NOTE
  6
CONTINUOUS
 62
     4
 10
-121.446275
 20
245.433697
 30
0.0
 11
-127.90054600000001
 21
251.887967
 31
0.0
  0
LINE
  5
C8
  8
NOTE
  6
CONTINUOUS
 62
     4
 10
-121.5756889999999
 20
245.38633400000001
 30
0.0
 11
-127.947908
 21
251.75855300000001
 31
0.0
  0
LINE
  5
C9
  8
NOTE
  6
CONTINUOUS
 62
     4
 10
-121.708123
 20
245.34199100000001
 30
0.0
 11
-127.992251
 21
251.62611899999999
 31
0.0
  0
LINE
  5
CA
  8
NOTE
  6
CONTINUOUS
 62
     4
 10
-121.84370800000001
 20
245.30079900000001
 30
0.0
 11
-128.03344300000001
 21
251.49053499999999
 31
0.0
  0
LINE
  5
CB
  8
NOTE
  6
CONTINUOUS
 62
     4
 10
-121.98258800000001
 20
245.262902
 30
0.0
 11
-128.07133999999999
 21
251.351654
 31
0.0
  0
LINE
  5
CC
  8
NOTE
  6
CONTINUOUS
 62
     4
 10
-122.124931
 20
245.22846899999999
 30
0.0
 11
-128.105773
 21
251.20931100000001
 31
0.0
  0
LINE
  5
CD
  8
NOTE
  6
CONTINUOUS
 62
     4
 10
-122.270928
 20
245.197689
 30
0.0
 11
-128.13655299999999
 21
251.06331399999999
 31
0.0
  0
LINE
  5
CE
  8
NOTE
  6
CONTINUOUS
 62
     4
 10
-122.4208
 20
245.170784
 30
0.0
 11
-128.16345799999999
 21
250.913443
 31
0.0
  0
LINE
  5
CF
  8
NOTE
  6
CONTINUOUS
 62
     4
 10
-122.5748
 20
245.14800700000001
 30
0.0
 11
-128.18623500000001
 21
250.75944200000001
 31
0.0
  0
LINE
  5
D0
  8
NOTE
  6
CONTINUOUS
 62
     4
 10
-122.733226
 20
245.12965700000001
 30
0.0
 11
-128.20458500000001
 21
250.60101599999999
 31
0.0
  0
LINE
  5
D1
  8
NOTE
  6
CONTINUOUS
 62
     4
 10
-122.896427
 20
245.11608100000001
 30
0.0
 11
-128.21816100000001
 21
250.437815
 31
0.0
  0
LINE
  5
D2
  8
NOTE
  6
CONTINUOUS
 62
     4
 10
-123.064819
 20
245.107696
 30
0.0
 11
-128.22654600000001
 21
250.26942299999999
 31
0.0
  0
LINE
  5
D3
  8
NOTE
  6
CONTINUOUS
 62
     4
 10
-123.2389
 20
245.10500099999999
 30
0.0
 11
-128.229241
 21
250.09534199999999
 31
0.0
  0
LINE
  5
D4
  8
NOTE
  6
CONTINUOUS
 62
     4
 10
-123.41928
 20
245.10860400000001
 30
0.0
 11
-128.22563799999969
 21
249.914962
 31
0.0
  0
LINE
  5
D5
  8
NOTE
  6
CONTINUOUS
 62
     4
 10
-123.606712
 20
245.11926
 30
0.0
 11
-128.21498199999999
 21
249.72753
 31
0.0
  0
LINE
  5
D6
  8
NOTE
  6
CONTINUOUS
 62
     4
 10
-123.80215099999999
 20
245.137922
 30
0.0
 11
-128.19631999999999
 21
249.53209100000001
 31
0.0
  0
LINE
  5
D7
  8
NOTE
  6
CONTINUOUS
 62
     4
 10
-124.00683100000001
 20
245.16582500000001
 30
0.0
 11
-128.16841700000001
 21
249.32741100000001
 31
0.0
  0
LINE
  5
D8
  8
NOTE
  6
CONTINUOUS
 62
     4
 10
-124.222402
 20
245.20462000000001
 30
0.0
 11
-128.12962300000001
 21
249.11184
 31
0.0
  0
LINE
  5
D9
  8
NOTE
  6
CONTINUOUS
 62
     4
 10
-124.451154
 20
245.256595
 30
0.0
 11
-128.07764700000001
 21
248.88308799999999
 31
0.0
  0
LINE
  5
DA
  8
NOTE
  6
CONTINUOUS
 62
     4
 10
-124.69643600000001
 20
245.32509999999999
 30
0.0
 11
-128.009142
 21
248.63780600000001
 31
0.0
  0
LINE
  5
DB
  8
NOTE
  6
CONTINUOUS
 62
     4
 10
-124.96350200000001
 20
245.41539
 30
0.0
 11
-127.918853
 21
248.37074000000001
 31
0.0
  0
LINE
  5
DC
  8
NOTE
  6
CONTINUOUS
 62
     4
 10
-125.261529
 20
245.53663900000001
 30
0.0
 11
-127.797603
 21
248.07271299999999
 31
0.0
  0
LINE
  5
DD
  8
NOTE
  6
CONTINUOUS
 62
     4
 10
-125.609645
 20
245.70797899999999
 30
0.0
 11
-127.62626299999999
 21
247.72459699999999
 31
0.0
  0
LINE
  5
DE
  8
NOTE
  6
CONTINUOUS
 62
     4
 10
-126.066163
 20
245.98772
 30
0.0
 11
-127.34652199999999
 21
247.268079
 31
0.0
  0
LINE
  5
E8
  8
NOTE
  6
CONTINUOUS
 62
     4
 10
-466.0
 20
216.0
 30
0.0
 11
-793.39636703695601
 21
-37.963907605608263
 31
0.0
  0
POLYLINE
  5
E9
  8
NOTE
  6
CONTINUOUS
 62
     4
 66
     1
 10
0.0
 20
0.0
 30
0.0
  0
VERTEX
  5
844
  8
NOTE
  6
CONTINUOUS
 62
     4
 10
-488.65009105215557
 20
183.03072034146871
 30
0.0
  0
VERTEX
  5
845
  8
NOTE
  6
CONTINUOUS
 62
     4
 10
-466.00000000000011
 20
216.0
 30
0.0
  0
VERTEX
  5
846
  8
NOTE
  6
CONTINUOUS
 62
     4
 10
-502.10019300179562
 20
198.77281284711131
 30
0.0
  0
SEQEND
  5
847
  8
NOTE
  6
CONTINUOUS
 62
     4
  0
LINE
  5
EE
  8
NOTE
  6
CONTINUOUS
 62
     4
 10
-455.0
 20
216.0
 30
0.0
 11
-799.00419947427145
 21
-139.08545875090559
 31
0.0
  0
POLYLINE
  5
EF
  8
NOTE
  6
CONTINUOUS
 62
     4
 66
     1
 10
0.0
 20
0.0
 30
0.0
  0
VERTEX
  5
848
  8
NOTE
  6
CONTINUOUS
 62
     4
 10
-469.70981016317057
 20
178.80293734552669
 30
0.0
  0
VERTEX
  5
849
  8
NOTE
  6
CONTINUOUS
 62
     4
 10
-455.0
 20
216.0
 30
0.0
  0
VERTEX
  5
84A
  8
NOTE
  6
CONTINUOUS
 62
     4
 10
-486.33759957398479
 20
191.141303888289
 30
0.0
  0
SEQEND
  5
84B
  8
NOTE
  6
CONTINUOUS
 62
     4
  0
TEXT
  5
F4
  8
NOTE
  6
CONTINUOUS
 62
     4
 10
-1186.9061124742709
 20
-121.63185275090549
 30
0.0
 40
64.0
  1
RL φ6.35
 41
0.9
  0
LINE
  5
F5
  8
NOTE
  6
CONTINUOUS
 62
     4
 10
-1201.034962474271
 20
-139.08545875090559
 30
0.0
 11
-799.00419947427145
 21
-139.08545875090559
 31
0.0
  0
LINE
  5
F6
  8
NOTE
  6
CONTINUOUS
 62
     4
 10
-1191.5738000369561
 20
-37.963907605608263
 30
0.0
 11
-793.39636703695601
 21
-37.963907605608263
 31
0.0
  0
TEXT
  5
F7
  8
NOTE
  6
CONTINUOUS
 62
     4
 10
-1176.7901840369559
 20
-21.524325605608279
 30
0.0
 40
64.0
  1
RG φ12.7
 41
0.9
  0
LINE
  5
F9
  8
OUTLINE
  6
CONTINUOUS
 62
     3
 10
-388.0
 20
338.0
 30
0.0
 11
388.0
 21
338.0
 31
0.0
  0
LINE
  5
FC
  8
OUTLINE
  6
CONTINUOUS
 62
     3
 10
498.0
 20
45.0
 30
0.0
 11
498.0
 21
0.0
 31
0.0
  0
LINE
  5
FD
  8
OUTLINE
  6
CONTINUOUS
 62
     3
 10
388.0
 20
338.0
 30
0.0
 11
388.0
 21
45.0
 31
0.0
  0
LINE
  5
103
  8
OUTLINE
  6
CONTINUOUS
 62
     3
 10
-498.0
 20
45.0
 30
0.0
 11
-498.0
 21
0.0
 31
0.0
  0
LINE
  5
104
  8
OUTLINE
  6
CONTINUOUS
 62
     3
 10
-388.0
 20
338.0
 30
0.0
 11
-388.0
 21
45.0
 31
0.0
  0
LINE
  5
10F
  8
OUTLINE
  6
CONTINUOUS
 62
     3
 10
-471.99999984745313
 20
-20.00000007590916
 30
0.0
 11
472.0
 21
-20.0
 31
0.0
  0
ARC
  5
110
  8
OUTLINE
  6
CONTINUOUS
 62
     3
 10
451.90766199999979
 20
173.91395
 30
0.0
 40
194.952102
 50
275.91557599999999
 51
296.86350499999992
  0
ARC
  5
112
  8
OUTLINE
  6
CONTINUOUS
 62
     3
 10
-451.90766199999979
 20
173.91395
 30
0.0
 40
194.952102
 50
243.13649500000011
 51
264.08442400000001
  0
LINE
  5
116
  8
OUTLINE
  6
CONTINUOUS
 62
     3
 10
-498.0
 20
45.0
 30
0.0
 11
498.0
 21
45.0
 31
0.0
  0
LINE
  5
117
  8
OUTLINE
  6
CONTINUOUS
 62
     3
 10
-540.0
 20
0.0
 30
0.0
 11
540.0
 21
0.0
 31
0.0
  0
LINE
  5
118
  8
NOTE
  6
CONTINUOUS
 62
     4
 10
288.0
 20
304.0
 30
0.0
 11
248.0
 21
304.0
 31
0.0
  0
LINE
  5
119
  8
NOTE
  6
CONTINUOUS
 62
     4
 10
268.0
 20
284.0
 30
0.0
 11
268.0
 21
324.0
 31
0.0
  0
LINE
  5
11A
  8
NOTE
  6
CONTINUOUS
 62
     4
 10
288.0
 20
145.0
 30
0.0
 11
248.0
 21
145.0
 31
0.0
  0
LINE
  5
11B
  8
NOTE
  6
CONTINUOUS
 62
     4
 10
268.0
 20
125.0
 30
0.0
 11
268.0
 21
165.0
 31
0.0
  0
LINE
  5
11C
  8
NOTE
  6
CONTINUOUS
 62
     4
 10
70.5
 20
304.0
 30
0.0
 11
30.5
 21
304.0
 31
0.0
  0
LINE
  5
11D
  8
NOTE
  6
CONTINUOUS
 62
     4
 10
50.5
 20
284.0
 30
0.0
 11
50.5
 21
324.0
 31
0.0
  0
LINE
  5
11E
  8
NOTE
  6
CONTINUOUS
 62
     4
 10
70.5
 20
145.0
 30
0.0
 11
30.5
 21
145.0
 31
0.0
  0
LINE
  5
11F
  8
NOTE
  6
CONTINUOUS
 62
     4
 10
50.5
 20
125.0
 30
0.0
 11
50.5
 21
165.0
 31
0.0
  0
LINE
  5
120
  8
NOTE
  6
CONTINUOUS
 62
     4
 10
-147.0
 20
304.0
 30
0.0
 11
-187.0
 21
304.0
 31
0.0
  0
LINE
  5
121
  8
NOTE
  6
CONTINUOUS
 62
     4
 10
-167.0
 20
284.0
 30
0.0
 11
-167.0
 21
324.0
 31
0.0
  0
LINE
  5
122
  8
NOTE
  6
CONTINUOUS
 62
     4
 10
-147.0
 20
145.0
 30
0.0
 11
-187.0
 21
145.0
 31
0.0
  0
LINE
  5
123
  8
NOTE
  6
CONTINUOUS
 62
     4
 10
-167.0
 20
125.0
 30
0.0
 11
-167.0
 21
165.0
 31
0.0
  0
LINE
  5
124
  8
DETAIL
  6
CONTINUOUS
 62
     5
 10
268.0
 20
286.0
 30
0.0
 11
-167.0
 21
286.0
 31
0.0
  0
LINE
  5
125
  8
DETAIL
  6
CONTINUOUS
 62
     5
 10
268.0
 20
176.0
 30
0.0
 11
-167.0
 21
176.0
 31
0.0
  0
CIRCLE
  5
126
  8
DETAIL
  6
CONTINUOUS
 62
     5
 10
268.0
 20
304.0
 30
0.0
 40
1.45
  0
CIRCLE
  5
127
  8
DETAIL
  6
CONTINUOUS
 62
     5
 10
50.5
 20
304.0
 30
0.0
 40
1.45
  0
CIRCLE
  5
128
  8
DETAIL
  6
CONTINUOUS
 62
     5
 10
-167.0
 20
304.0
 30
0.0
 40
1.45
  0
CIRCLE
  5
129
  8
DETAIL
  6
CONTINUOUS
 62
     5
 10
-167.0
 20
145.0
 30
0.0
 40
1.45
  0
CIRCLE
  5
12A
  8
DETAIL
  6
CONTINUOUS
 62
     5
 10
50.5
 20
145.0
 30
0.0
 40
1.45
  0
CIRCLE
  5
12B
  8
DETAIL
  6
CONTINUOUS
 62
     5
 10
268.0
 20
145.0
 30
0.0
 40
1.45
  0
LINE
  5
12C
  8
DETAIL
  6
CONTINUOUS
 62
     5
 10
-167.0
 20
286.0
 30
0.0
 11
-167.0
 21
176.0
 31
0.0
  0
LINE
  5
12D
  8
DETAIL
  6
CONTINUOUS
 62
     5
 10
268.0
 20
286.0
 30
0.0
 11
268.0
 21
176.0
 31
0.0
  0
LINE
  5
134
  8
SIZE
  6
CONTINUOUS
 62
    30
 10
-167.0
 20
306.0
 30
0.0
 11
-167.0
 21
676.241444
 31
0.0
  0
LINE
  5
135
  8
SIZE
  6
CONTINUOUS
 62
    30
 10
268.0
 20
304.0
 30
0.0
 11
268.0
 21
676.241444
 31
0.0
  0
LINE
  5
136
  8
SIZE
  6
CONTINUOUS
 62
    30
 10
-157.0
 20
646.24144399999977
 30
0.0
 11
258.0
 21
646.24144399999977
 31
0.0
  0
CIRCLE
  5
137
  8
SIZE
  6
CONTINUOUS
 62
    30
 10
-167.0
 20
646.24144399999977
 30
0.0
 40
5.0
  0
LINE
  5
138
  8
SIZE
  6
CONTINUOUS
 62
    30
 10
-162.0
 20
646.24144399999977
 30
0.0
 11
-157.0
 21
646.24144399999977
 31
0.0
  0
CIRCLE
  5
139
  8
SIZE
  6
CONTINUOUS
 62
    30
 10
268.0
 20
646.24144399999977
 30
0.0
 40
5.0
  0
LINE
  5
13A
  8
SIZE
  6
CONTINUOUS
 62
    30
 10
263.0
 20
646.24144399999977
 30
0.0
 11
258.0
 21
646.24144399999977
 31
0.0
  0
TEXT
  5
13B
  8
SIZE
  6
CONTINUOUS
 62
    30
 10
-19.686469142857149
 20
666.241444
 30
0.0
 40
55.0
  1
435
 41
0.9
 72
     1
 11
43.95638799999999
 21
666.241444
 31
0.0
  0
LINE
  5
13C
  8
SIZE
  6
CONTINUOUS
 62
    30
 10
70.5
 20
338.0
 30
0.0
 11
201.23949200000001
 21
338.0
 31
0.0
  0
LINE
  5
13D
  8
SIZE
  6
CONTINUOUS
 62
    30
 10
70.5
 20
286.0
 30
0.0
 11
201.23949200000001
 21
286.0
 31
0.0
  0
LINE
  5
13E
  8
SIZE
  6
CONTINUOUS
 62
    30
 10
171.23949200000001
 20
276.0
 30
0.0
 11
171.23949200000001
 21
266.0
 31
0.0
  0
LINE
  5
13F
  8
SIZE
  6
CONTINUOUS
 62
    30
 10
171.23949200000001
 20
348.0
 30
0.0
 11
171.23949200000001
 21
491.25714299999981
 31
0.0
  0
LINE
  5
140
  8
SIZE
  6
CONTINUOUS
 62
    30
 10
171.23949200000001
 20
286.0
 30
0.0
 11
171.23949200000001
 21
338.0
 31
0.0
  0
CIRCLE
  5
141
  8
SIZE
  6
CONTINUOUS
 62
    30
 10
171.23949200000001
 20
286.0
 30
0.0
 40
5.0
  0
LINE
  5
142
  8
SIZE
  6
CONTINUOUS
 62
    30
 10
171.23949200000001
 20
281.0
 30
0.0
 11
171.23949200000001
 21
276.0
 31
0.0
  0
CIRCLE
  5
143
  8
SIZE
  6
CONTINUOUS
 62
    30
 10
171.23949200000001
 20
338.0
 30
0.0
 40
5.0
  0
LINE
  5
144
  8
SIZE
  6
CONTINUOUS
 62
    30
 10
171.23949200000001
 20
343.0
 30
0.0
 11
171.23949200000001
 21
348.0
 31
0.0
  0
TEXT
  5
145
  8
SIZE
  6
CONTINUOUS
 62
    30
 10
151.23949200000001
 20
384.55714242857152
 30
0.0
 40
55.0
  1
52
 50
90.0
 41
0.9
 72
     1
 11
151.23949200000001
 21
424.62857100000002
 31
0.0
  0
LINE
  5
146
  8
SIZE
  6
CONTINUOUS
 62
    30
 10
-148.44999999999999
 20
304.0
 30
0.0
 11
-32.577201000000002
 21
304.0
 31
0.0
  0
LINE
  5
147
  8
SIZE
  6
CONTINUOUS
 62
    30
 10
-147.0
 20
338.0
 30
0.0
 11
-32.577201000000002
 21
338.0
 31
0.0
  0
LINE
  5
148
  8
SIZE
  6
CONTINUOUS
 62
    30
 10
-62.577201000000002
 20
294.0
 30
0.0
 11
-62.577201000000002
 21
284.0
 31
0.0
  0
LINE
  5
149
  8
SIZE
  6
CONTINUOUS
 62
    30
 10
-62.577201000000002
 20
348.0
 30
0.0
 11
-62.577201000000002
 21
494.0
 31
0.0
  0
LINE
  5
14A
  8
SIZE
  6
CONTINUOUS
 62
    30
 10
-62.577201000000002
 20
304.0
 30
0.0
 11
-62.577201000000002
 21
338.0
 31
0.0
  0
CIRCLE
  5
14B
  8
SIZE
  6
CONTINUOUS
 62
    30
 10
-62.577201000000002
 20
304.0
 30
0.0
 40
5.0
  0
LINE
  5
14C
  8
SIZE
  6
CONTINUOUS
 62
    30
 10
-62.577201000000002
 20
299.0
 30
0.0
 11
-62.577201000000002
 21
294.0
 31
0.0
  0
CIRCLE
  5
14D
  8
SIZE
  6
CONTINUOUS
 62
    30
 10
-62.577201000000002
 20
338.0
 30
0.0
 40
5.0
  0
LINE
  5
14E
  8
SIZE
  6
CONTINUOUS
 62
    30
 10
-62.577201000000002
 20
343.0
 30
0.0
 11
-62.577201000000002
 21
348.0
 31
0.0
  0
TEXT
  5
14F
  8
SIZE
  6
CONTINUOUS
 62
    30
 10
-82.577201000000002
 20
384.75
 30
0.0
 40
55.0
  1
34
 50
90.0
 41
0.9
 72
     1
 11
-82.577201000000002
 21
426.0
 31
0.0
  0
LINE
  5
150
  8
SIZE
  6
CONTINUOUS
 62
    30
 10
50.5
 20
325.44999999999999
 30
0.0
 11
50.5
 21
570.18462099999999
 31
0.0
  0
LINE
  5
151
  8
SIZE
  6
CONTINUOUS
 62
    30
 10
268.0
 20
325.44999999999999
 30
0.0
 11
268.0
 21
570.18462099999999
 31
0.0
  0
LINE
  5
152
  8
SIZE
  6
CONTINUOUS
 62
    30
 10
40.499999999999993
 20
540.18462099999999
 30
0.0
 11
30.5
 21
540.18462099999999
 31
0.0
  0
LINE
  5
153
  8
SIZE
  6
CONTINUOUS
 62
    30
 10
278.0
 20
540.18462099999999
 30
0.0
 11
288.0
 21
540.18462099999999
 31
0.0
  0
LINE
  5
154
  8
SIZE
  6
CONTINUOUS
 62
    30
 10
50.5
 20
540.18462099999999
 30
0.0
 11
268.0
 21
540.18462099999999
 31
0.0
  0
CIRCLE
  5
155
  8
SIZE
  6
CONTINUOUS
 62
    30
 10
50.5
 20
540.18462099999999
 30
0.0
 40
5.0
  0
LINE
  5
156
  8
SIZE
  6
CONTINUOUS
 62
    30
 10
45.499999999999993
 20
540.18462099999999
 30
0.0
 11
40.499999999999993
 21
540.18462099999999
 31
0.0
  0
CIRCLE
  5
157
  8
SIZE
  6
CONTINUOUS
 62
    30
 10
268.0
 20
540.18462099999999
 30
0.0
 40
5.0
  0
LINE
  5
158
  8
SIZE
  6
CONTINUOUS
 62
    30
 10
273.0
 20
540.18462099999999
 30
0.0
 11
278.0
 21
540.18462099999999
 31
0.0
  0
TEXT
  5
159
  8
SIZE
  6
CONTINUOUS
 62
    30
 10
64.964285714285694
 20
560.18462099999965
 30
0.0
 40
55.0
  1
217.5
 41
0.9
 72
     1
 11
159.25
 21
560.18462099999965
 31
0.0
  0
LINE
  5
15A
  8
SIZE
  6
CONTINUOUS
 62
    30
 10
-167.0
 20
325.44999999999999
 30
0.0
 11
-167.0
 21
569.93989799999974
 31
0.0
  0
LINE
  5
15B
  8
SIZE
  6
CONTINUOUS
 62
    30
 10
50.5
 20
325.44999999999999
 30
0.0
 11
50.5
 21
569.93989799999974
 31
0.0
  0
LINE
  5
15C
  8
SIZE
  6
CONTINUOUS
 62
    30
 10
-177.0
 20
539.93989799999986
 30
0.0
 11
-187.0
 21
539.93989799999986
 31
0.0
  0
LINE
  5
15D
  8
SIZE
  6
CONTINUOUS
 62
    30
 10
60.5
 20
539.93989799999986
 30
0.0
 11
70.5
 21
539.93989799999986
 31
0.0
  0
LINE
  5
15E
  8
SIZE
  6
CONTINUOUS
 62
    30
 10
-167.0
 20
539.93989799999986
 30
0.0
 11
50.5
 21
539.93989799999986
 31
0.0
  0
CIRCLE
  5
15F
  8
SIZE
  6
CONTINUOUS
 62
    30
 10
-167.0
 20
539.93989799999986
 30
0.0
 40
5.0
  0
LINE
  5
160
  8
SIZE
  6
CONTINUOUS
 62
    30
 10
-172.0
 20
539.93989799999986
 30
0.0
 11
-177.0
 21
539.93989799999986
 31
0.0
  0
CIRCLE
  5
161
  8
SIZE
  6
CONTINUOUS
 62
    30
 10
50.5
 20
539.93989799999986
 30
0.0
 40
5.0
  0
LINE
  5
162
  8
SIZE
  6
CONTINUOUS
 62
    30
 10
55.5
 20
539.93989799999986
 30
0.0
 11
60.5
 21
539.93989799999986
 31
0.0
  0
TEXT
  5
163
  8
SIZE
  6
CONTINUOUS
 62
    30
 10
-152.53571428571431
 20
559.93989800000008
 30
0.0
 40
55.0
  1
217.5
 41
0.9
 72
     1
 11
-58.25
 21
559.93989800000008
 31
0.0
  0
LINE
  5
164
  8
SIZE
  6
CONTINUOUS
 62
    30
 10
-388.0
 20
358.0
 30
0.0
 11
-388.0
 21
570.73529199999984
 31
0.0
  0
LINE
  5
165
  8
SIZE
  6
CONTINUOUS
 62
    30
 10
-167.0
 20
325.44999999999999
 30
0.0
 11
-167.0
 21
570.73529199999984
 31
0.0
  0
LINE
  5
166
  8
SIZE
  6
CONTINUOUS
 62
    30
 10
-378.0
 20
540.73529199999996
 30
0.0
 11
-177.0
 21
540.73529199999996
 31
0.0
  0
CIRCLE
  5
167
  8
SIZE
  6
CONTINUOUS
 62
    30
 10
-388.0
 20
540.73529199999996
 30
0.0
 40
5.0
  0
LINE
  5
168
  8
SIZE
  6
CONTINUOUS
 62
    30
 10
-383.0
 20
540.73529199999996
 30
0.0
 11
-378.0
 21
540.73529199999996
 31
0.0
  0
CIRCLE
  5
169
  8
SIZE
  6
CONTINUOUS
 62
    30
 10
-167.0
 20
540.73529199999996
 30
0.0
 40
5.0
  0
LINE
  5
16A
  8
SIZE
  6
CONTINUOUS
 62
    30
 10
-172.0
 20
540.73529199999996
 30
0.0
 11
-177.0
 21
540.73529199999996
 31
0.0
  0
TEXT
  5
16B
  8
SIZE
  6
CONTINUOUS
 62
    30
 10
-330.53571428571428
 20
560.73529199999984
 30
0.0
 40
55.0
  1
221
 41
0.9
 72
     1
 11
-277.5
 21
560.73529199999984
 31
0.0
  0
LINE
  5
16C
  8
SIZE
  6
CONTINUOUS
 62
    30
 10
-187.0
 20
304.0
 30
0.0
 11
-281.37229500000001
 21
304.0
 31
0.0
  0
LINE
  5
16D
  8
SIZE
  6
CONTINUOUS
 62
    30
 10
-187.0
 20
145.0
 30
0.0
 11
-281.37229500000001
 21
145.0
 31
0.0
  0
LINE
  5
16E
  8
SIZE
  6
CONTINUOUS
 62
    30
 10
-251.37229500000001
 20
314.0
 30
0.0
 11
-251.37229500000001
 21
324.0
 31
0.0
  0
LINE
  5
16F
  8
SIZE
  6
CONTINUOUS
 62
    30
 10
-251.37229500000001
 20
135.0
 30
0.0
 11
-251.37229500000001
 21
125.0
 31
0.0
  0
LINE
  5
170
  8
SIZE
  6
CONTINUOUS
 62
    30
 10
-251.37229500000001
 20
304.0
 30
0.0
 11
-251.37229500000001
 21
145.0
 31
0.0
  0
CIRCLE
  5
171
  8
SIZE
  6
CONTINUOUS
 62
    30
 10
-251.37229500000001
 20
304.0
 30
0.0
 40
5.0
  0
LINE
  5
172
  8
SIZE
  6
CONTINUOUS
 62
    30
 10
-251.37229500000001
 20
309.0
 30
0.0
 11
-251.37229500000001
 21
314.0
 31
0.0
  0
CIRCLE
  5
173
  8
SIZE
  6
CONTINUOUS
 62
    30
 10
-251.37229500000001
 20
145.0
 30
0.0
 40
5.0
  0
LINE
  5
174
  8
SIZE
  6
CONTINUOUS
 62
    30
 10
-251.37229500000001
 20
140.0
 30
0.0
 11
-251.37229500000001
 21
135.0
 31
0.0
  0
TEXT
  5
175
  8
SIZE
  6
CONTINUOUS
 62
    30
 10
-271.37229500000001
 20
166.75
 30
0.0
 40
55.0
  1
159
 50
90.0
 41
0.9
 72
     1
 11
-271.37229500000001
 21
224.5
 31
0.0
  0
LINE
  5
176
  8
SIZE
  6
CONTINUOUS
 62
    30
 10
288.0
 20
176.0
 30
0.0
 11
385.05052799999999
 21
176.0
 31
0.0
  0
LINE
  5
177
  8
SIZE
  6
CONTINUOUS
 62
    30
 10
288.0
 20
286.0
 30
0.0
 11
385.05052799999999
 21
286.0
 31
0.0
  0
LINE
  5
178
  8
SIZE
  6
CONTINUOUS
 62
    30
 10
355.05052799999999
 20
166.0
 30
0.0
 11
355.05052799999999
 21
156.0
 31
0.0
  0
LINE
  5
179
  8
SIZE
  6
CONTINUOUS
 62
    30
 10
355.05052799999999
 20
296.0
 30
0.0
 11
355.05052799999999
 21
306.0
 31
0.0
  0
LINE
  5
17A
  8
SIZE
  6
CONTINUOUS
 62
    30
 10
355.05052799999999
 20
176.0
 30
0.0
 11
355.05052799999999
 21
286.0
 31
0.0
  0
CIRCLE
  5
17B
  8
SIZE
  6
CONTINUOUS
 62
    30
 10
355.05052799999999
 20
176.0
 30
0.0
 40
5.0
  0
LINE
  5
17C
  8
SIZE
  6
CONTINUOUS
 62
    30
 10
355.05052799999999
 20
171.0
 30
0.0
 11
355.05052799999999
 21
166.0
 31
0.0
  0
CIRCLE
  5
17D
  8
SIZE
  6
CONTINUOUS
 62
    30
 10
355.05052799999999
 20
286.0
 30
0.0
 40
5.0
  0
LINE
  5
17E
  8
SIZE
  6
CONTINUOUS
 62
    30
 10
355.05052799999999
 20
291.0
 30
0.0
 11
355.05052799999999
 21
296.0
 31
0.0
  0
TEXT
  5
17F
  8
SIZE
  6
CONTINUOUS
 62
    30
 10
335.05052799999999
 20
176.78571428571431
 30
0.0
 40
55.0
  1
110
 50
90.0
 41
0.9
 72
     1
 11
335.05052799999999
 21
231.0
 31
0.0
  0
LINE
  5
180
  8
SIZE
  6
CONTINUOUS
 62
    30
 10
492.0
 20
-20.0
 30
0.0
 11
776.0217429999999
 21
-20.0
 31
0.0
  0
LINE
  5
181
  8
SIZE
  6
CONTINUOUS
 62
    30
 10
560.0
 20
0.0
 30
0.0
 11
776.0217429999999
 21
0.0
 31
0.0
  0
LINE
  5
182
  8
SIZE
  6
CONTINUOUS
 62
    30
 10
746.02174300000001
 20
10.0
 30
0.0
 11
746.02174300000001
 21
20.0
 31
0.0
  0
LINE
  5
183
  8
SIZE
  6
CONTINUOUS
 62
    30
 10
746.02174300000001
 20
-30.0
 30
0.0
 11
746.02174300000001
 21
-173.25714300000001
 31
0.0
  0
LINE
  5
184
  8
SIZE
  6
CONTINUOUS
 62
    30
 10
746.02174300000001
 20
0.0
 30
0.0
 11
746.02174300000001
 21
-20.0
 31
0.0
  0
CIRCLE
  5
185
  8
SIZE
  6
CONTINUOUS
 62
    30
 10
746.02174300000001
 20
0.0
 30
0.0
 40
5.0
  0
LINE
  5
186
  8
SIZE
  6
CONTINUOUS
 62
    30
 10
746.02174300000001
 20
5.0
 30
0.0
 11
746.02174300000001
 21
10.0
 31
0.0
  0
CIRCLE
  5
187
  8
SIZE
  6
CONTINUOUS
 62
    30
 10
746.02174300000001
 20
-20.0
 30
0.0
 40
5.0
  0
LINE
  5
188
  8
SIZE
  6
CONTINUOUS
 62
    30
 10
746.02174300000001
 20
-25.0
 30
0.0
 11
746.02174300000001
 21
-30.0
 31
0.0
  0
TEXT
  5
189
  8
SIZE
  6
CONTINUOUS
 62
    30
 10
726.0217429999999
 20
-146.69999957142849
 30
0.0
 40
55.0
  1
20
 50
90.0
 41
0.9
 72
     1
 11
726.0217429999999
 21
-106.62857099999999
 31
0.0
  0
LINE
  5
18A
  8
SIZE
  6
CONTINUOUS
 62
    30
 10
518.0
 20
45.0
 30
0.0
 11
779.69257100000004
 21
45.0
 31
0.0
  0
LINE
  5
18B
  8
SIZE
  6
CONTINUOUS
 62
    30
 10
560.0
 20
0.0
 30
0.0
 11
779.69257100000004
 21
0.0
 31
0.0
  0
LINE
  5
18C
  8
SIZE
  6
CONTINUOUS
 62
    30
 10
749.69257100000004
 20
55.0
 30
0.0
 11
749.69257100000004
 21
143.32289084573131
 31
0.0
  0
LINE
  5
18D
  8
SIZE
  6
CONTINUOUS
 62
    30
 10
749.69257100000004
 20
-10.0
 30
0.0
 11
749.69257100000004
 21
-20.0
 31
0.0
  0
LINE
  5
18E
  8
SIZE
  6
CONTINUOUS
 62
    30
 10
749.69257100000004
 20
45.0
 30
0.0
 11
749.69257100000004
 21
0.0
 31
0.0
  0
CIRCLE
  5
18F
  8
SIZE
  6
CONTINUOUS
 62
    30
 10
749.69257100000004
 20
45.0
 30
0.0
 40
5.0
  0
LINE
  5
190
  8
SIZE
  6
CONTINUOUS
 62
    30
 10
749.69257100000004
 20
50.0
 30
0.0
 11
749.69257100000004
 21
55.0
 31
0.0
  0
CIRCLE
  5
191
  8
SIZE
  6
CONTINUOUS
 62
    30
 10
749.69257100000004
 20
0.0
 30
0.0
 40
5.0
  0
LINE
  5
192
  8
SIZE
  6
CONTINUOUS
 62
    30
 10
749.69257100000004
 20
-5.0
 30
0.0
 11
749.69257100000004
 21
-10.0
 31
0.0
  0
TEXT
  5
193
  8
SIZE
  6
CONTINUOUS
 62
    30
 10
729.69257100000004
 20
57.608469534857143
 30
0.0
 40
55.0
  1
45
 50
90.0
 41
0.9
 72
     1
 11
729.69257100000004
 21
97.679898106285705
 31
0.0
  0
LINE
  5
194
  8
SIZE
  6
CONTINUOUS
 62
    30
 10
-488.0
 20
216.0
 30
0.0
 11
-846.92922599999986
 21
216.0
 31
0.0
  0
LINE
  5
195
  8
SIZE
  6
CONTINUOUS
 62
    30
 10
-408.0
 20
338.0
 30
0.0
 11
-846.92922599999986
 21
338.0
 31
0.0
  0
LINE
  5
196
  8
SIZE
  6
CONTINUOUS
 62
    30
 10
-816.92922599999974
 20
206.0
 30
0.0
 11
-816.92922599999974
 21
196.0
 31
0.0
  0
LINE
  5
197
  8
SIZE
  6
CONTINUOUS
 62
    30
 10
-816.92922599999974
 20
348.0
 30
0.0
 11
-816.92922599999974
 21
473.03670253638842
 31
0.0
  0
LINE
  5
198
  8
SIZE
  6
CONTINUOUS
 62
    30
 10
-816.92922599999974
 20
216.0
 30
0.0
 11
-816.92922599999974
 21
338.0
 31
0.0
  0
CIRCLE
  5
199
  8
SIZE
  6
CONTINUOUS
 62
    30
 10
-816.92922599999974
 20
216.0
 30
0.0
 40
5.0
  0
LINE
  5
19A
  8
SIZE
  6
CONTINUOUS
 62
    30
 10
-816.92922599999974
 20
211.0
 30
0.0
 11
-816.92922599999974
 21
206.0
 31
0.0
  0
CIRCLE
  5
19B
  8
SIZE
  6
CONTINUOUS
 62
    30
 10
-816.92922599999974
 20
338.0
 30
0.0
 40
5.0
  0
LINE
  5
19C
  8
SIZE
  6
CONTINUOUS
 62
    30
 10
-816.92922599999974
 20
343.0
 30
0.0
 11
-816.92922599999974
 21
348.0
 31
0.0
  0
TEXT
  5
19D
  8
SIZE
  6
CONTINUOUS
 62
    30
 10
-836.92922599999974
 20
353.29879982692103
 30
0.0
 40
55.0
  1
122
 50
90.0
 41
0.9
 72
     1
 11
-836.92922599999974
 21
412.22737125549253
 31
0.0
  0
LINE
  5
19E
  8
SIZE
  6
CONTINUOUS
 62
    30
 10
-408.0
 20
338.0
 30
0.0
 11
-1165.4074579999999
 21
338.0
 31
0.0
  0
LINE
  5
19F
  8
SIZE
  6
CONTINUOUS
 62
    30
 10
-478.0
 20
72.210874000000004
 30
0.0
 11
-1165.4074579999999
 21
72.210874000000004
 31
0.0
  0
LINE
  5
1A0
  8
SIZE
  6
CONTINUOUS
 62
    30
 10
-1135.4074579999999
 20
328.0
 30
0.0
 11
-1135.4074579999999
 21
82.210874000000004
 31
0.0
  0
CIRCLE
  5
1A1
  8
SIZE
  6
CONTINUOUS
 62
    30
 10
-1135.4074579999999
 20
338.0
 30
0.0
 40
5.0
  0
LINE
  5
1A2
  8
SIZE
  6
CONTINUOUS
 62
    30
 10
-1135.4074579999999
 20
333.0
 30
0.0
 11
-1135.4074579999999
 21
328.0
 31
0.0
  0
CIRCLE
  5
1A3
  8
SIZE
  6
CONTINUOUS
 62
    30
 10
-1135.4074579999999
 20
72.210874000000004
 30
0.0
 40
5.0
  0
LINE
  5
1A4
  8
SIZE
  6
CONTINUOUS
 62
    30
 10
-1135.4074579999999
 20
77.210874000000004
 30
0.0
 11
-1135.4074579999999
 21
82.210874000000004
 31
0.0
  0
TEXT
  5
1A5
  8
SIZE
  6
CONTINUOUS
 62
    30
 10
-1155.4074579999999
 20
142.6411512857143
 30
0.0
 40
55.0
  1
266
 50
90.0
 41
0.9
 72
     1
 11
-1155.4074579999999
 21
205.10543699999999
 31
0.0
  0
LINE
  5
1A6
  8
SIZE
  6
CONTINUOUS
 62
    30
 10
-408.0
 20
338.0
 30
0.0
 11
-1038.7244109999999
 21
338.0
 31
0.0
  0
LINE
  5
1A7
  8
SIZE
  6
CONTINUOUS
 62
    30
 10
-458.0
 20
148.0
 30
0.0
 11
-1038.7244109999999
 21
148.0
 31
0.0
  0
LINE
  5
1A8
  8
SIZE
  6
CONTINUOUS
 62
    30
 10
-1008.724411
 20
328.0
 30
0.0
 11
-1008.724411
 21
158.0
 31
0.0
  0
CIRCLE
  5
1A9
  8
SIZE
  6
CONTINUOUS
 62
    30
 10
-1008.724411
 20
338.0
 30
0.0
 40
5.0
  0
LINE
  5
1AA
  8
SIZE
  6
CONTINUOUS
 62
    30
 10
-1008.724411
 20
333.0
 30
0.0
 11
-1008.724411
 21
328.0
 31
0.0
  0
CIRCLE
  5
1AB
  8
SIZE
  6
CONTINUOUS
 62
    30
 10
-1008.724411
 20
148.0
 30
0.0
 40
5.0
  0
LINE
  5
1AC
  8
SIZE
  6
CONTINUOUS
 62
    30
 10
-1008.724411
 20
153.0
 30
0.0
 11
-1008.724411
 21
158.0
 31
0.0
  0
TEXT
  5
1AD
  8
SIZE
  6
CONTINUOUS
 62
    30
 10
-1028.7244109999999
 20
184.07142857142861
 30
0.0
 40
55.0
  1
190
 50
90.0
 41
0.9
 72
     1
 11
-1028.7244109999999
 21
243.0
 31
0.0
  0
LINE
  5
1AE
  8
SIZE
  6
CONTINUOUS
 62
    30
 10
-408.0
 20
338.0
 30
0.0
 11
-697.33268600000019
 21
338.0
 31
0.0
  0
LINE
  5
1AF
  8
SIZE
  6
CONTINUOUS
 62
    30
 10
-452.0
 20
278.0
 30
0.0
 11
-697.33268600000019
 21
278.0
 31
0.0
  0
LINE
  5
1B0
  8
SIZE
  6
CONTINUOUS
 62
    30
 10
-667.33268600000019
 20
338.0
 30
0.0
 11
-667.33268600000019
 21
278.0
 31
0.0
  0
CIRCLE
  5
1B1
  8
SIZE
  6
CONTINUOUS
 62
    30
 10
-667.33268600000019
 20
338.0
 30
0.0
 40
5.0
  0
CIRCLE
  5
1B3
  8
SIZE
  6
CONTINUOUS
 62
    30
 10
-667.33268600000019
 20
278.0
 30
0.0
 40
5.0
  0
TEXT
  5
1B5
  8
SIZE
  6
CONTINUOUS
 62
    30
 10
-685.5378886372273
 20
351.88615104508682
 30
0.0
 40
55.0
  1
60
 50
90.0
 41
0.9
 72
     1
 11
-685.5378886372273
 21
391.95757961651537
 31
0.0
  0
LINE
  5
1B6
  8
SIZE
  6
CONTINUOUS
 62
    30
 10
-520.0
 20
-28.759955000000001
 30
0.0
 11
-520.0
 21
-301.46994599999999
 31
0.0
  0
LINE
  5
1B7
  8
SIZE
  6
CONTINUOUS
 62
    30
 10
-540.0
 20
-20.0
 30
0.0
 11
-540.0
 21
-301.46994599999999
 31
0.0
  0
LINE
  5
1B8
  8
SIZE
  6
CONTINUOUS
 62
    30
 10
-510.0
 20
-271.46994599999999
 30
0.0
 11
-500.0
 21
-271.46994599999999
 31
0.0
  0
LINE
  5
1B9
  8
SIZE
  6
CONTINUOUS
 62
    30
 10
-550.0
 20
-271.46994599999999
 30
0.0
 11
-643.52512155660952
 21
-271.46994599999999
 31
0.0
  0
LINE
  5
1BA
  8
SIZE
  6
CONTINUOUS
 62
    30
 10
-520.0
 20
-271.46994599999999
 30
0.0
 11
-540.0
 21
-271.46994599999999
 31
0.0
  0
CIRCLE
  5
1BB
  8
SIZE
  6
CONTINUOUS
 62
    30
 10
-520.0
 20
-271.46994599999999
 30
0.0
 40
5.0
  0
LINE
  5
1BC
  8
SIZE
  6
CONTINUOUS
 62
    30
 10
-515.0
 20
-271.46994599999999
 30
0.0
 11
-510.0
 21
-271.46994599999999
 31
0.0
  0
CIRCLE
  5
1BD
  8
SIZE
  6
CONTINUOUS
 62
    30
 10
-540.0
 20
-271.46994599999999
 30
0.0
 40
5.0
  0
LINE
  5
1BE
  8
SIZE
  6
CONTINUOUS
 62
    30
 10
-545.0
 20
-271.46994599999999
 30
0.0
 11
-550.0
 21
-271.46994599999999
 31
0.0
  0
TEXT
  5
1BF
  8
SIZE
  6
CONTINUOUS
 62
    30
 10
-631.7874795277238
 20
-251.46994599999999
 30
0.0
 40
55.0
  1
20
 41
0.9
 72
     1
 11
-591.71605095629525
 21
-251.46994599999999
 31
0.0
  0
LINE
  5
1C0
  8
SIZE
  6
CONTINUOUS
 62
    30
 10
540.0
 20
-20.0
 30
0.0
 11
540.0
 21
-301.46994599999999
 31
0.0
  0
LINE
  5
1C1
  8
SIZE
  6
CONTINUOUS
 62
    30
 10
520.0
 20
-28.759955000000001
 30
0.0
 11
520.0
 21
-301.46994599999999
 31
0.0
  0
LINE
  5
1C2
  8
SIZE
  6
CONTINUOUS
 62
    30
 10
550.0
 20
-271.46994599999999
 30
0.0
 11
646.07414063414762
 21
-271.46994599999999
 31
0.0
  0
LINE
  5
1C3
  8
SIZE
  6
CONTINUOUS
 62
    30
 10
510.0
 20
-271.46994599999999
 30
0.0
 11
500.0
 21
-271.46994599999999
 31
0.0
  0
LINE
  5
1C4
  8
SIZE
  6
CONTINUOUS
 62
    30
 10
540.0
 20
-271.46994599999999
 30
0.0
 11
520.0
 21
-271.46994599999999
 31
0.0
  0
CIRCLE
  5
1C5
  8
SIZE
  6
CONTINUOUS
 62
    30
 10
540.0
 20
-271.46994599999999
 30
0.0
 40
5.0
  0
LINE
  5
1C6
  8
SIZE
  6
CONTINUOUS
 62
    30
 10
545.0
 20
-271.46994599999999
 30
0.0
 11
550.0
 21
-271.46994599999999
 31
0.0
  0
CIRCLE
  5
1C7
  8
SIZE
  6
CONTINUOUS
 62
    30
 10
520.0
 20
-271.46994599999999
 30
0.0
 40
5.0
  0
LINE
  5
1C8
  8
SIZE
  6
CONTINUOUS
 62
    30
 10
515.0
 20
-271.46994599999999
 30
0.0
 11
510.0
 21
-271.46994599999999
 31
0.0
  0
TEXT
  5
1C9
  8
SIZE
  6
CONTINUOUS
 62
    30
 10
555.10862516198415
 20
-251.46994599999999
 30
0.0
 40
55.0
  1
20
 41
0.9
 72
     1
 11
595.18005373341282
 21
-251.46994599999999
 31
0.0
  0
LINE
  5
1CA
  8
SIZE
  6
CONTINUOUS
 62
    30
 10
520.0
 20
-28.759955000000001
 30
0.0
 11
520.0
 21
-301.46994599999999
 31
0.0
  0
LINE
  5
1CB
  8
SIZE
  6
CONTINUOUS
 62
    30
 10
-520.0
 20
-28.759955000000001
 30
0.0
 11
-520.0
 21
-301.46994599999999
 31
0.0
  0
LINE
  5
1CC
  8
SIZE
  6
CONTINUOUS
 62
    30
 10
510.0
 20
-271.46994599999999
 30
0.0
 11
-510.0
 21
-271.46994599999999
 31
0.0
  0
CIRCLE
  5
1CD
  8
SIZE
  6
CONTINUOUS
 62
    30
 10
520.0
 20
-271.46994599999999
 30
0.0
 40
5.0
  0
LINE
  5
1CE
  8
SIZE
  6
CONTINUOUS
 62
    30
 10
515.0
 20
-271.46994599999999
 30
0.0
 11
510.0
 21
-271.46994599999999
 31
0.0
  0
CIRCLE
  5
1CF
  8
SIZE
  6
CONTINUOUS
 62
    30
 10
-520.0
 20
-271.46994599999999
 30
0.0
 40
5.0
  0
LINE
  5
1D0
  8
SIZE
  6
CONTINUOUS
 62
    30
 10
-515.0
 20
-271.46994599999999
 30
0.0
 11
-510.0
 21
-271.46994599999999
 31
0.0
  0
TEXT
  5
1D1
  8
SIZE
  6
CONTINUOUS
 62
    30
 10
-292.52142857142837
 20
-244.70804200000001
 30
0.0
 40
55.0
  1
1040(天井開口寸法)
 41
0.9
 72
     1
 11
0.0
 21
-244.70804200000001
 31
0.0
  0
LINE
  5
1D2
  8
SIZE
  6
CONTINUOUS
 62
    30
 10
388.0
 20
358.0
 30
0.0
 11
388.0
 21
781.43085699999983
 31
0.0
  0
LINE
  5
1D3
  8
SIZE
  6
CONTINUOUS
 62
    30
 10
-388.0
 20
358.0
 30
0.0
 11
-388.0
 21
781.43085699999983
 31
0.0
  0
LINE
  5
1D4
  8
SIZE
  6
CONTINUOUS
 62
    30
 10
378.0
 20
751.43085699999983
 30
0.0
 11
-378.0
 21
751.43085699999983
 31
0.0
  0
CIRCLE
  5
1D5
  8
SIZE
  6
CONTINUOUS
 62
    30
 10
388.0
 20
751.43085699999983
 30
0.0
 40
5.0
  0
LINE
  5
1D6
  8
SIZE
  6
CONTINUOUS
 62
    30
 10
383.0
 20
751.43085699999983
 30
0.0
 11
378.0
 21
751.43085699999983
 31
0.0
  0
CIRCLE
  5
1D7
  8
SIZE
  6
CONTINUOUS
 62
    30
 10
-388.0
 20
751.43085699999983
 30
0.0
 40
5.0
  0
LINE
  5
1D8
  8
SIZE
  6
CONTINUOUS
 62
    30
 10
-383.0
 20
751.43085699999983
 30
0.0
 11
-378.0
 21
751.43085699999983
 31
0.0
  0
TEXT
  5
1D9
  8
SIZE
  6
CONTINUOUS
 62
    30
 10
-75.515371714285706
 20
771.43085699999983
 30
0.0
 40
55.0
  1
776
 41
0.9
 72
     1
 11
-13.051086
 21
771.43085699999983
 31
0.0
  0
LINE
  5
1DA
  8
SIZE
  6
CONTINUOUS
 62
    30
 10
412.0
 20
186.0
 30
0.0
 11
412.0
 21
881.78153099999975
 31
0.0
  0
LINE
  5
1DB
  8
SIZE
  6
CONTINUOUS
 62
    30
 10
-412.0
 20
186.0
 30
0.0
 11
-412.0
 21
881.78153099999975
 31
0.0
  0
LINE
  5
1DC
  8
SIZE
  6
CONTINUOUS
 62
    30
 10
402.0
 20
851.78153100000009
 30
0.0
 11
-402.0
 21
851.78153100000009
 31
0.0
  0
CIRCLE
  5
1DD
  8
SIZE
  6
CONTINUOUS
 62
    30
 10
412.0
 20
851.78153100000009
 30
0.0
 40
5.0
  0
LINE
  5
1DE
  8
SIZE
  6
CONTINUOUS
 62
    30
 10
407.0
 20
851.78153100000009
 30
0.0
 11
402.0
 21
851.78153100000009
 31
0.0
  0
CIRCLE
  5
1DF
  8
SIZE
  6
CONTINUOUS
 62
    30
 10
-412.0
 20
851.78153100000009
 30
0.0
 40
5.0
  0
LINE
  5
1E0
  8
SIZE
  6
CONTINUOUS
 62
    30
 10
-407.0
 20
851.78153100000009
 30
0.0
 11
-402.0
 21
851.78153100000009
 31
0.0
  0
TEXT
  5
1E1
  8
SIZE
  6
CONTINUOUS
 62
    30
 10
-268.99697571428578
 20
888.5434359999997
 30
0.0
 40
55.0
  1
824(吊りﾎﾞﾙﾄﾋﾟｯﾁ)
 41
0.9
 72
     1
 11
-10.182689999999999
 21
888.5434359999997
 31
0.0
  0
LINE
  5
38C
  8
SIZE
  6
CONTINUOUS
 62
    30
 10
-388.0
 20
358.0
 30
0.0
 11
-388.0
 21
629.11652867518535
 31
0.0
  0
LINE
  5
38D
  8
SIZE
  6
CONTINUOUS
 62
    30
 10
-466.00000000000011
 20
235.99999999999989
 30
0.0
 11
-466.00000000000011
 21
629.11652867518535
 31
0.0
  0
LINE
  5
38E
  8
SIZE
  6
CONTINUOUS
 62
    30
 10
-398.0
 20
599.11652867518535
 30
0.0
 11
-456.0
 21
599.11652867518535
 31
0.0
  0
LINE
  5
38F
  8
SIZE
  6
CONTINUOUS
 62
    30
 10
-466.00000000000011
 20
599.11652867518535
 30
0.0
 11
-596.39985078498796
 21
599.11652867518535
 31
0.0
  0
LINE
  5
395
  8
SIZE
  6
CONTINUOUS
 62
    30
 10
-388.0
 20
358.0
 30
0.0
 11
-388.0
 21
526.19287630041435
 31
0.0
  0
LINE
  5
396
  8
SIZE
  6
CONTINUOUS
 62
    30
 10
-455.0
 20
239.17500000000001
 30
0.0
 11
-455.0
 21
526.19287630041435
 31
0.0
  0
LINE
  5
397
  8
SIZE
  6
CONTINUOUS
 62
    30
 10
-398.0
 20
496.19287630041413
 30
0.0
 11
-445.0
 21
496.19287630041413
 31
0.0
  0
LINE
  5
398
  8
SIZE
  6
CONTINUOUS
 62
    30
 10
-455.0
 20
496.19287630041413
 30
0.0
 11
-594.98922093274246
 21
496.19287630041413
 31
0.0
  0
LINE
  5
39C
  8
SIZE
  6
CONTINUOUS
 62
    30
 10
-388.0
 20
358.0
 30
0.0
 11
-388.0
 21
428.90888960621669
 31
0.0
  0
LINE
  5
39D
  8
SIZE
  6
CONTINUOUS
 62
    30
 10
-448.0
 20
314.0
 30
0.0
 11
-448.0
 21
428.90888960621669
 31
0.0
  0
LINE
  5
39E
  8
SIZE
  6
CONTINUOUS
 62
    30
 10
-398.0
 20
398.9088896062168
 30
0.0
 11
-438.0
 21
398.9088896062168
 31
0.0
  0
LINE
  5
39F
  8
SIZE
  6
CONTINUOUS
 62
    30
 10
-448.0
 20
398.9088896062168
 30
0.0
 11
-594.98922093274246
 21
398.9088896062168
 31
0.0
  0
TEXT
  5
3A3
  8
SIZE
  6
CONTINUOUS
 62
    30
 10
-577.13545767086464
 20
614.71557772039148
 30
0.0
 40
55.0
  1
78
 41
0.9
 72
     1
 11
-537.06402909943597
 21
614.71557772039148
 31
0.0
  0
CIRCLE
  5
3A4
  8
SIZE
  6
CONTINUOUS
 62
    30
 10
-466.00000000000011
 20
599.11652867518535
 30
0.0
 40
5.0
  0
LINE
  5
3A5
  8
SIZE
  6
CONTINUOUS
 62
    30
 10
-461.0
 20
599.11652867518535
 30
0.0
 11
-456.0
 21
599.11652867518535
 31
0.0
  0
CIRCLE
  5
3A6
  8
SIZE
  6
CONTINUOUS
 62
    30
 10
-388.0
 20
599.11652867518535
 30
0.0
 40
5.0
  0
LINE
  5
3A7
  8
SIZE
  6
CONTINUOUS
 62
    30
 10
-393.0
 20
599.11652867518535
 30
0.0
 11
-398.0
 21
599.11652867518535
 31
0.0
  0
TEXT
  5
3A8
  8
SIZE
  6
CONTINUOUS
 62
    30
 10
-575.72482781861891
 20
511.79192534561992
 30
0.0
 40
55.0
  1
67
 41
0.9
 72
     1
 11
-535.65339924719035
 21
511.79192534561992
 31
0.0
  0
CIRCLE
  5
3A9
  8
SIZE
  6
CONTINUOUS
 62
    30
 10
-455.0
 20
496.19287630041413
 30
0.0
 40
5.0
  0
LINE
  5
3AA
  8
SIZE
  6
CONTINUOUS
 62
    30
 10
-450.0
 20
496.19287630041413
 30
0.0
 11
-445.0
 21
496.19287630041413
 31
0.0
  0
CIRCLE
  5
3AB
  8
SIZE
  6
CONTINUOUS
 62
    30
 10
-388.0
 20
496.19287630041413
 30
0.0
 40
5.0
  0
LINE
  5
3AC
  8
SIZE
  6
CONTINUOUS
 62
    30
 10
-393.0
 20
496.19287630041413
 30
0.0
 11
-398.0
 21
496.19287630041413
 31
0.0
  0
TEXT
  5
3AD
  8
SIZE
  6
CONTINUOUS
 62
    30
 10
-575.72482781861891
 20
414.50793865142248
 30
0.0
 40
55.0
  1
60
 41
0.9
 72
     1
 11
-535.65339924719035
 21
414.50793865142248
 31
0.0
  0
CIRCLE
  5
3AE
  8
SIZE
  6
CONTINUOUS
 62
    30
 10
-448.0
 20
398.9088896062168
 30
0.0
 40
5.0
  0
LINE
  5
3AF
  8
SIZE
  6
CONTINUOUS
 62
    30
 10
-443.0
 20
398.9088896062168
 30
0.0
 11
-438.0
 21
398.9088896062168
 31
0.0
  0
CIRCLE
  5
3B0
  8
SIZE
  6
CONTINUOUS
 62
    30
 10
-388.0
 20
398.9088896062168
 30
0.0
 40
5.0
  0
LINE
  5
3B1
  8
SIZE
  6
CONTINUOUS
 62
    30
 10
-393.0
 20
398.9088896062168
 30
0.0
 11
-398.0
 21
398.9088896062168
 31
0.0
  0
LINE
  5
4CE
  8
NOTE
  6
CONTINUOUS
 62
     4
 10
-735.63925220409885
 20
500.4605357164146
 30
0.0
 11
-1226.257251899867
 21
500.4605357164146
 31
0.0
  0
TEXT
  5
4CF
  8
NOTE
  6
CONTINUOUS
 62
     4
 10
-1195.483672024568
 20
531.881887172191
 30
0.0
 40
64.0
  1
D VP-25
 41
0.9
  0
TEXT
  5
4D0
  8
NOTE
  6
CONTINUOUS
 62
     4
 10
-1137.60548766599
 20
-341.44384000000042
 30
0.0
 40
64.0
  1
（自然排水口）
 41
0.9
  0
LINE
  5
4D1
  8
NOTE
  6
CONTINUOUS
 62
     4
 10
-1162.44461266599
 20
-266.71635500000002
 30
0.0
 11
-693.57953866599019
 21
-266.71635500000002
 31
0.0
  0
TEXT
  5
4D2
  8
NOTE
  6
CONTINUOUS
 62
     4
 10
-1110.8338516659901
 20
-239.77423900000031
 30
0.0
 40
64.0
  1
D抜き
 41
0.9
  0
LINE
  5
4EB
  8
NOTE
  6
CONTINUOUS
 62
     4
 10
460.77236082002918
 20
221.33070563832371
 30
0.0
 11
1153.0801956616281
 21
221.33070563832371
 31
0.0
  0
TEXT
  5
4EC
  8
NOTE
  6
CONTINUOUS
 62
     4
 10
466.19081815362148
 20
235.9384761803509
 30
0.0
 40
55.0
  1
AH 4-14×30長穴
 41
0.9
  0
LINE
  5
5F1
  8
DETAIL
  6
CONTINUOUS
 62
     5
 10
-392.39999599999999
 20
197.19150099999999
 30
0.0
 11
-392.39999599999999
 21
234.774441
 31
0.0
  0
ARC
  5
5F3
  8
DETAIL
  6
CONTINUOUS
 62
     5
 10
-392.39999599999999
 20
237.92858200000001
 30
0.0
 40
3.9285830000000002
 50
218.87862199999881
 51
270.0
  0
LINE
  5
5F4
  8
NOTE
  6
CONTINUOUS
 62
     4
 10
-437.0
 20
216.0
 30
0.0
 11
-473.0
 21
216.0
 31
0.0
  0
LINE
  5
5F5
  8
NOTE
  6
CONTINUOUS
 62
     4
 10
-455.0
 20
234.0
 30
0.0
 11
-455.0
 21
198.0
 31
0.0
  0
LINE
  5
5F6
  8
DETAIL
  6
CONTINUOUS
 62
     5
 10
-392.39999599999999
 20
197.19150099999999
 30
0.0
 11
-388.0
 21
197.19150099999999
 31
0.0
  0
LINE
  5
5F7
  8
DETAIL
  6
CONTINUOUS
 62
     5
 10
-398.67252100000002
 20
195.0
 30
0.0
 11
-418.0
 21
195.0
 31
0.0
  0
LINE
  5
5FA
  8
DETAIL
  6
CONTINUOUS
 62
     5
 10
-417.99999999999989
 20
237.0
 30
0.0
 11
-418.0
 21
195.0
 31
0.0
  0
LINE
  5
5FB
  8
DETAIL
  6
CONTINUOUS
 62
     5
 10
-437.0
 20
207.5
 30
0.0
 11
-418.0
 21
207.5
 31
0.0
  0
LINE
  5
5FC
  8
DETAIL
  6
CONTINUOUS
 62
     5
 10
-437.0
 20
224.5
 30
0.0
 11
-418.0
 21
224.5
 31
0.0
  0
POLYLINE
  5
5FE
  8
DETAIL
  6
CONTINUOUS
 62
     5
 66
     1
 10
0.0
 20
0.0
 30
0.0
  0
VERTEX
  5
84C
  8
DETAIL
  6
CONTINUOUS
 62
     5
 10
-437.000001
 20
216.0
 30
0.0
  0
VERTEX
  5
84D
  8
DETAIL
  6
CONTINUOUS
 62
     5
 10
-437.19509099999988
 20
216.08166299999991
 30
0.0
  0
VERTEX
  5
84E
  8
DETAIL
  6
CONTINUOUS
 62
     5
 10
-437.38268399999993
 20
216.32351299999999
 30
0.0
  0
VERTEX
  5
84F
  8
DETAIL
  6
CONTINUOUS
 62
     5
 10
-437.55557099999982
 20
216.7162559999999
 30
0.0
  0
VERTEX
  5
850
  8
DETAIL
  6
CONTINUOUS
 62
     5
 10
-437.70710699999989
 20
217.24479799999989
 30
0.0
  0
VERTEX
  5
851
  8
DETAIL
  6
CONTINUOUS
 62
     5
 10
-437.83147000000002
 20
217.88882899999999
 30
0.0
  0
VERTEX
  5
852
  8
DETAIL
  6
CONTINUOUS
 62
     5
 10
-437.92388
 20
218.62359799999999
 30
0.0
  0
VERTEX
  5
853
  8
DETAIL
  6
CONTINUOUS
 62
     5
 10
-437.9807849999998
 20
219.4208679999999
 30
0.0
  0
VERTEX
  5
854
  8
DETAIL
  6
CONTINUOUS
 62
     5
 10
-438.0
 20
220.25000199999999
 30
0.0
  0
VERTEX
  5
855
  8
DETAIL
  6
CONTINUOUS
 62
     5
 10
-437.9807849999998
 20
221.07913600000009
 30
0.0
  0
VERTEX
  5
856
  8
DETAIL
  6
CONTINUOUS
 62
     5
 10
-437.92387899999989
 20
221.8764059999998
 30
0.0
  0
VERTEX
  5
857
  8
DETAIL
  6
CONTINUOUS
 62
     5
 10
-437.8314689999998
 20
222.611175
 30
0.0
  0
VERTEX
  5
858
  8
DETAIL
  6
CONTINUOUS
 62
     5
 10
-437.70710699999989
 20
223.2552049999999
 30
0.0
  0
VERTEX
  5
859
  8
DETAIL
  6
CONTINUOUS
 62
     5
 10
-437.55556999999988
 20
223.78374599999981
 30
0.0
  0
VERTEX
  5
85A
  8
DETAIL
  6
CONTINUOUS
 62
     5
 10
-437.38268299999987
 20
224.17648799999989
 30
0.0
  0
VERTEX
  5
85B
  8
DETAIL
  6
CONTINUOUS
 62
     5
 10
-437.19508999999988
 20
224.41833700000009
 30
0.0
  0
VERTEX
  5
85C
  8
DETAIL
  6
CONTINUOUS
 62
     5
 10
-437.0
 20
224.5
 30
0.0
  0
SEQEND
  5
85D
  8
DETAIL
  6
CONTINUOUS
 62
     5
  0
POLYLINE
  5
5FF
  8
DETAIL
  6
CONTINUOUS
 62
     5
 66
     1
 10
0.0
 20
0.0
 30
0.0
  0
VERTEX
  5
85E
  8
DETAIL
  6
CONTINUOUS
 62
     5
 10
-437.0
 20
207.5
 30
0.0
  0
VERTEX
  5
85F
  8
DETAIL
  6
CONTINUOUS
 62
     5
 10
-437.1837499999998
 20
207.57236399999999
 30
0.0
  0
VERTEX
  5
860
  8
DETAIL
  6
CONTINUOUS
 62
     5
 10
-437.36124199999989
 20
207.78699300000011
 30
0.0
  0
VERTEX
  5
861
  8
DETAIL
  6
CONTINUOUS
 62
     5
 10
-437.526432
 20
208.13657799999999
 30
0.0
  0
VERTEX
  5
862
  8
DETAIL
  6
CONTINUOUS
 62
     5
 10
-437.67369600000001
 20
208.6092129999999
 30
0.0
  0
VERTEX
  5
863
  8
DETAIL
  6
CONTINUOUS
 62
     5
 10
-437.79801699999979
 20
209.188804
 30
0.0
  0
VERTEX
  5
864
  8
DETAIL
  6
CONTINUOUS
 62
     5
 10
-437.89516299999991
 20
209.85561299999989
 30
0.0
  0
VERTEX
  5
865
  8
DETAIL
  6
CONTINUOUS
 62
     5
 10
-437.96182599999992
 20
210.58693400000001
 30
0.0
  0
VERTEX
  5
866
  8
DETAIL
  6
CONTINUOUS
 62
     5
 10
-437.9957339999998
 20
211.35786100000001
 30
0.0
  0
VERTEX
  5
867
  8
DETAIL
  6
CONTINUOUS
 62
     5
 10
-437.9957339999998
 20
212.142143
 30
0.0
  0
VERTEX
  5
868
  8
DETAIL
  6
CONTINUOUS
 62
     5
 10
-437.96182499999998
 20
212.91307
 30
0.0
  0
VERTEX
  5
869
  8
DETAIL
  6
CONTINUOUS
 62
     5
 10
-437.89516299999991
 20
213.6443900000001
 30
0.0
  0
VERTEX
  5
86A
  8
DETAIL
  6
CONTINUOUS
 62
     5
 10
-437.79801699999979
 20
214.31119899999999
 30
0.0
  0
VERTEX
  5
86B
  8
DETAIL
  6
CONTINUOUS
 62
     5
 10
-437.67369499999978
 20
214.8907900000001
 30
0.0
  0
VERTEX
  5
86C
  8
DETAIL
  6
CONTINUOUS
 62
     5
 10
-437.526432
 20
215.36342500000001
 30
0.0
  0
VERTEX
  5
86D
  8
DETAIL
  6
CONTINUOUS
 62
     5
 10
-437.36124099999989
 20
215.71300799999989
 30
0.0
  0
VERTEX
  5
86E
  8
DETAIL
  6
CONTINUOUS
 62
     5
 10
-437.18374899999992
 20
215.92763600000001
 30
0.0
  0
VERTEX
  5
86F
  8
DETAIL
  6
CONTINUOUS
 62
     5
 10
-436.999999
 20
216.0
 30
0.0
  0
SEQEND
  5
870
  8
DETAIL
  6
CONTINUOUS
 62
     5
  0
LINE
  5
600
  8
DETAIL
  6
CONTINUOUS
 62
     5
 10
-440.0
 20
224.25
 30
0.0
 11
-441.48988499999979
 21
224.48800800000009
 31
0.0
  0
LINE
  5
601
  8
DETAIL
  6
CONTINUOUS
 62
     5
 10
-441.564955
 20
207.5
 30
0.0
 11
-440.0
 21
207.75
 31
0.0
  0
LINE
  5
602
  8
DETAIL
  6
CONTINUOUS
 62
     5
 10
-451.0
 20
224.5
 30
0.0
 11
-441.564955
 21
224.5
 31
0.0
  0
LINE
  5
603
  8
DETAIL
  6
CONTINUOUS
 62
     5
 10
-451.0
 20
207.5
 30
0.0
 11
-441.564955
 21
207.5
 31
0.0
  0
LINE
  5
604
  8
DETAIL
  6
CONTINUOUS
 62
     5
 10
-438.0
 20
211.75000399999999
 30
0.0
 11
-438.0
 21
220.25000399999999
 31
0.0
  0
LINE
  5
605
  8
DETAIL
  6
CONTINUOUS
 62
     5
 10
-437.998268
 20
219.1749999999999
 30
0.0
 11
-440.0
 21
219.1749999999999
 31
0.0
  0
LINE
  5
606
  8
DETAIL
  6
CONTINUOUS
 62
     5
 10
-437.998268
 20
212.82499999999999
 30
0.0
 11
-440.0
 21
212.82499999999999
 31
0.0
  0
LINE
  5
607
  8
DETAIL
  6
CONTINUOUS
 62
     5
 10
-455.0
 20
222.0
 30
0.0
 11
-451.0
 21
224.5
 31
0.0
  0
LINE
  5
608
  8
DETAIL
  6
CONTINUOUS
 62
     5
 10
-451.0
 20
207.5
 30
0.0
 11
-455.0
 21
210.0
 31
0.0
  0
LINE
  5
609
  8
DETAIL
  6
CONTINUOUS
 62
     5
 10
-455.0
 20
222.0
 30
0.0
 11
-455.0
 21
210.0
 31
0.0
  0
LINE
  5
60A
  8
DETAIL
  6
CONTINUOUS
 62
     5
 10
-451.0
 20
224.5
 30
0.0
 11
-451.0
 21
207.5
 31
0.0
  0
LINE
  5
60B
  8
DETAIL
  6
CONTINUOUS
 62
     5
 10
-440.0
 20
224.25
 30
0.0
 11
-440.0
 21
207.75
 31
0.0
  0
ARC
  5
60C
  8
DETAIL
  6
CONTINUOUS
 62
     5
 10
-392.39999599999999
 20
194.07141799999999
 30
0.0
 40
3.9285830000000002
 50
90.0
 51
141.1213780000011
  0
ARC
  5
60D
  8
DETAIL
  6
CONTINUOUS
 62
     5
 10
-398.67252100000002
 20
199.1288449999999
 30
0.0
 40
4.1288450000000001
 50
270.0
 51
321.12137800000119
  0
LINE
  5
60E
  8
NOTE
  6
CONTINUOUS
 62
     4
 10
-447.99999999999972
 20
216.00000000000011
 30
0.0
 11
-483.99999999999977
 21
216.00000000000011
 31
0.0
  0
LINE
  5
60F
  8
DETAIL
  6
CONTINUOUS
 62
     5
 10
-459.99999999999972
 20
202.50000000000011
 30
0.0
 11
-465.99999999999989
 21
205.00000000000011
 31
0.0
  0
LINE
  5
610
  8
DETAIL
  6
CONTINUOUS
 62
     5
 10
-465.99999999999989
 20
227.0
 30
0.0
 11
-459.99999999999972
 21
229.50000000000011
 31
0.0
  0
LINE
  5
611
  8
NOTE
  6
CONTINUOUS
 62
     4
 10
-465.99999999999989
 20
234.00000000000011
 30
0.0
 11
-465.99999999999989
 21
198.0
 31
0.0
  0
LINE
  5
612
  8
DETAIL
  6
CONTINUOUS
 62
     5
 10
-465.99999999999989
 20
205.00000000000011
 30
0.0
 11
-465.99999999999989
 21
227.0
 31
0.0
  0
LINE
  5
613
  8
DETAIL
  6
CONTINUOUS
 62
     5
 10
-388.0
 20
234.77447200000009
 30
0.0
 11
-392.39999599999999
 21
234.77447200000009
 31
0.0
  0
ARC
  5
614
  8
DETAIL
  6
CONTINUOUS
 62
     5
 10
-391.39999599999999
 20
237.77447200000009
 30
0.0
 40
3.0
 50
270.0
 51
272.38801500000187
  0
LINE
  5
616
  8
DETAIL
  6
CONTINUOUS
 62
     5
 10
-387.99999999999989
 20
234.7915010000001
 30
0.0
 11
-394.76484000908999
 21
234.7915010000001
 31
0.0
  0
LINE
  5
619
  8
DETAIL
  6
CONTINUOUS
 62
     5
 10
-394.76479888551592
 20
197.20853
 30
0.0
 11
-387.99999999999989
 21
197.20853
 31
0.0
  0
LINE
  5
61A
  8
DETAIL
  6
CONTINUOUS
 62
     5
 10
-421.99999999999972
 20
237.0
 30
0.0
 11
-403.67252099999979
 21
237.0
 31
0.0
  0
LINE
  5
61B
  8
DETAIL
  6
CONTINUOUS
 62
     5
 10
-421.99999999999972
 20
195.0
 30
0.0
 11
-403.67252099999979
 21
195.0
 31
0.0
  0
LINE
  5
61C
  8
DETAIL
  6
CONTINUOUS
 62
     5
 10
-418.0
 20
237.0
 30
0.0
 11
-398.67252100000002
 21
237.0
 31
0.0
  0
LINE
  5
61E
  8
DETAIL
  6
CONTINUOUS
 62
     5
 10
-459.99999999999972
 20
202.50000000000011
 30
0.0
 11
-459.99999999999972
 21
229.50000000000011
 31
0.0
  0
LINE
  5
61F
  8
DETAIL
  6
CONTINUOUS
 62
     5
 10
-443.99999999999972
 20
202.50000000000011
 30
0.0
 11
-443.99999999999949
 21
207.5
 31
0.0
  0
LINE
  5
622
  8
DETAIL
  6
CONTINUOUS
 62
     5
 10
-443.99999999999972
 20
207.00000000000011
 30
0.0
 11
-443.99999999999972
 21
207.5
 31
0.0
  0
POLYLINE
  5
624
  8
DETAIL
  6
CONTINUOUS
 62
     5
 66
     1
 10
0.0
 20
0.0
 30
0.0
  0
VERTEX
  5
871
  8
DETAIL
  6
CONTINUOUS
 62
     5
 10
-440.70563299999992
 20
202.50000000000011
 30
0.0
  0
VERTEX
  5
872
  8
DETAIL
  6
CONTINUOUS
 62
     5
 10
-441.10747599999979
 20
203.37332400000011
 30
0.0
  0
VERTEX
  5
873
  8
DETAIL
  6
CONTINUOUS
 62
     5
 10
-441.44720299999972
 20
204.45181700000009
 30
0.0
  0
VERTEX
  5
874
  8
DETAIL
  6
CONTINUOUS
 62
     5
 10
-441.7129529999998
 20
205.69782499999999
 30
0.0
  0
VERTEX
  5
875
  8
DETAIL
  6
CONTINUOUS
 62
     5
 10
-441.89544699999988
 20
207.06784800000011
 30
0.0
  0
VERTEX
  5
876
  8
DETAIL
  6
CONTINUOUS
 62
     5
 10
-441.92319760533269
 20
207.5
 30
0.0
  0
SEQEND
  5
877
  8
DETAIL
  6
CONTINUOUS
 62
     5
  0
LINE
  5
626
  8
DETAIL
  6
CONTINUOUS
 62
     5
 10
-440.70563299999992
 20
202.50000000000011
 30
0.0
 11
-421.99999999999972
 21
202.50000000000011
 31
0.0
  0
LINE
  5
627
  8
DETAIL
  6
CONTINUOUS
 62
     5
 10
-459.99999999999972
 20
202.50000000000011
 30
0.0
 11
-443.99999999999972
 21
202.50000000000011
 31
0.0
  0
LINE
  5
628
  8
DETAIL
  6
CONTINUOUS
 62
     5
 10
-440.70563299999992
 20
229.50000000000011
 30
0.0
 11
-421.99999999999972
 21
229.50000000000011
 31
0.0
  0
LINE
  5
629
  8
DETAIL
  6
CONTINUOUS
 62
     5
 10
-459.99999999999972
 20
229.50000000000011
 30
0.0
 11
-443.99999999999972
 21
229.50000000000011
 31
0.0
  0
LINE
  5
62A
  8
DETAIL
  6
CONTINUOUS
 62
     5
 10
-421.99999999999972
 20
195.0
 30
0.0
 11
-421.99999999999989
 21
207.5
 31
0.0
  0
ARC
  5
62D
  8
DETAIL
  6
CONTINUOUS
 62
     5
 10
-398.67252100000002
 20
232.87115499999999
 30
0.0
 40
4.1288450000000001
 50
38.878621999998849
 51
90.0
  0
LINE
  5
630
  8
DETAIL
  6
CONTINUOUS
 62
     5
 10
-463.66870479999989
 20
227.971373
 30
0.0
 11
-488.0
 21
227.971373
 31
0.0
  0
LINE
  5
633
  8
DETAIL
  6
CONTINUOUS
 62
     5
 10
-441.3138974809745
 20
227.971373
 30
0.0
 11
-443.99999999999972
 21
227.971373
 31
0.0
  0
POLYLINE
  5
635
  8
DETAIL
  6
CONTINUOUS
 62
     5
 66
     1
 10
0.0
 20
0.0
 30
0.0
  0
VERTEX
  5
878
  8
DETAIL
  6
CONTINUOUS
 62
     5
 10
-441.92319760533269
 20
224.5
 30
0.0
  0
VERTEX
  5
879
  8
DETAIL
  6
CONTINUOUS
 62
     5
 10
-441.89544699999988
 20
224.93215199999989
 30
0.0
  0
VERTEX
  5
87A
  8
DETAIL
  6
CONTINUOUS
 62
     5
 10
-441.7129529999998
 20
226.30217500000001
 30
0.0
  0
VERTEX
  5
87B
  8
DETAIL
  6
CONTINUOUS
 62
     5
 10
-441.44720299999972
 20
227.54818299999999
 30
0.0
  0
VERTEX
  5
87C
  8
DETAIL
  6
CONTINUOUS
 62
     5
 10
-441.10747599999979
 20
228.62667599999989
 30
0.0
  0
VERTEX
  5
87D
  8
DETAIL
  6
CONTINUOUS
 62
     5
 10
-440.70563299999992
 20
229.50000000000011
 30
0.0
  0
SEQEND
  5
87E
  8
DETAIL
  6
CONTINUOUS
 62
     5
  0
LINE
  5
636
  8
DETAIL
  6
CONTINUOUS
 62
     5
 10
-443.99999999999972
 20
224.5
 30
0.0
 11
-443.99999999999972
 21
225.0
 31
0.0
  0
LINE
  5
637
  8
DETAIL
  6
CONTINUOUS
 62
     5
 10
-443.99999999999972
 20
224.5
 30
0.0
 11
-443.99999999999972
 21
229.50000000000011
 31
0.0
  0
LINE
  5
640
  8
DETAIL
  6
CONTINUOUS
 62
     5
 10
-421.99999999999989
 20
224.5
 30
0.0
 11
-421.99999999999972
 21
237.0
 31
0.0
  0
LINE
  5
662
  8
SIZE
  6
CONTINUOUS
 62
    30
 10
-667.33268600000019
 20
268.0
 30
0.0
 11
-667.33268600000019
 21
258.0
 31
0.0
  0
LINE
  5
663
  8
SIZE
  6
CONTINUOUS
 62
    30
 10
-667.33268600000019
 20
273.0
 30
0.0
 11
-667.33268600000019
 21
268.0
 31
0.0
  0
LINE
  5
66C
  8
SIZE
  6
CONTINUOUS
 62
    30
 10
-667.13191280665148
 20
347.99597397527572
 30
0.0
 11
-667.13191280665148
 21
434.26448798214898
 31
0.0
  0
LINE
  5
66D
  8
SIZE
  6
CONTINUOUS
 62
    30
 10
-667.13191280665148
 20
342.99597397527572
 30
0.0
 11
-667.13191280665148
 21
347.99597397527572
 31
0.0
  0
ENDSEC
  0
EOF
