  0
SECTION
  2
HEADER
  9
$ACADVER
  1
AC1009
  9
$INSBASE
 10
0.0
 20
0.0
 30
0.0
  9
$EXTMIN
 10
-1029.052700648379
 20
-1111.6790522491531
 30
-0.000000000000013
  9
$EXTMAX
 10
1105.0415261474441
 20
1037.5213792285899
 30
0.0000000000000023
  9
$LIMMIN
 10
-6000.0
 20
-4500.0
  9
$LIMMAX
 10
6000.0
 20
4500.0
  9
$ORTHOMODE
 70
     1
  9
$REGENMODE
 70
     1
  9
$FILLMODE
 70
     1
  9
$QTEXTMODE
 70
     0
  9
$MIRRTEXT
 70
     0
  9
$DRAGMODE
 70
     2
  9
$LTSCALE
 40
20.0
  9
$OSMODE
 70
   431
  9
$ATTMODE
 70
     1
  9
$TEXTSIZE
 40
64.0
  9
$TRACEWID
 40
0.05
  9
$TEXTSTYLE
  7
STANDARD
  9
$CLAYER
  8
SYMBOLLINE
  9
$CELTYPE
  6
CONTINUOUS
  9
$CECOLOR
 62
     7
  9
$DIMSCALE
 40
1.0
  9
$DIMASZ
 40
10.0
  9
$DIMEXO
 40
20.0
  9
$DIMDLI
 40
200.0
  9
$DIMRND
 40
0.0
  9
$DIMDLE
 40
0.0
  9
$DIMEXE
 40
30.0
  9
$DIMTP
 40
0.0
  9
$DIMTM
 40
0.0
  9
$DIMTXT
 40
64.0
  9
$DIMCEN
 40
0.0
  9
$DIMTSZ
 40
0.0
  9
$DIMTOL
 70
     0
  9
$DIMLIM
 70
     0
  9
$DIMTIH
 70
     0
  9
$DIMTOH
 70
     0
  9
$DIMSE1
 70
     0
  9
$DIMSE2
 70
     0
  9
$DIMTAD
 70
     1
  9
$DIMZIN
 70
     8
  9
$DIMBLK
  1

  9
$DIMASO
 70
     1
  9
$DIMSHO
 70
     0
  9
$DIMPOST
  1

  9
$DIMAPOST
  1

  9
$DIMALT
 70
     0
  9
$DIMALTD
 70
     2
  9
$DIMALTF
 40
25.399999999999999
  9
$DIMLFAC
 40
1.0
  9
$DIMTOFL
 70
     1
  9
$DIMTVP
 40
0.0
  9
$DIMTIX
 70
     1
  9
$DIMSOXD
 70
     0
  9
$DIMSAH
 70
     1
  9
$DIMBLK1
  1
DOTBLANK
  9
$DIMBLK2
  1
DOTBLANK
  9
$DIMSTYLE
  2
STANDARD
  9
$DIMCLRD
 70
     0
  9
$DIMCLRE
 70
     0
  9
$DIMCLRT
 70
     0
  9
$DIMTFAC
 40
1.0
  9
$DIMGAP
 40
0.09
  9
$LUNITS
 70
     2
  9
$LUPREC
 70
     4
  9
$SKETCHINC
 40
0.1
  9
$FILLETRAD
 40
20.0
  9
$AUNITS
 70
     1
  9
$AUPREC
 70
     3
  9
$MENU
  1
ACAD
  9
$ELEVATION
 40
0.0
  9
$PELEVATION
 40
0.0
  9
$THICKNESS
 40
0.0
  9
$LIMCHECK
 70
     0
  9
$BLIPMODE
 70
     0
  9
$CHAMFERA
 40
0.0
  9
$CHAMFERB
 40
0.0
  9
$SKPOLY
 70
     0
  9
$TDCREATE
 40
2450330.4399309959
  9
$TDUPDATE
 40
2455866.7970590978
  9
$TDINDWG
 40
1.4234493866
  9
$TDUSRTIMER
 40
1.423448831
  9
$USRTIMER
 70
     1
  9
$ANGBASE
 50
0.0
  9
$ANGDIR
 70
     0
  9
$PDMODE
 70
     3
  9
$PDSIZE
 40
-2.0
  9
$PLINEWID
 40
0.0
  9
$COORDS
 70
     0
  9
$SPLFRAME
 70
     0
  9
$SPLINETYPE
 70
     6
  9
$SPLINESEGS
 70
     8
  9
$ATTDIA
 70
     0
  9
$ATTREQ
 70
     1
  9
$HANDLING
 70
     1
  9
$HANDSEED
  5
70A
  9
$SURFTAB1
 70
     6
  9
$SURFTAB2
 70
     6
  9
$SURFTYPE
 70
     6
  9
$SURFU
 70
     6
  9
$SURFV
 70
     6
  9
$UCSNAME
  2

  9
$UCSORG
 10
0.0
 20
0.0
 30
0.0
  9
$UCSXDIR
 10
1.0
 20
0.0
 30
0.0
  9
$UCSYDIR
 10
0.0
 20
1.0
 30
0.0
  9
$PUCSNAME
  2

  9
$PUCSORG
 10
0.0
 20
0.0
 30
0.0
  9
$PUCSXDIR
 10
1.0
 20
0.0
 30
0.0
  9
$PUCSYDIR
 10
0.0
 20
1.0
 30
0.0
  9
$USERI1
 70
     0
  9
$USERI2
 70
     0
  9
$USERI3
 70
     0
  9
$USERI4
 70
     0
  9
$USERI5
 70
     0
  9
$USERR1
 40
20.0
  9
$USERR2
 40
0.0
  9
$USERR3
 40
0.0
  9
$USERR4
 40
0.0
  9
$USERR5
 40
0.0
  9
$WORLDVIEW
 70
     1
  9
$SHADEDGE
 70
     3
  9
$SHADEDIF
 70
    70
  9
$TILEMODE
 70
     1
  9
$MAXACTVP
 70
    48
  9
$PLIMCHECK
 70
     0
  9
$PEXTMIN
 10
1.0000000000000000E+020
 20
1.0000000000000000E+020
 30
1.0000000000000000E+020
  9
$PEXTMAX
 10
-1.0000000000000000E+020
 20
-1.0000000000000000E+020
 30
-1.0000000000000000E+020
  9
$PLIMMIN
 10
0.0
 20
0.0
  9
$PLIMMAX
 10
12.0
 20
9.0
  9
$UNITMODE
 70
     0
  9
$VISRETAIN
 70
     1
  9
$PLINEGEN
 70
     0
  9
$PSLTSCALE
 70
     1
  0
ENDSEC
  0
SECTION
  2
TABLES
  0
TABLE
  2
VPORT
 70
     1
  0
VPORT
  2
*ACTIVE
 70
     0
 10
0.0
 20
0.0
 11
1.0
 21
1.0
 12
-0.0000000000001137
 22
0.0
 13
0.0
 23
0.0
 14
50.0
 24
50.0
 15
100.0
 25
100.0
 16
0.0
 26
0.0
 36
1.0
 17
0.0
 27
0.0
 37
0.0
 40
9068.6149936467591
 41
1.555979643765903
 42
50.0
 43
0.0
 44
0.0
 50
0.0
 51
0.0
 71
     0
 72
  1000
 73
     1
 74
     0
 75
     0
 76
     0
 77
     0
 78
     0
  0
ENDTAB
  0
TABLE
  2
LTYPE
 70
     2
  0
LTYPE
  2
CONTINUOUS
 70
     0
  3
実線
 72
    65
 73
     0
 40
0.0
  0
LTYPE
  2
DASHDOT
 70
     0
  3
____ _ ____ _ ____ _ ____ _ ____ _ ____ _ ____
 72
    65
 73
     4
 40
5.5
 49
4.0
 49
-0.6
 49
0.3
 49
-0.6
  0
ENDTAB
  0
TABLE
  2
LAYER
 70
    12
  0
LAYER
  2
0
 70
     0
 62
     7
  6
CONTINUOUS
  0
LAYER
  2
SYMBOLLINE
 70
     0
 62
    15
  6
CONTINUOUS
  0
LAYER
  2
SIZE
 70
     0
 62
    30
  6
CONTINUOUS
  0
LAYER
  2
OUTLINE
 70
     0
 62
     3
  6
CONTINUOUS
  0
LAYER
  2
DETAIL
 70
     0
 62
     5
  6
CONTINUOUS
  0
LAYER
  2
BASIS
 70
     0
 62
     6
  6
DASHDOT
  0
LAYER
  2
NOTE
 70
     0
 62
     4
  6
CONTINUOUS
  0
LAYER
  2
ARRANGE
 70
     0
 62
     1
  6
CONTINUOUS
  0
LAYER
  2
FIX
 70
     0
 62
    11
  6
CONTINUOUS
  0
LAYER
  2
SERVICESPACE
 70
     0
 62
     2
  6
DASHDOT
  0
LAYER
  2
ETC
 70
     0
 62
    61
  6
CONTINUOUS
  0
LAYER
  2
DEFPOINTS
 70
     0
 62
     7
  6
CONTINUOUS
  0
ENDTAB
  0
TABLE
  2
STYLE
 70
     2
  0
STYLE
  2
STANDARD
 70
     0
 40
0.0
 41
0.9
 50
0.0
 71
     0
 42
64.0
  3
SIMPLEX
  4
BIGFONT
  0
STYLE
  2
ANNOTATIVE
 70
     0
 40
0.0
 41
1.0
 50
0.0
 71
     0
 42
0.2
  3
txt
  4

  0
ENDTAB
  0
TABLE
  2
VIEW
 70
     3
  0
VIEW
  2
ALL
 70
     0
 40
9000.0
 10
241.50664699999999
 20
0.0
 41
12483.01
 11
0.0
 21
0.0
 31
1.0
 12
0.0
 22
0.0
 32
0.0
 42
50.0
 43
0.0
 44
0.0
 50
0.0
 71
     0
  0
ENDTAB
  0
TABLE
  2
UCS
 70
     0
  0
ENDTAB
  0
TABLE
  2
APPID
 70
     4
  0
APPID
  2
ACAD
 70
     0
  0
APPID
  2
ACADANNOTATIVE
 70
     0
  0
APPID
  2
ACAD_MLEADERVER
 70
     0
  0
APPID
  2
ACAD_EXEMPT_FROM_CAD_STANDARDS
 70
     0
  0
ENDTAB
  0
TABLE
  2
DIMSTYLE
 70
     2
  0
DIMSTYLE
  2
STANDARD
 70
     0
  3

  4

  5

  6

  7

 40
1.0
 41
0.18
 42
0.0625
 43
0.38
 44
0.18
 45
0.0
 46
0.0
 47
0.0
 48
0.0
140
0.18
141
0.09
142
0.0
143
25.399999999999999
144
1.0
145
0.0
146
1.0
147
0.09
 71
     0
 72
     0
 73
     1
 74
     1
 75
     0
 76
     0
 77
     0
 78
     0
170
     0
171
     2
172
     0
173
     0
174
     0
175
     0
176
     0
177
     0
178
     0
  0
DIMSTYLE
  2
ANNOTATIVE
 70
     0
  3

  4

  5

  6

  7

 40
1.0
 41
0.18
 42
0.0625
 43
0.38
 44
0.18
 45
0.0
 46
0.0
 47
0.0
 48
0.0
140
0.18
141
0.09
142
0.0
143
25.399999999999999
144
1.0
145
0.0
146
1.0
147
0.09
 71
     0
 72
     0
 73
     1
 74
     1
 75
     0
 76
     0
 77
     0
 78
     0
170
     0
171
     2
172
     0
173
     0
174
     0
175
     0
176
     0
177
     0
178
     0
  0
ENDTAB
  0
ENDSEC
  0
SECTION
  2
BLOCKS
  0
BLOCK
  8
0
  2
$MODEL_SPACE
 70
     0
 10
0.0
 20
0.0
 30
0.0
  3
$MODEL_SPACE
  1

  0
ENDBLK
  5
6A1
  8
0
  0
BLOCK
 67
     1
  8
0
  2
$PAPER_SPACE
 70
     0
 10
0.0
 20
0.0
 30
0.0
  3
$PAPER_SPACE
  1

  0
ENDBLK
  5
69D
 67
     1
  8
0
  0
BLOCK
  8
0
  2
_DOTBLANK
 70
     0
 10
0.0
 20
0.0
 30
0.0
  3
_DOTBLANK
  1

  0
CIRCLE
  5
30
  8
0
  6
CONTINUOUS
 62
     7
 10
0.0
 20
0.0
 30
0.0
 40
0.5
  0
LINE
  5
31
  8
0
  6
CONTINUOUS
 62
     7
 10
-0.5
 20
0.0
 30
0.0
 11
-1.0
 21
0.0
 31
0.0
  0
ENDBLK
  5
32
  8
0
  0
BLOCK
  8
0
 62
     7
  2
*D3
 70
     1
 10
0.0
 20
0.0
 30
0.0
  3
*D3
  1

  0
LINE
  5
331
  8
SIZE
  6
CONTINUOUS
 62
     0
 10
211.0
 20
-466.0
 30
0.0
 11
591.43632671613875
 21
-466.00000000000011
 31
0.0
  0
LINE
  5
332
  8
SIZE
  6
CONTINUOUS
 62
     0
 10
355.0
 20
-540.0
 30
0.0
 11
591.43632671613875
 21
-540.0
 31
0.0
  0
LINE
  5
333
  8
SIZE
  6
CONTINUOUS
 62
     0
 10
561.43632671613886
 20
-530.0
 30
0.0
 11
561.43632671613886
 21
-476.0
 31
0.0
  0
LINE
  5
334
  8
SIZE
  6
CONTINUOUS
 62
     0
 10
561.43632671613886
 20
-466.00000000000011
 30
0.0
 11
561.43632671613886
 21
-346.51838666457411
 31
0.0
  0
INSERT
  5
335
  8
SIZE
  6
CONTINUOUS
 62
     0
  2
_DOTBLANK
 10
561.43632671613886
 20
-540.0
 30
0.0
 41
10.0
 42
10.0
 43
10.0
 50
270.0
  0
INSERT
  5
336
  8
SIZE
  6
CONTINUOUS
 62
     0
  2
_DOTBLANK
 10
561.43632671613886
 20
-466.00000000000011
 30
0.0
 41
10.0
 42
10.0
 43
10.0
 50
90.0
  0
INSERT
  5
337
  8
SYMBOLLINE
  6
CONTINUOUS
 62
     7
  2
*U4
 10
0.0
 20
0.0
 30
0.0
  0
POINT
  5
338
  8
DEFPOINTS
  6
CONTINUOUS
 62
     0
 10
191.0
 20
-466.0
 30
0.0
  0
POINT
  5
339
  8
DEFPOINTS
  6
CONTINUOUS
 62
     0
 10
335.0
 20
-540.0
 30
0.0
  0
POINT
  5
33A
  8
DEFPOINTS
  6
CONTINUOUS
 62
     0
 10
561.43632671613886
 20
-540.0
 30
0.0
  0
ENDBLK
  5
291
  8
0
 62
     7
  0
BLOCK
  8
0
 62
     7
  2
*U4
 70
     1
 10
0.0
 20
0.0
 30
0.0
  3
*U4
  1

  0
TEXT
  5
3B7
  8
SIZE
  6
CONTINUOUS
 62
     0
 10
561.34632671613895
 20
-442.60838666457391
 30
0.0
 40
64.0
  1
74
 50
90.0
 41
0.9
  0
ENDBLK
  5
3B9
  8
0
 62
     7
  0
BLOCK
  8
0
 62
     7
  2
*D5
 70
     1
 10
0.0
 20
0.0
 30
0.0
  3
*D5
  1

  0
LINE
  5
327
  8
SIZE
  6
CONTINUOUS
 62
     0
 10
355.0
 20
-540.0
 30
0.0
 11
477.07004795147242
 21
-540.0
 31
0.0
  0
LINE
  5
328
  8
SIZE
  6
CONTINUOUS
 62
     0
 10
141.0
 20
-455.0
 30
0.0
 11
477.07004795147242
 21
-455.0
 31
0.0
  0
LINE
  5
329
  8
SIZE
  6
CONTINUOUS
 62
     0
 10
447.07004795147242
 20
-530.0
 30
0.0
 11
447.07004795147242
 21
-465.0
 31
0.0
  0
LINE
  5
32A
  8
SIZE
  6
CONTINUOUS
 62
     0
 10
447.07004795147242
 20
-455.0
 30
0.0
 11
447.07004795147242
 21
-347.88981523600268
 31
0.0
  0
INSERT
  5
32B
  8
SIZE
  6
CONTINUOUS
 62
     0
  2
_DOTBLANK
 10
447.07004795147242
 20
-540.0
 30
0.0
 41
10.0
 42
10.0
 43
10.0
 50
270.0
  0
INSERT
  5
32C
  8
SIZE
  6
CONTINUOUS
 62
     0
  2
_DOTBLANK
 10
447.07004795147242
 20
-455.0
 30
0.0
 41
10.0
 42
10.0
 43
10.0
 50
90.0
  0
INSERT
  5
32D
  8
SYMBOLLINE
  6
CONTINUOUS
 62
     7
  2
*U6
 10
0.0
 20
0.0
 30
0.0
  0
POINT
  5
32E
  8
DEFPOINTS
  6
CONTINUOUS
 62
     0
 10
335.0
 20
-540.0
 30
0.0
  0
POINT
  5
32F
  8
DEFPOINTS
  6
CONTINUOUS
 62
     0
 10
121.0
 20
-455.0
 30
0.0
  0
POINT
  5
330
  8
DEFPOINTS
  6
CONTINUOUS
 62
     0
 10
447.07004795147242
 20
-455.0
 30
0.0
  0
ENDBLK
  5
2A0
  8
0
 62
     7
  0
BLOCK
  8
0
 62
     7
  2
*U6
 70
     1
 10
0.0
 20
0.0
 30
0.0
  3
*U6
  1

  0
TEXT
  5
3B3
  8
SIZE
  6
CONTINUOUS
 62
     0
 10
446.9800479514725
 20
-441.23695809314518
 30
0.0
 40
64.0
  1
85
 50
90.0
 41
0.9
  0
ENDBLK
  5
3B5
  8
0
 62
     7
  0
BLOCK
  8
0
 62
     7
  2
*D7
 70
     1
 10
0.0
 20
0.0
 30
0.0
  3
*D7
  1

  0
LINE
  5
33B
  8
SIZE
  6
CONTINUOUS
 62
     0
 10
-220.0
 20
-448.0
 30
0.0
 11
-445.08729914442688
 21
-447.99999999999989
 31
0.0
  0
LINE
  5
33C
  8
SIZE
  6
CONTINUOUS
 62
     0
 10
-355.0
 20
-540.0
 30
0.0
 11
-445.08729914442688
 21
-540.0
 31
0.0
  0
LINE
  5
33D
  8
SIZE
  6
CONTINUOUS
 62
     0
 10
-415.08729914442682
 20
-457.99999999999989
 30
0.0
 11
-415.08729914442682
 21
-530.0
 31
0.0
  0
LINE
  5
33E
  8
SIZE
  6
CONTINUOUS
 62
     0
 10
-415.08729914442682
 20
-540.0
 30
0.0
 11
-415.08729914442682
 21
-666.67725025095433
 31
0.0
  0
INSERT
  5
33F
  8
SIZE
  6
CONTINUOUS
 62
     0
  2
_DOTBLANK
 10
-415.08729914442682
 20
-447.99999999999989
 30
0.0
 41
10.0
 42
10.0
 43
10.0
 50
90.0
  0
INSERT
  5
340
  8
SIZE
  6
CONTINUOUS
 62
     0
  2
_DOTBLANK
 10
-415.08729914442682
 20
-540.0
 30
0.0
 41
10.0
 42
10.0
 43
10.0
 50
270.0
  0
INSERT
  5
341
  8
SYMBOLLINE
  6
CONTINUOUS
 62
     7
  2
*U8
 10
0.0
 20
0.0
 30
0.0
  0
POINT
  5
342
  8
DEFPOINTS
  6
CONTINUOUS
 62
     0
 10
-200.0
 20
-448.0
 30
0.0
  0
POINT
  5
343
  8
DEFPOINTS
  6
CONTINUOUS
 62
     0
 10
-335.0
 20
-540.0
 30
0.0
  0
POINT
  5
344
  8
DEFPOINTS
  6
CONTINUOUS
 62
     0
 10
-415.08729914442682
 20
-540.0
 30
0.0
  0
ENDBLK
  5
2E9
  8
0
 62
     7
  0
BLOCK
  8
0
 62
     7
  2
*U8
 70
     1
 10
0.0
 20
0.0
 30
0.0
  3
*U8
  1

  0
TEXT
  5
3BB
  8
SIZE
  6
CONTINUOUS
 62
     0
 10
-415.1772991444268
 20
-666.58725025095453
 30
0.0
 40
64.0
  1
92
 50
90.0
 41
0.9
  0
ENDBLK
  5
3BD
  8
0
 62
     7
  0
ENDSEC
  0
SECTION
  2
ENTITIES
  0
LINE
  5
38
  8
DETAIL
  6
CONTINUOUS
 62
     5
 10
335.0
 20
-540.0
 30
0.0
 11
-335.0
 21
-540.0
 31
0.0
  0
LINE
  5
39
  8
DETAIL
  6
CONTINUOUS
 62
     5
 10
335.0
 20
540.0
 30
0.0
 11
-335.0
 21
540.0
 31
0.0
  0
LINE
  5
3A
  8
BASIS
  6
DASHDOT
 62
     6
 10
-400.0
 20
0.0
 30
0.0
 11
400.0
 21
0.0
 31
0.0
  0
LINE
  5
3B
  8
DETAIL
  6
CONTINUOUS
 62
     5
 10
-355.0
 20
-520.0
 30
0.0
 11
-355.0
 21
520.0
 31
0.0
  0
LINE
  5
3D
  8
NOTE
  6
CONTINUOUS
 62
     4
 10
-180.0
 20
-448.0
 30
0.0
 11
-423.16528032302159
 21
-1053.1466796586269
 31
0.0
  0
LINE
  5
5A
  8
DETAIL
  6
CONTINUOUS
 62
     5
 10
355.0
 20
-520.0
 30
0.0
 11
355.0
 21
520.0
 31
0.0
  0
LINE
  5
5C
  8
BASIS
  6
DASHDOT
 62
     6
 10
0.0
 20
-620.0
 30
0.0
 11
0.0
 21
620.0
 31
0.0
  0
TEXT
  5
5E
  8
NOTE
  6
CONTINUOUS
 62
     4
 10
513.82392900000002
 20
-924.87794599999995
 30
0.0
 40
55.0
  1
RL φ6.35
 41
0.9
  0
LINE
  5
5F
  8
NOTE
  6
CONTINUOUS
 62
     4
 10
530.94006899999999
 20
-823.54875800000002
 30
0.0
 11
935.77950199999987
 21
-823.54875800000002
 31
0.0
  0
TEXT
  5
60
  8
NOTE
  6
CONTINUOUS
 62
     4
 10
543.30543499999987
 20
-810.61933299999964
 30
0.0
 40
55.0
  1
RG φ12.7
 41
0.9
  0
LINE
  5
61
  8
NOTE
  6
CONTINUOUS
 62
     4
 10
497.65217899999988
 20
-939.05659900000001
 30
0.0
 11
899.71383300000002
 21
-939.05659900000001
 31
0.0
  0
LINE
  5
62
  8
NOTE
  6
CONTINUOUS
 62
     4
 10
101.0
 20
-455.0
 30
0.0
 11
497.65217899999988
 21
-939.05659900000001
 31
0.0
  0
LINE
  5
63
  8
NOTE
  6
CONTINUOUS
 62
     4
 10
171.0
 20
-466.0
 30
0.0
 11
530.94006899999999
 21
-823.54875800000002
 31
0.0
  0
POLYLINE
  5
64
  8
NOTE
  6
CONTINUOUS
 62
     4
 66
     1
 10
0.0
 20
0.0
 30
0.0
  0
VERTEX
  5
6EE
  8
NOTE
  6
CONTINUOUS
 62
     4
 10
205.040885
 20
-487.00519299999979
 30
0.0
  0
VERTEX
  5
6EF
  8
NOTE
  6
CONTINUOUS
 62
     4
 10
171.0
 20
-466.0
 30
0.0
  0
VERTEX
  5
6F0
  8
NOTE
  6
CONTINUOUS
 62
     4
 10
189.977675
 20
-501.21147300000001
 30
0.0
  0
SEQEND
  5
6F1
  8
NOTE
  6
CONTINUOUS
 62
     4
  0
POLYLINE
  5
69
  8
NOTE
  6
CONTINUOUS
 62
     4
 66
     1
 10
0.0
 20
0.0
 30
0.0
  0
VERTEX
  5
6F2
  8
NOTE
  6
CONTINUOUS
 62
     4
 10
133.19329300000001
 20
-478.74009000000001
 30
0.0
  0
VERTEX
  5
6F3
  8
NOTE
  6
CONTINUOUS
 62
     4
 10
101.0
 20
-455.0
 30
0.0
  0
VERTEX
  5
6F4
  8
NOTE
  6
CONTINUOUS
 62
     4
 10
117.010164
 20
-491.65616799999998
 30
0.0
  0
SEQEND
  5
6F5
  8
NOTE
  6
CONTINUOUS
 62
     4
  0
CIRCLE
  5
78
  8
ARRANGE
  6
CONTINUOUS
 62
     1
 10
0.0
 20
0.0
 30
0.0
 40
40.0
  0
POINT
  5
79
  8
ARRANGE
  6
CONTINUOUS
 62
     1
 10
0.0
 20
0.0
 30
0.0
  0
TEXT
  5
84
  8
ETC
  6
CONTINUOUS
 62
    61
 10
265.15930723621568
 20
973.22579367194328
 30
0.0
 40
64.0
  1
PL-RP40_56LA6_6
 41
0.9
  0
ARC
  5
87
  8
DETAIL
  6
CONTINUOUS
 62
     5
 10
-335.0
 20
520.0
 30
0.0
 40
20.0
 50
90.0
 51
180.0
  0
ARC
  5
88
  8
DETAIL
  6
CONTINUOUS
 62
     5
 10
-335.0
 20
-520.0
 30
0.0
 40
20.0
 50
180.0
 51
270.0
  0
ARC
  5
89
  8
DETAIL
  6
CONTINUOUS
 62
     5
 10
335.0
 20
-520.0
 30
0.0
 40
20.0
 50
270.0
 51
0.0
  0
ARC
  5
8A
  8
DETAIL
  6
CONTINUOUS
 62
     5
 10
335.0
 20
520.0
 30
0.0
 40
20.0
 50
0.0
 51
90.0
  0
LINE
  5
8D
  8
DETAIL
  6
CONTINUOUS
 62
     5
 10
197.0
 20
-481.0
 30
0.0
 11
197.0
 21
484.99996900000002
 31
0.0
  0
LINE
  5
8F
  8
DETAIL
  6
CONTINUOUS
 62
     5
 10
243.0
 20
-463.0
 30
0.0
 11
243.0
 21
466.99996900000002
 31
0.0
  0
LINE
  5
90
  8
DETAIL
  6
CONTINUOUS
 62
     5
 10
299.0
 20
-464.0
 30
0.0
 11
299.0
 21
467.99996900000002
 31
0.0
  0
LINE
  5
91
  8
DETAIL
  6
CONTINUOUS
 62
     5
 10
265.0
 20
-480.0
 30
0.0
 11
265.0
 21
483.99996899999991
 31
0.0
  0
LINE
  5
92
  8
DETAIL
  6
CONTINUOUS
 62
     5
 10
255.0
 20
-480.0
 30
0.0
 11
255.0
 21
483.99996899999991
 31
0.0
  0
LINE
  5
93
  8
DETAIL
  6
CONTINUOUS
 62
     5
 10
276.0
 20
-480.0
 30
0.0
 11
276.0
 21
483.99996899999991
 31
0.0
  0
LINE
  5
94
  8
DETAIL
  6
CONTINUOUS
 62
     5
 10
295.0
 20
-464.0
 30
0.0
 11
295.0
 21
467.99996900000002
 31
0.0
  0
ARC
  5
97
  8
DETAIL
  6
CONTINUOUS
 62
     5
 10
283.0
 20
-464.0
 30
0.0
 40
16.0
 50
270.0
 51
0.0
  0
ARC
  5
99
  8
DETAIL
  6
CONTINUOUS
 62
     5
 10
279.0
 20
-464.0
 30
0.0
 40
16.0
 50
270.0
 51
0.0
  0
ARC
  5
A4
  8
DETAIL
  6
CONTINUOUS
 62
     5
 10
283.0
 20
467.99996900000002
 30
0.0
 40
16.0
 50
0.0
 51
90.0
  0
ARC
  5
A5
  8
DETAIL
  6
CONTINUOUS
 62
     5
 10
279.0
 20
467.99996900000002
 30
0.0
 40
16.0
 50
0.0
 51
90.0
  0
LINE
  5
A6
  8
DETAIL
  6
CONTINUOUS
 62
     5
 10
255.0
 20
483.99996899999991
 30
0.0
 11
283.0
 21
483.99996899999991
 31
0.0
  0
LINE
  5
A7
  8
DETAIL
  6
CONTINUOUS
 62
     5
 10
-197.0
 20
-481.0
 30
0.0
 11
197.0
 21
-481.0
 31
0.0
  0
LINE
  5
A9
  8
DETAIL
  6
CONTINUOUS
 62
     5
 10
-223.0
 20
-483.0
 30
0.0
 11
223.0
 21
-483.0
 31
0.0
  0
LINE
  5
AA
  8
DETAIL
  6
CONTINUOUS
 62
     5
 10
255.0
 20
-480.0
 30
0.0
 11
283.0
 21
-480.0
 31
0.0
  0
LINE
  5
AC
  8
DETAIL
  6
CONTINUOUS
 62
     5
 10
-197.0
 20
484.99996900000002
 30
0.0
 11
197.0
 21
484.99996900000002
 31
0.0
  0
POINT
  5
AD
  8
ARRANGE
  6
CONTINUOUS
 62
     1
 10
0.0
 20
0.0
 30
0.0
  0
LINE
  5
AE
  8
DETAIL
  6
CONTINUOUS
 62
     5
 10
-197.0
 20
-481.0
 30
0.0
 11
-197.0
 21
484.99996900000002
 31
0.0
  0
LINE
  5
B1
  8
DETAIL
  6
CONTINUOUS
 62
     5
 10
-299.0
 20
-464.0
 30
0.0
 11
-299.0
 21
467.99996900000002
 31
0.0
  0
LINE
  5
B2
  8
DETAIL
  6
CONTINUOUS
 62
     5
 10
-265.0
 20
-480.0
 30
0.0
 11
-265.0
 21
483.99996899999991
 31
0.0
  0
LINE
  5
B3
  8
DETAIL
  6
CONTINUOUS
 62
     5
 10
-255.0
 20
-480.0
 30
0.0
 11
-255.0
 21
483.99996899999991
 31
0.0
  0
LINE
  5
B4
  8
DETAIL
  6
CONTINUOUS
 62
     5
 10
-276.0
 20
-480.0
 30
0.0
 11
-276.0
 21
483.99996899999991
 31
0.0
  0
LINE
  5
B5
  8
DETAIL
  6
CONTINUOUS
 62
     5
 10
-295.0
 20
-464.0
 30
0.0
 11
-295.0
 21
467.99996900000002
 31
0.0
  0
ARC
  5
B8
  8
DETAIL
  6
CONTINUOUS
 62
     5
 10
-283.0
 20
-464.0
 30
0.0
 40
16.0
 50
180.0
 51
270.0
  0
LINE
  5
B9
  8
DETAIL
  6
CONTINUOUS
 62
     5
 10
-255.0
 20
-480.0
 30
0.0
 11
-283.0
 21
-480.0
 31
0.0
  0
ARC
  5
BA
  8
DETAIL
  6
CONTINUOUS
 62
     5
 10
-279.0
 20
-464.0
 30
0.0
 40
16.0
 50
180.0
 51
270.0
  0
LINE
  5
BD
  8
DETAIL
  6
CONTINUOUS
 62
     5
 10
-243.0
 20
466.99996900000002
 30
0.0
 11
-243.0
 21
-463.0
 31
0.0
  0
ARC
  5
C5
  8
DETAIL
  6
CONTINUOUS
 62
     5
 10
-283.0
 20
467.99996900000002
 30
0.0
 40
16.0
 50
90.0
 51
180.0
  0
ARC
  5
C6
  8
DETAIL
  6
CONTINUOUS
 62
     5
 10
-279.0
 20
467.99996900000002
 30
0.0
 40
16.0
 50
90.0
 51
180.0
  0
LINE
  5
C7
  8
DETAIL
  6
CONTINUOUS
 62
     5
 10
-255.0
 20
483.99996899999991
 30
0.0
 11
-283.0
 21
483.99996899999991
 31
0.0
  0
LINE
  5
C9
  8
DETAIL
  6
CONTINUOUS
 62
     5
 10
223.0
 20
486.99996900000008
 30
0.0
 11
-223.0
 21
486.99996900000002
 31
0.0
  0
LINE
  5
CE
  8
OUTLINE
  6
CONTINUOUS
 62
     3
 10
335.0
 20
-540.0
 30
0.0
 11
-335.0
 21
-540.0
 31
0.0
  0
LINE
  5
CF
  8
OUTLINE
  6
CONTINUOUS
 62
     3
 10
335.0
 20
540.0
 30
0.0
 11
-335.0
 21
540.0
 31
0.0
  0
LINE
  5
D0
  8
OUTLINE
  6
CONTINUOUS
 62
     3
 10
-355.0
 20
-520.0
 30
0.0
 11
-355.0
 21
520.0
 31
0.0
  0
LINE
  5
D1
  8
OUTLINE
  6
CONTINUOUS
 62
     3
 10
355.0
 20
-520.0
 30
0.0
 11
355.0
 21
520.0
 31
0.0
  0
ARC
  5
D2
  8
OUTLINE
  6
CONTINUOUS
 62
     3
 10
-335.0
 20
520.0
 30
0.0
 40
20.0
 50
90.0
 51
180.0
  0
ARC
  5
D3
  8
OUTLINE
  6
CONTINUOUS
 62
     3
 10
-335.0
 20
-520.0
 30
0.0
 40
20.0
 50
180.0
 51
270.0
  0
ARC
  5
D4
  8
OUTLINE
  6
CONTINUOUS
 62
     3
 10
335.0
 20
-520.0
 30
0.0
 40
20.0
 50
270.0
 51
0.0
  0
ARC
  5
D5
  8
OUTLINE
  6
CONTINUOUS
 62
     3
 10
335.0
 20
520.0
 30
0.0
 40
20.0
 50
0.0
 51
90.0
  0
LINE
  5
D6
  8
NOTE
  6
CONTINUOUS
 62
     4
 10
191.0
 20
-466.0
 30
0.0
 11
151.0
 21
-466.0
 31
0.0
  0
LINE
  5
D7
  8
NOTE
  6
CONTINUOUS
 62
     4
 10
121.0
 20
-455.0
 30
0.0
 11
81.0
 21
-455.0
 31
0.0
  0
LINE
  5
D8
  8
NOTE
  6
CONTINUOUS
 62
     4
 10
171.0
 20
-486.0
 30
0.0
 11
171.0
 21
-446.0
 31
0.0
  0
LINE
  5
D9
  8
NOTE
  6
CONTINUOUS
 62
     4
 10
101.0
 20
-475.0
 30
0.0
 11
101.0
 21
-435.0
 31
0.0
  0
LINE
  5
E2
  8
SIZE
  6
CONTINUOUS
 62
    30
 10
355.0
 20
540.0
 30
0.0
 11
688.16581799999994
 21
540.0
 31
0.0
  0
LINE
  5
E3
  8
SIZE
  6
CONTINUOUS
 62
    30
 10
355.0
 20
-540.0
 30
0.0
 11
688.16581799999994
 21
-540.0
 31
0.0
  0
LINE
  5
E4
  8
SIZE
  6
CONTINUOUS
 62
    30
 10
658.16581799999994
 20
530.0
 30
0.0
 11
658.16581799999994
 21
-530.0
 31
0.0
  0
CIRCLE
  5
E5
  8
SIZE
  6
CONTINUOUS
 62
    30
 10
658.16581799999994
 20
540.0
 30
0.0
 40
5.0
  0
LINE
  5
E6
  8
SIZE
  6
CONTINUOUS
 62
    30
 10
658.16581799999994
 20
535.0
 30
0.0
 11
658.16581799999994
 21
530.0
 31
0.0
  0
CIRCLE
  5
E7
  8
SIZE
  6
CONTINUOUS
 62
    30
 10
658.16581799999994
 20
-540.0
 30
0.0
 40
5.0
  0
LINE
  5
E8
  8
SIZE
  6
CONTINUOUS
 62
    30
 10
658.16581799999994
 20
-535.0
 30
0.0
 11
658.16581799999994
 21
-530.0
 31
0.0
  0
TEXT
  5
E9
  8
SIZE
  6
CONTINUOUS
 62
    30
 10
638.16581799999994
 20
-82.5
 30
0.0
 40
55.0
  1
1080
 50
90.0
 41
0.9
 72
     1
 11
638.16581799999994
 21
0.0
 31
0.0
  0
LINE
  5
158
  8
SIZE
  6
CONTINUOUS
 62
    30
 10
171.0
 20
-493.13981574570789
 30
0.0
 11
171.0
 21
-870.21929
 31
0.0
  0
LINE
  5
159
  8
SIZE
  6
CONTINUOUS
 62
    30
 10
101.0
 20
-483.0
 30
0.0
 11
101.0
 21
-870.21929
 31
0.0
  0
LINE
  5
15A
  8
SIZE
  6
CONTINUOUS
 62
    30
 10
181.0
 20
-840.21928999999989
 30
0.0
 11
191.0
 21
-840.21928999999989
 31
0.0
  0
LINE
  5
15B
  8
SIZE
  6
CONTINUOUS
 62
    30
 10
91.0
 20
-840.21928999999989
 30
0.0
 11
81.0
 21
-840.21928999999989
 31
0.0
  0
LINE
  5
15C
  8
SIZE
  6
CONTINUOUS
 62
    30
 10
171.0
 20
-840.21928999999989
 30
0.0
 11
101.0
 21
-840.21928999999989
 31
0.0
  0
CIRCLE
  5
15D
  8
SIZE
  6
CONTINUOUS
 62
    30
 10
171.0
 20
-840.21928999999989
 30
0.0
 40
5.0
  0
LINE
  5
15E
  8
SIZE
  6
CONTINUOUS
 62
    30
 10
176.0
 20
-840.21928999999989
 30
0.0
 11
181.0
 21
-840.21928999999989
 31
0.0
  0
CIRCLE
  5
15F
  8
SIZE
  6
CONTINUOUS
 62
    30
 10
101.0
 20
-840.21928999999989
 30
0.0
 40
5.0
  0
LINE
  5
160
  8
SIZE
  6
CONTINUOUS
 62
    30
 10
96.0
 20
-840.21928999999989
 30
0.0
 11
91.0
 21
-840.21928999999989
 31
0.0
  0
TEXT
  5
161
  8
SIZE
  6
CONTINUOUS
 62
    30
 10
95.928571428571431
 20
-820.21929
 30
0.0
 40
55.0
  1
70
 41
0.9
 72
     1
 11
136.0
 21
-820.21929
 31
0.0
  0
LINE
  5
162
  8
SIZE
  6
CONTINUOUS
 62
    30
 10
317.0
 20
-520.0
 30
0.0
 11
317.0
 21
-872.01388599999984
 31
0.0
  0
LINE
  5
163
  8
SIZE
  6
CONTINUOUS
 62
    30
 10
171.0
 20
-493.13981574570789
 30
0.0
 11
171.0
 21
-872.01388599999984
 31
0.0
  0
LINE
  5
164
  8
SIZE
  6
CONTINUOUS
 62
    30
 10
327.0
 20
-842.01388599999984
 30
0.0
 11
337.0
 21
-842.01388599999984
 31
0.0
  0
LINE
  5
165
  8
SIZE
  6
CONTINUOUS
 62
    30
 10
161.0
 20
-842.01388599999984
 30
0.0
 11
151.0
 21
-842.01388599999984
 31
0.0
  0
LINE
  5
166
  8
SIZE
  6
CONTINUOUS
 62
    30
 10
317.0
 20
-842.01388599999984
 30
0.0
 11
171.0
 21
-842.01388599999984
 31
0.0
  0
CIRCLE
  5
167
  8
SIZE
  6
CONTINUOUS
 62
    30
 10
317.0
 20
-842.01388599999984
 30
0.0
 40
5.0
  0
LINE
  5
168
  8
SIZE
  6
CONTINUOUS
 62
    30
 10
322.0
 20
-842.01388599999984
 30
0.0
 11
327.0
 21
-842.01388599999984
 31
0.0
  0
CIRCLE
  5
169
  8
SIZE
  6
CONTINUOUS
 62
    30
 10
171.0
 20
-842.01388599999984
 30
0.0
 40
5.0
  0
LINE
  5
16A
  8
SIZE
  6
CONTINUOUS
 62
    30
 10
166.0
 20
-842.01388599999984
 30
0.0
 11
161.0
 21
-842.01388599999984
 31
0.0
  0
TEXT
  5
16B
  8
SIZE
  6
CONTINUOUS
 62
    30
 10
186.25
 20
-822.01388599999984
 30
0.0
 40
55.0
  1
146
 41
0.9
 72
     1
 11
244.0
 21
-822.01388599999984
 31
0.0
  0
LINE
  5
16C
  8
SIZE
  6
CONTINUOUS
 62
    30
 10
317.0
 20
-508.0
 30
0.0
 11
317.0
 21
-1109.894109381074
 31
0.0
  0
LINE
  5
282
  8
DETAIL
  6
CONTINUOUS
 62
     5
 10
284.0
 20
-479.1986841535703
 30
0.0
 11
284.0
 21
483.19865315357072
 31
0.0
  0
LINE
  5
285
  8
DETAIL
  6
CONTINUOUS
 62
     5
 10
-284.0
 20
-479.1986841535703
 30
0.0
 11
-284.0
 21
483.19865315357072
 31
0.0
  0
LINE
  5
345
  8
SIZE
  6
CONTINUOUS
 62
    30
 10
355.0
 20
-540.0
 30
0.0
 11
477.07004795147242
 21
-540.0
 31
0.0
  0
LINE
  5
346
  8
SIZE
  6
CONTINUOUS
 62
    30
 10
141.0
 20
-455.0
 30
0.0
 11
477.07004795147242
 21
-455.0
 31
0.0
  0
LINE
  5
347
  8
SIZE
  6
CONTINUOUS
 62
    30
 10
447.07004795147242
 20
-530.0
 30
0.0
 11
447.07004795147242
 21
-465.0
 31
0.0
  0
LINE
  5
348
  8
SIZE
  6
CONTINUOUS
 62
    30
 10
447.07004795147242
 20
-455.0
 30
0.0
 11
447.07004795147242
 21
-347.88981523600268
 31
0.0
  0
LINE
  5
34C
  8
SIZE
  6
CONTINUOUS
 62
    30
 10
211.0
 20
-466.0
 30
0.0
 11
591.43632671613875
 21
-466.00000000000011
 31
0.0
  0
LINE
  5
34D
  8
SIZE
  6
CONTINUOUS
 62
    30
 10
355.0
 20
-540.0
 30
0.0
 11
591.43632671613875
 21
-540.0
 31
0.0
  0
LINE
  5
34E
  8
SIZE
  6
CONTINUOUS
 62
    30
 10
561.43632671613886
 20
-530.0
 30
0.0
 11
561.43632671613886
 21
-476.0
 31
0.0
  0
LINE
  5
34F
  8
SIZE
  6
CONTINUOUS
 62
    30
 10
561.43632671613886
 20
-466.00000000000011
 30
0.0
 11
561.43632671613886
 21
-346.51838666457411
 31
0.0
  0
LINE
  5
353
  8
SIZE
  6
CONTINUOUS
 62
    30
 10
-220.0
 20
-448.0
 30
0.0
 11
-445.08729914442688
 21
-447.99999999999989
 31
0.0
  0
LINE
  5
354
  8
SIZE
  6
CONTINUOUS
 62
    30
 10
-355.0
 20
-540.0
 30
0.0
 11
-445.08729914442688
 21
-540.0
 31
0.0
  0
LINE
  5
355
  8
SIZE
  6
CONTINUOUS
 62
    30
 10
-415.08729914442682
 20
-457.99999999999989
 30
0.0
 11
-415.08729914442682
 21
-530.0
 31
0.0
  0
LINE
  5
356
  8
SIZE
  6
CONTINUOUS
 62
    30
 10
-415.08729914442682
 20
-540.0
 30
0.0
 11
-415.08729914442682
 21
-666.67725025095433
 31
0.0
  0
TEXT
  5
35A
  8
SIZE
  6
CONTINUOUS
 62
    30
 10
-427.56098259396089
 20
-642.13069771012192
 30
0.0
 40
55.0
  1
92
 50
90.0
 41
0.9
 72
     1
 11
-427.56098259396089
 21
-602.05926913869337
 31
0.0
  0
CIRCLE
  5
35B
  8
SIZE
  6
CONTINUOUS
 62
    30
 10
-415.08729914442682
 20
-540.0
 30
0.0
 40
5.0
  0
LINE
  5
35C
  8
SIZE
  6
CONTINUOUS
 62
    30
 10
-415.08729914442682
 20
-535.0
 30
0.0
 11
-415.08729914442682
 21
-530.0
 31
0.0
  0
CIRCLE
  5
35D
  8
SIZE
  6
CONTINUOUS
 62
    30
 10
-415.08729914442682
 20
-447.99999999999989
 30
0.0
 40
5.0
  0
LINE
  5
35E
  8
SIZE
  6
CONTINUOUS
 62
    30
 10
-415.08729914442682
 20
-452.99999999999989
 30
0.0
 11
-415.08729914442682
 21
-457.99999999999989
 31
0.0
  0
TEXT
  5
35F
  8
SIZE
  6
CONTINUOUS
 62
    30
 10
434.24594930950809
 20
-435.3475907557696
 30
0.0
 40
55.0
  1
85
 50
90.0
 41
0.9
 72
     1
 11
434.24594930950809
 21
-395.2761621843411
 31
0.0
  0
CIRCLE
  5
360
  8
SIZE
  6
CONTINUOUS
 62
    30
 10
447.07004795147242
 20
-455.0
 30
0.0
 40
5.0
  0
LINE
  5
361
  8
SIZE
  6
CONTINUOUS
 62
    30
 10
447.07004795147242
 20
-460.0
 30
0.0
 11
447.07004795147242
 21
-465.0
 31
0.0
  0
CIRCLE
  5
362
  8
SIZE
  6
CONTINUOUS
 62
    30
 10
447.07004795147242
 20
-540.0
 30
0.0
 40
5.0
  0
LINE
  5
363
  8
SIZE
  6
CONTINUOUS
 62
    30
 10
447.07004795147242
 20
-535.0
 30
0.0
 11
447.07004795147242
 21
-530.0
 31
0.0
  0
TEXT
  5
364
  8
SIZE
  6
CONTINUOUS
 62
    30
 10
551.96243902892093
 20
-435.12542386212959
 30
0.0
 40
55.0
  1
74
 50
90.0
 41
0.9
 72
     1
 11
551.96243902892093
 21
-393.87542386212959
 31
0.0
  0
CIRCLE
  5
365
  8
SIZE
  6
CONTINUOUS
 62
    30
 10
561.43632671613886
 20
-466.00000000000011
 30
0.0
 40
5.0
  0
LINE
  5
366
  8
SIZE
  6
CONTINUOUS
 62
    30
 10
561.43632671613886
 20
-471.0
 30
0.0
 11
561.43632671613886
 21
-476.0
 31
0.0
  0
CIRCLE
  5
367
  8
SIZE
  6
CONTINUOUS
 62
    30
 10
561.43632671613886
 20
-540.0
 30
0.0
 40
5.0
  0
LINE
  5
368
  8
SIZE
  6
CONTINUOUS
 62
    30
 10
561.43632671613886
 20
-535.0
 30
0.0
 11
561.43632671613886
 21
-530.0
 31
0.0
  0
LINE
  5
467
  8
SIZE
  6
CONTINUOUS
 62
    30
 10
-355.0
 20
549.76695617639405
 30
0.0
 11
-355.0
 21
809.80827858019347
 31
0.0
  0
LINE
  5
468
  8
SIZE
  6
CONTINUOUS
 62
    30
 10
355.0
 20
812.30753903152709
 30
0.0
 11
355.0
 21
549.2796988027111
 31
0.0
  0
LINE
  5
469
  8
SIZE
  6
CONTINUOUS
 62
    30
 10
-345.0
 20
775.90500901077473
 30
0.0
 11
345.0
 21
775.90500901077473
 31
0.0
  0
CIRCLE
  5
46A
  8
SIZE
  6
CONTINUOUS
 62
    30
 10
-355.0
 20
775.90500901077473
 30
0.0
 40
5.0
  0
LINE
  5
46B
  8
SIZE
  6
CONTINUOUS
 62
    30
 10
-350.0
 20
775.90500901077473
 30
0.0
 11
-345.0
 21
775.90500901077473
 31
0.0
  0
CIRCLE
  5
46C
  8
SIZE
  6
CONTINUOUS
 62
    30
 10
355.0
 20
775.90500901077473
 30
0.0
 40
5.0
  0
LINE
  5
46D
  8
SIZE
  6
CONTINUOUS
 62
    30
 10
350.0
 20
775.90500901077473
 30
0.0
 11
345.0
 21
775.90500901077473
 31
0.0
  0
TEXT
  5
46E
  8
SIZE
  6
CONTINUOUS
 62
    30
 10
-58.928571428571423
 20
795.90500901077473
 30
0.0
 40
55.0
  1
710
 41
0.9
 72
     1
 11
0.0
 21
795.90500901077473
 31
0.0
  0
LINE
  5
5A4
  8
NOTE
  6
CONTINUOUS
 62
     4
 10
-423.16528032302159
 20
-1053.1466796586269
 30
0.0
 11
-913.7832800187897
 21
-1053.1466796586269
 31
0.0
  0
POLYLINE
  5
5A5
  8
NOTE
  6
CONTINUOUS
 62
     4
 66
     1
 10
0.0
 20
0.0
 30
0.0
  0
VERTEX
  5
6F6
  8
NOTE
  6
CONTINUOUS
 62
     4
 10
135.0408849999998
 20
-476.00519299999991
 30
0.0
  0
VERTEX
  5
6F7
  8
NOTE
  6
CONTINUOUS
 62
     4
 10
101.0
 20
-455.0
 30
0.0
  0
VERTEX
  5
6F8
  8
NOTE
  6
CONTINUOUS
 62
     4
 10
119.9776750000001
 20
-490.21147300000001
 30
0.0
  0
SEQEND
  5
6F9
  8
NOTE
  6
CONTINUOUS
 62
     4
  0
POLYLINE
  5
5A6
  8
NOTE
  6
CONTINUOUS
 62
     4
 66
     1
 10
0.0
 20
0.0
 30
0.0
  0
VERTEX
  5
6FA
  8
NOTE
  6
CONTINUOUS
 62
     4
 10
203.1932930000003
 20
-489.74009000000001
 30
0.0
  0
VERTEX
  5
6FB
  8
NOTE
  6
CONTINUOUS
 62
     4
 10
171.0
 20
-466.0
 30
0.0
  0
VERTEX
  5
6FC
  8
NOTE
  6
CONTINUOUS
 62
     4
 10
187.0101640000002
 20
-502.65616799999992
 30
0.0
  0
SEQEND
  5
6FD
  8
NOTE
  6
CONTINUOUS
 62
     4
  0
LINE
  5
5A7
  8
SIZE
  6
CONTINUOUS
 62
    30
 10
-180.0
 20
-475.44269006521051
 30
0.0
 11
-180.0
 21
-1009.945102
 31
0.0
  0
LINE
  5
5A8
  8
SIZE
  6
CONTINUOUS
 62
    30
 10
307.0
 20
-979.94510200000013
 30
0.0
 11
-170.0
 21
-979.94510200000013
 31
0.0
  0
CIRCLE
  5
5A9
  8
SIZE
  6
CONTINUOUS
 62
    30
 10
317.0
 20
-979.94510200000013
 30
0.0
 40
5.0
  0
LINE
  5
5AA
  8
SIZE
  6
CONTINUOUS
 62
    30
 10
312.0
 20
-979.94510200000013
 30
0.0
 11
307.0
 21
-979.94510200000013
 31
0.0
  0
CIRCLE
  5
5AB
  8
SIZE
  6
CONTINUOUS
 62
    30
 10
-180.0
 20
-979.94510200000013
 30
0.0
 40
5.0
  0
LINE
  5
5AC
  8
SIZE
  6
CONTINUOUS
 62
    30
 10
-175.0
 20
-979.94510200000013
 30
0.0
 11
-170.0
 21
-979.94510200000013
 31
0.0
  0
TEXT
  5
5AD
  8
SIZE
  6
CONTINUOUS
 62
    30
 10
4.8571428571428612
 20
-959.94510200000002
 30
0.0
 40
55.0
  1
497
 41
0.9
 72
     1
 11
68.5
 21
-959.94510200000002
 31
0.0
  0
TEXT
  5
5AE
  8
NOTE
  6
CONTINUOUS
 62
     4
 10
-883.00970014349139
 20
-1021.7253282028501
 30
0.0
 40
64.0
  1
D VP-25
 41
0.9
  0
LINE
  5
5AF
  8
NOTE
  6
CONTINUOUS
 62
     4
 10
-559.48917800000004
 20
-846.67916999999954
 30
0.0
 11
-189.9996059999998
 21
-448.00053399999979
 31
0.0
  0
TEXT
  5
5B0
  8
NOTE
  6
CONTINUOUS
 62
     4
 10
-1003.515127
 20
-921.40665500000011
 30
0.0
 40
64.0
  1
（自然排水口）
 41
0.9
  0
LINE
  5
5B1
  8
NOTE
  6
CONTINUOUS
 62
     4
 10
-1028.3542520000001
 20
-846.67916999999954
 30
0.0
 11
-559.48917800000004
 21
-846.67916999999954
 31
0.0
  0
TEXT
  5
5B2
  8
NOTE
  6
CONTINUOUS
 62
     4
 10
-976.74349099999995
 20
-819.73705399999972
 30
0.0
 40
64.0
  1
D抜き
 41
0.9
  0
LINE
  5
5B3
  8
SIZE
  6
CONTINUOUS
 62
    30
 10
-190.0
 20
-486.0
 30
0.0
 11
-190.0
 21
-1111.6643345706179
 31
0.0
  0
TEXT
  5
5B4
  8
SIZE
  6
CONTINUOUS
 62
    30
 10
10.57776985714257
 20
-1065.74584792784
 30
0.0
 40
55.0
  1
507
 41
0.9
 72
     1
 11
74.220626999999709
 21
-1065.74584792784
 31
0.0
  0
LINE
  5
5B5
  8
SIZE
  6
CONTINUOUS
 62
    30
 10
307.0
 20
-1080.7458479278409
 30
0.0
 11
-180.0
 21
-1080.7458479278409
 31
0.0
  0
POINT
  5
5B6
  8
DEFPOINTS
  6
CONTINUOUS
 62
     7
 10
-190.0
 20
-1080.7458479278409
 30
0.0
  0
LINE
  5
5B7
  8
SIZE
  6
CONTINUOUS
 62
    30
 10
-185.0
 20
-1080.7458479278409
 30
0.0
 11
-180.0
 21
-1080.7458479278409
 31
0.0
  0
CIRCLE
  5
5B8
  8
SIZE
  6
CONTINUOUS
 62
    30
 10
-190.0
 20
-1080.7458479278409
 30
0.0
 40
5.0
  0
LINE
  5
5B9
  8
SIZE
  6
CONTINUOUS
 62
    30
 10
312.0
 20
-1080.7458479278409
 30
0.0
 11
307.0
 21
-1080.7458479278409
 31
0.0
  0
CIRCLE
  5
5BA
  8
SIZE
  6
CONTINUOUS
 62
    30
 10
317.0
 20
-1080.7458479278409
 30
0.0
 40
5.0
  0
LINE
  5
5BB
  8
NOTE
  6
CONTINUOUS
 62
     4
 10
-179.99985599999991
 20
-448.00106899999992
 30
0.0
 11
-184.75677799999991
 21
-482.05575099999982
 31
0.0
  0
LINE
  5
5BC
  8
NOTE
  6
CONTINUOUS
 62
     4
 10
-179.99985599999991
 20
-448.00106899999992
 30
0.0
 11
-201.1468129999999
 21
-475.11482699999982
 31
0.0
  0
LINE
  5
5BD
  8
NOTE
  6
CONTINUOUS
 62
     4
 10
-190.000022
 20
-448.00095299999998
 30
0.0
 11
-205.98455400000009
 21
-478.44507199999993
 31
0.0
  0
LINE
  5
5BE
  8
NOTE
  6
CONTINUOUS
 62
     4
 10
-190.000022
 20
-448.00095299999998
 30
0.0
 11
-219.06509300000019
 21
-466.37406700000003
 31
0.0
  0
LINE
  5
5BF
  8
NOTE
  6
CONTINUOUS
 62
     4
 10
-180.0
 20
-430.0
 30
0.0
 11
-180.0
 21
-466.0
 31
0.0
  0
LINE
  5
5C0
  8
NOTE
  6
CONTINUOUS
 62
     4
 10
-190.0
 20
-430.0
 30
0.0
 11
-190.0
 21
-466.0
 31
0.0
  0
POINT
  5
5C1
  8
DEFPOINTS
  6
CONTINUOUS
 62
     7
 10
-190.0
 20
-466.0
 30
0.0
  0
POINT
  5
5C2
  8
DEFPOINTS
  6
CONTINUOUS
 62
     7
 10
-180.0
 20
-466.0
 30
0.0
  0
POINT
  5
5C3
  8
DEFPOINTS
  6
CONTINUOUS
 62
     7
 10
-162.67500000000021
 20
-448.0
 30
0.0
  0
LINE
  5
5C4
  8
NOTE
  6
CONTINUOUS
 62
     4
 10
-162.67500000000021
 20
-448.0
 30
0.0
 11
-197.3249999999997
 21
-448.0
 31
0.0
  0
LINE
  5
5C5
  8
NOTE
  6
CONTINUOUS
 62
     4
 10
-172.67500000000001
 20
-448.0
 30
0.0
 11
-207.3249999999997
 21
-448.0
 31
0.0
  0
LINE
  5
5C6
  8
NOTE
  6
CONTINUOUS
 62
     4
 10
101.0
 20
-437.0
 30
0.0
 11
101.0
 21
-473.0
 31
0.0
  0
LINE
  5
5C7
  8
NOTE
  6
CONTINUOUS
 62
     4
 10
119.0
 20
-455.0
 30
0.0
 11
83.0
 21
-455.0
 31
0.0
  0
LINE
  5
5C8
  8
NOTE
  6
CONTINUOUS
 62
     4
 10
171.0
 20
-448.0
 30
0.0
 11
171.0
 21
-484.0
 31
0.0
  0
LINE
  5
5C9
  8
NOTE
  6
CONTINUOUS
 62
     4
 10
189.0
 20
-466.0
 30
0.0
 11
153.0
 21
-466.0
 31
0.0
  0
ARC
  5
5D6
  8
DETAIL
  6
CONTINUOUS
 62
     5
 10
-223.0
 20
-463.0
 30
0.0
 40
20.0
 50
180.0
 51
270.0
  0
ARC
  5
5D9
  8
DETAIL
  6
CONTINUOUS
 62
     5
 10
223.0
 20
-463.0
 30
0.0
 40
20.0
 50
270.0
 51
0.0
  0
ARC
  5
5DA
  8
DETAIL
  6
CONTINUOUS
 62
     5
 10
-223.0
 20
466.99996900000002
 30
0.0
 40
20.0
 50
90.0
 51
180.0
  0
ARC
  5
5DB
  8
DETAIL
  6
CONTINUOUS
 62
     5
 10
223.0
 20
466.99996900000002
 30
0.0
 40
20.0
 50
0.0
 51
90.0
  0
ENDSEC
  0
EOF
