  0
SECTION
  2
HEADER
  9
$ACADVER
  1
AC1014
  9
$ACADMAINTVER
 70
     0
  9
$DWGCODEPAGE
  3
ANSI_932
  9
$INSBASE
 10
0.0
 20
0.0
 30
0.0
  9
$EXTMIN
 10
-1409.852942
 20
-1334.826985
 30
-0.001526
  9
$EXTMAX
 10
1078.023711
 20
1302.659227
 30
0.0
  9
$LIMMIN
 10
-4267.152221
 20
-2696.08321
  9
$LIMMAX
 10
7190.717423
 20
5141.155364
  9
$ORTHOMODE
 70
     0
  9
$REGENMODE
 70
     1
  9
$FILLMODE
 70
     1
  9
$QTEXTMODE
 70
     0
  9
$MIRRTEXT
 70
     0
  9
$DRAGMODE
 70
     2
  9
$LTSCALE
 40
20.0
  9
$OSMODE
 70
    37
  9
$ATTMODE
 70
     1
  9
$TEXTSIZE
 40
64.0
  9
$TRACEWID
 40
0.05
  9
$TEXTSTYLE
  7
STANDARD
  9
$CLAYER
  8
OUTLINE
  9
$CELTYPE
  6
CONTINUOUS
  9
$CECOLOR
 62
     7
  9
$CELTSCALE
 40
1.0
  9
$DELOBJ
 70
     1
  9
$DISPSILH
 70
     0
  9
$DIMSCALE
 40
1.0
  9
$DIMASZ
 40
10.0
  9
$DIMEXO
 40
20.0
  9
$DIMDLI
 40
200.0
  9
$DIMRND
 40
0.0
  9
$DIMDLE
 40
0.0
  9
$DIMEXE
 40
30.0
  9
$DIMTP
 40
0.0
  9
$DIMTM
 40
0.0
  9
$DIMTXT
 40
55.0
  9
$DIMCEN
 40
0.0
  9
$DIMTSZ
 40
0.0
  9
$DIMTOL
 70
     0
  9
$DIMLIM
 70
     0
  9
$DIMTIH
 70
     0
  9
$DIMTOH
 70
     0
  9
$DIMSE1
 70
     0
  9
$DIMSE2
 70
     0
  9
$DIMTAD
 70
     1
  9
$DIMZIN
 70
     8
  9
$DIMBLK
  1

  9
$DIMASO
 70
     1
  9
$DIMSHO
 70
     0
  9
$DIMPOST
  1

  9
$DIMAPOST
  1

  9
$DIMALT
 70
     0
  9
$DIMALTD
 70
     2
  9
$DIMALTF
 40
25.4
  9
$DIMLFAC
 40
1.0
  9
$DIMTOFL
 70
     1
  9
$DIMTVP
 40
0.0
  9
$DIMTIX
 70
     1
  9
$DIMSOXD
 70
     0
  9
$DIMSAH
 70
     1
  9
$DIMBLK1
  1
_DOTBLANK
  9
$DIMBLK2
  1
_DOTBLANK
  9
$DIMSTYLE
  2
STANDARD
  9
$DIMCLRD
 70
     0
  9
$DIMCLRE
 70
     0
  9
$DIMCLRT
 70
     0
  9
$DIMTFAC
 40
1.0
  9
$DIMGAP
 40
0.09
  9
$DIMJUST
 70
     0
  9
$DIMSD1
 70
     0
  9
$DIMSD2
 70
     0
  9
$DIMTOLJ
 70
     1
  9
$DIMTZIN
 70
     0
  9
$DIMALTZ
 70
     0
  9
$DIMALTTZ
 70
     0
  9
$DIMFIT
 70
     3
  9
$DIMUPT
 70
     0
  9
$DIMUNIT
 70
     2
  9
$DIMDEC
 70
     4
  9
$DIMTDEC
 70
     4
  9
$DIMALTU
 70
     2
  9
$DIMALTTD
 70
     2
  9
$DIMTXSTY
  7
STANDARD
  9
$DIMAUNIT
 70
     0
  9
$LUNITS
 70
     2
  9
$LUPREC
 70
     4
  9
$SKETCHINC
 40
0.1
  9
$FILLETRAD
 40
30.0
  9
$AUNITS
 70
     1
  9
$AUPREC
 70
     3
  9
$MENU
  1
ACAD
  9
$ELEVATION
 40
0.0
  9
$PELEVATION
 40
0.0
  9
$THICKNESS
 40
0.0
  9
$LIMCHECK
 70
     0
  9
$BLIPMODE
 70
     0
  9
$CHAMFERA
 40
0.0
  9
$CHAMFERB
 40
0.0
  9
$CHAMFERC
 40
0.0
  9
$CHAMFERD
 40
0.0
  9
$SKPOLY
 70
     0
  9
$TDCREATE
 40
2450330.439930995
  9
$TDUPDATE
 40
2454252.367312997
  9
$TDINDWG
 40
3.3569400000
  9
$TDUSRTIMER
 40
3.3569400000
  9
$USRTIMER
 70
     1
  9
$ANGBASE
 50
0.0
  9
$ANGDIR
 70
     0
  9
$PDMODE
 70
     3
  9
$PDSIZE
 40
-2.0
  9
$PLINEWID
 40
0.0
  9
$COORDS
 70
     2
  9
$SPLFRAME
 70
     0
  9
$SPLINETYPE
 70
     6
  9
$SPLINESEGS
 70
     8
  9
$ATTDIA
 70
     0
  9
$ATTREQ
 70
     1
  9
$HANDLING
 70
     1
  9
$HANDSEED
  5
99D
  9
$SURFTAB1
 70
     6
  9
$SURFTAB2
 70
     6
  9
$SURFTYPE
 70
     6
  9
$SURFU
 70
     6
  9
$SURFV
 70
     6
  9
$UCSNAME
  2

  9
$UCSORG
 10
0.0
 20
0.0
 30
0.0
  9
$UCSXDIR
 10
1.0
 20
0.0
 30
0.0
  9
$UCSYDIR
 10
0.0
 20
1.0
 30
0.0
  9
$PUCSNAME
  2

  9
$PUCSORG
 10
0.0
 20
0.0
 30
0.0
  9
$PUCSXDIR
 10
1.0
 20
0.0
 30
0.0
  9
$PUCSYDIR
 10
0.0
 20
1.0
 30
0.0
  9
$USERI1
 70
     0
  9
$USERI2
 70
     0
  9
$USERI3
 70
     0
  9
$USERI4
 70
     0
  9
$USERI5
 70
     0
  9
$USERR1
 40
20.0
  9
$USERR2
 40
0.0
  9
$USERR3
 40
0.0
  9
$USERR4
 40
0.0
  9
$USERR5
 40
0.0
  9
$WORLDVIEW
 70
     1
  9
$SHADEDGE
 70
     3
  9
$SHADEDIF
 70
    70
  9
$TILEMODE
 70
     1
  9
$MAXACTVP
 70
    48
  9
$PINSBASE
 10
0.0
 20
0.0
 30
0.0
  9
$PLIMCHECK
 70
     0
  9
$PEXTMIN
 10
1.000000E+20
 20
1.000000E+20
 30
1.000000E+20
  9
$PEXTMAX
 10
-1.000000E+20
 20
-1.000000E+20
 30
-1.000000E+20
  9
$PLIMMIN
 10
0.0
 20
0.0
  9
$PLIMMAX
 10
12.0
 20
9.0
  9
$UNITMODE
 70
     0
  9
$VISRETAIN
 70
     1
  9
$PLINEGEN
 70
     0
  9
$PSLTSCALE
 70
     1
  9
$TREEDEPTH
 70
  3020
  9
$PICKSTYLE
 70
     1
  9
$CMLSTYLE
  2
STANDARD
  9
$CMLJUST
 70
     0
  9
$CMLSCALE
 40
1.0
  9
$PROXYGRAPHICS
 70
     1
  9
$MEASUREMENT
 70
     0
  0
ENDSEC
  0
SECTION
  2
CLASSES
  0
ENDSEC
  0
SECTION
  2
TABLES
  0
TABLE
  2
VPORT
  5
34D
100
AcDbSymbolTable
 70
     4
  0
VPORT
  5
99C
100
AcDbSymbolTableRecord
100
AcDbViewportTableRecord
  2
*ACTIVE
 70
     0
 10
0.0
 20
0.0
 11
1.0
 21
1.0
 12
1639.322943
 22
1222.536077
 13
0.0
 23
0.0
 14
50.0
 24
50.0
 15
100.0
 25
100.0
 16
0.0
 26
0.0
 36
1.0
 17
0.0
 27
0.0
 37
0.0
 40
7837.238574
 41
1.507285
 42
50.0
 43
0.0
 44
0.0
 50
0.0
 51
0.0
 71
     0
 72
  1000
 73
     1
 74
     0
 75
     0
 76
     0
 77
     0
 78
     0
  0
ENDTAB
  0
TABLE
  2
LTYPE
  5
34A
100
AcDbSymbolTable
 70
     2
  0
LTYPE
  5
357
100
AcDbSymbolTableRecord
100
AcDbLinetypeTableRecord
  2
BYBLOCK
 70
     0
  3

 72
    65
 73
     0
 40
0.0
  0
LTYPE
  5
358
100
AcDbSymbolTableRecord
100
AcDbLinetypeTableRecord
  2
BYLAYER
 70
     0
  3

 72
    65
 73
     0
 40
0.0
  0
LTYPE
  5
359
100
AcDbSymbolTableRecord
100
AcDbLinetypeTableRecord
  2
CONTINUOUS
 70
     0
  3
実線
 72
    65
 73
     0
 40
0.0
  0
LTYPE
  5
365
100
AcDbSymbolTableRecord
100
AcDbLinetypeTableRecord
  2
DASHDOT
 70
     0
  3
____ _ ____ _ ____ _ ____ _ ____ _ ____ _ ____
 72
    65
 73
     4
 40
5.5
 49
4.0
 74
     0
 49
-0.6
 74
     0
 49
0.3
 74
     0
 49
-0.6
 74
     0
  0
ENDTAB
  0
TABLE
  2
LAYER
  5
347
100
AcDbSymbolTable
 70
    12
  0
LAYER
  5
353
100
AcDbSymbolTableRecord
100
AcDbLayerTableRecord
  2
0
 70
     0
 62
     7
  6
CONTINUOUS
  0
LAYER
  5
364
100
AcDbSymbolTableRecord
100
AcDbLayerTableRecord
  2
OUTLINE
 70
     0
 62
     3
  6
CONTINUOUS
  0
LAYER
  5
366
100
AcDbSymbolTableRecord
100
AcDbLayerTableRecord
  2
DETAIL
 70
     0
 62
     5
  6
CONTINUOUS
  0
LAYER
  5
367
100
AcDbSymbolTableRecord
100
AcDbLayerTableRecord
  2
BASIS
 70
     0
 62
     6
  6
DASHDOT
  0
LAYER
  5
368
100
AcDbSymbolTableRecord
100
AcDbLayerTableRecord
  2
SIZE
 70
     0
 62
    30
  6
CONTINUOUS
  0
LAYER
  5
369
100
AcDbSymbolTableRecord
100
AcDbLayerTableRecord
  2
NOTE
 70
     0
 62
     4
  6
CONTINUOUS
  0
LAYER
  5
36A
100
AcDbSymbolTableRecord
100
AcDbLayerTableRecord
  2
ARRANGE
 70
     0
 62
     1
  6
CONTINUOUS
  0
LAYER
  5
36B
100
AcDbSymbolTableRecord
100
AcDbLayerTableRecord
  2
FIX
 70
     0
 62
    11
  6
CONTINUOUS
  0
LAYER
  5
36C
100
AcDbSymbolTableRecord
100
AcDbLayerTableRecord
  2
SERVICESPACE
 70
     0
 62
     2
  6
DASHDOT
  0
LAYER
  5
36D
100
AcDbSymbolTableRecord
100
AcDbLayerTableRecord
  2
ETC
 70
     0
 62
    61
  6
CONTINUOUS
  0
LAYER
  5
36E
100
AcDbSymbolTableRecord
100
AcDbLayerTableRecord
  2
SYMBOLLINE
 70
     0
 62
    15
  6
CONTINUOUS
  0
LAYER
  5
36F
100
AcDbSymbolTableRecord
100
AcDbLayerTableRecord
  2
DEFPOINTS
 70
     0
 62
     7
  6
CONTINUOUS
  0
ENDTAB
  0
TABLE
  2
STYLE
  5
348
100
AcDbSymbolTable
 70
     2
  0
STYLE
  5
354
100
AcDbSymbolTableRecord
100
AcDbTextStyleTableRecord
  2
STANDARD
 70
     0
 40
0.0
 41
0.9
 50
0.0
 71
     0
 42
64.0
  3
SIMPLEX
  4
BIGFONT
  0
STYLE
  5
370
100
AcDbSymbolTableRecord
100
AcDbTextStyleTableRecord
  2
STANDARD1
 70
     0
 40
0.0
 41
1.0
 50
0.0
 71
     0
 42
64.0
  3
MONOTXT
  4
BIGFONT
  0
ENDTAB
  0
TABLE
  2
VIEW
  5
34B
100
AcDbSymbolTable
 70
     1
  0
VIEW
  5
371
100
AcDbSymbolTableRecord
100
AcDbViewTableRecord
  2
ALL
 70
     0
 40
9000.0
 10
241.506647
 20
0.0
 41
12483.01
 11
0.0
 21
0.0
 31
1.0
 12
0.0
 22
0.0
 32
0.0
 42
50.0
 43
0.0
 44
0.0
 50
0.0
 71
     0
  0
ENDTAB
  0
TABLE
  2
UCS
  5
34C
100
AcDbSymbolTable
 70
     0
  0
ENDTAB
  0
TABLE
  2
APPID
  5
34E
100
AcDbSymbolTable
 70
     1
  0
APPID
  5
355
100
AcDbSymbolTableRecord
100
AcDbRegAppTableRecord
  2
ACAD
 70
     0
  0
ENDTAB
  0
TABLE
  2
DIMSTYLE
  5
34F
100
AcDbSymbolTable
 70
     1
  0
DIMSTYLE
105
372
100
AcDbSymbolTableRecord
100
AcDbDimStyleTableRecord
  2
STANDARD
 70
     0
  3

  4

  5

  6

  7

 40
1.0
 41
0.18
 42
0.0625
 43
0.38
 44
0.18
 45
0.0
 46
0.0
 47
0.0
 48
0.0
140
0.18
141
0.09
142
0.0
143
25.4
144
1.0
145
0.0
146
1.0
147
0.09
 71
     0
 72
     0
 73
     1
 74
     1
 75
     0
 76
     0
 77
     0
 78
     0
170
     0
171
     2
172
     0
173
     0
174
     0
175
     0
176
     0
177
     0
178
     0
270
     2
271
     4
272
     4
273
     2
274
     2
340
354
275
     0
280
     0
281
     0
282
     0
283
     1
284
     0
285
     0
286
     0
287
     3
288
     0
  0
ENDTAB
  0
TABLE
  2
BLOCK_RECORD
  5
346
100
AcDbSymbolTable
 70
     4
  0
BLOCK_RECORD
  5
35D
100
AcDbSymbolTableRecord
100
AcDbBlockTableRecord
  2
*MODEL_SPACE
  0
BLOCK_RECORD
  5
35A
100
AcDbSymbolTableRecord
100
AcDbBlockTableRecord
  2
*PAPER_SPACE
  0
BLOCK_RECORD
  5
376
100
AcDbSymbolTableRecord
100
AcDbBlockTableRecord
  2
$MODEL_SPACE
  0
BLOCK_RECORD
  5
378
100
AcDbSymbolTableRecord
100
AcDbBlockTableRecord
  2
$PAPER_SPACE
  0
BLOCK_RECORD
  5
37A
100
AcDbSymbolTableRecord
100
AcDbBlockTableRecord
  2
_DOTBLANK
  0
BLOCK_RECORD
  5
37D
100
AcDbSymbolTableRecord
100
AcDbBlockTableRecord
  2
A$C31C47CD2
  0
ENDTAB
  0
ENDSEC
  0
SECTION
  2
BLOCKS
  0
BLOCK
  5
35E
100
AcDbEntity
  8
0
100
AcDbBlockBegin
  2
*MODEL_SPACE
 70
     0
 10
0.0
 20
0.0
 30
0.0
  3
*MODEL_SPACE
  1

  0
ENDBLK
  5
35F
100
AcDbEntity
  8
0
100
AcDbBlockEnd
  0
BLOCK
  5
35B
100
AcDbEntity
 67
     1
  8
0
100
AcDbBlockBegin
  2
*PAPER_SPACE
 70
     0
 10
0.0
 20
0.0
 30
0.0
  3
*PAPER_SPACE
  1

  0
ENDBLK
  5
35C
100
AcDbEntity
 67
     1
  8
0
100
AcDbBlockEnd
  0
BLOCK
  5
377
100
AcDbEntity
  8
0
100
AcDbBlockBegin
  2
$MODEL_SPACE
 70
     0
 10
0.0
 20
0.0
 30
0.0
  3
$MODEL_SPACE
  1

  0
ENDBLK
  5
1A
100
AcDbEntity
  8
0
100
AcDbBlockEnd
  0
BLOCK
  5
379
100
AcDbEntity
  8
0
100
AcDbBlockBegin
  2
$PAPER_SPACE
 70
     0
 10
0.0
 20
0.0
 30
0.0
  3
$PAPER_SPACE
  1

  0
ENDBLK
  5
17
100
AcDbEntity
  8
0
100
AcDbBlockEnd
  0
BLOCK
  5
37B
100
AcDbEntity
  8
0
100
AcDbBlockBegin
  2
_DOTBLANK
 70
     0
 10
0.0
 20
0.0
 30
0.0
  3
_DOTBLANK
  1

  0
CIRCLE
  5
32
100
AcDbEntity
  8
0
  6
CONTINUOUS
 62
     7
100
AcDbCircle
 10
0.0
 20
0.0
 30
0.0
 40
0.5
  0
LINE
  5
33
100
AcDbEntity
  8
0
  6
CONTINUOUS
 62
     7
100
AcDbLine
 10
-0.5
 20
0.0
 30
0.0
 11
-1.0
 21
0.0
 31
0.0
  0
ENDBLK
  5
34
100
AcDbEntity
  8
0
100
AcDbBlockEnd
  0
BLOCK
  5
68B
100
AcDbEntity
  8
0
 62
     7
100
AcDbBlockBegin
  2
A$C31C47CD2
 70
     0
 10
0.0
 20
0.0
 30
0.0
  3
A$C31C47CD2
  1

  0
TEXT
  5
37E
100
AcDbEntity
  8
ETC
  6
CONTINUOUS
 62
    61
100
AcDbText
 10
0.000003
 20
2541.808435
 30
0.0
 40
80.0
  1
PLFY-P22_45LM-E(ﾘﾌﾟﾚｽﾊﾟﾈﾙ)_1
 50
0.000003
 41
0.8
100
AcDbText
  0
TEXT
  5
37F
100
AcDbEntity
  8
NOTE
  6
CONTINUOUS
 62
     4
100
AcDbText
 10
566.191469
 20
105.45693
 30
0.0
 40
64.0
  1
RL %%C6.35
 41
0.9
100
AcDbText
  0
LINE
  5
380
100
AcDbEntity
  8
NOTE
  6
CONTINUOUS
 62
     4
100
AcDbLine
 10
950.492675
 20
85.586342
 30
0.0
 11
1510.334375
 21
879.619183
 31
0.0
  0
LINE
  5
381
100
AcDbEntity
  8
SIZE
  6
CONTINUOUS
 62
    30
100
AcDbLine
 10
1092.333893
 20
926.618502
 30
0.0
 11
1092.333893
 21
0.000004
 31
0.0
  0
LINE
  5
382
100
AcDbEntity
  8
SIZE
  6
CONTINUOUS
 62
    30
100
AcDbLine
 10
1726.333893
 20
926.618502
 30
0.0
 11
1726.333893
 21
0.000004
 31
0.0
  0
LINE
  5
383
100
AcDbEntity
  8
NOTE
  6
CONTINUOUS
 62
     4
100
AcDbLine
 10
531.793711
 20
85.586342
 30
0.0
 11
950.492675
 21
85.586342
 31
0.0
  0
LINE
  5
384
100
AcDbEntity
  8
SIZE
  6
CONTINUOUS
 62
    30
100
AcDbLine
 10
1716.333893
 20
30.000004
 30
0.0
 11
1102.333893
 21
30.000004
 31
0.0
  0
POINT
  5
385
100
AcDbEntity
  8
DEFPOINTS
  6
CONTINUOUS
 62
     7
100
AcDbPoint
 10
1092.333893
 20
30.000004
 30
0.0
  0
LINE
  5
386
100
AcDbEntity
  8
SIZE
  6
CONTINUOUS
 62
    30
100
AcDbLine
 10
1097.333893
 20
30.000004
 30
0.0
 11
1102.333893
 21
30.000004
 31
0.0
  0
CIRCLE
  5
387
100
AcDbEntity
  8
SIZE
  6
CONTINUOUS
 62
    30
100
AcDbCircle
 10
1092.333893
 20
30.000004
 30
0.0
 40
5.0
  0
TEXT
  5
388
100
AcDbEntity
  8
SIZE
  6
CONTINUOUS
 62
    30
100
AcDbText
 10
1351.717587
 20
45.000004
 30
0.0
 40
55.0
  1
634
 41
0.9
 72
     1
 11
1416.539015
 21
45.000004
 31
0.0
100
AcDbText
  0
LINE
  5
389
100
AcDbEntity
  8
SIZE
  6
CONTINUOUS
 62
    30
100
AcDbLine
 10
1721.333893
 20
30.000004
 30
0.0
 11
1716.333893
 21
30.000004
 31
0.0
  0
CIRCLE
  5
38A
100
AcDbEntity
  8
SIZE
  6
CONTINUOUS
 62
    30
100
AcDbCircle
 10
1726.333893
 20
30.000004
 30
0.0
 40
5.0
  0
LINE
  5
38B
100
AcDbEntity
  8
BASIS
  6
DASHDOT
 62
     6
100
AcDbLine
 10
1790.354267
 20
1334.618502
 30
0.0
 11
1028.313519
 21
1334.618502
 31
0.0
  0
POLYLINE
  5
38C
100
AcDbEntity
  8
OUTLINE
  6
CONTINUOUS
 62
     3
100
AcDb2dPolyline
 66
     1
 10
0.0
 20
0.0
 30
0.0
 70
     1
  0
VERTEX
  5
38D
100
AcDbEntity
  8
OUTLINE
  6
CONTINUOUS
 62
     3
100
AcDbVertex
100
AcDb2dVertex
 10
1054.333893
 20
2014.618502
 30
0.0
  0
VERTEX
  5
38E
100
AcDbEntity
  8
OUTLINE
  6
CONTINUOUS
 62
     3
100
AcDbVertex
100
AcDb2dVertex
 10
1764.333893
 20
2014.618502
 30
0.0
  0
VERTEX
  5
38F
100
AcDbEntity
  8
OUTLINE
  6
CONTINUOUS
 62
     3
100
AcDbVertex
100
AcDb2dVertex
 10
1764.333893
 20
654.618502
 30
0.0
  0
VERTEX
  5
390
100
AcDbEntity
  8
OUTLINE
  6
CONTINUOUS
 62
     3
100
AcDbVertex
100
AcDb2dVertex
 10
1054.333893
 20
654.618502
 30
0.0
  0
SEQEND
  5
391
100
AcDbEntity
  8
OUTLINE
  6
CONTINUOUS
 62
     3
  0
LINE
  5
392
100
AcDbEntity
  8
NOTE
  6
CONTINUOUS
 62
     4
100
AcDbLine
 10
967.231333
 20
271.361966
 30
0.0
 11
1229.334287
 21
886.617968
 31
0.0
  0
LINE
  5
393
100
AcDbEntity
  8
NOTE
  6
CONTINUOUS
 62
     4
100
AcDbLine
 10
849.844715
 20
487.939332
 30
0.0
 11
1219.334287
 21
886.617968
 31
0.0
  0
LINE
  5
394
100
AcDbEntity
  8
SIZE
  6
CONTINUOUS
 62
    30
100
AcDbLine
 10
1084.333893
 20
1746.618502
 30
0.0
 11
703.767818
 21
1746.618502
 31
0.0
  0
LINE
  5
395
100
AcDbEntity
  8
SIZE
  6
CONTINUOUS
 62
    30
100
AcDbLine
 10
1084.333893
 20
1746.618502
 30
0.0
 11
703.767818
 21
1746.618502
 31
0.0
  0
LINE
  5
396
100
AcDbEntity
  8
SIZE
  6
CONTINUOUS
 62
    30
100
AcDbLine
 10
1084.333893
 20
922.618502
 30
0.0
 11
703.767818
 21
922.618502
 31
0.0
  0
LINE
  5
397
100
AcDbEntity
  8
SIZE
  6
CONTINUOUS
 62
    30
100
AcDbLine
 10
1084.333893
 20
922.618502
 30
0.0
 11
703.767818
 21
922.618502
 31
0.0
  0
LINE
  5
398
100
AcDbEntity
  8
SIZE
  6
CONTINUOUS
 62
    30
100
AcDbLine
 10
1226.658893
 20
886.618502
 30
0.0
 11
949.787327
 21
886.618502
 31
0.0
  0
LINE
  5
399
100
AcDbEntity
  8
SIZE
  6
CONTINUOUS
 62
    30
100
AcDbLine
 10
1064.333893
 20
2389.394143
 30
0.0
 11
1754.333893
 21
2389.394143
 31
0.0
  0
LINE
  5
39A
100
AcDbEntity
  8
SIZE
  6
CONTINUOUS
 62
    30
100
AcDbLine
 10
1079.333893
 20
2256.587463
 30
0.0
 11
1084.333893
 21
2256.587463
 31
0.0
  0
LINE
  5
39B
100
AcDbEntity
  8
SIZE
  6
CONTINUOUS
 62
    30
100
AcDbLine
 10
1122.333893
 20
2123.370052
 30
0.0
 11
1074.333893
 21
2123.370052
 31
0.0
  0
LINE
  5
39C
100
AcDbEntity
  8
NOTE
  6
CONTINUOUS
 62
     4
100
AcDbLine
 10
1060.890973
 20
654.618502
 30
0.0
 11
1080.890973
 21
674.618502
 31
0.0
  0
LINE
  5
39D
100
AcDbEntity
  8
DETAIL
  6
CONTINUOUS
 62
     5
100
AcDbLine
 10
1764.333893
 20
654.618502
 30
0.0
 11
1054.333893
 21
654.618502
 31
0.0
  0
LINE
  5
39E
100
AcDbEntity
  8
DETAIL
  6
CONTINUOUS
 62
     5
100
AcDbLine
 10
1764.333893
 20
2014.618502
 30
0.0
 11
1054.333893
 21
2014.618502
 31
0.0
  0
LINE
  5
39F
100
AcDbEntity
  8
DETAIL
  6
CONTINUOUS
 62
     5
100
AcDbLine
 10
1744.333893
 20
674.618502
 30
0.0
 11
1074.333893
 21
674.618502
 31
0.0
  0
LINE
  5
3A0
100
AcDbEntity
  8
DETAIL
  6
CONTINUOUS
 62
     5
100
AcDbLine
 10
1744.333893
 20
1994.618502
 30
0.0
 11
1074.333893
 21
1994.618502
 31
0.0
  0
LINE
  5
3A1
100
AcDbEntity
  8
DETAIL
  6
CONTINUOUS
 62
     5
100
AcDbLine
 10
1744.333893
 20
674.618502
 30
0.0
 11
1074.333893
 21
674.618502
 31
0.0
  0
LINE
  5
3A2
100
AcDbEntity
  8
NOTE
  6
CONTINUOUS
 62
     4
100
AcDbLine
 10
842.547394
 20
2126.197553
 30
0.0
 11
1122.333596
 21
1746.619101
 31
0.0
  0
TEXT
  5
3A3
100
AcDbEntity
  8
SIZE
  6
CONTINUOUS
 62
    30
100
AcDbText
 10
544.750839
 20
1042.097073
 30
0.0
 40
55.0
  1
1320(天井開口寸法)
 50
90.0
 41
0.9
 72
     1
 11
544.750839
 21
1334.618502
 31
0.0
100
AcDbText
  0
LINE
  5
3A4
100
AcDbEntity
  8
SIZE
  6
CONTINUOUS
 62
    30
100
AcDbLine
 10
564.155601
 20
1984.618502
 30
0.0
 11
564.155601
 21
684.618502
 31
0.0
  0
TEXT
  5
3A5
100
AcDbEntity
  8
SIZE
  6
CONTINUOUS
 62
    30
100
AcDbText
 10
714.363056
 20
1075.804216
 30
0.0
 40
55.0
  1
824(吊りﾎﾞﾙﾄﾋﾟｯﾁ)
 50
90.0
 41
0.9
 72
     1
 11
714.363056
 21
1334.618502
 31
0.0
100
AcDbText
  0
LINE
  5
3A6
100
AcDbEntity
  8
SIZE
  6
CONTINUOUS
 62
    30
100
AcDbLine
 10
733.767818
 20
932.618502
 30
0.0
 11
733.767818
 21
1736.618502
 31
0.0
  0
TEXT
  5
3A7
100
AcDbEntity
  8
SIZE
  6
CONTINUOUS
 62
    30
100
AcDbText
 10
839.142647
 20
1272.154216
 30
0.0
 40
55.0
  1
776
 50
90.0
 41
0.9
 72
     1
 11
839.142647
 21
1334.618502
 31
0.0
100
AcDbText
  0
LINE
  5
3A8
100
AcDbEntity
  8
SIZE
  6
CONTINUOUS
 62
    30
100
AcDbLine
 10
854.142647
 20
956.618502
 30
0.0
 11
854.142647
 21
1712.618502
 31
0.0
  0
CIRCLE
  5
3A9
100
AcDbEntity
  8
SIZE
  6
CONTINUOUS
 62
    30
100
AcDbCircle
 10
979.787327
 20
1334.618502
 30
0.0
 40
5.0
  0
LINE
  5
3AA
100
AcDbEntity
  8
NOTE
  6
CONTINUOUS
 62
     4
100
AcDbLine
 10
1054.333893
 20
1319.812864
 30
0.0
 11
1069.139531
 21
1334.618502
 31
0.0
  0
LINE
  5
3AB
100
AcDbEntity
  8
DETAIL
  6
CONTINUOUS
 62
     5
100
AcDbLine
 10
1054.333893
 20
654.618502
 30
0.0
 11
1054.333893
 21
2014.618502
 31
0.0
  0
LINE
  5
3AC
100
AcDbEntity
  8
DETAIL
  6
CONTINUOUS
 62
     5
100
AcDbLine
 10
1074.333893
 20
674.618502
 30
0.0
 11
1074.333893
 21
1994.618502
 31
0.0
  0
LINE
  5
3AD
100
AcDbEntity
  8
SIZE
  6
CONTINUOUS
 62
    30
100
AcDbLine
 10
733.767818
 20
684.618502
 30
0.0
 11
733.767818
 21
912.618502
 31
0.0
  0
TEXT
  5
3AE
100
AcDbEntity
  8
SIZE
  6
CONTINUOUS
 62
    30
100
AcDbText
 10
960.382566
 20
717.832788
 30
0.0
 40
55.0
  1
(60)
 50
90.0
 41
0.9
 72
     1
 11
960.382566
 21
789.725645
 31
0.0
100
AcDbText
  0
LINE
  5
3AF
100
AcDbEntity
  8
SIZE
  6
CONTINUOUS
 62
    30
100
AcDbLine
 10
979.787327
 20
886.618502
 30
0.0
 11
979.787327
 21
712.832788
 31
0.0
  0
LINE
  5
3B0
100
AcDbEntity
  8
NOTE
  6
CONTINUOUS
 62
     4
100
AcDbLine
 10
1054.333893
 20
718.7721
 30
0.0
 11
1074.333893
 21
738.7721
 31
0.0
  0
LINE
  5
3B1
100
AcDbEntity
  8
NOTE
  6
CONTINUOUS
 62
     4
100
AcDbLine
 10
546.818221
 20
271.361966
 30
0.0
 11
967.231333
 21
271.361966
 31
0.0
  0
TEXT
  5
3B2
100
AcDbEntity
  8
NOTE
  6
CONTINUOUS
 62
     4
100
AcDbText
 10
563.053098
 20
291.232554
 30
0.0
 40
64.0
  1
D VP-25
 41
0.9
100
AcDbText
  0
TEXT
  5
3B3
100
AcDbEntity
  8
NOTE
  6
CONTINUOUS
 62
     4
100
AcDbText
 10
405.818766
 20
413.211847
 30
0.0
 40
64.0
  1
（自然排水口）
 41
0.9
100
AcDbText
  0
LINE
  5
3B4
100
AcDbEntity
  8
NOTE
  6
CONTINUOUS
 62
     4
100
AcDbLine
 10
380.979641
 20
487.939332
 30
0.0
 11
849.844715
 21
487.939332
 31
0.0
  0
LINE
  5
3B5
100
AcDbEntity
  8
SIZE
  6
CONTINUOUS
 62
    30
100
AcDbLine
 10
1054.333893
 20
674.618502
 30
0.0
 11
534.155601
 21
674.618502
 31
0.0
  0
TEXT
  5
3B6
100
AcDbEntity
  8
NOTE
  6
CONTINUOUS
 62
     4
100
AcDbText
 10
432.590402
 20
514.881448
 30
0.0
 40
64.0
  1
D抜き
 41
0.9
100
AcDbText
  0
POINT
  5
3B7
100
AcDbEntity
  8
DEFPOINTS
  6
CONTINUOUS
 62
     7
100
AcDbPoint
 10
564.155601
 20
674.618502
 30
0.0
  0
LINE
  5
3B8
100
AcDbEntity
  8
SIZE
  6
CONTINUOUS
 62
    30
100
AcDbLine
 10
564.155601
 20
679.618502
 30
0.0
 11
564.155601
 21
684.618502
 31
0.0
  0
CIRCLE
  5
3B9
100
AcDbEntity
  8
SIZE
  6
CONTINUOUS
 62
    30
100
AcDbCircle
 10
564.155601
 20
674.618502
 30
0.0
 40
5.0
  0
LINE
  5
3BA
100
AcDbEntity
  8
SIZE
  6
CONTINUOUS
 62
    30
100
AcDbLine
 10
1054.333893
 20
674.618502
 30
0.0
 11
703.767818
 21
674.618502
 31
0.0
  0
LINE
  5
3BB
100
AcDbEntity
  8
SIZE
  6
CONTINUOUS
 62
    30
100
AcDbLine
 10
733.767818
 20
679.618502
 30
0.0
 11
733.767818
 21
684.618502
 31
0.0
  0
CIRCLE
  5
3BC
100
AcDbEntity
  8
SIZE
  6
CONTINUOUS
 62
    30
100
AcDbCircle
 10
733.767818
 20
674.618502
 30
0.0
 40
5.0
  0
POINT
  5
3BD
100
AcDbEntity
  8
DEFPOINTS
  6
CONTINUOUS
 62
     7
100
AcDbPoint
 10
1074.333893
 20
674.618502
 30
0.0
  0
POINT
  5
3BE
100
AcDbEntity
  8
DEFPOINTS
  6
CONTINUOUS
 62
     7
100
AcDbPoint
 10
1074.333893
 20
674.618502
 30
0.0
  0
LINE
  5
3BF
100
AcDbEntity
  8
NOTE
  6
CONTINUOUS
 62
     4
100
AcDbLine
 10
1054.333893
 20
683.416761
 30
0.0
 11
1074.333893
 21
703.416761
 31
0.0
  0
LINE
  5
3C0
100
AcDbEntity
  8
SIZE
  6
CONTINUOUS
 62
    30
100
AcDbLine
 10
979.787327
 20
1324.618502
 30
0.0
 11
979.787327
 21
956.618502
 31
0.0
  0
CIRCLE
  5
3C1
100
AcDbEntity
  8
SIZE
  6
CONTINUOUS
 62
    30
100
AcDbCircle
 10
854.142647
 20
946.618502
 30
0.0
 40
5.0
  0
LINE
  5
3C2
100
AcDbEntity
  8
SIZE
  6
CONTINUOUS
 62
    30
100
AcDbLine
 10
1072.333893
 20
946.618502
 30
0.0
 11
824.142647
 21
946.618502
 31
0.0
  0
TEXT
  5
3C3
100
AcDbEntity
  8
SIZE
  6
CONTINUOUS
 62
    30
100
AcDbText
 10
718.767818
 20
734.975645
 30
0.0
 40
55.0
  1
248
 50
90.0
 41
0.9
 72
     1
 11
718.767818
 21
798.618502
 31
0.0
100
AcDbText
  0
LINE
  5
3C4
100
AcDbEntity
  8
SIZE
  6
CONTINUOUS
 62
    30
100
AcDbLine
 10
733.767818
 20
927.618502
 30
0.0
 11
733.767818
 21
932.618502
 31
0.0
  0
CIRCLE
  5
3C5
100
AcDbEntity
  8
SIZE
  6
CONTINUOUS
 62
    30
100
AcDbCircle
 10
733.767818
 20
922.618502
 30
0.0
 40
5.0
  0
POINT
  5
3C6
100
AcDbEntity
  8
DEFPOINTS
  6
CONTINUOUS
 62
     7
100
AcDbPoint
 10
733.767818
 20
922.618502
 30
0.0
  0
LINE
  5
3C7
100
AcDbEntity
  8
SIZE
  6
CONTINUOUS
 62
    30
100
AcDbLine
 10
733.767818
 20
917.618502
 30
0.0
 11
733.767818
 21
912.618502
 31
0.0
  0
CIRCLE
  5
3C8
100
AcDbEntity
  8
SIZE
  6
CONTINUOUS
 62
    30
100
AcDbCircle
 10
733.767818
 20
922.618502
 30
0.0
 40
5.0
  0
LINE
  5
3C9
100
AcDbEntity
  8
SIZE
  6
CONTINUOUS
 62
    30
100
AcDbLine
 10
854.142647
 20
951.618502
 30
0.0
 11
854.142647
 21
956.618502
 31
0.0
  0
LINE
  5
3CA
100
AcDbEntity
  8
NOTE
  6
CONTINUOUS
 62
     4
100
AcDbLine
 10
1054.333893
 20
860.193457
 30
0.0
 11
1074.333893
 21
880.193457
 31
0.0
  0
LINE
  5
3CB
100
AcDbEntity
  8
NOTE
  6
CONTINUOUS
 62
     4
100
AcDbLine
 10
1054.333893
 20
824.838118
 30
0.0
 11
1074.333893
 21
844.838118
 31
0.0
  0
LINE
  5
3CC
100
AcDbEntity
  8
NOTE
  6
CONTINUOUS
 62
     4
100
AcDbLine
 10
1054.333893
 20
789.482779
 30
0.0
 11
1074.333893
 21
809.482779
 31
0.0
  0
LINE
  5
3CD
100
AcDbEntity
  8
NOTE
  6
CONTINUOUS
 62
     4
100
AcDbLine
 10
1054.333893
 20
754.12744
 30
0.0
 11
1074.333893
 21
774.12744
 31
0.0
  0
LINE
  5
3CE
100
AcDbEntity
  8
SIZE
  6
CONTINUOUS
 62
    30
100
AcDbLine
 10
1072.333893
 20
946.618502
 30
0.0
 11
949.787327
 21
946.618502
 31
0.0
  0
LINE
  5
3CF
100
AcDbEntity
  8
SIZE
  6
CONTINUOUS
 62
    30
100
AcDbLine
 10
1072.333893
 20
946.618502
 30
0.0
 11
949.787327
 21
946.618502
 31
0.0
  0
POINT
  5
3D0
100
AcDbEntity
  8
DEFPOINTS
  6
CONTINUOUS
 62
     7
100
AcDbPoint
 10
979.787327
 20
946.618502
 30
0.0
  0
LINE
  5
3D1
100
AcDbEntity
  8
SIZE
  6
CONTINUOUS
 62
    30
100
AcDbLine
 10
979.787327
 20
951.618502
 30
0.0
 11
979.787327
 21
956.618502
 31
0.0
  0
CIRCLE
  5
3D2
100
AcDbEntity
  8
SIZE
  6
CONTINUOUS
 62
    30
100
AcDbCircle
 10
979.787327
 20
946.618502
 30
0.0
 40
5.0
  0
POINT
  5
3D3
100
AcDbEntity
  8
DEFPOINTS
  6
CONTINUOUS
 62
     7
100
AcDbPoint
 10
979.787327
 20
886.618502
 30
0.0
  0
LINE
  5
3D4
100
AcDbEntity
  8
SIZE
  6
CONTINUOUS
 62
    30
100
AcDbLine
 10
979.787327
 20
891.618502
 30
0.0
 11
979.787327
 21
896.618502
 31
0.0
  0
CIRCLE
  5
3D5
100
AcDbEntity
  8
SIZE
  6
CONTINUOUS
 62
    30
100
AcDbCircle
 10
979.787327
 20
886.618502
 30
0.0
 40
5.0
  0
LINE
  5
3D6
100
AcDbEntity
  8
SIZE
  6
CONTINUOUS
 62
    30
100
AcDbLine
 10
979.787327
 20
941.618502
 30
0.0
 11
979.787327
 21
936.618502
 31
0.0
  0
CIRCLE
  5
3D7
100
AcDbEntity
  8
SIZE
  6
CONTINUOUS
 62
    30
100
AcDbCircle
 10
979.787327
 20
946.618502
 30
0.0
 40
5.0
  0
LINE
  5
3D8
100
AcDbEntity
  8
SIZE
  6
CONTINUOUS
 62
    30
100
AcDbLine
 10
979.787327
 20
936.618502
 30
0.0
 11
979.787327
 21
896.618502
 31
0.0
  0
LINE
  5
3D9
100
AcDbEntity
  8
NOTE
  6
CONTINUOUS
 62
     4
100
AcDbLine
 10
1054.333893
 20
1001.614813
 30
0.0
 11
1074.333893
 21
1021.614813
 31
0.0
  0
LINE
  5
3DA
100
AcDbEntity
  8
NOTE
  6
CONTINUOUS
 62
     4
100
AcDbLine
 10
1054.333893
 20
966.259474
 30
0.0
 11
1074.333893
 21
986.259474
 31
0.0
  0
LINE
  5
3DB
100
AcDbEntity
  8
NOTE
  6
CONTINUOUS
 62
     4
100
AcDbLine
 10
1054.333893
 20
930.904135
 30
0.0
 11
1074.333893
 21
950.904135
 31
0.0
  0
LINE
  5
3DC
100
AcDbEntity
  8
NOTE
  6
CONTINUOUS
 62
     4
100
AcDbLine
 10
1054.333893
 20
895.548796
 30
0.0
 11
1074.333893
 21
915.548796
 31
0.0
  0
TEXT
  5
3DD
100
AcDbEntity
  8
SIZE
  6
CONTINUOUS
 62
    30
100
AcDbText
 10
964.787327
 20
1076.975645
 30
0.0
 40
55.0
  1
388
 50
90.0
 41
0.9
 72
     1
 11
964.787327
 21
1140.618502
 31
0.0
100
AcDbText
  0
LINE
  5
3DE
100
AcDbEntity
  8
NOTE
  6
CONTINUOUS
 62
     4
100
AcDbLine
 10
1054.333893
 20
1178.391508
 30
0.0
 11
1074.333893
 21
1198.391508
 31
0.0
  0
LINE
  5
3DF
100
AcDbEntity
  8
NOTE
  6
CONTINUOUS
 62
     4
100
AcDbLine
 10
1054.333893
 20
1143.036169
 30
0.0
 11
1074.333893
 21
1163.036169
 31
0.0
  0
LINE
  5
3E0
100
AcDbEntity
  8
NOTE
  6
CONTINUOUS
 62
     4
100
AcDbLine
 10
1054.333893
 20
1107.68083
 30
0.0
 11
1074.333893
 21
1127.68083
 31
0.0
  0
LINE
  5
3E1
100
AcDbEntity
  8
NOTE
  6
CONTINUOUS
 62
     4
100
AcDbLine
 10
1054.333893
 20
1072.325491
 30
0.0
 11
1074.333893
 21
1092.325491
 31
0.0
  0
LINE
  5
3E2
100
AcDbEntity
  8
NOTE
  6
CONTINUOUS
 62
     4
100
AcDbLine
 10
1054.333893
 20
1036.970152
 30
0.0
 11
1074.333893
 21
1056.970152
 31
0.0
  0
LINE
  5
3E3
100
AcDbEntity
  8
SIZE
  6
CONTINUOUS
 62
    30
100
AcDbLine
 10
979.787327
 20
1329.618502
 30
0.0
 11
979.787327
 21
1324.618502
 31
0.0
  0
LINE
  5
3E4
100
AcDbEntity
  8
NOTE
  6
CONTINUOUS
 62
     4
100
AcDbLine
 10
1054.333893
 20
1284.457525
 30
0.0
 11
1074.333893
 21
1304.457525
 31
0.0
  0
LINE
  5
3E5
100
AcDbEntity
  8
NOTE
  6
CONTINUOUS
 62
     4
100
AcDbLine
 10
1054.333893
 20
1249.102186
 30
0.0
 11
1074.333893
 21
1269.102186
 31
0.0
  0
LINE
  5
3E6
100
AcDbEntity
  8
NOTE
  6
CONTINUOUS
 62
     4
100
AcDbLine
 10
1054.333893
 20
1213.746847
 30
0.0
 11
1074.333893
 21
1233.746847
 31
0.0
  0
LINE
  5
3E7
100
AcDbEntity
  8
NOTE
  6
CONTINUOUS
 62
     4
100
AcDbLine
 10
170.3543
 20
2126.197553
 30
0.0
 11
842.547394
 21
2126.197553
 31
0.0
  0
LINE
  5
3E8
100
AcDbEntity
  8
SIZE
  6
CONTINUOUS
 62
    30
100
AcDbLine
 10
733.767818
 20
1756.618502
 30
0.0
 11
733.767818
 21
1984.618502
 31
0.0
  0
LINE
  5
3E9
100
AcDbEntity
  8
NOTE
  6
CONTINUOUS
 62
     4
100
AcDbLine
 10
1054.333893
 20
1638.010916
 30
0.0
 11
1074.333893
 21
1658.010916
 31
0.0
  0
LINE
  5
3EA
100
AcDbEntity
  8
SIZE
  6
CONTINUOUS
 62
    30
100
AcDbLine
 10
1008.313519
 20
1334.618502
 30
0.0
 11
949.787327
 21
1334.618502
 31
0.0
  0
POINT
  5
3EB
100
AcDbEntity
  8
DEFPOINTS
  6
CONTINUOUS
 62
     7
100
AcDbPoint
 10
1028.313519
 20
1334.618502
 30
0.0
  0
LINE
  5
3EC
100
AcDbEntity
  8
NOTE
  6
CONTINUOUS
 62
     4
100
AcDbLine
 10
1054.333893
 20
1461.234221
 30
0.0
 11
1074.333893
 21
1481.234221
 31
0.0
  0
LINE
  5
3ED
100
AcDbEntity
  8
NOTE
  6
CONTINUOUS
 62
     4
100
AcDbLine
 10
1054.333893
 20
1425.878882
 30
0.0
 11
1074.333893
 21
1445.878882
 31
0.0
  0
LINE
  5
3EE
100
AcDbEntity
  8
NOTE
  6
CONTINUOUS
 62
     4
100
AcDbLine
 10
1054.333893
 20
1390.523543
 30
0.0
 11
1074.333893
 21
1410.523543
 31
0.0
  0
LINE
  5
3EF
100
AcDbEntity
  8
NOTE
  6
CONTINUOUS
 62
     4
100
AcDbLine
 10
1054.333893
 20
1355.168204
 30
0.0
 11
1074.333893
 21
1375.168204
 31
0.0
  0
LINE
  5
3F0
100
AcDbEntity
  8
NOTE
  6
CONTINUOUS
 62
     4
100
AcDbLine
 10
1069.139531
 20
1334.618502
 30
0.0
 11
1074.333893
 21
1339.812864
 31
0.0
  0
LINE
  5
3F1
100
AcDbEntity
  8
NOTE
  6
CONTINUOUS
 62
     4
100
AcDbLine
 10
1054.333893
 20
1602.655577
 30
0.0
 11
1074.333893
 21
1622.655577
 31
0.0
  0
LINE
  5
3F2
100
AcDbEntity
  8
NOTE
  6
CONTINUOUS
 62
     4
100
AcDbLine
 10
1054.333893
 20
1567.300238
 30
0.0
 11
1074.333893
 21
1587.300238
 31
0.0
  0
LINE
  5
3F3
100
AcDbEntity
  8
NOTE
  6
CONTINUOUS
 62
     4
100
AcDbLine
 10
1054.333893
 20
1531.944899
 30
0.0
 11
1074.333893
 21
1551.944899
 31
0.0
  0
LINE
  5
3F4
100
AcDbEntity
  8
NOTE
  6
CONTINUOUS
 62
     4
100
AcDbLine
 10
1054.333893
 20
1496.58956
 30
0.0
 11
1074.333893
 21
1516.58956
 31
0.0
  0
CIRCLE
  5
3F5
100
AcDbEntity
  8
SIZE
  6
CONTINUOUS
 62
    30
100
AcDbCircle
 10
854.142647
 20
1722.618502
 30
0.0
 40
5.0
  0
LINE
  5
3F6
100
AcDbEntity
  8
SIZE
  6
CONTINUOUS
 62
    30
100
AcDbLine
 10
1072.333893
 20
1722.618502
 30
0.0
 11
824.142647
 21
1722.618502
 31
0.0
  0
LINE
  5
3F7
100
AcDbEntity
  8
SIZE
  6
CONTINUOUS
 62
    30
100
AcDbLine
 10
733.767818
 20
1751.618502
 30
0.0
 11
733.767818
 21
1756.618502
 31
0.0
  0
CIRCLE
  5
3F8
100
AcDbEntity
  8
SIZE
  6
CONTINUOUS
 62
    30
100
AcDbCircle
 10
733.767818
 20
1746.618502
 30
0.0
 40
5.0
  0
POINT
  5
3F9
100
AcDbEntity
  8
DEFPOINTS
  6
CONTINUOUS
 62
     7
100
AcDbPoint
 10
733.767818
 20
1746.618502
 30
0.0
  0
LINE
  5
3FA
100
AcDbEntity
  8
SIZE
  6
CONTINUOUS
 62
    30
100
AcDbLine
 10
733.767818
 20
1741.618502
 30
0.0
 11
733.767818
 21
1736.618502
 31
0.0
  0
CIRCLE
  5
3FB
100
AcDbEntity
  8
SIZE
  6
CONTINUOUS
 62
    30
100
AcDbCircle
 10
733.767818
 20
1746.618502
 30
0.0
 40
5.0
  0
POINT
  5
3FC
100
AcDbEntity
  8
DEFPOINTS
  6
CONTINUOUS
 62
     7
100
AcDbPoint
 10
854.142647
 20
1722.618502
 30
0.0
  0
LINE
  5
3FD
100
AcDbEntity
  8
SIZE
  6
CONTINUOUS
 62
    30
100
AcDbLine
 10
854.142647
 20
1717.618502
 30
0.0
 11
854.142647
 21
1712.618502
 31
0.0
  0
TEXT
  5
3FE
100
AcDbEntity
  8
SIZE
  6
CONTINUOUS
 62
    30
100
AcDbText
 10
718.767818
 20
1806.975645
 30
0.0
 40
55.0
  1
248
 50
90.0
 41
0.9
 72
     1
 11
718.767818
 21
1870.618502
 31
0.0
100
AcDbText
  0
LINE
  5
3FF
100
AcDbEntity
  8
NOTE
  6
CONTINUOUS
 62
     4
100
AcDbLine
 10
1054.333893
 20
1779.432272
 30
0.0
 11
1074.333893
 21
1799.432272
 31
0.0
  0
LINE
  5
400
100
AcDbEntity
  8
NOTE
  6
CONTINUOUS
 62
     4
100
AcDbLine
 10
1054.333893
 20
1744.076933
 30
0.0
 11
1074.333893
 21
1764.076933
 31
0.0
  0
LINE
  5
401
100
AcDbEntity
  8
NOTE
  6
CONTINUOUS
 62
     4
100
AcDbLine
 10
1054.333893
 20
1708.721594
 30
0.0
 11
1074.333893
 21
1728.721594
 31
0.0
  0
LINE
  5
402
100
AcDbEntity
  8
NOTE
  6
CONTINUOUS
 62
     4
100
AcDbLine
 10
1054.333893
 20
1673.366255
 30
0.0
 11
1074.333893
 21
1693.366255
 31
0.0
  0
LINE
  5
403
100
AcDbEntity
  8
NOTE
  6
CONTINUOUS
 62
     4
100
AcDbLine
 10
1054.333893
 20
1920.853628
 30
0.0
 11
1074.333893
 21
1940.853628
 31
0.0
  0
LINE
  5
404
100
AcDbEntity
  8
NOTE
  6
CONTINUOUS
 62
     4
100
AcDbLine
 10
1054.333893
 20
1885.498289
 30
0.0
 11
1074.333893
 21
1905.498289
 31
0.0
  0
LINE
  5
405
100
AcDbEntity
  8
NOTE
  6
CONTINUOUS
 62
     4
100
AcDbLine
 10
1054.333893
 20
1850.14295
 30
0.0
 11
1074.333893
 21
1870.14295
 31
0.0
  0
LINE
  5
406
100
AcDbEntity
  8
NOTE
  6
CONTINUOUS
 62
     4
100
AcDbLine
 10
1054.333893
 20
1814.787611
 30
0.0
 11
1074.333893
 21
1834.787611
 31
0.0
  0
TEXT
  5
407
100
AcDbEntity
  8
NOTE
  6
CONTINUOUS
 62
     4
100
AcDbText
 10
189.933935
 20
2146.068141
 30
0.0
 40
64.0
  1
AH4-14×30長穴
 41
0.9
100
AcDbText
  0
LINE
  5
408
100
AcDbEntity
  8
SIZE
  6
CONTINUOUS
 62
    30
100
AcDbLine
 10
1054.333893
 20
1994.618502
 30
0.0
 11
534.155601
 21
1994.618502
 31
0.0
  0
LINE
  5
409
100
AcDbEntity
  8
SIZE
  6
CONTINUOUS
 62
    30
100
AcDbLine
 10
564.155601
 20
1989.618502
 30
0.0
 11
564.155601
 21
1984.618502
 31
0.0
  0
CIRCLE
  5
40A
100
AcDbEntity
  8
SIZE
  6
CONTINUOUS
 62
    30
100
AcDbCircle
 10
564.155601
 20
1994.618502
 30
0.0
 40
5.0
  0
LINE
  5
40B
100
AcDbEntity
  8
SIZE
  6
CONTINUOUS
 62
    30
100
AcDbLine
 10
1054.333893
 20
2034.618502
 30
0.0
 11
1054.333893
 21
2419.394143
 31
0.0
  0
LINE
  5
40C
100
AcDbEntity
  8
SIZE
  6
CONTINUOUS
 62
    30
100
AcDbLine
 10
1074.333893
 20
2014.618502
 30
0.0
 11
1074.333893
 21
2286.587463
 31
0.0
  0
LINE
  5
40D
100
AcDbEntity
  8
SIZE
  6
CONTINUOUS
 62
    30
100
AcDbLine
 10
1054.333893
 20
1994.618502
 30
0.0
 11
703.767818
 21
1994.618502
 31
0.0
  0
POINT
  5
40E
100
AcDbEntity
  8
DEFPOINTS
  6
CONTINUOUS
 62
     7
100
AcDbPoint
 10
733.767818
 20
1994.618502
 30
0.0
  0
LINE
  5
40F
100
AcDbEntity
  8
SIZE
  6
CONTINUOUS
 62
    30
100
AcDbLine
 10
733.767818
 20
1989.618502
 30
0.0
 11
733.767818
 21
1984.618502
 31
0.0
  0
CIRCLE
  5
410
100
AcDbEntity
  8
SIZE
  6
CONTINUOUS
 62
    30
100
AcDbCircle
 10
733.767818
 20
1994.618502
 30
0.0
 40
5.0
  0
LINE
  5
411
100
AcDbEntity
  8
SIZE
  6
CONTINUOUS
 62
    30
100
AcDbLine
 10
1074.333893
 20
2014.618502
 30
0.0
 11
1074.333893
 21
2153.370052
 31
0.0
  0
POINT
  5
412
100
AcDbEntity
  8
DEFPOINTS
  6
CONTINUOUS
 62
     7
100
AcDbPoint
 10
1074.333893
 20
1994.618502
 30
0.0
  0
POINT
  5
413
100
AcDbEntity
  8
DEFPOINTS
  6
CONTINUOUS
 62
     7
100
AcDbPoint
 10
1074.333893
 20
1994.618502
 30
0.0
  0
POINT
  5
414
100
AcDbEntity
  8
DEFPOINTS
  6
CONTINUOUS
 62
     7
100
AcDbPoint
 10
1054.333893
 20
2014.618502
 30
0.0
  0
POINT
  5
415
100
AcDbEntity
  8
DEFPOINTS
  6
CONTINUOUS
 62
     7
100
AcDbPoint
 10
1074.333893
 20
1994.618502
 30
0.0
  0
POINT
  5
416
100
AcDbEntity
  8
DEFPOINTS
  6
CONTINUOUS
 62
     7
100
AcDbPoint
 10
1074.333893
 20
1994.618502
 30
0.0
  0
LINE
  5
417
100
AcDbEntity
  8
NOTE
  6
CONTINUOUS
 62
     4
100
AcDbLine
 10
1054.333893
 20
1991.564307
 30
0.0
 11
1077.388088
 21
2014.618502
 31
0.0
  0
LINE
  5
418
100
AcDbEntity
  8
NOTE
  6
CONTINUOUS
 62
     4
100
AcDbLine
 10
1054.333893
 20
1956.208968
 30
0.0
 11
1074.333893
 21
1976.208968
 31
0.0
  0
TEXT
  5
419
100
AcDbEntity
  8
SIZE
  6
CONTINUOUS
 62
    30
100
AcDbText
 10
950.234913
 20
2138.370052
 30
0.0
 40
55.0
  1
48
 41
0.9
 72
     1
 11
990.306341
 21
2138.370052
 31
0.0
100
AcDbText
  0
LINE
  5
41A
100
AcDbEntity
  8
SIZE
  6
CONTINUOUS
 62
    30
100
AcDbLine
 10
1064.333893
 20
2123.370052
 30
0.0
 11
935.234912
 21
2123.370052
 31
0.0
  0
LINE
  5
41B
100
AcDbEntity
  8
SIZE
  6
CONTINUOUS
 62
    30
100
AcDbLine
 10
1069.333893
 20
2123.370052
 30
0.0
 11
1064.333893
 21
2123.370052
 31
0.0
  0
CIRCLE
  5
41C
100
AcDbEntity
  8
SIZE
  6
CONTINUOUS
 62
    30
100
AcDbCircle
 10
1074.333893
 20
2123.370052
 30
0.0
 40
5.0
  0
LINE
  5
41D
100
AcDbEntity
  8
SIZE
  6
CONTINUOUS
 62
    30
100
AcDbLine
 10
1059.333893
 20
2389.394143
 30
0.0
 11
1064.333893
 21
2389.394143
 31
0.0
  0
CIRCLE
  5
41E
100
AcDbEntity
  8
SIZE
  6
CONTINUOUS
 62
    30
100
AcDbCircle
 10
1054.333893
 20
2389.394143
 30
0.0
 40
5.0
  0
CIRCLE
  5
41F
100
AcDbEntity
  8
SIZE
  6
CONTINUOUS
 62
    30
100
AcDbCircle
 10
1074.333893
 20
2256.587463
 30
0.0
 40
5.0
  0
LINE
  5
420
100
AcDbEntity
  8
BASIS
  6
DASHDOT
 62
     6
100
AcDbLine
 10
1409.333893
 20
2046.507511
 30
0.0
 11
1409.333893
 21
626.507511
 31
0.0
  0
LINE
  5
421
100
AcDbEntity
  8
ARRANGE
  6
CONTINUOUS
 62
     1
100
AcDbLine
 10
1451.803092
 20
1376.775608
 30
0.0
 11
1366.864694
 21
1292.461396
 31
0.0
  0
CIRCLE
  5
422
100
AcDbEntity
  8
ARRANGE
  6
CONTINUOUS
 62
     1
100
AcDbCircle
 10
1409.333893
 20
1334.618502
 30
0.0
 40
42.5
  0
TEXT
  5
423
100
AcDbEntity
  8
SIZE
  6
CONTINUOUS
 62
    30
100
AcDbText
 10
2252.198701
 20
1224.321932
 30
0.0
 40
55.0
  1
1360
 50
90.0
 41
0.9
 72
     1
 11
2252.198701
 21
1306.821932
 31
0.0
100
AcDbText
  0
LINE
  5
424
100
AcDbEntity
  8
SIZE
  6
CONTINUOUS
 62
    30
100
AcDbLine
 10
2267.198701
 20
664.618502
 30
0.0
 11
2267.198701
 21
2004.618502
 31
0.0
  0
LINE
  5
425
100
AcDbEntity
  8
ARRANGE
  6
CONTINUOUS
 62
     1
100
AcDbLine
 10
1451.865641
 20
1292.524502
 30
0.0
 11
1366.802145
 21
1376.712502
 31
0.0
  0
LINE
  5
426
100
AcDbEntity
  8
DETAIL
  6
CONTINUOUS
 62
     5
100
AcDbLine
 10
1764.333893
 20
2014.618502
 30
0.0
 11
1764.333893
 21
654.618502
 31
0.0
  0
LINE
  5
427
100
AcDbEntity
  8
DETAIL
  6
CONTINUOUS
 62
     5
100
AcDbLine
 10
1092.333893
 20
946.618502
 30
0.0
 11
1092.333893
 21
1722.618502
 31
0.0
  0
LINE
  5
428
100
AcDbEntity
  8
DETAIL
  6
CONTINUOUS
 62
     5
100
AcDbLine
 10
1726.333893
 20
1722.618502
 30
0.0
 11
1726.333893
 21
946.618502
 31
0.0
  0
LINE
  5
429
100
AcDbEntity
  8
DETAIL
  6
CONTINUOUS
 62
     5
100
AcDbLine
 10
1744.333893
 20
1994.618502
 30
0.0
 11
1744.333893
 21
674.618502
 31
0.0
  0
LINE
  5
42A
100
AcDbEntity
  8
NOTE
  6
CONTINUOUS
 62
     4
100
AcDbLine
 10
2085.958776
 20
381.466033
 30
0.0
 11
1580.334287
 21
868.617968
 31
0.0
  0
LINE
  5
42B
100
AcDbEntity
  8
SIZE
  6
CONTINUOUS
 62
    30
100
AcDbLine
 10
1784.333893
 20
654.618502
 30
0.0
 11
2297.198701
 21
654.618502
 31
0.0
  0
LINE
  5
42C
100
AcDbEntity
  8
SIZE
  6
CONTINUOUS
 62
    30
100
AcDbLine
 10
1746.333893
 20
946.618502
 30
0.0
 11
2182.368028
 21
946.618502
 31
0.0
  0
LINE
  5
42D
100
AcDbEntity
  8
SIZE
  6
CONTINUOUS
 62
    30
100
AcDbLine
 10
1618.333893
 20
868.618502
 30
0.0
 11
2182.368028
 21
868.618502
 31
0.0
  0
TEXT
  5
42E
100
AcDbEntity
  8
SIZE
  6
CONTINUOUS
 62
    30
100
AcDbText
 10
1994.552209
 20
709.626071
 30
0.0
 40
55.0
  1
(67)
 50
90.0
 41
0.9
 72
     1
 11
1994.552209
 21
781.518928
 31
0.0
100
AcDbText
  0
LINE
  5
42F
100
AcDbEntity
  8
SIZE
  6
CONTINUOUS
 62
    30
100
AcDbLine
 10
1548.333893
 20
879.618502
 30
0.0
 11
2043.956971
 21
879.618502
 31
0.0
  0
LINE
  5
430
100
AcDbEntity
  8
SIZE
  6
CONTINUOUS
 62
    30
100
AcDbLine
 10
1746.333893
 20
946.618502
 30
0.0
 11
2043.956971
 21
946.618502
 31
0.0
  0
LINE
  5
431
100
AcDbEntity
  8
SIZE
  6
CONTINUOUS
 62
    30
100
AcDbLine
 10
1510.333893
 20
841.618502
 30
0.0
 11
1510.333893
 21
348.280557
 31
0.0
  0
LINE
  5
432
100
AcDbEntity
  8
SIZE
  6
CONTINUOUS
 62
    30
100
AcDbLine
 10
1580.333893
 20
830.618502
 30
0.0
 11
1580.333893
 21
348.280557
 31
0.0
  0
LINE
  5
433
100
AcDbEntity
  8
SIZE
  6
CONTINUOUS
 62
    30
100
AcDbLine
 10
1580.333893
 20
830.618502
 30
0.0
 11
1580.333893
 21
348.280557
 31
0.0
  0
LINE
  5
434
100
AcDbEntity
  8
SIZE
  6
CONTINUOUS
 62
    30
100
AcDbLine
 10
1726.333893
 20
926.618502
 30
0.0
 11
1726.333893
 21
348.280557
 31
0.0
  0
TEXT
  5
435
100
AcDbEntity
  8
SIZE
  6
CONTINUOUS
 62
    30
100
AcDbText
 10
1857.83195
 20
709.618502
 30
0.0
 40
55.0
  1
20
 50
90.0
 41
0.9
 72
     1
 11
1857.83195
 21
749.689931
 31
0.0
100
AcDbText
  0
LINE
  5
436
100
AcDbEntity
  8
SIZE
  6
CONTINUOUS
 62
    30
100
AcDbLine
 10
1872.83195
 20
684.618502
 30
0.0
 11
1872.83195
 21
804.761359
 31
0.0
  0
LINE
  5
437
100
AcDbEntity
  8
SIZE
  6
CONTINUOUS
 62
    30
100
AcDbLine
 10
1219.333893
 20
848.618502
 30
0.0
 11
1219.333893
 21
114.261648
 31
0.0
  0
LINE
  5
438
100
AcDbEntity
  8
SIZE
  6
CONTINUOUS
 62
    30
100
AcDbLine
 10
1726.333893
 20
926.618502
 30
0.0
 11
1726.333893
 21
114.261648
 31
0.0
  0
LINE
  5
439
100
AcDbEntity
  8
SIZE
  6
CONTINUOUS
 62
    30
100
AcDbLine
 10
1229.333893
 20
848.618502
 30
0.0
 11
1229.333893
 21
225.659478
 31
0.0
  0
LINE
  5
43A
100
AcDbEntity
  8
SIZE
  6
CONTINUOUS
 62
    30
100
AcDbLine
 10
1726.333893
 20
926.618502
 30
0.0
 11
1726.333893
 21
225.659478
 31
0.0
  0
LINE
  5
43B
100
AcDbEntity
  8
NOTE
  6
CONTINUOUS
 62
     4
100
AcDbLine
 10
1744.333893
 20
701.665319
 30
0.0
 11
1764.333893
 21
721.665319
 31
0.0
  0
LINE
  5
43C
100
AcDbEntity
  8
SIZE
  6
CONTINUOUS
 62
    30
100
AcDbLine
 10
1570.333893
 20
378.280557
 30
0.0
 11
1520.333893
 21
378.280557
 31
0.0
  0
TEXT
  5
43D
100
AcDbEntity
  8
SIZE
  6
CONTINUOUS
 62
    30
100
AcDbText
 10
1419.911663
 20
159.261648
 30
0.0
 40
55.0
  1
507
 41
0.9
 72
     1
 11
1483.55452
 21
159.261648
 31
0.0
100
AcDbText
  0
LINE
  5
43E
100
AcDbEntity
  8
SIZE
  6
CONTINUOUS
 62
    30
100
AcDbLine
 10
1716.333893
 20
144.261648
 30
0.0
 11
1229.333893
 21
144.261648
 31
0.0
  0
TEXT
  5
43F
100
AcDbEntity
  8
SIZE
  6
CONTINUOUS
 62
    30
100
AcDbText
 10
1425.659883
 20
270.659478
 30
0.0
 40
55.0
  1
497
 41
0.9
 72
     1
 11
1489.30274
 21
270.659478
 31
0.0
100
AcDbText
  0
LINE
  5
440
100
AcDbEntity
  8
SIZE
  6
CONTINUOUS
 62
    30
100
AcDbLine
 10
1716.333893
 20
255.659478
 30
0.0
 11
1239.333893
 21
255.659478
 31
0.0
  0
LINE
  5
441
100
AcDbEntity
  8
NOTE
  6
CONTINUOUS
 62
     4
100
AcDbLine
 10
1520.51038
 20
654.618502
 30
0.0
 11
1540.51038
 21
674.618502
 31
0.0
  0
TEXT
  5
442
100
AcDbEntity
  8
SIZE
  6
CONTINUOUS
 62
    30
100
AcDbText
 10
1377.60712
 20
393.280557
 30
0.0
 40
55.0
  1
70
 41
0.9
 72
     1
 11
1417.678548
 21
393.280557
 31
0.0
100
AcDbText
  0
POINT
  5
443
100
AcDbEntity
  8
DEFPOINTS
  6
CONTINUOUS
 62
     7
100
AcDbPoint
 10
1219.333893
 20
144.261648
 30
0.0
  0
LINE
  5
444
100
AcDbEntity
  8
SIZE
  6
CONTINUOUS
 62
    30
100
AcDbLine
 10
1224.333893
 20
144.261648
 30
0.0
 11
1229.333893
 21
144.261648
 31
0.0
  0
CIRCLE
  5
445
100
AcDbEntity
  8
SIZE
  6
CONTINUOUS
 62
    30
100
AcDbCircle
 10
1219.333893
 20
144.261648
 30
0.0
 40
5.0
  0
POINT
  5
446
100
AcDbEntity
  8
DEFPOINTS
  6
CONTINUOUS
 62
     7
100
AcDbPoint
 10
1229.333893
 20
255.659478
 30
0.0
  0
LINE
  5
447
100
AcDbEntity
  8
SIZE
  6
CONTINUOUS
 62
    30
100
AcDbLine
 10
1234.333893
 20
255.659478
 30
0.0
 11
1239.333893
 21
255.659478
 31
0.0
  0
CIRCLE
  5
448
100
AcDbEntity
  8
SIZE
  6
CONTINUOUS
 62
    30
100
AcDbCircle
 10
1229.333893
 20
255.659478
 30
0.0
 40
5.0
  0
LINE
  5
449
100
AcDbEntity
  8
SIZE
  6
CONTINUOUS
 62
    30
100
AcDbLine
 10
1362.607119
 20
378.280557
 30
0.0
 11
1510.333893
 21
378.280557
 31
0.0
  0
POINT
  5
44A
100
AcDbEntity
  8
DEFPOINTS
  6
CONTINUOUS
 62
     7
100
AcDbPoint
 10
1510.333893
 20
378.280557
 30
0.0
  0
LINE
  5
44B
100
AcDbEntity
  8
SIZE
  6
CONTINUOUS
 62
    30
100
AcDbLine
 10
1515.333893
 20
378.280557
 30
0.0
 11
1520.333893
 21
378.280557
 31
0.0
  0
CIRCLE
  5
44C
100
AcDbEntity
  8
SIZE
  6
CONTINUOUS
 62
    30
100
AcDbCircle
 10
1510.333893
 20
378.280557
 30
0.0
 40
5.0
  0
LINE
  5
44D
100
AcDbEntity
  8
NOTE
  6
CONTINUOUS
 62
     4
100
AcDbLine
 10
1096.246312
 20
654.618502
 30
0.0
 11
1116.246312
 21
674.618502
 31
0.0
  0
LINE
  5
44E
100
AcDbEntity
  8
NOTE
  6
CONTINUOUS
 62
     4
100
AcDbLine
 10
1131.601651
 20
654.618502
 30
0.0
 11
1151.601651
 21
674.618502
 31
0.0
  0
LINE
  5
44F
100
AcDbEntity
  8
NOTE
  6
CONTINUOUS
 62
     4
100
AcDbLine
 10
1166.95699
 20
654.618502
 30
0.0
 11
1186.95699
 21
674.618502
 31
0.0
  0
LINE
  5
450
100
AcDbEntity
  8
NOTE
  6
CONTINUOUS
 62
     4
100
AcDbLine
 10
1202.312329
 20
654.618502
 30
0.0
 11
1222.312329
 21
674.618502
 31
0.0
  0
LINE
  5
451
100
AcDbEntity
  8
NOTE
  6
CONTINUOUS
 62
     4
100
AcDbLine
 10
1237.667668
 20
654.618502
 30
0.0
 11
1257.667668
 21
674.618502
 31
0.0
  0
LINE
  5
452
100
AcDbEntity
  8
NOTE
  6
CONTINUOUS
 62
     4
100
AcDbLine
 10
1273.023007
 20
654.618502
 30
0.0
 11
1293.023007
 21
674.618502
 31
0.0
  0
LINE
  5
453
100
AcDbEntity
  8
NOTE
  6
CONTINUOUS
 62
     4
100
AcDbLine
 10
1414.444363
 20
654.618502
 30
0.0
 11
1434.444363
 21
674.618502
 31
0.0
  0
LINE
  5
454
100
AcDbEntity
  8
NOTE
  6
CONTINUOUS
 62
     4
100
AcDbLine
 10
1308.378346
 20
654.618502
 30
0.0
 11
1328.378346
 21
674.618502
 31
0.0
  0
LINE
  5
455
100
AcDbEntity
  8
NOTE
  6
CONTINUOUS
 62
     4
100
AcDbLine
 10
1343.733685
 20
654.618502
 30
0.0
 11
1363.733685
 21
674.618502
 31
0.0
  0
LINE
  5
456
100
AcDbEntity
  8
NOTE
  6
CONTINUOUS
 62
     4
100
AcDbLine
 10
1379.089024
 20
654.618502
 30
0.0
 11
1399.089024
 21
674.618502
 31
0.0
  0
LINE
  5
457
100
AcDbEntity
  8
NOTE
  6
CONTINUOUS
 62
     4
100
AcDbLine
 10
1449.799702
 20
654.618502
 30
0.0
 11
1469.799702
 21
674.618502
 31
0.0
  0
LINE
  5
458
100
AcDbEntity
  8
NOTE
  6
CONTINUOUS
 62
     4
100
AcDbLine
 10
1485.155041
 20
654.618502
 30
0.0
 11
1505.155041
 21
674.618502
 31
0.0
  0
TEXT
  5
459
100
AcDbEntity
  8
SIZE
  6
CONTINUOUS
 62
    30
100
AcDbText
 10
1595.583893
 20
393.280557
 30
0.0
 40
55.0
  1
146
 41
0.9
 72
     1
 11
1653.333893
 21
393.280557
 31
0.0
100
AcDbText
  0
LINE
  5
45A
100
AcDbEntity
  8
SIZE
  6
CONTINUOUS
 62
    30
100
AcDbLine
 10
1721.333893
 20
144.261648
 30
0.0
 11
1716.333893
 21
144.261648
 31
0.0
  0
CIRCLE
  5
45B
100
AcDbEntity
  8
SIZE
  6
CONTINUOUS
 62
    30
100
AcDbCircle
 10
1726.333893
 20
144.261648
 30
0.0
 40
5.0
  0
LINE
  5
45C
100
AcDbEntity
  8
SIZE
  6
CONTINUOUS
 62
    30
100
AcDbLine
 10
1721.333893
 20
255.659478
 30
0.0
 11
1716.333893
 21
255.659478
 31
0.0
  0
CIRCLE
  5
45D
100
AcDbEntity
  8
SIZE
  6
CONTINUOUS
 62
    30
100
AcDbCircle
 10
1726.333893
 20
255.659478
 30
0.0
 40
5.0
  0
LINE
  5
45E
100
AcDbEntity
  8
SIZE
  6
CONTINUOUS
 62
    30
100
AcDbLine
 10
1716.333893
 20
378.280557
 30
0.0
 11
1590.333893
 21
378.280557
 31
0.0
  0
LINE
  5
45F
100
AcDbEntity
  8
SIZE
  6
CONTINUOUS
 62
    30
100
AcDbLine
 10
1575.333893
 20
378.280557
 30
0.0
 11
1570.333893
 21
378.280557
 31
0.0
  0
CIRCLE
  5
460
100
AcDbEntity
  8
SIZE
  6
CONTINUOUS
 62
    30
100
AcDbCircle
 10
1580.333893
 20
378.280557
 30
0.0
 40
5.0
  0
POINT
  5
461
100
AcDbEntity
  8
DEFPOINTS
  6
CONTINUOUS
 62
     7
100
AcDbPoint
 10
1580.333893
 20
378.280557
 30
0.0
  0
LINE
  5
462
100
AcDbEntity
  8
SIZE
  6
CONTINUOUS
 62
    30
100
AcDbLine
 10
1585.333893
 20
378.280557
 30
0.0
 11
1590.333893
 21
378.280557
 31
0.0
  0
CIRCLE
  5
463
100
AcDbEntity
  8
SIZE
  6
CONTINUOUS
 62
    30
100
AcDbCircle
 10
1580.333893
 20
378.280557
 30
0.0
 40
5.0
  0
LINE
  5
464
100
AcDbEntity
  8
SIZE
  6
CONTINUOUS
 62
    30
100
AcDbLine
 10
1721.333893
 20
378.280557
 30
0.0
 11
1716.333893
 21
378.280557
 31
0.0
  0
CIRCLE
  5
465
100
AcDbEntity
  8
SIZE
  6
CONTINUOUS
 62
    30
100
AcDbCircle
 10
1726.333893
 20
378.280557
 30
0.0
 40
5.0
  0
LINE
  5
466
100
AcDbEntity
  8
SIZE
  6
CONTINUOUS
 62
    30
100
AcDbLine
 10
1744.333893
 20
494.272461
 30
0.0
 11
1764.333893
 21
494.272461
 31
0.0
  0
LINE
  5
467
100
AcDbEntity
  8
NOTE
  6
CONTINUOUS
 62
     4
100
AcDbLine
 10
1732.642415
 20
654.618502
 30
0.0
 11
1764.333893
 21
686.30998
 31
0.0
  0
LINE
  5
468
100
AcDbEntity
  8
SIZE
  6
CONTINUOUS
 62
    30
100
AcDbLine
 10
1744.333893
 20
654.618502
 30
0.0
 11
1744.333893
 21
464.272461
 31
0.0
  0
LINE
  5
469
100
AcDbEntity
  8
SIZE
  6
CONTINUOUS
 62
    30
100
AcDbLine
 10
1739.333893
 20
494.272461
 30
0.0
 11
1734.333893
 21
494.272461
 31
0.0
  0
CIRCLE
  5
46A
100
AcDbEntity
  8
SIZE
  6
CONTINUOUS
 62
    30
100
AcDbCircle
 10
1744.333893
 20
494.272461
 30
0.0
 40
5.0
  0
LINE
  5
46B
100
AcDbEntity
  8
SIZE
  6
CONTINUOUS
 62
    30
100
AcDbLine
 10
1734.333893
 20
494.272461
 30
0.0
 11
1724.333893
 21
494.272461
 31
0.0
  0
LINE
  5
46C
100
AcDbEntity
  8
NOTE
  6
CONTINUOUS
 62
     4
100
AcDbLine
 10
1626.576398
 20
654.618502
 30
0.0
 11
1646.576398
 21
674.618502
 31
0.0
  0
LINE
  5
46D
100
AcDbEntity
  8
NOTE
  6
CONTINUOUS
 62
     4
100
AcDbLine
 10
1555.86572
 20
654.618502
 30
0.0
 11
1575.86572
 21
674.618502
 31
0.0
  0
LINE
  5
46E
100
AcDbEntity
  8
NOTE
  6
CONTINUOUS
 62
     4
100
AcDbLine
 10
1591.221059
 20
654.618502
 30
0.0
 11
1611.221059
 21
674.618502
 31
0.0
  0
POINT
  5
46F
100
AcDbEntity
  8
DEFPOINTS
  6
CONTINUOUS
 62
     7
100
AcDbPoint
 10
1744.333893
 20
674.618502
 30
0.0
  0
POINT
  5
470
100
AcDbEntity
  8
DEFPOINTS
  6
CONTINUOUS
 62
     7
100
AcDbPoint
 10
1744.333893
 20
674.618502
 30
0.0
  0
LINE
  5
471
100
AcDbEntity
  8
NOTE
  6
CONTINUOUS
 62
     4
100
AcDbLine
 10
1661.931737
 20
654.618502
 30
0.0
 11
1681.931737
 21
674.618502
 31
0.0
  0
LINE
  5
472
100
AcDbEntity
  8
NOTE
  6
CONTINUOUS
 62
     4
100
AcDbLine
 10
1697.287076
 20
654.618502
 30
0.0
 11
1717.287076
 21
674.618502
 31
0.0
  0
LINE
  5
473
100
AcDbEntity
  8
SIZE
  6
CONTINUOUS
 62
    30
100
AcDbLine
 10
1764.333893
 20
634.618502
 30
0.0
 11
1764.333893
 21
464.272461
 31
0.0
  0
TEXT
  5
474
100
AcDbEntity
  8
SIZE
  6
CONTINUOUS
 62
    30
100
AcDbText
 10
1799.333894
 20
509.272461
 30
0.0
 40
55.0
  1
20
 41
0.9
 72
     1
 11
1839.405322
 21
509.272461
 31
0.0
100
AcDbText
  0
LINE
  5
475
100
AcDbEntity
  8
SIZE
  6
CONTINUOUS
 62
    30
100
AcDbLine
 10
1774.333893
 20
494.272461
 30
0.0
 11
1894.47675
 21
494.272461
 31
0.0
  0
POINT
  5
476
100
AcDbEntity
  8
DEFPOINTS
  6
CONTINUOUS
 62
     7
100
AcDbPoint
 10
1764.333893
 20
494.272461
 30
0.0
  0
LINE
  5
477
100
AcDbEntity
  8
SIZE
  6
CONTINUOUS
 62
    30
100
AcDbLine
 10
1769.333893
 20
494.272461
 30
0.0
 11
1774.333893
 21
494.272461
 31
0.0
  0
CIRCLE
  5
478
100
AcDbEntity
  8
SIZE
  6
CONTINUOUS
 62
    30
100
AcDbCircle
 10
1764.333893
 20
494.272461
 30
0.0
 40
5.0
  0
LINE
  5
479
100
AcDbEntity
  8
SIZE
  6
CONTINUOUS
 62
    30
100
AcDbLine
 10
1784.333893
 20
654.618502
 30
0.0
 11
1902.83195
 21
654.618502
 31
0.0
  0
LINE
  5
47A
100
AcDbEntity
  8
SIZE
  6
CONTINUOUS
 62
    30
100
AcDbLine
 10
1764.333893
 20
674.618502
 30
0.0
 11
1902.83195
 21
674.618502
 31
0.0
  0
POINT
  5
47B
100
AcDbEntity
  8
DEFPOINTS
  6
CONTINUOUS
 62
     7
100
AcDbPoint
 10
1764.333893
 20
654.618502
 30
0.0
  0
POINT
  5
47C
100
AcDbEntity
  8
DEFPOINTS
  6
CONTINUOUS
 62
     7
100
AcDbPoint
 10
1764.333893
 20
654.618502
 30
0.0
  0
POINT
  5
47D
100
AcDbEntity
  8
DEFPOINTS
  6
CONTINUOUS
 62
     7
100
AcDbPoint
 10
1764.333893
 20
654.618502
 30
0.0
  0
POINT
  5
47E
100
AcDbEntity
  8
DEFPOINTS
  6
CONTINUOUS
 62
     7
100
AcDbPoint
 10
1872.83195
 20
654.618502
 30
0.0
  0
LINE
  5
47F
100
AcDbEntity
  8
SIZE
  6
CONTINUOUS
 62
    30
100
AcDbLine
 10
1872.83195
 20
679.618502
 30
0.0
 11
1872.83195
 21
684.618502
 31
0.0
  0
CIRCLE
  5
480
100
AcDbEntity
  8
SIZE
  6
CONTINUOUS
 62
    30
100
AcDbCircle
 10
1872.83195
 20
674.618502
 30
0.0
 40
5.0
  0
LINE
  5
481
100
AcDbEntity
  8
SIZE
  6
CONTINUOUS
 62
    30
100
AcDbLine
 10
1872.83195
 20
649.618502
 30
0.0
 11
1872.83195
 21
644.618502
 31
0.0
  0
CIRCLE
  5
482
100
AcDbEntity
  8
SIZE
  6
CONTINUOUS
 62
    30
100
AcDbCircle
 10
1872.83195
 20
654.618502
 30
0.0
 40
5.0
  0
LINE
  5
483
100
AcDbEntity
  8
SIZE
  6
CONTINUOUS
 62
    30
100
AcDbLine
 10
1872.83195
 20
654.618502
 30
0.0
 11
1872.83195
 21
674.618502
 31
0.0
  0
LINE
  5
484
100
AcDbEntity
  8
SIZE
  6
CONTINUOUS
 62
    30
100
AcDbLine
 10
1872.83195
 20
644.618502
 30
0.0
 11
1872.83195
 21
634.618502
 31
0.0
  0
LINE
  5
485
100
AcDbEntity
  8
DETAIL
  6
CONTINUOUS
 62
     5
100
AcDbLine
 10
1726.333893
 20
946.618502
 30
0.0
 11
1092.333893
 21
946.618502
 31
0.0
  0
LINE
  5
486
100
AcDbEntity
  8
DETAIL
  6
CONTINUOUS
 62
     5
100
AcDbLine
 10
1491.525394
 20
942.218506
 30
0.0
 11
1529.108334
 21
942.218506
 31
0.0
  0
LINE
  5
487
100
AcDbEntity
  8
DETAIL
  6
CONTINUOUS
 62
     5
100
AcDbLine
 10
1510.333893
 20
916.618502
 30
0.0
 11
1531.333893
 21
916.618502
 31
0.0
  0
ARC
  5
488
100
AcDbEntity
  8
DETAIL
  6
CONTINUOUS
 62
     5
100
AcDbCircle
 10
1532.262475
 20
942.218506
 30
0.0
 40
3.928583
100
AcDbArc
 50
180.0
 51
231.121378
  0
LINE
  5
489
100
AcDbEntity
  8
DETAIL
  6
CONTINUOUS
 62
     5
100
AcDbLine
 10
1301.333893
 20
839.493502
 30
0.0
 11
1439.333893
 21
839.493502
 31
0.0
  0
LINE
  5
48A
100
AcDbEntity
  8
NOTE
  6
CONTINUOUS
 62
     4
100
AcDbLine
 10
1229.334037
 20
886.617433
 30
0.0
 11
1224.577115
 21
852.562751
 31
0.0
  0
LINE
  5
48B
100
AcDbEntity
  8
NOTE
  6
CONTINUOUS
 62
     4
100
AcDbLine
 10
1229.334037
 20
886.617433
 30
0.0
 11
1208.18708
 21
859.503675
 31
0.0
  0
LINE
  5
48C
100
AcDbEntity
  8
NOTE
  6
CONTINUOUS
 62
     4
100
AcDbLine
 10
1219.333871
 20
886.617549
 30
0.0
 11
1203.349339
 21
856.17343
 31
0.0
  0
LINE
  5
48D
100
AcDbEntity
  8
NOTE
  6
CONTINUOUS
 62
     4
100
AcDbLine
 10
1219.333871
 20
886.617549
 30
0.0
 11
1190.2688
 21
868.244435
 31
0.0
  0
LINE
  5
48E
100
AcDbEntity
  8
NOTE
  6
CONTINUOUS
 62
     4
100
AcDbLine
 10
1229.333893
 20
904.618502
 30
0.0
 11
1229.333893
 21
868.618502
 31
0.0
  0
LINE
  5
48F
100
AcDbEntity
  8
NOTE
  6
CONTINUOUS
 62
     4
100
AcDbLine
 10
1219.333893
 20
904.618502
 30
0.0
 11
1219.333893
 21
868.618502
 31
0.0
  0
LINE
  5
490
100
AcDbEntity
  8
DETAIL
  6
CONTINUOUS
 62
     5
100
AcDbLine
 10
1301.333893
 20
946.618502
 30
0.0
 11
1301.333893
 21
839.493502
 31
0.0
  0
POINT
  5
491
100
AcDbEntity
  8
DEFPOINTS
  6
CONTINUOUS
 62
     7
100
AcDbPoint
 10
1219.333893
 20
868.618502
 30
0.0
  0
POINT
  5
492
100
AcDbEntity
  8
DEFPOINTS
  6
CONTINUOUS
 62
     7
100
AcDbPoint
 10
1229.333893
 20
868.618502
 30
0.0
  0
POINT
  5
493
100
AcDbEntity
  8
DEFPOINTS
  6
CONTINUOUS
 62
     7
100
AcDbPoint
 10
1104.333893
 20
922.618502
 30
0.0
  0
POINT
  5
494
100
AcDbEntity
  8
DEFPOINTS
  6
CONTINUOUS
 62
     7
100
AcDbPoint
 10
1104.333893
 20
922.618502
 30
0.0
  0
POINT
  5
495
100
AcDbEntity
  8
DEFPOINTS
  6
CONTINUOUS
 62
     7
100
AcDbPoint
 10
1092.333893
 20
946.618502
 30
0.0
  0
POINT
  5
496
100
AcDbEntity
  8
DEFPOINTS
  6
CONTINUOUS
 62
     7
100
AcDbPoint
 10
1092.333893
 20
946.618502
 30
0.0
  0
POINT
  5
497
100
AcDbEntity
  8
DEFPOINTS
  6
CONTINUOUS
 62
     7
100
AcDbPoint
 10
1092.333893
 20
946.618502
 30
0.0
  0
POINT
  5
498
100
AcDbEntity
  8
DEFPOINTS
  6
CONTINUOUS
 62
     7
100
AcDbPoint
 10
1092.333893
 20
946.618502
 30
0.0
  0
CIRCLE
  5
499
100
AcDbEntity
  8
FIX
  6
CONTINUOUS
 62
    11
100
AcDbCircle
 10
1122.333893
 20
922.618502
 30
0.0
 40
14.940051
  0
LINE
  5
49A
100
AcDbEntity
  8
NOTE
  6
CONTINUOUS
 62
     4
100
AcDbLine
 10
1140.333893
 20
922.618502
 30
0.0
 11
1104.333893
 21
922.618502
 31
0.0
  0
LINE
  5
49B
100
AcDbEntity
  8
NOTE
  6
CONTINUOUS
 62
     4
100
AcDbLine
 10
1122.333893
 20
940.618502
 30
0.0
 11
1122.333893
 21
904.618502
 31
0.0
  0
LINE
  5
49C
100
AcDbEntity
  8
DETAIL
  6
CONTINUOUS
 62
     5
100
AcDbLine
 10
1128.333893
 20
899.493502
 30
0.0
 11
1147.333893
 21
899.493502
 31
0.0
  0
LINE
  5
49D
100
AcDbEntity
  8
DETAIL
  6
CONTINUOUS
 62
     5
100
AcDbLine
 10
1097.333893
 20
899.493502
 30
0.0
 11
1116.333893
 21
899.493502
 31
0.0
  0
LINE
  5
49E
100
AcDbEntity
  8
DETAIL
  6
CONTINUOUS
 62
     5
100
AcDbLine
 10
1128.333893
 20
915.493502
 30
0.0
 11
1130.333893
 21
915.493502
 31
0.0
  0
LINE
  5
49F
100
AcDbEntity
  8
DETAIL
  6
CONTINUOUS
 62
     5
100
AcDbLine
 10
1114.333893
 20
915.493502
 30
0.0
 11
1116.333893
 21
915.493502
 31
0.0
  0
LINE
  5
4A0
100
AcDbEntity
  8
DETAIL
  6
CONTINUOUS
 62
     5
100
AcDbLine
 10
1114.333893
 20
929.493502
 30
0.0
 11
1130.333893
 21
929.493502
 31
0.0
  0
ARC
  5
4A1
100
AcDbEntity
  8
DETAIL
  6
CONTINUOUS
 62
     5
100
AcDbCircle
 10
1130.333893
 20
922.493502
 30
0.0
 40
7.0
100
AcDbArc
 50
270.0
 51
90.0
  0
ARC
  5
4A2
100
AcDbEntity
  8
DETAIL
  6
CONTINUOUS
 62
     5
100
AcDbCircle
 10
1114.333893
 20
922.493502
 30
0.0
 40
7.0
100
AcDbArc
 50
90.0
 51
270.0
  0
LINE
  5
4A3
100
AcDbEntity
  8
DETAIL
  6
CONTINUOUS
 62
     5
100
AcDbLine
 10
1128.333893
 20
899.493502
 30
0.0
 11
1128.333893
 21
915.493502
 31
0.0
  0
LINE
  5
4A4
100
AcDbEntity
  8
DETAIL
  6
CONTINUOUS
 62
     5
100
AcDbLine
 10
1116.333893
 20
899.493502
 30
0.0
 11
1116.333893
 21
915.493502
 31
0.0
  0
LINE
  5
4A5
100
AcDbEntity
  8
DETAIL
  6
CONTINUOUS
 62
     5
100
AcDbLine
 10
1147.333893
 20
899.493502
 30
0.0
 11
1147.333893
 21
946.618502
 31
0.0
  0
LINE
  5
4A6
100
AcDbEntity
  8
DETAIL
  6
CONTINUOUS
 62
     5
100
AcDbLine
 10
1097.333893
 20
899.493502
 30
0.0
 11
1097.333893
 21
946.618502
 31
0.0
  0
POINT
  5
4A7
100
AcDbEntity
  8
DEFPOINTS
  6
CONTINUOUS
 62
     7
100
AcDbPoint
 10
1246.658893
 20
886.618502
 30
0.0
  0
LINE
  5
4A8
100
AcDbEntity
  8
NOTE
  6
CONTINUOUS
 62
     4
100
AcDbLine
 10
1246.658893
 20
886.618502
 30
0.0
 11
1212.008893
 21
886.618502
 31
0.0
  0
LINE
  5
4A9
100
AcDbEntity
  8
DETAIL
  6
CONTINUOUS
 62
     5
100
AcDbLine
 10
1212.008893
 20
886.618502
 30
0.0
 11
1212.008893
 21
946.618502
 31
0.0
  0
LINE
  5
4AA
100
AcDbEntity
  8
DETAIL
  6
CONTINUOUS
 62
     5
100
AcDbLine
 10
1246.658893
 20
886.618502
 30
0.0
 11
1246.658893
 21
946.618502
 31
0.0
  0
LINE
  5
4AB
100
AcDbEntity
  8
DETAIL
  6
CONTINUOUS
 62
     5
100
AcDbLine
 10
1246.658893
 20
886.618502
 30
0.0
 11
1212.008893
 21
886.618502
 31
0.0
  0
LINE
  5
4AC
100
AcDbEntity
  8
NOTE
  6
CONTINUOUS
 62
     4
100
AcDbLine
 10
1236.658893
 20
886.618502
 30
0.0
 11
1202.008893
 21
886.618502
 31
0.0
  0
LINE
  5
4AD
100
AcDbEntity
  8
DETAIL
  6
CONTINUOUS
 62
     5
100
AcDbLine
 10
1202.008893
 20
886.618502
 30
0.0
 11
1202.008893
 21
946.618502
 31
0.0
  0
LINE
  5
4AE
100
AcDbEntity
  8
DETAIL
  6
CONTINUOUS
 62
     5
100
AcDbLine
 10
1236.658893
 20
886.618502
 30
0.0
 11
1202.008893
 21
886.618502
 31
0.0
  0
LINE
  5
4AF
100
AcDbEntity
  8
NOTE
  6
CONTINUOUS
 62
     4
100
AcDbLine
 10
1510.334019
 20
879.618712
 30
0.0
 11
1498.537598
 21
847.320197
 31
0.0
  0
LINE
  5
4B0
100
AcDbEntity
  8
NOTE
  6
CONTINUOUS
 62
     4
100
AcDbLine
 10
1510.334019
 20
879.618712
 30
0.0
 11
1483.96876
 21
857.545589
 31
0.0
  0
LINE
  5
4B1
100
AcDbEntity
  8
NOTE
  6
CONTINUOUS
 62
     4
100
AcDbLine
 10
1510.333893
 20
897.618502
 30
0.0
 11
1510.333893
 21
861.618502
 31
0.0
  0
LINE
  5
4B2
100
AcDbEntity
  8
DETAIL
  6
CONTINUOUS
 62
     5
100
AcDbLine
 10
1439.333893
 20
946.618502
 30
0.0
 11
1439.333893
 21
839.493502
 31
0.0
  0
LINE
  5
4B3
100
AcDbEntity
  8
DETAIL
  6
CONTINUOUS
 62
     5
100
AcDbLine
 10
1358.333893
 20
839.493502
 30
0.0
 11
1358.333893
 21
837.493502
 31
0.0
  0
LINE
  5
4B4
100
AcDbEntity
  8
DETAIL
  6
CONTINUOUS
 62
     5
100
AcDbLine
 10
1324.333893
 20
839.493502
 30
0.0
 11
1324.333893
 21
837.493502
 31
0.0
  0
LINE
  5
4B5
100
AcDbEntity
  8
DETAIL
  6
CONTINUOUS
 62
     5
100
AcDbLine
 10
1327.333893
 20
834.493502
 30
0.0
 11
1355.333893
 21
834.493502
 31
0.0
  0
ARC
  5
4B6
100
AcDbEntity
  8
DETAIL
  6
CONTINUOUS
 62
     5
100
AcDbCircle
 10
1355.333893
 20
837.493502
 30
0.0
 40
3.0
100
AcDbArc
 50
270.0
 51
0.0
  0
ARC
  5
4B7
100
AcDbEntity
  8
DETAIL
  6
CONTINUOUS
 62
     5
100
AcDbCircle
 10
1327.333893
 20
837.493502
 30
0.0
 40
3.0
100
AcDbArc
 50
180.0
 51
270.0
  0
LINE
  5
4B8
100
AcDbEntity
  8
DETAIL
  6
CONTINUOUS
 62
     5
100
AcDbLine
 10
1324.333893
 20
839.493502
 30
0.0
 11
1358.333893
 21
839.493502
 31
0.0
  0
LINE
  5
4B9
100
AcDbEntity
  8
DETAIL
  6
CONTINUOUS
 62
     5
100
AcDbLine
 10
1416.333893
 20
839.493502
 30
0.0
 11
1416.333893
 21
837.493502
 31
0.0
  0
LINE
  5
4BA
100
AcDbEntity
  8
DETAIL
  6
CONTINUOUS
 62
     5
100
AcDbLine
 10
1382.333893
 20
839.493502
 30
0.0
 11
1382.333893
 21
837.493502
 31
0.0
  0
LINE
  5
4BB
100
AcDbEntity
  8
DETAIL
  6
CONTINUOUS
 62
     5
100
AcDbLine
 10
1385.333893
 20
834.493502
 30
0.0
 11
1413.333893
 21
834.493502
 31
0.0
  0
ARC
  5
4BC
100
AcDbEntity
  8
DETAIL
  6
CONTINUOUS
 62
     5
100
AcDbCircle
 10
1413.333893
 20
837.493502
 30
0.0
 40
3.0
100
AcDbArc
 50
270.0
 51
0.0
  0
ARC
  5
4BD
100
AcDbEntity
  8
DETAIL
  6
CONTINUOUS
 62
     5
100
AcDbCircle
 10
1385.333893
 20
837.493502
 30
0.0
 40
3.0
100
AcDbArc
 50
180.0
 51
270.0
  0
LINE
  5
4BE
100
AcDbEntity
  8
DETAIL
  6
CONTINUOUS
 62
     5
100
AcDbLine
 10
1382.333893
 20
839.493502
 30
0.0
 11
1416.333893
 21
839.493502
 31
0.0
  0
POINT
  5
4BF
100
AcDbEntity
  8
DEFPOINTS
  6
CONTINUOUS
 62
     7
100
AcDbPoint
 10
1510.333893
 20
861.618502
 30
0.0
  0
POINT
  5
4C0
100
AcDbEntity
  8
DEFPOINTS
  6
CONTINUOUS
 62
     7
100
AcDbPoint
 10
1528.333893
 20
879.618502
 30
0.0
  0
LINE
  5
4C1
100
AcDbEntity
  8
NOTE
  6
CONTINUOUS
 62
     4
100
AcDbLine
 10
1528.333893
 20
879.618502
 30
0.0
 11
1492.333893
 21
879.618502
 31
0.0
  0
LINE
  5
4C2
100
AcDbEntity
  8
DETAIL
  6
CONTINUOUS
 62
     5
100
AcDbLine
 10
1491.525394
 20
942.218506
 30
0.0
 11
1491.525394
 21
946.618502
 31
0.0
  0
LINE
  5
4C3
100
AcDbEntity
  8
DETAIL
  6
CONTINUOUS
 62
     5
100
AcDbLine
 10
1489.333893
 20
935.945981
 30
0.0
 11
1489.333893
 21
916.618502
 31
0.0
  0
LINE
  5
4C4
100
AcDbEntity
  8
DETAIL
  6
CONTINUOUS
 62
     5
100
AcDbLine
 10
1505.573893
 20
916.618502
 30
0.0
 11
1502.573893
 21
916.618502
 31
0.0
  0
LINE
  5
4C5
100
AcDbEntity
  8
DETAIL
  6
CONTINUOUS
 62
     5
100
AcDbLine
 10
1492.333893
 20
916.618502
 30
0.0
 11
1502.333893
 21
916.618502
 31
0.0
  0
LINE
  5
4C6
100
AcDbEntity
  8
DETAIL
  6
CONTINUOUS
 62
     5
100
AcDbLine
 10
1492.333893
 20
916.618502
 30
0.0
 11
1489.333893
 21
916.618502
 31
0.0
  0
LINE
  5
4C7
100
AcDbEntity
  8
DETAIL
  6
CONTINUOUS
 62
     5
100
AcDbLine
 10
1510.333893
 20
897.618502
 30
0.0
 11
1510.333893
 21
916.618502
 31
0.0
  0
LINE
  5
4C8
100
AcDbEntity
  8
DETAIL
  6
CONTINUOUS
 62
     5
100
AcDbLine
 10
1501.833893
 20
897.618502
 30
0.0
 11
1501.833893
 21
916.618502
 31
0.0
  0
LINE
  5
4C9
100
AcDbEntity
  8
DETAIL
  6
CONTINUOUS
 62
     5
100
AcDbLine
 10
1518.833893
 20
897.618502
 30
0.0
 11
1518.833893
 21
916.618502
 31
0.0
  0
LINE
  5
4CA
100
AcDbEntity
  8
DETAIL
  6
CONTINUOUS
 62
     5
100
AcDbLine
 10
1501.833893
 20
916.618502
 30
0.0
 11
1518.833893
 21
916.618502
 31
0.0
  0
POLYLINE
  5
4CB
100
AcDbEntity
  8
DETAIL
  6
CONTINUOUS
 62
     5
100
AcDb2dPolyline
 66
     1
 10
0.0
 20
0.0
 30
0.0
  0
VERTEX
  5
4CC
100
AcDbEntity
  8
DETAIL
  6
CONTINUOUS
 62
     5
100
AcDbVertex
100
AcDb2dVertex
 10
1510.333893
 20
897.618501
 30
0.0
  0
VERTEX
  5
4CD
100
AcDbEntity
  8
DETAIL
  6
CONTINUOUS
 62
     5
100
AcDbVertex
100
AcDb2dVertex
 10
1510.415556
 20
897.423411
 30
0.0
  0
VERTEX
  5
4CE
100
AcDbEntity
  8
DETAIL
  6
CONTINUOUS
 62
     5
100
AcDbVertex
100
AcDb2dVertex
 10
1510.657406
 20
897.235818
 30
0.0
  0
VERTEX
  5
4CF
100
AcDbEntity
  8
DETAIL
  6
CONTINUOUS
 62
     5
100
AcDbVertex
100
AcDb2dVertex
 10
1511.050149
 20
897.062931
 30
0.0
  0
VERTEX
  5
4D0
100
AcDbEntity
  8
DETAIL
  6
CONTINUOUS
 62
     5
100
AcDbVertex
100
AcDb2dVertex
 10
1511.578691
 20
896.911395
 30
0.0
  0
VERTEX
  5
4D1
100
AcDbEntity
  8
DETAIL
  6
CONTINUOUS
 62
     5
100
AcDbVertex
100
AcDb2dVertex
 10
1512.222722
 20
896.787032
 30
0.0
  0
VERTEX
  5
4D2
100
AcDbEntity
  8
DETAIL
  6
CONTINUOUS
 62
     5
100
AcDbVertex
100
AcDb2dVertex
 10
1512.957491
 20
896.694622
 30
0.0
  0
VERTEX
  5
4D3
100
AcDbEntity
  8
DETAIL
  6
CONTINUOUS
 62
     5
100
AcDbVertex
100
AcDb2dVertex
 10
1513.754761
 20
896.637717
 30
0.0
  0
VERTEX
  5
4D4
100
AcDbEntity
  8
DETAIL
  6
CONTINUOUS
 62
     5
100
AcDbVertex
100
AcDb2dVertex
 10
1514.583895
 20
896.618502
 30
0.0
  0
VERTEX
  5
4D5
100
AcDbEntity
  8
DETAIL
  6
CONTINUOUS
 62
     5
100
AcDbVertex
100
AcDb2dVertex
 10
1515.413029
 20
896.637717
 30
0.0
  0
VERTEX
  5
4D6
100
AcDbEntity
  8
DETAIL
  6
CONTINUOUS
 62
     5
100
AcDbVertex
100
AcDb2dVertex
 10
1516.210299
 20
896.694623
 30
0.0
  0
VERTEX
  5
4D7
100
AcDbEntity
  8
DETAIL
  6
CONTINUOUS
 62
     5
100
AcDbVertex
100
AcDb2dVertex
 10
1516.945068
 20
896.787033
 30
0.0
  0
VERTEX
  5
4D8
100
AcDbEntity
  8
DETAIL
  6
CONTINUOUS
 62
     5
100
AcDbVertex
100
AcDb2dVertex
 10
1517.589098
 20
896.911395
 30
0.0
  0
VERTEX
  5
4D9
100
AcDbEntity
  8
DETAIL
  6
CONTINUOUS
 62
     5
100
AcDbVertex
100
AcDb2dVertex
 10
1518.117639
 20
897.062932
 30
0.0
  0
VERTEX
  5
4DA
100
AcDbEntity
  8
DETAIL
  6
CONTINUOUS
 62
     5
100
AcDbVertex
100
AcDb2dVertex
 10
1518.510381
 20
897.235819
 30
0.0
  0
VERTEX
  5
4DB
100
AcDbEntity
  8
DETAIL
  6
CONTINUOUS
 62
     5
100
AcDbVertex
100
AcDb2dVertex
 10
1518.75223
 20
897.423412
 30
0.0
  0
VERTEX
  5
4DC
100
AcDbEntity
  8
DETAIL
  6
CONTINUOUS
 62
     5
100
AcDbVertex
100
AcDb2dVertex
 10
1518.833893
 20
897.618502
 30
0.0
  0
SEQEND
  5
4DD
100
AcDbEntity
  8
DETAIL
  6
CONTINUOUS
 62
     5
  0
POLYLINE
  5
4DE
100
AcDbEntity
  8
DETAIL
  6
CONTINUOUS
 62
     5
100
AcDb2dPolyline
 66
     1
 10
0.0
 20
0.0
 30
0.0
  0
VERTEX
  5
4DF
100
AcDbEntity
  8
DETAIL
  6
CONTINUOUS
 62
     5
100
AcDbVertex
100
AcDb2dVertex
 10
1501.833893
 20
897.618502
 30
0.0
  0
VERTEX
  5
4E0
100
AcDbEntity
  8
DETAIL
  6
CONTINUOUS
 62
     5
100
AcDbVertex
100
AcDb2dVertex
 10
1501.906257
 20
897.434752
 30
0.0
  0
VERTEX
  5
4E1
100
AcDbEntity
  8
DETAIL
  6
CONTINUOUS
 62
     5
100
AcDbVertex
100
AcDb2dVertex
 10
1502.120886
 20
897.25726
 30
0.0
  0
VERTEX
  5
4E2
100
AcDbEntity
  8
DETAIL
  6
CONTINUOUS
 62
     5
100
AcDbVertex
100
AcDb2dVertex
 10
1502.470471
 20
897.09207
 30
0.0
  0
VERTEX
  5
4E3
100
AcDbEntity
  8
DETAIL
  6
CONTINUOUS
 62
     5
100
AcDbVertex
100
AcDb2dVertex
 10
1502.943106
 20
896.944806
 30
0.0
  0
VERTEX
  5
4E4
100
AcDbEntity
  8
DETAIL
  6
CONTINUOUS
 62
     5
100
AcDbVertex
100
AcDb2dVertex
 10
1503.522697
 20
896.820485
 30
0.0
  0
VERTEX
  5
4E5
100
AcDbEntity
  8
DETAIL
  6
CONTINUOUS
 62
     5
100
AcDbVertex
100
AcDb2dVertex
 10
1504.189506
 20
896.723339
 30
0.0
  0
VERTEX
  5
4E6
100
AcDbEntity
  8
DETAIL
  6
CONTINUOUS
 62
     5
100
AcDbVertex
100
AcDb2dVertex
 10
1504.920827
 20
896.656676
 30
0.0
  0
VERTEX
  5
4E7
100
AcDbEntity
  8
DETAIL
  6
CONTINUOUS
 62
     5
100
AcDbVertex
100
AcDb2dVertex
 10
1505.691754
 20
896.622768
 30
0.0
  0
VERTEX
  5
4E8
100
AcDbEntity
  8
DETAIL
  6
CONTINUOUS
 62
     5
100
AcDbVertex
100
AcDb2dVertex
 10
1506.476036
 20
896.622768
 30
0.0
  0
VERTEX
  5
4E9
100
AcDbEntity
  8
DETAIL
  6
CONTINUOUS
 62
     5
100
AcDbVertex
100
AcDb2dVertex
 10
1507.246963
 20
896.656677
 30
0.0
  0
VERTEX
  5
4EA
100
AcDbEntity
  8
DETAIL
  6
CONTINUOUS
 62
     5
100
AcDbVertex
100
AcDb2dVertex
 10
1507.978283
 20
896.723339
 30
0.0
  0
VERTEX
  5
4EB
100
AcDbEntity
  8
DETAIL
  6
CONTINUOUS
 62
     5
100
AcDbVertex
100
AcDb2dVertex
 10
1508.645092
 20
896.820485
 30
0.0
  0
VERTEX
  5
4EC
100
AcDbEntity
  8
DETAIL
  6
CONTINUOUS
 62
     5
100
AcDbVertex
100
AcDb2dVertex
 10
1509.224683
 20
896.944807
 30
0.0
  0
VERTEX
  5
4ED
100
AcDbEntity
  8
DETAIL
  6
CONTINUOUS
 62
     5
100
AcDbVertex
100
AcDb2dVertex
 10
1509.697318
 20
897.09207
 30
0.0
  0
VERTEX
  5
4EE
100
AcDbEntity
  8
DETAIL
  6
CONTINUOUS
 62
     5
100
AcDbVertex
100
AcDb2dVertex
 10
1510.046901
 20
897.257261
 30
0.0
  0
VERTEX
  5
4EF
100
AcDbEntity
  8
DETAIL
  6
CONTINUOUS
 62
     5
100
AcDbVertex
100
AcDb2dVertex
 10
1510.261529
 20
897.434753
 30
0.0
  0
VERTEX
  5
4F0
100
AcDbEntity
  8
DETAIL
  6
CONTINUOUS
 62
     5
100
AcDbVertex
100
AcDb2dVertex
 10
1510.333893
 20
897.618503
 30
0.0
  0
SEQEND
  5
4F1
100
AcDbEntity
  8
DETAIL
  6
CONTINUOUS
 62
     5
  0
LINE
  5
4F2
100
AcDbEntity
  8
DETAIL
  6
CONTINUOUS
 62
     5
100
AcDbLine
 10
1510.333893
 20
884.618502
 30
0.0
 11
1510.333893
 21
893.053547
 31
0.0
  0
LINE
  5
4F3
100
AcDbEntity
  8
DETAIL
  6
CONTINUOUS
 62
     5
100
AcDbLine
 10
1518.583893
 20
894.618502
 30
0.0
 11
1518.821901
 21
893.128617
 31
0.0
  0
LINE
  5
4F4
100
AcDbEntity
  8
DETAIL
  6
CONTINUOUS
 62
     5
100
AcDbLine
 10
1501.845885
 20
893.128617
 30
0.0
 11
1502.083893
 21
894.618502
 31
0.0
  0
POLYLINE
  5
4F5
100
AcDbEntity
  8
DETAIL
  6
CONTINUOUS
 62
     5
100
AcDb2dPolyline
 66
     1
 10
0.0
 20
0.0
 30
0.0
  0
VERTEX
  5
4F6
100
AcDbEntity
  8
DETAIL
  6
CONTINUOUS
 62
     5
100
AcDbVertex
100
AcDb2dVertex
 10
1510.333893
 20
893.053548
 30
0.0
  0
VERTEX
  5
4F7
100
AcDbEntity
  8
DETAIL
  6
CONTINUOUS
 62
     5
100
AcDbVertex
100
AcDb2dVertex
 10
1510.25223
 20
893.248639
 30
0.0
  0
VERTEX
  5
4F8
100
AcDbEntity
  8
DETAIL
  6
CONTINUOUS
 62
     5
100
AcDbVertex
100
AcDb2dVertex
 10
1510.01038
 20
893.436232
 30
0.0
  0
VERTEX
  5
4F9
100
AcDbEntity
  8
DETAIL
  6
CONTINUOUS
 62
     5
100
AcDbVertex
100
AcDb2dVertex
 10
1509.617637
 20
893.609118
 30
0.0
  0
VERTEX
  5
4FA
100
AcDbEntity
  8
DETAIL
  6
CONTINUOUS
 62
     5
100
AcDbVertex
100
AcDb2dVertex
 10
1509.089095
 20
893.760655
 30
0.0
  0
VERTEX
  5
4FB
100
AcDbEntity
  8
DETAIL
  6
CONTINUOUS
 62
     5
100
AcDbVertex
100
AcDb2dVertex
 10
1508.445064
 20
893.885017
 30
0.0
  0
VERTEX
  5
4FC
100
AcDbEntity
  8
DETAIL
  6
CONTINUOUS
 62
     5
100
AcDbVertex
100
AcDb2dVertex
 10
1507.710295
 20
893.977427
 30
0.0
  0
VERTEX
  5
4FD
100
AcDbEntity
  8
DETAIL
  6
CONTINUOUS
 62
     5
100
AcDbVertex
100
AcDb2dVertex
 10
1506.913025
 20
894.034333
 30
0.0
  0
VERTEX
  5
4FE
100
AcDbEntity
  8
DETAIL
  6
CONTINUOUS
 62
     5
100
AcDbVertex
100
AcDb2dVertex
 10
1506.083891
 20
894.053547
 30
0.0
  0
VERTEX
  5
4FF
100
AcDbEntity
  8
DETAIL
  6
CONTINUOUS
 62
     5
100
AcDbVertex
100
AcDb2dVertex
 10
1505.254757
 20
894.034333
 30
0.0
  0
VERTEX
  5
500
100
AcDbEntity
  8
DETAIL
  6
CONTINUOUS
 62
     5
100
AcDbVertex
100
AcDb2dVertex
 10
1504.457487
 20
893.977427
 30
0.0
  0
VERTEX
  5
501
100
AcDbEntity
  8
DETAIL
  6
CONTINUOUS
 62
     5
100
AcDbVertex
100
AcDb2dVertex
 10
1503.722719
 20
893.885017
 30
0.0
  0
VERTEX
  5
502
100
AcDbEntity
  8
DETAIL
  6
CONTINUOUS
 62
     5
100
AcDbVertex
100
AcDb2dVertex
 10
1503.078688
 20
893.760654
 30
0.0
  0
VERTEX
  5
503
100
AcDbEntity
  8
DETAIL
  6
CONTINUOUS
 62
     5
100
AcDbVertex
100
AcDb2dVertex
 10
1502.550147
 20
893.609118
 30
0.0
  0
VERTEX
  5
504
100
AcDbEntity
  8
DETAIL
  6
CONTINUOUS
 62
     5
100
AcDbVertex
100
AcDb2dVertex
 10
1502.157405
 20
893.436231
 30
0.0
  0
VERTEX
  5
505
100
AcDbEntity
  8
DETAIL
  6
CONTINUOUS
 62
     5
100
AcDbVertex
100
AcDb2dVertex
 10
1501.915556
 20
893.248638
 30
0.0
  0
VERTEX
  5
506
100
AcDbEntity
  8
DETAIL
  6
CONTINUOUS
 62
     5
100
AcDbVertex
100
AcDb2dVertex
 10
1501.833893
 20
893.053547
 30
0.0
  0
SEQEND
  5
507
100
AcDbEntity
  8
DETAIL
  6
CONTINUOUS
 62
     5
  0
POLYLINE
  5
508
100
AcDbEntity
  8
DETAIL
  6
CONTINUOUS
 62
     5
100
AcDb2dPolyline
 66
     1
 10
0.0
 20
0.0
 30
0.0
  0
VERTEX
  5
509
100
AcDbEntity
  8
DETAIL
  6
CONTINUOUS
 62
     5
100
AcDbVertex
100
AcDb2dVertex
 10
1518.833893
 20
893.053547
 30
0.0
  0
VERTEX
  5
50A
100
AcDbEntity
  8
DETAIL
  6
CONTINUOUS
 62
     5
100
AcDbVertex
100
AcDb2dVertex
 10
1518.761529
 20
893.237297
 30
0.0
  0
VERTEX
  5
50B
100
AcDbEntity
  8
DETAIL
  6
CONTINUOUS
 62
     5
100
AcDbVertex
100
AcDb2dVertex
 10
1518.5469
 20
893.414789
 30
0.0
  0
VERTEX
  5
50C
100
AcDbEntity
  8
DETAIL
  6
CONTINUOUS
 62
     5
100
AcDbVertex
100
AcDb2dVertex
 10
1518.197315
 20
893.57998
 30
0.0
  0
VERTEX
  5
50D
100
AcDbEntity
  8
DETAIL
  6
CONTINUOUS
 62
     5
100
AcDbVertex
100
AcDb2dVertex
 10
1517.72468
 20
893.727243
 30
0.0
  0
VERTEX
  5
50E
100
AcDbEntity
  8
DETAIL
  6
CONTINUOUS
 62
     5
100
AcDbVertex
100
AcDb2dVertex
 10
1517.145089
 20
893.851565
 30
0.0
  0
VERTEX
  5
50F
100
AcDbEntity
  8
DETAIL
  6
CONTINUOUS
 62
     5
100
AcDbVertex
100
AcDb2dVertex
 10
1516.47828
 20
893.948711
 30
0.0
  0
VERTEX
  5
510
100
AcDbEntity
  8
DETAIL
  6
CONTINUOUS
 62
     5
100
AcDbVertex
100
AcDb2dVertex
 10
1515.746959
 20
894.015373
 30
0.0
  0
VERTEX
  5
511
100
AcDbEntity
  8
DETAIL
  6
CONTINUOUS
 62
     5
100
AcDbVertex
100
AcDb2dVertex
 10
1514.976032
 20
894.049282
 30
0.0
  0
VERTEX
  5
512
100
AcDbEntity
  8
DETAIL
  6
CONTINUOUS
 62
     5
100
AcDbVertex
100
AcDb2dVertex
 10
1514.19175
 20
894.049282
 30
0.0
  0
VERTEX
  5
513
100
AcDbEntity
  8
DETAIL
  6
CONTINUOUS
 62
     5
100
AcDbVertex
100
AcDb2dVertex
 10
1513.420823
 20
894.015373
 30
0.0
  0
VERTEX
  5
514
100
AcDbEntity
  8
DETAIL
  6
CONTINUOUS
 62
     5
100
AcDbVertex
100
AcDb2dVertex
 10
1512.689503
 20
893.94871
 30
0.0
  0
VERTEX
  5
515
100
AcDbEntity
  8
DETAIL
  6
CONTINUOUS
 62
     5
100
AcDbVertex
100
AcDb2dVertex
 10
1512.022694
 20
893.851564
 30
0.0
  0
VERTEX
  5
516
100
AcDbEntity
  8
DETAIL
  6
CONTINUOUS
 62
     5
100
AcDbVertex
100
AcDb2dVertex
 10
1511.443103
 20
893.727243
 30
0.0
  0
VERTEX
  5
517
100
AcDbEntity
  8
DETAIL
  6
CONTINUOUS
 62
     5
100
AcDbVertex
100
AcDb2dVertex
 10
1510.970468
 20
893.579979
 30
0.0
  0
VERTEX
  5
518
100
AcDbEntity
  8
DETAIL
  6
CONTINUOUS
 62
     5
100
AcDbVertex
100
AcDb2dVertex
 10
1510.620885
 20
893.414788
 30
0.0
  0
VERTEX
  5
519
100
AcDbEntity
  8
DETAIL
  6
CONTINUOUS
 62
     5
100
AcDbVertex
100
AcDb2dVertex
 10
1510.406257
 20
893.237296
 30
0.0
  0
VERTEX
  5
51A
100
AcDbEntity
  8
DETAIL
  6
CONTINUOUS
 62
     5
100
AcDbVertex
100
AcDb2dVertex
 10
1510.333893
 20
893.053546
 30
0.0
  0
SEQEND
  5
51B
100
AcDbEntity
  8
DETAIL
  6
CONTINUOUS
 62
     5
  0
POLYLINE
  5
51C
100
AcDbEntity
  8
DETAIL
  6
CONTINUOUS
 62
     5
100
AcDb2dPolyline
 66
     1
 10
0.0
 20
0.0
 30
0.0
  0
VERTEX
  5
51D
100
AcDbEntity
  8
DETAIL
  6
CONTINUOUS
 62
     5
100
AcDbVertex
100
AcDb2dVertex
 10
1510.333893
 20
884.618501
 30
0.0
  0
VERTEX
  5
51E
100
AcDbEntity
  8
DETAIL
  6
CONTINUOUS
 62
     5
100
AcDbVertex
100
AcDb2dVertex
 10
1510.415556
 20
884.423411
 30
0.0
  0
VERTEX
  5
51F
100
AcDbEntity
  8
DETAIL
  6
CONTINUOUS
 62
     5
100
AcDbVertex
100
AcDb2dVertex
 10
1510.657406
 20
884.235818
 30
0.0
  0
VERTEX
  5
520
100
AcDbEntity
  8
DETAIL
  6
CONTINUOUS
 62
     5
100
AcDbVertex
100
AcDb2dVertex
 10
1511.050149
 20
884.062931
 30
0.0
  0
VERTEX
  5
521
100
AcDbEntity
  8
DETAIL
  6
CONTINUOUS
 62
     5
100
AcDbVertex
100
AcDb2dVertex
 10
1511.578691
 20
883.911395
 30
0.0
  0
VERTEX
  5
522
100
AcDbEntity
  8
DETAIL
  6
CONTINUOUS
 62
     5
100
AcDbVertex
100
AcDb2dVertex
 10
1512.222722
 20
883.787032
 30
0.0
  0
VERTEX
  5
523
100
AcDbEntity
  8
DETAIL
  6
CONTINUOUS
 62
     5
100
AcDbVertex
100
AcDb2dVertex
 10
1512.957491
 20
883.694622
 30
0.0
  0
VERTEX
  5
524
100
AcDbEntity
  8
DETAIL
  6
CONTINUOUS
 62
     5
100
AcDbVertex
100
AcDb2dVertex
 10
1513.754761
 20
883.637717
 30
0.0
  0
VERTEX
  5
525
100
AcDbEntity
  8
DETAIL
  6
CONTINUOUS
 62
     5
100
AcDbVertex
100
AcDb2dVertex
 10
1514.583895
 20
883.618502
 30
0.0
  0
VERTEX
  5
526
100
AcDbEntity
  8
DETAIL
  6
CONTINUOUS
 62
     5
100
AcDbVertex
100
AcDb2dVertex
 10
1515.413029
 20
883.637717
 30
0.0
  0
VERTEX
  5
527
100
AcDbEntity
  8
DETAIL
  6
CONTINUOUS
 62
     5
100
AcDbVertex
100
AcDb2dVertex
 10
1516.210299
 20
883.694623
 30
0.0
  0
VERTEX
  5
528
100
AcDbEntity
  8
DETAIL
  6
CONTINUOUS
 62
     5
100
AcDbVertex
100
AcDb2dVertex
 10
1516.945068
 20
883.787033
 30
0.0
  0
VERTEX
  5
529
100
AcDbEntity
  8
DETAIL
  6
CONTINUOUS
 62
     5
100
AcDbVertex
100
AcDb2dVertex
 10
1517.589098
 20
883.911395
 30
0.0
  0
VERTEX
  5
52A
100
AcDbEntity
  8
DETAIL
  6
CONTINUOUS
 62
     5
100
AcDbVertex
100
AcDb2dVertex
 10
1518.117639
 20
884.062932
 30
0.0
  0
VERTEX
  5
52B
100
AcDbEntity
  8
DETAIL
  6
CONTINUOUS
 62
     5
100
AcDbVertex
100
AcDb2dVertex
 10
1518.510381
 20
884.235819
 30
0.0
  0
VERTEX
  5
52C
100
AcDbEntity
  8
DETAIL
  6
CONTINUOUS
 62
     5
100
AcDbVertex
100
AcDb2dVertex
 10
1518.75223
 20
884.423412
 30
0.0
  0
VERTEX
  5
52D
100
AcDbEntity
  8
DETAIL
  6
CONTINUOUS
 62
     5
100
AcDbVertex
100
AcDb2dVertex
 10
1518.833893
 20
884.618502
 30
0.0
  0
SEQEND
  5
52E
100
AcDbEntity
  8
DETAIL
  6
CONTINUOUS
 62
     5
  0
POLYLINE
  5
52F
100
AcDbEntity
  8
DETAIL
  6
CONTINUOUS
 62
     5
100
AcDb2dPolyline
 66
     1
 10
0.0
 20
0.0
 30
0.0
  0
VERTEX
  5
530
100
AcDbEntity
  8
DETAIL
  6
CONTINUOUS
 62
     5
100
AcDbVertex
100
AcDb2dVertex
 10
1501.833893
 20
884.618502
 30
0.0
  0
VERTEX
  5
531
100
AcDbEntity
  8
DETAIL
  6
CONTINUOUS
 62
     5
100
AcDbVertex
100
AcDb2dVertex
 10
1501.906257
 20
884.434752
 30
0.0
  0
VERTEX
  5
532
100
AcDbEntity
  8
DETAIL
  6
CONTINUOUS
 62
     5
100
AcDbVertex
100
AcDb2dVertex
 10
1502.120886
 20
884.25726
 30
0.0
  0
VERTEX
  5
533
100
AcDbEntity
  8
DETAIL
  6
CONTINUOUS
 62
     5
100
AcDbVertex
100
AcDb2dVertex
 10
1502.470471
 20
884.09207
 30
0.0
  0
VERTEX
  5
534
100
AcDbEntity
  8
DETAIL
  6
CONTINUOUS
 62
     5
100
AcDbVertex
100
AcDb2dVertex
 10
1502.943106
 20
883.944806
 30
0.0
  0
VERTEX
  5
535
100
AcDbEntity
  8
DETAIL
  6
CONTINUOUS
 62
     5
100
AcDbVertex
100
AcDb2dVertex
 10
1503.522697
 20
883.820485
 30
0.0
  0
VERTEX
  5
536
100
AcDbEntity
  8
DETAIL
  6
CONTINUOUS
 62
     5
100
AcDbVertex
100
AcDb2dVertex
 10
1504.189506
 20
883.723339
 30
0.0
  0
VERTEX
  5
537
100
AcDbEntity
  8
DETAIL
  6
CONTINUOUS
 62
     5
100
AcDbVertex
100
AcDb2dVertex
 10
1504.920827
 20
883.656676
 30
0.0
  0
VERTEX
  5
538
100
AcDbEntity
  8
DETAIL
  6
CONTINUOUS
 62
     5
100
AcDbVertex
100
AcDb2dVertex
 10
1505.691754
 20
883.622768
 30
0.0
  0
VERTEX
  5
539
100
AcDbEntity
  8
DETAIL
  6
CONTINUOUS
 62
     5
100
AcDbVertex
100
AcDb2dVertex
 10
1506.476036
 20
883.622768
 30
0.0
  0
VERTEX
  5
53A
100
AcDbEntity
  8
DETAIL
  6
CONTINUOUS
 62
     5
100
AcDbVertex
100
AcDb2dVertex
 10
1507.246963
 20
883.656677
 30
0.0
  0
VERTEX
  5
53B
100
AcDbEntity
  8
DETAIL
  6
CONTINUOUS
 62
     5
100
AcDbVertex
100
AcDb2dVertex
 10
1507.978283
 20
883.723339
 30
0.0
  0
VERTEX
  5
53C
100
AcDbEntity
  8
DETAIL
  6
CONTINUOUS
 62
     5
100
AcDbVertex
100
AcDb2dVertex
 10
1508.645092
 20
883.820485
 30
0.0
  0
VERTEX
  5
53D
100
AcDbEntity
  8
DETAIL
  6
CONTINUOUS
 62
     5
100
AcDbVertex
100
AcDb2dVertex
 10
1509.224683
 20
883.944807
 30
0.0
  0
VERTEX
  5
53E
100
AcDbEntity
  8
DETAIL
  6
CONTINUOUS
 62
     5
100
AcDbVertex
100
AcDb2dVertex
 10
1509.697318
 20
884.09207
 30
0.0
  0
VERTEX
  5
53F
100
AcDbEntity
  8
DETAIL
  6
CONTINUOUS
 62
     5
100
AcDbVertex
100
AcDb2dVertex
 10
1510.046901
 20
884.257261
 30
0.0
  0
VERTEX
  5
540
100
AcDbEntity
  8
DETAIL
  6
CONTINUOUS
 62
     5
100
AcDbVertex
100
AcDb2dVertex
 10
1510.261529
 20
884.434753
 30
0.0
  0
VERTEX
  5
541
100
AcDbEntity
  8
DETAIL
  6
CONTINUOUS
 62
     5
100
AcDbVertex
100
AcDb2dVertex
 10
1510.333893
 20
884.618503
 30
0.0
  0
SEQEND
  5
542
100
AcDbEntity
  8
DETAIL
  6
CONTINUOUS
 62
     5
  0
LINE
  5
543
100
AcDbEntity
  8
DETAIL
  6
CONTINUOUS
 62
     5
100
AcDbLine
 10
1518.833893
 20
883.618502
 30
0.0
 11
1518.833893
 21
893.053547
 31
0.0
  0
LINE
  5
544
100
AcDbEntity
  8
DETAIL
  6
CONTINUOUS
 62
     5
100
AcDbLine
 10
1501.833893
 20
883.618502
 30
0.0
 11
1501.833893
 21
893.053547
 31
0.0
  0
LINE
  5
545
100
AcDbEntity
  8
DETAIL
  6
CONTINUOUS
 62
     5
100
AcDbLine
 10
1506.083897
 20
896.618502
 30
0.0
 11
1514.583897
 21
896.618502
 31
0.0
  0
LINE
  5
546
100
AcDbEntity
  8
DETAIL
  6
CONTINUOUS
 62
     5
100
AcDbLine
 10
1514.833893
 20
896.620234
 30
0.0
 11
1514.833893
 21
894.618502
 31
0.0
  0
LINE
  5
547
100
AcDbEntity
  8
DETAIL
  6
CONTINUOUS
 62
     5
100
AcDbLine
 10
1505.833893
 20
896.620234
 30
0.0
 11
1505.833893
 21
894.618502
 31
0.0
  0
LINE
  5
548
100
AcDbEntity
  8
DETAIL
  6
CONTINUOUS
 62
     5
100
AcDbLine
 10
1516.333893
 20
879.618502
 30
0.0
 11
1518.833893
 21
883.618502
 31
0.0
  0
LINE
  5
549
100
AcDbEntity
  8
DETAIL
  6
CONTINUOUS
 62
     5
100
AcDbLine
 10
1501.833893
 20
883.618502
 30
0.0
 11
1504.333893
 21
879.618502
 31
0.0
  0
LINE
  5
54A
100
AcDbEntity
  8
DETAIL
  6
CONTINUOUS
 62
     5
100
AcDbLine
 10
1516.333893
 20
879.618502
 30
0.0
 11
1504.333893
 21
879.618502
 31
0.0
  0
LINE
  5
54B
100
AcDbEntity
  8
DETAIL
  6
CONTINUOUS
 62
     5
100
AcDbLine
 10
1518.833893
 20
883.618502
 30
0.0
 11
1501.833893
 21
883.618502
 31
0.0
  0
LINE
  5
54C
100
AcDbEntity
  8
DETAIL
  6
CONTINUOUS
 62
     5
100
AcDbLine
 10
1518.583893
 20
894.618502
 30
0.0
 11
1502.083893
 21
894.618502
 31
0.0
  0
ARC
  5
54D
100
AcDbEntity
  8
DETAIL
  6
CONTINUOUS
 62
     5
100
AcDbCircle
 10
1488.405311
 20
942.218506
 30
0.0
 40
3.928583
100
AcDbArc
 50
308.878622
 51
0.0
  0
ARC
  5
54E
100
AcDbEntity
  8
DETAIL
  6
CONTINUOUS
 62
     5
100
AcDbCircle
 10
1493.462738
 20
935.945981
 30
0.0
 40
4.128845
100
AcDbArc
 50
128.878622
 51
180.0
  0
LINE
  5
54F
100
AcDbEntity
  8
NOTE
  6
CONTINUOUS
 62
     4
100
AcDbLine
 10
1744.333893
 20
1019.863371
 30
0.0
 11
1764.333893
 21
1039.863371
 31
0.0
  0
LINE
  5
550
100
AcDbEntity
  8
NOTE
  6
CONTINUOUS
 62
     4
100
AcDbLine
 10
1744.333893
 20
984.508032
 30
0.0
 11
1764.333893
 21
1004.508032
 31
0.0
  0
LINE
  5
551
100
AcDbEntity
  8
NOTE
  6
CONTINUOUS
 62
     4
100
AcDbLine
 10
1744.333893
 20
949.152693
 30
0.0
 11
1764.333893
 21
969.152693
 31
0.0
  0
LINE
  5
552
100
AcDbEntity
  8
NOTE
  6
CONTINUOUS
 62
     4
100
AcDbLine
 10
1744.333893
 20
913.797354
 30
0.0
 11
1764.333893
 21
933.797354
 31
0.0
  0
LINE
  5
553
100
AcDbEntity
  8
NOTE
  6
CONTINUOUS
 62
     4
100
AcDbLine
 10
1744.333893
 20
878.442015
 30
0.0
 11
1764.333893
 21
898.442015
 31
0.0
  0
LINE
  5
554
100
AcDbEntity
  8
NOTE
  6
CONTINUOUS
 62
     4
100
AcDbLine
 10
1744.333893
 20
843.086675
 30
0.0
 11
1764.333893
 21
863.086675
 31
0.0
  0
LINE
  5
555
100
AcDbEntity
  8
NOTE
  6
CONTINUOUS
 62
     4
100
AcDbLine
 10
1744.333893
 20
807.731336
 30
0.0
 11
1764.333893
 21
827.731336
 31
0.0
  0
LINE
  5
556
100
AcDbEntity
  8
NOTE
  6
CONTINUOUS
 62
     4
100
AcDbLine
 10
1744.333893
 20
772.375997
 30
0.0
 11
1764.333893
 21
792.375997
 31
0.0
  0
LINE
  5
557
100
AcDbEntity
  8
NOTE
  6
CONTINUOUS
 62
     4
100
AcDbLine
 10
1744.333893
 20
737.020658
 30
0.0
 11
1764.333893
 21
757.020658
 31
0.0
  0
LINE
  5
558
100
AcDbEntity
  8
NOTE
  6
CONTINUOUS
 62
     4
100
AcDbLine
 10
1580.333893
 20
886.618502
 30
0.0
 11
1580.333893
 21
850.618502
 31
0.0
  0
LINE
  5
559
100
AcDbEntity
  8
DETAIL
  6
CONTINUOUS
 62
     5
100
AcDbLine
 10
1566.833893
 20
874.618502
 30
0.0
 11
1569.333893
 21
868.618502
 31
0.0
  0
LINE
  5
55A
100
AcDbEntity
  8
DETAIL
  6
CONTINUOUS
 62
     5
100
AcDbLine
 10
1591.333893
 20
868.618502
 30
0.0
 11
1593.833893
 21
874.618502
 31
0.0
  0
LINE
  5
55B
100
AcDbEntity
  8
NOTE
  6
CONTINUOUS
 62
     4
100
AcDbLine
 10
1580.334698
 20
868.617544
 30
0.0
 11
1610.463419
 21
852.046188
 31
0.0
  0
LINE
  5
55C
100
AcDbEntity
  8
NOTE
  6
CONTINUOUS
 62
     4
100
AcDbLine
 10
1580.334698
 20
868.617544
 30
0.0
 11
1598.141257
 21
839.201968
 31
0.0
  0
POINT
  5
55D
100
AcDbEntity
  8
DEFPOINTS
  6
CONTINUOUS
 62
     7
100
AcDbPoint
 10
1580.333893
 20
850.618502
 30
0.0
  0
POINT
  5
55E
100
AcDbEntity
  8
DEFPOINTS
  6
CONTINUOUS
 62
     7
100
AcDbPoint
 10
1580.333893
 20
850.618502
 30
0.0
  0
POINT
  5
55F
100
AcDbEntity
  8
DEFPOINTS
  6
CONTINUOUS
 62
     7
100
AcDbPoint
 10
1598.333893
 20
868.618502
 30
0.0
  0
LINE
  5
560
100
AcDbEntity
  8
NOTE
  6
CONTINUOUS
 62
     4
100
AcDbLine
 10
1598.333893
 20
868.618502
 30
0.0
 11
1562.333893
 21
868.618502
 31
0.0
  0
LINE
  5
561
100
AcDbEntity
  8
DETAIL
  6
CONTINUOUS
 62
     5
100
AcDbLine
 10
1569.333893
 20
868.618502
 30
0.0
 11
1591.333893
 21
868.618502
 31
0.0
  0
LINE
  5
562
100
AcDbEntity
  8
DETAIL
  6
CONTINUOUS
 62
     5
100
AcDbLine
 10
1529.108365
 20
946.618502
 30
0.0
 11
1529.108365
 21
942.218506
 31
0.0
  0
ARC
  5
563
100
AcDbEntity
  8
DETAIL
  6
CONTINUOUS
 62
     5
100
AcDbCircle
 10
1532.108365
 20
943.218506
 30
0.0
 40
3.0
100
AcDbArc
 50
177.611985
 51
180.0
  0
LINE
  5
564
100
AcDbEntity
  8
DETAIL
  6
CONTINUOUS
 62
     5
100
AcDbLine
 10
1561.542423
 20
937.218506
 30
0.0
 11
1599.125363
 21
937.218506
 31
0.0
  0
LINE
  5
565
100
AcDbEntity
  8
DETAIL
  6
CONTINUOUS
 62
     5
100
AcDbLine
 10
1599.125394
 20
946.618502
 30
0.0
 11
1599.125394
 21
937.218506
 31
0.0
  0
ARC
  5
566
100
AcDbEntity
  8
DETAIL
  6
CONTINUOUS
 62
     5
100
AcDbCircle
 10
1602.125394
 20
938.218506
 30
0.0
 40
3.0
100
AcDbArc
 50
177.611985
 51
180.0
  0
ARC
  5
567
100
AcDbEntity
  8
DETAIL
  6
CONTINUOUS
 62
     5
100
AcDbCircle
 10
1558.542392
 20
938.218506
 30
0.0
 40
3.0
100
AcDbArc
 50
0.0
 51
2.388015
  0
LINE
  5
568
100
AcDbEntity
  8
DETAIL
  6
CONTINUOUS
 62
     5
100
AcDbLine
 10
1561.542423
 20
937.218506
 30
0.0
 11
1561.542423
 21
946.618502
 31
0.0
  0
LINE
  5
569
100
AcDbEntity
  8
DETAIL
  6
CONTINUOUS
 62
     5
100
AcDbLine
 10
1601.333893
 20
912.618502
 30
0.0
 11
1601.333893
 21
930.945981
 31
0.0
  0
LINE
  5
56A
100
AcDbEntity
  8
DETAIL
  6
CONTINUOUS
 62
     5
100
AcDbLine
 10
1559.333893
 20
912.618502
 30
0.0
 11
1559.333893
 21
930.945981
 31
0.0
  0
LINE
  5
56B
100
AcDbEntity
  8
DETAIL
  6
CONTINUOUS
 62
     5
100
AcDbLine
 10
1531.333893
 20
916.618502
 30
0.0
 11
1531.333893
 21
935.945981
 31
0.0
  0
LINE
  5
56C
100
AcDbEntity
  8
DETAIL
  6
CONTINUOUS
 62
     5
100
AcDbLine
 10
1573.583897
 20
892.618502
 30
0.0
 11
1587.083889
 21
892.618502
 31
0.0
  0
LINE
  5
56D
100
AcDbEntity
  8
DETAIL
  6
CONTINUOUS
 62
     5
100
AcDbLine
 10
1566.833893
 20
874.618502
 30
0.0
 11
1593.833893
 21
874.618502
 31
0.0
  0
LINE
  5
56E
100
AcDbEntity
  8
DETAIL
  6
CONTINUOUS
 62
     5
100
AcDbLine
 10
1566.833893
 20
890.618502
 30
0.0
 11
1593.833893
 21
890.618502
 31
0.0
  0
LINE
  5
56F
100
AcDbEntity
  8
DETAIL
  6
CONTINUOUS
 62
     5
100
AcDbLine
 10
1588.483893
 20
892.618502
 30
0.0
 11
1588.483893
 21
890.618502
 31
0.0
  0
LINE
  5
570
100
AcDbEntity
  8
DETAIL
  6
CONTINUOUS
 62
     5
100
AcDbLine
 10
1580.333893
 20
890.618502
 30
0.0
 11
1589.333893
 21
890.618502
 31
0.0
  0
LINE
  5
571
100
AcDbEntity
  8
DETAIL
  6
CONTINUOUS
 62
     5
100
AcDbLine
 10
1571.333893
 20
890.618502
 30
0.0
 11
1572.183893
 21
890.618502
 31
0.0
  0
LINE
  5
572
100
AcDbEntity
  8
DETAIL
  6
CONTINUOUS
 62
     5
100
AcDbLine
 10
1572.183893
 20
892.618502
 30
0.0
 11
1572.183893
 21
890.618502
 31
0.0
  0
POLYLINE
  5
573
100
AcDbEntity
  8
DETAIL
  6
CONTINUOUS
 62
     5
100
AcDb2dPolyline
 66
     1
 10
0.0
 20
0.0
 30
0.0
  0
VERTEX
  5
574
100
AcDbEntity
  8
DETAIL
  6
CONTINUOUS
 62
     5
100
AcDbVertex
100
AcDb2dVertex
 10
1566.833893
 20
875.912869
 30
0.0
  0
VERTEX
  5
575
100
AcDbEntity
  8
DETAIL
  6
CONTINUOUS
 62
     5
100
AcDbVertex
100
AcDb2dVertex
 10
1567.707217
 20
875.511026
 30
0.0
  0
VERTEX
  5
576
100
AcDbEntity
  8
DETAIL
  6
CONTINUOUS
 62
     5
100
AcDbVertex
100
AcDb2dVertex
 10
1568.78571
 20
875.171299
 30
0.0
  0
VERTEX
  5
577
100
AcDbEntity
  8
DETAIL
  6
CONTINUOUS
 62
     5
100
AcDbVertex
100
AcDb2dVertex
 10
1570.031718
 20
874.905549
 30
0.0
  0
VERTEX
  5
578
100
AcDbEntity
  8
DETAIL
  6
CONTINUOUS
 62
     5
100
AcDbVertex
100
AcDb2dVertex
 10
1571.401741
 20
874.723055
 30
0.0
  0
VERTEX
  5
579
100
AcDbEntity
  8
DETAIL
  6
CONTINUOUS
 62
     5
100
AcDbVertex
100
AcDb2dVertex
 10
1572.847947
 20
874.630187
 30
0.0
  0
VERTEX
  5
57A
100
AcDbEntity
  8
DETAIL
  6
CONTINUOUS
 62
     5
100
AcDbVertex
100
AcDb2dVertex
 10
1574.319847
 20
874.630187
 30
0.0
  0
VERTEX
  5
57B
100
AcDbEntity
  8
DETAIL
  6
CONTINUOUS
 62
     5
100
AcDbVertex
100
AcDb2dVertex
 10
1575.766053
 20
874.723057
 30
0.0
  0
VERTEX
  5
57C
100
AcDbEntity
  8
DETAIL
  6
CONTINUOUS
 62
     5
100
AcDbVertex
100
AcDb2dVertex
 10
1577.136075
 20
874.905552
 30
0.0
  0
VERTEX
  5
57D
100
AcDbEntity
  8
DETAIL
  6
CONTINUOUS
 62
     5
100
AcDbVertex
100
AcDb2dVertex
 10
1578.382081
 20
875.171303
 30
0.0
  0
VERTEX
  5
57E
100
AcDbEntity
  8
DETAIL
  6
CONTINUOUS
 62
     5
100
AcDbVertex
100
AcDb2dVertex
 10
1579.460571
 20
875.51103
 30
0.0
  0
VERTEX
  5
57F
100
AcDbEntity
  8
DETAIL
  6
CONTINUOUS
 62
     5
100
AcDbVertex
100
AcDb2dVertex
 10
1580.333893
 20
875.912874
 30
0.0
  0
SEQEND
  5
580
100
AcDbEntity
  8
DETAIL
  6
CONTINUOUS
 62
     5
  0
POLYLINE
  5
581
100
AcDbEntity
  8
DETAIL
  6
CONTINUOUS
 62
     5
100
AcDb2dPolyline
 66
     1
 10
0.0
 20
0.0
 30
0.0
  0
VERTEX
  5
582
100
AcDbEntity
  8
DETAIL
  6
CONTINUOUS
 62
     5
100
AcDbVertex
100
AcDb2dVertex
 10
1580.333893
 20
889.32413
 30
0.0
  0
VERTEX
  5
583
100
AcDbEntity
  8
DETAIL
  6
CONTINUOUS
 62
     5
100
AcDbVertex
100
AcDb2dVertex
 10
1579.460571
 20
889.725974
 30
0.0
  0
VERTEX
  5
584
100
AcDbEntity
  8
DETAIL
  6
CONTINUOUS
 62
     5
100
AcDbVertex
100
AcDb2dVertex
 10
1578.382081
 20
890.065701
 30
0.0
  0
VERTEX
  5
585
100
AcDbEntity
  8
DETAIL
  6
CONTINUOUS
 62
     5
100
AcDbVertex
100
AcDb2dVertex
 10
1577.136075
 20
890.331452
 30
0.0
  0
VERTEX
  5
586
100
AcDbEntity
  8
DETAIL
  6
CONTINUOUS
 62
     5
100
AcDbVertex
100
AcDb2dVertex
 10
1575.766053
 20
890.513947
 30
0.0
  0
VERTEX
  5
587
100
AcDbEntity
  8
DETAIL
  6
CONTINUOUS
 62
     5
100
AcDbVertex
100
AcDb2dVertex
 10
1574.319847
 20
890.606817
 30
0.0
  0
VERTEX
  5
588
100
AcDbEntity
  8
DETAIL
  6
CONTINUOUS
 62
     5
100
AcDbVertex
100
AcDb2dVertex
 10
1572.847947
 20
890.606817
 30
0.0
  0
VERTEX
  5
589
100
AcDbEntity
  8
DETAIL
  6
CONTINUOUS
 62
     5
100
AcDbVertex
100
AcDb2dVertex
 10
1571.401741
 20
890.513949
 30
0.0
  0
VERTEX
  5
58A
100
AcDbEntity
  8
DETAIL
  6
CONTINUOUS
 62
     5
100
AcDbVertex
100
AcDb2dVertex
 10
1570.031718
 20
890.331455
 30
0.0
  0
VERTEX
  5
58B
100
AcDbEntity
  8
DETAIL
  6
CONTINUOUS
 62
     5
100
AcDbVertex
100
AcDb2dVertex
 10
1568.78571
 20
890.065705
 30
0.0
  0
VERTEX
  5
58C
100
AcDbEntity
  8
DETAIL
  6
CONTINUOUS
 62
     5
100
AcDbVertex
100
AcDb2dVertex
 10
1567.707217
 20
889.725978
 30
0.0
  0
VERTEX
  5
58D
100
AcDbEntity
  8
DETAIL
  6
CONTINUOUS
 62
     5
100
AcDbVertex
100
AcDb2dVertex
 10
1566.833893
 20
889.324135
 30
0.0
  0
SEQEND
  5
58E
100
AcDbEntity
  8
DETAIL
  6
CONTINUOUS
 62
     5
  0
POLYLINE
  5
58F
100
AcDbEntity
  8
DETAIL
  6
CONTINUOUS
 62
     5
100
AcDb2dPolyline
 66
     1
 10
0.0
 20
0.0
 30
0.0
  0
VERTEX
  5
590
100
AcDbEntity
  8
DETAIL
  6
CONTINUOUS
 62
     5
100
AcDbVertex
100
AcDb2dVertex
 10
1593.833893
 20
889.324135
 30
0.0
  0
VERTEX
  5
591
100
AcDbEntity
  8
DETAIL
  6
CONTINUOUS
 62
     5
100
AcDbVertex
100
AcDb2dVertex
 10
1592.960569
 20
889.725978
 30
0.0
  0
VERTEX
  5
592
100
AcDbEntity
  8
DETAIL
  6
CONTINUOUS
 62
     5
100
AcDbVertex
100
AcDb2dVertex
 10
1591.882076
 20
890.065705
 30
0.0
  0
VERTEX
  5
593
100
AcDbEntity
  8
DETAIL
  6
CONTINUOUS
 62
     5
100
AcDbVertex
100
AcDb2dVertex
 10
1590.636068
 20
890.331455
 30
0.0
  0
VERTEX
  5
594
100
AcDbEntity
  8
DETAIL
  6
CONTINUOUS
 62
     5
100
AcDbVertex
100
AcDb2dVertex
 10
1589.266045
 20
890.513949
 30
0.0
  0
VERTEX
  5
595
100
AcDbEntity
  8
DETAIL
  6
CONTINUOUS
 62
     5
100
AcDbVertex
100
AcDb2dVertex
 10
1587.819839
 20
890.606817
 30
0.0
  0
VERTEX
  5
596
100
AcDbEntity
  8
DETAIL
  6
CONTINUOUS
 62
     5
100
AcDbVertex
100
AcDb2dVertex
 10
1586.347939
 20
890.606817
 30
0.0
  0
VERTEX
  5
597
100
AcDbEntity
  8
DETAIL
  6
CONTINUOUS
 62
     5
100
AcDbVertex
100
AcDb2dVertex
 10
1584.901733
 20
890.513947
 30
0.0
  0
VERTEX
  5
598
100
AcDbEntity
  8
DETAIL
  6
CONTINUOUS
 62
     5
100
AcDbVertex
100
AcDb2dVertex
 10
1583.531711
 20
890.331452
 30
0.0
  0
VERTEX
  5
599
100
AcDbEntity
  8
DETAIL
  6
CONTINUOUS
 62
     5
100
AcDbVertex
100
AcDb2dVertex
 10
1582.285705
 20
890.065701
 30
0.0
  0
VERTEX
  5
59A
100
AcDbEntity
  8
DETAIL
  6
CONTINUOUS
 62
     5
100
AcDbVertex
100
AcDb2dVertex
 10
1581.207215
 20
889.725974
 30
0.0
  0
VERTEX
  5
59B
100
AcDbEntity
  8
DETAIL
  6
CONTINUOUS
 62
     5
100
AcDbVertex
100
AcDb2dVertex
 10
1580.333893
 20
889.32413
 30
0.0
  0
SEQEND
  5
59C
100
AcDbEntity
  8
DETAIL
  6
CONTINUOUS
 62
     5
  0
POLYLINE
  5
59D
100
AcDbEntity
  8
DETAIL
  6
CONTINUOUS
 62
     5
100
AcDb2dPolyline
 66
     1
 10
0.0
 20
0.0
 30
0.0
  0
VERTEX
  5
59E
100
AcDbEntity
  8
DETAIL
  6
CONTINUOUS
 62
     5
100
AcDbVertex
100
AcDb2dVertex
 10
1580.333893
 20
875.912874
 30
0.0
  0
VERTEX
  5
59F
100
AcDbEntity
  8
DETAIL
  6
CONTINUOUS
 62
     5
100
AcDbVertex
100
AcDb2dVertex
 10
1581.207215
 20
875.51103
 30
0.0
  0
VERTEX
  5
5A0
100
AcDbEntity
  8
DETAIL
  6
CONTINUOUS
 62
     5
100
AcDbVertex
100
AcDb2dVertex
 10
1582.285705
 20
875.171303
 30
0.0
  0
VERTEX
  5
5A1
100
AcDbEntity
  8
DETAIL
  6
CONTINUOUS
 62
     5
100
AcDbVertex
100
AcDb2dVertex
 10
1583.531711
 20
874.905552
 30
0.0
  0
VERTEX
  5
5A2
100
AcDbEntity
  8
DETAIL
  6
CONTINUOUS
 62
     5
100
AcDbVertex
100
AcDb2dVertex
 10
1584.901733
 20
874.723057
 30
0.0
  0
VERTEX
  5
5A3
100
AcDbEntity
  8
DETAIL
  6
CONTINUOUS
 62
     5
100
AcDbVertex
100
AcDb2dVertex
 10
1586.347939
 20
874.630187
 30
0.0
  0
VERTEX
  5
5A4
100
AcDbEntity
  8
DETAIL
  6
CONTINUOUS
 62
     5
100
AcDbVertex
100
AcDb2dVertex
 10
1587.819839
 20
874.630187
 30
0.0
  0
VERTEX
  5
5A5
100
AcDbEntity
  8
DETAIL
  6
CONTINUOUS
 62
     5
100
AcDbVertex
100
AcDb2dVertex
 10
1589.266045
 20
874.723055
 30
0.0
  0
VERTEX
  5
5A6
100
AcDbEntity
  8
DETAIL
  6
CONTINUOUS
 62
     5
100
AcDbVertex
100
AcDb2dVertex
 10
1590.636068
 20
874.905549
 30
0.0
  0
VERTEX
  5
5A7
100
AcDbEntity
  8
DETAIL
  6
CONTINUOUS
 62
     5
100
AcDbVertex
100
AcDb2dVertex
 10
1591.882076
 20
875.171299
 30
0.0
  0
VERTEX
  5
5A8
100
AcDbEntity
  8
DETAIL
  6
CONTINUOUS
 62
     5
100
AcDbVertex
100
AcDb2dVertex
 10
1592.960569
 20
875.511026
 30
0.0
  0
VERTEX
  5
5A9
100
AcDbEntity
  8
DETAIL
  6
CONTINUOUS
 62
     5
100
AcDbVertex
100
AcDb2dVertex
 10
1593.833893
 20
875.912869
 30
0.0
  0
SEQEND
  5
5AA
100
AcDbEntity
  8
DETAIL
  6
CONTINUOUS
 62
     5
  0
POLYLINE
  5
5AB
100
AcDbEntity
  8
DETAIL
  6
CONTINUOUS
 62
     5
100
AcDb2dPolyline
 66
     1
 10
0.0
 20
0.0
 30
0.0
  0
VERTEX
  5
5AC
100
AcDbEntity
  8
DETAIL
  6
CONTINUOUS
 62
     5
100
AcDbVertex
100
AcDb2dVertex
 10
1566.833893
 20
893.912869
 30
0.0
  0
VERTEX
  5
5AD
100
AcDbEntity
  8
DETAIL
  6
CONTINUOUS
 62
     5
100
AcDbVertex
100
AcDb2dVertex
 10
1567.707217
 20
893.511026
 30
0.0
  0
VERTEX
  5
5AE
100
AcDbEntity
  8
DETAIL
  6
CONTINUOUS
 62
     5
100
AcDbVertex
100
AcDb2dVertex
 10
1568.78571
 20
893.171299
 30
0.0
  0
VERTEX
  5
5AF
100
AcDbEntity
  8
DETAIL
  6
CONTINUOUS
 62
     5
100
AcDbVertex
100
AcDb2dVertex
 10
1570.031718
 20
892.905549
 30
0.0
  0
VERTEX
  5
5B0
100
AcDbEntity
  8
DETAIL
  6
CONTINUOUS
 62
     5
100
AcDbVertex
100
AcDb2dVertex
 10
1571.401741
 20
892.723055
 30
0.0
  0
VERTEX
  5
5B1
100
AcDbEntity
  8
DETAIL
  6
CONTINUOUS
 62
     5
100
AcDbVertex
100
AcDb2dVertex
 10
1572.847947
 20
892.630187
 30
0.0
  0
VERTEX
  5
5B2
100
AcDbEntity
  8
DETAIL
  6
CONTINUOUS
 62
     5
100
AcDbVertex
100
AcDb2dVertex
 10
1574.319847
 20
892.630187
 30
0.0
  0
VERTEX
  5
5B3
100
AcDbEntity
  8
DETAIL
  6
CONTINUOUS
 62
     5
100
AcDbVertex
100
AcDb2dVertex
 10
1575.766053
 20
892.723057
 30
0.0
  0
VERTEX
  5
5B4
100
AcDbEntity
  8
DETAIL
  6
CONTINUOUS
 62
     5
100
AcDbVertex
100
AcDb2dVertex
 10
1577.136075
 20
892.905552
 30
0.0
  0
VERTEX
  5
5B5
100
AcDbEntity
  8
DETAIL
  6
CONTINUOUS
 62
     5
100
AcDbVertex
100
AcDb2dVertex
 10
1578.382081
 20
893.171303
 30
0.0
  0
VERTEX
  5
5B6
100
AcDbEntity
  8
DETAIL
  6
CONTINUOUS
 62
     5
100
AcDbVertex
100
AcDb2dVertex
 10
1579.460571
 20
893.51103
 30
0.0
  0
VERTEX
  5
5B7
100
AcDbEntity
  8
DETAIL
  6
CONTINUOUS
 62
     5
100
AcDbVertex
100
AcDb2dVertex
 10
1580.333893
 20
893.912874
 30
0.0
  0
SEQEND
  5
5B8
100
AcDbEntity
  8
DETAIL
  6
CONTINUOUS
 62
     5
  0
POLYLINE
  5
5B9
100
AcDbEntity
  8
DETAIL
  6
CONTINUOUS
 62
     5
100
AcDb2dPolyline
 66
     1
 10
0.0
 20
0.0
 30
0.0
  0
VERTEX
  5
5BA
100
AcDbEntity
  8
DETAIL
  6
CONTINUOUS
 62
     5
100
AcDbVertex
100
AcDb2dVertex
 10
1580.333893
 20
893.912874
 30
0.0
  0
VERTEX
  5
5BB
100
AcDbEntity
  8
DETAIL
  6
CONTINUOUS
 62
     5
100
AcDbVertex
100
AcDb2dVertex
 10
1581.207215
 20
893.51103
 30
0.0
  0
VERTEX
  5
5BC
100
AcDbEntity
  8
DETAIL
  6
CONTINUOUS
 62
     5
100
AcDbVertex
100
AcDb2dVertex
 10
1582.285705
 20
893.171303
 30
0.0
  0
VERTEX
  5
5BD
100
AcDbEntity
  8
DETAIL
  6
CONTINUOUS
 62
     5
100
AcDbVertex
100
AcDb2dVertex
 10
1583.531711
 20
892.905552
 30
0.0
  0
VERTEX
  5
5BE
100
AcDbEntity
  8
DETAIL
  6
CONTINUOUS
 62
     5
100
AcDbVertex
100
AcDb2dVertex
 10
1584.901733
 20
892.723057
 30
0.0
  0
VERTEX
  5
5BF
100
AcDbEntity
  8
DETAIL
  6
CONTINUOUS
 62
     5
100
AcDbVertex
100
AcDb2dVertex
 10
1586.347939
 20
892.630187
 30
0.0
  0
VERTEX
  5
5C0
100
AcDbEntity
  8
DETAIL
  6
CONTINUOUS
 62
     5
100
AcDbVertex
100
AcDb2dVertex
 10
1587.819839
 20
892.630187
 30
0.0
  0
VERTEX
  5
5C1
100
AcDbEntity
  8
DETAIL
  6
CONTINUOUS
 62
     5
100
AcDbVertex
100
AcDb2dVertex
 10
1589.266045
 20
892.723055
 30
0.0
  0
VERTEX
  5
5C2
100
AcDbEntity
  8
DETAIL
  6
CONTINUOUS
 62
     5
100
AcDbVertex
100
AcDb2dVertex
 10
1590.636068
 20
892.905549
 30
0.0
  0
VERTEX
  5
5C3
100
AcDbEntity
  8
DETAIL
  6
CONTINUOUS
 62
     5
100
AcDbVertex
100
AcDb2dVertex
 10
1591.882076
 20
893.171299
 30
0.0
  0
VERTEX
  5
5C4
100
AcDbEntity
  8
DETAIL
  6
CONTINUOUS
 62
     5
100
AcDbVertex
100
AcDb2dVertex
 10
1592.960569
 20
893.511026
 30
0.0
  0
VERTEX
  5
5C5
100
AcDbEntity
  8
DETAIL
  6
CONTINUOUS
 62
     5
100
AcDbVertex
100
AcDb2dVertex
 10
1593.833893
 20
893.912869
 30
0.0
  0
SEQEND
  5
5C6
100
AcDbEntity
  8
DETAIL
  6
CONTINUOUS
 62
     5
  0
LINE
  5
5C7
100
AcDbEntity
  8
DETAIL
  6
CONTINUOUS
 62
     5
100
AcDbLine
 10
1566.833893
 20
893.912869
 30
0.0
 11
1566.833893
 21
912.618502
 31
0.0
  0
LINE
  5
5C8
100
AcDbEntity
  8
DETAIL
  6
CONTINUOUS
 62
     5
100
AcDbLine
 10
1566.833893
 20
874.618502
 30
0.0
 11
1566.833893
 21
890.618502
 31
0.0
  0
LINE
  5
5C9
100
AcDbEntity
  8
DETAIL
  6
CONTINUOUS
 62
     5
100
AcDbLine
 10
1593.833893
 20
893.912869
 30
0.0
 11
1593.833893
 21
912.618502
 31
0.0
  0
LINE
  5
5CA
100
AcDbEntity
  8
DETAIL
  6
CONTINUOUS
 62
     5
100
AcDbLine
 10
1593.833893
 20
874.618502
 30
0.0
 11
1593.833893
 21
890.618502
 31
0.0
  0
LINE
  5
5CB
100
AcDbEntity
  8
DETAIL
  6
CONTINUOUS
 62
     5
100
AcDbLine
 10
1559.333893
 20
912.618502
 30
0.0
 11
1601.333893
 21
912.618502
 31
0.0
  0
ARC
  5
5CC
100
AcDbEntity
  8
DETAIL
  6
CONTINUOUS
 62
     5
100
AcDbCircle
 10
1602.262475
 20
937.218506
 30
0.0
 40
3.928583
100
AcDbArc
 50
180.0
 51
231.121378
  0
ARC
  5
5CD
100
AcDbEntity
  8
DETAIL
  6
CONTINUOUS
 62
     5
100
AcDbCircle
 10
1597.205048
 20
930.945981
 30
0.0
 40
4.128845
100
AcDbArc
 50
0.0
 51
51.121378
  0
ARC
  5
5CE
100
AcDbEntity
  8
DETAIL
  6
CONTINUOUS
 62
     5
100
AcDbCircle
 10
1527.205048
 20
935.945981
 30
0.0
 40
4.128845
100
AcDbArc
 50
0.0
 51
51.121378
  0
ARC
  5
5CF
100
AcDbEntity
  8
DETAIL
  6
CONTINUOUS
 62
     5
100
AcDbCircle
 10
1563.462738
 20
930.945981
 30
0.0
 40
4.128845
100
AcDbArc
 50
128.878622
 51
180.0
  0
ARC
  5
5D0
100
AcDbEntity
  8
DETAIL
  6
CONTINUOUS
 62
     5
100
AcDbCircle
 10
1558.405311
 20
937.218506
 30
0.0
 40
3.928583
100
AcDbArc
 50
308.878622
 51
0.0
  0
POINT
  5
5D1
100
AcDbEntity
  8
DEFPOINTS
  6
CONTINUOUS
 62
     7
100
AcDbPoint
 10
1726.333893
 20
946.618502
 30
0.0
  0
POINT
  5
5D2
100
AcDbEntity
  8
DEFPOINTS
  6
CONTINUOUS
 62
     7
100
AcDbPoint
 10
1726.333893
 20
946.618502
 30
0.0
  0
POINT
  5
5D3
100
AcDbEntity
  8
DEFPOINTS
  6
CONTINUOUS
 62
     7
100
AcDbPoint
 10
1726.333893
 20
946.618502
 30
0.0
  0
LINE
  5
5D4
100
AcDbEntity
  8
NOTE
  6
CONTINUOUS
 62
     4
100
AcDbLine
 10
1696.333893
 20
940.618502
 30
0.0
 11
1696.333893
 21
904.618502
 31
0.0
  0
POINT
  5
5D5
100
AcDbEntity
  8
DEFPOINTS
  6
CONTINUOUS
 62
     7
100
AcDbPoint
 10
1726.333893
 20
946.618502
 30
0.0
  0
POINT
  5
5D6
100
AcDbEntity
  8
DEFPOINTS
  6
CONTINUOUS
 62
     7
100
AcDbPoint
 10
1726.333893
 20
946.618502
 30
0.0
  0
POINT
  5
5D7
100
AcDbEntity
  8
DEFPOINTS
  6
CONTINUOUS
 62
     7
100
AcDbPoint
 10
1726.333893
 20
946.618502
 30
0.0
  0
CIRCLE
  5
5D8
100
AcDbEntity
  8
FIX
  6
CONTINUOUS
 62
    11
100
AcDbCircle
 10
1696.333893
 20
921.606002
 30
0.0
 40
14.940051
  0
LINE
  5
5D9
100
AcDbEntity
  8
NOTE
  6
CONTINUOUS
 62
     4
100
AcDbLine
 10
1714.333893
 20
921.606002
 30
0.0
 11
1678.333893
 21
921.606002
 31
0.0
  0
LINE
  5
5DA
100
AcDbEntity
  8
NOTE
  6
CONTINUOUS
 62
     4
100
AcDbLine
 10
1696.333893
 20
939.606002
 30
0.0
 11
1696.333893
 21
903.606002
 31
0.0
  0
LINE
  5
5DB
100
AcDbEntity
  8
DETAIL
  6
CONTINUOUS
 62
     5
100
AcDbLine
 10
1702.333893
 20
899.493502
 30
0.0
 11
1721.333893
 21
899.493502
 31
0.0
  0
LINE
  5
5DC
100
AcDbEntity
  8
DETAIL
  6
CONTINUOUS
 62
     5
100
AcDbLine
 10
1671.333893
 20
899.493502
 30
0.0
 11
1690.333893
 21
899.493502
 31
0.0
  0
LINE
  5
5DD
100
AcDbEntity
  8
DETAIL
  6
CONTINUOUS
 62
     5
100
AcDbLine
 10
1702.333893
 20
915.493502
 30
0.0
 11
1704.333893
 21
915.493502
 31
0.0
  0
LINE
  5
5DE
100
AcDbEntity
  8
DETAIL
  6
CONTINUOUS
 62
     5
100
AcDbLine
 10
1688.333893
 20
915.493502
 30
0.0
 11
1690.333893
 21
915.493502
 31
0.0
  0
ARC
  5
5DF
100
AcDbEntity
  8
DETAIL
  6
CONTINUOUS
 62
     5
100
AcDbCircle
 10
1704.333893
 20
922.493502
 30
0.0
 40
7.0
100
AcDbArc
 50
270.0
 51
90.0
  0
ARC
  5
5E0
100
AcDbEntity
  8
DETAIL
  6
CONTINUOUS
 62
     5
100
AcDbCircle
 10
1688.333893
 20
922.493502
 30
0.0
 40
7.0
100
AcDbArc
 50
90.0
 51
270.0
  0
LINE
  5
5E1
100
AcDbEntity
  8
DETAIL
  6
CONTINUOUS
 62
     5
100
AcDbLine
 10
1702.333893
 20
899.493502
 30
0.0
 11
1702.333893
 21
915.493502
 31
0.0
  0
LINE
  5
5E2
100
AcDbEntity
  8
DETAIL
  6
CONTINUOUS
 62
     5
100
AcDbLine
 10
1690.333893
 20
899.493502
 30
0.0
 11
1690.333893
 21
915.493502
 31
0.0
  0
LINE
  5
5E3
100
AcDbEntity
  8
DETAIL
  6
CONTINUOUS
 62
     5
100
AcDbLine
 10
1721.333893
 20
899.493502
 30
0.0
 11
1721.333893
 21
946.618502
 31
0.0
  0
LINE
  5
5E4
100
AcDbEntity
  8
DETAIL
  6
CONTINUOUS
 62
     5
100
AcDbLine
 10
1671.333893
 20
899.493502
 30
0.0
 11
1671.333893
 21
946.618502
 31
0.0
  0
LINE
  5
5E5
100
AcDbEntity
  8
DETAIL
  6
CONTINUOUS
 62
     5
100
AcDbLine
 10
1688.333893
 20
929.493502
 30
0.0
 11
1704.333893
 21
929.493502
 31
0.0
  0
LINE
  5
5E6
100
AcDbEntity
  8
NOTE
  6
CONTINUOUS
 62
     4
100
AcDbLine
 10
1744.333893
 20
1302.706083
 30
0.0
 11
1764.333893
 21
1322.706083
 31
0.0
  0
LINE
  5
5E7
100
AcDbEntity
  8
NOTE
  6
CONTINUOUS
 62
     4
100
AcDbLine
 10
1744.333893
 20
1267.350744
 30
0.0
 11
1764.333893
 21
1287.350744
 31
0.0
  0
LINE
  5
5E8
100
AcDbEntity
  8
NOTE
  6
CONTINUOUS
 62
     4
100
AcDbLine
 10
1744.333893
 20
1231.995405
 30
0.0
 11
1764.333893
 21
1251.995405
 31
0.0
  0
LINE
  5
5E9
100
AcDbEntity
  8
NOTE
  6
CONTINUOUS
 62
     4
100
AcDbLine
 10
1744.333893
 20
1196.640066
 30
0.0
 11
1764.333893
 21
1216.640066
 31
0.0
  0
LINE
  5
5EA
100
AcDbEntity
  8
NOTE
  6
CONTINUOUS
 62
     4
100
AcDbLine
 10
1744.333893
 20
1161.284727
 30
0.0
 11
1764.333893
 21
1181.284727
 31
0.0
  0
LINE
  5
5EB
100
AcDbEntity
  8
NOTE
  6
CONTINUOUS
 62
     4
100
AcDbLine
 10
1744.333893
 20
1125.929388
 30
0.0
 11
1764.333893
 21
1145.929388
 31
0.0
  0
LINE
  5
5EC
100
AcDbEntity
  8
NOTE
  6
CONTINUOUS
 62
     4
100
AcDbLine
 10
1744.333893
 20
1090.574049
 30
0.0
 11
1764.333893
 21
1110.574049
 31
0.0
  0
LINE
  5
5ED
100
AcDbEntity
  8
NOTE
  6
CONTINUOUS
 62
     4
100
AcDbLine
 10
1744.333893
 20
1055.21871
 30
0.0
 11
1764.333893
 21
1075.21871
 31
0.0
  0
TEXT
  5
5EE
100
AcDbEntity
  8
SIZE
  6
CONTINUOUS
 62
    30
100
AcDbText
 10
2132.963266
 20
709.832788
 30
0.0
 40
55.0
  1
(78)
 50
90.0
 41
0.9
 72
     1
 11
2132.963266
 21
781.725645
 31
0.0
100
AcDbText
  0
LINE
  5
5EF
100
AcDbEntity
  8
SIZE
  6
CONTINUOUS
 62
    30
100
AcDbLine
 10
2152.368028
 20
868.618502
 30
0.0
 11
2152.368028
 21
704.832788
 31
0.0
  0
LINE
  5
5F0
100
AcDbEntity
  8
SIZE
  6
CONTINUOUS
 62
    30
100
AcDbLine
 10
2013.956971
 20
879.618502
 30
0.0
 11
2013.956971
 21
704.626071
 31
0.0
  0
LINE
  5
5F1
100
AcDbEntity
  8
NOTE
  6
CONTINUOUS
 62
     4
100
AcDbLine
 10
2085.958776
 20
381.466033
 30
0.0
 11
2486.49486
 21
381.466033
 31
0.0
  0
TEXT
  5
5F2
100
AcDbEntity
  8
NOTE
  6
CONTINUOUS
 62
     4
100
AcDbText
 10
2102.193653
 20
401.336621
 30
0.0
 40
64.0
  1
RG %%C12.7
 41
0.9
100
AcDbText
  0
LINE
  5
5F3
100
AcDbEntity
  8
SIZE
  6
CONTINUOUS
 62
    30
100
AcDbLine
 10
2267.198701
 20
659.618502
 30
0.0
 11
2267.198701
 21
664.618502
 31
0.0
  0
CIRCLE
  5
5F4
100
AcDbEntity
  8
SIZE
  6
CONTINUOUS
 62
    30
100
AcDbCircle
 10
2267.198701
 20
654.618502
 30
0.0
 40
5.0
  0
CIRCLE
  5
5F5
100
AcDbEntity
  8
SIZE
  6
CONTINUOUS
 62
    30
100
AcDbCircle
 10
2152.368028
 20
868.618502
 30
0.0
 40
5.0
  0
POINT
  5
5F6
100
AcDbEntity
  8
DEFPOINTS
  6
CONTINUOUS
 62
     7
100
AcDbPoint
 10
2013.956971
 20
879.618502
 30
0.0
  0
LINE
  5
5F7
100
AcDbEntity
  8
SIZE
  6
CONTINUOUS
 62
    30
100
AcDbLine
 10
2013.956971
 20
884.618502
 30
0.0
 11
2013.956971
 21
889.618502
 31
0.0
  0
CIRCLE
  5
5F8
100
AcDbEntity
  8
SIZE
  6
CONTINUOUS
 62
    30
100
AcDbCircle
 10
2013.956971
 20
879.618502
 30
0.0
 40
5.0
  0
LINE
  5
5F9
100
AcDbEntity
  8
SIZE
  6
CONTINUOUS
 62
    30
100
AcDbLine
 10
2013.956971
 20
941.618502
 30
0.0
 11
2013.956971
 21
936.618502
 31
0.0
  0
CIRCLE
  5
5FA
100
AcDbEntity
  8
SIZE
  6
CONTINUOUS
 62
    30
100
AcDbCircle
 10
2013.956971
 20
946.618502
 30
0.0
 40
5.0
  0
LINE
  5
5FB
100
AcDbEntity
  8
SIZE
  6
CONTINUOUS
 62
    30
100
AcDbLine
 10
2013.956971
 20
936.618502
 30
0.0
 11
2013.956971
 21
889.618502
 31
0.0
  0
POINT
  5
5FC
100
AcDbEntity
  8
DEFPOINTS
  6
CONTINUOUS
 62
     7
100
AcDbPoint
 10
2152.368028
 20
946.618502
 30
0.0
  0
LINE
  5
5FD
100
AcDbEntity
  8
SIZE
  6
CONTINUOUS
 62
    30
100
AcDbLine
 10
2152.368028
 20
873.618502
 30
0.0
 11
2152.368028
 21
878.618502
 31
0.0
  0
LINE
  5
5FE
100
AcDbEntity
  8
SIZE
  6
CONTINUOUS
 62
    30
100
AcDbLine
 10
2152.368028
 20
941.618502
 30
0.0
 11
2152.368028
 21
936.618502
 31
0.0
  0
CIRCLE
  5
5FF
100
AcDbEntity
  8
SIZE
  6
CONTINUOUS
 62
    30
100
AcDbCircle
 10
2152.368028
 20
946.618502
 30
0.0
 40
5.0
  0
LINE
  5
600
100
AcDbEntity
  8
SIZE
  6
CONTINUOUS
 62
    30
100
AcDbLine
 10
2152.368028
 20
936.618502
 30
0.0
 11
2152.368028
 21
878.618502
 31
0.0
  0
LINE
  5
601
100
AcDbEntity
  8
SIZE
  6
CONTINUOUS
 62
    30
100
AcDbLine
 10
1784.333893
 20
2014.618502
 30
0.0
 11
2297.198701
 21
2014.618502
 31
0.0
  0
LINE
  5
602
100
AcDbEntity
  8
SIZE
  6
CONTINUOUS
 62
    30
100
AcDbLine
 10
1696.333893
 20
1784.618502
 30
0.0
 11
1696.333893
 21
2153.370052
 31
0.0
  0
LINE
  5
603
100
AcDbEntity
  8
SIZE
  6
CONTINUOUS
 62
    30
100
AcDbLine
 10
1696.333893
 20
1784.618502
 30
0.0
 11
1696.333893
 21
2153.370052
 31
0.0
  0
LINE
  5
604
100
AcDbEntity
  8
SIZE
  6
CONTINUOUS
 62
    30
100
AcDbLine
 10
1122.333893
 20
1784.618502
 30
0.0
 11
1122.333893
 21
2153.370052
 31
0.0
  0
LINE
  5
605
100
AcDbEntity
  8
SIZE
  6
CONTINUOUS
 62
    30
100
AcDbLine
 10
1122.333893
 20
1784.618502
 30
0.0
 11
1122.333893
 21
2153.370052
 31
0.0
  0
LINE
  5
606
100
AcDbEntity
  8
NOTE
  6
CONTINUOUS
 62
     4
100
AcDbLine
 10
1744.333893
 20
1939.102186
 30
0.0
 11
1764.333893
 21
1959.102186
 31
0.0
  0
TEXT
  5
607
100
AcDbEntity
  8
NOTE
  6
CONTINUOUS
 62
     4
100
AcDbText
 10
1358.112117
 20
1790.505521
 30
0.0
 40
55.0
  1
外気吸込
 41
0.9
100
AcDbText
  0
LINE
  5
608
100
AcDbEntity
  8
DETAIL
  6
CONTINUOUS
 62
     5
100
AcDbLine
 10
1726.333893
 20
1722.618502
 30
0.0
 11
1092.333893
 21
1722.618502
 31
0.0
  0
ARC
  5
609
100
AcDbEntity
  8
NOTE
  6
CONTINUOUS
 62
     4
100
AcDbCircle
 10
1302.542939
 20
1829.882061
 30
0.0
 40
10.0
100
AcDbArc
 50
221.32594
 51
330.0
  0
ARC
  5
60A
100
AcDbEntity
  8
NOTE
  6
CONTINUOUS
 62
     4
100
AcDbCircle
 10
1302.542939
 20
1829.882061
 30
0.0
 40
10.0
100
AcDbArc
 50
30.0
 51
139.904575
  0
ARC
  5
60B
100
AcDbEntity
  8
NOTE
  6
CONTINUOUS
 62
     4
100
AcDbCircle
 10
1302.542939
 20
1819.882061
 30
0.0
 40
10.0
100
AcDbArc
 50
218.076672
 51
330.0
  0
ARC
  5
60C
100
AcDbEntity
  8
NOTE
  6
CONTINUOUS
 62
     4
100
AcDbCircle
 10
1302.542939
 20
1819.882061
 30
0.0
 40
10.0
100
AcDbArc
 50
30.0
 51
138.67406
  0
ARC
  5
60D
100
AcDbEntity
  8
NOTE
  6
CONTINUOUS
 62
     4
100
AcDbCircle
 10
1302.542939
 20
1809.882061
 30
0.0
 40
10.0
100
AcDbArc
 50
270.0
 51
141.923328
  0
ARC
  5
60E
100
AcDbEntity
  8
NOTE
  6
CONTINUOUS
 62
     4
100
AcDbCircle
 10
1302.542939
 20
1839.882061
 30
0.0
 40
10.0
100
AcDbArc
 50
220.095425
 51
90.0
  0
LINE
  5
60F
100
AcDbEntity
  8
NOTE
  6
CONTINUOUS
 62
     4
100
AcDbLine
 10
1317.829358
 20
1794.435586
 30
0.0
 11
1302.542939
 21
1761.653755
 31
0.0
  0
LINE
  5
610
100
AcDbEntity
  8
NOTE
  6
CONTINUOUS
 62
     4
100
AcDbLine
 10
1287.25652
 20
1794.435586
 30
0.0
 11
1302.542939
 21
1761.653755
 31
0.0
  0
LINE
  5
611
100
AcDbEntity
  8
NOTE
  6
CONTINUOUS
 62
     4
100
AcDbLine
 10
1302.542939
 20
1861.407125
 30
0.0
 11
1302.542939
 21
1761.653755
 31
0.0
  0
POINT
  5
612
100
AcDbEntity
  8
DEFPOINTS
  6
CONTINUOUS
 62
     7
100
AcDbPoint
 10
1104.333893
 20
1746.618502
 30
0.0
  0
POINT
  5
613
100
AcDbEntity
  8
DEFPOINTS
  6
CONTINUOUS
 62
     7
100
AcDbPoint
 10
1104.333893
 20
1746.618502
 30
0.0
  0
POINT
  5
614
100
AcDbEntity
  8
DEFPOINTS
  6
CONTINUOUS
 62
     7
100
AcDbPoint
 10
1092.333893
 20
1722.618502
 30
0.0
  0
POINT
  5
615
100
AcDbEntity
  8
DEFPOINTS
  6
CONTINUOUS
 62
     7
100
AcDbPoint
 10
1122.333893
 20
1764.618502
 30
0.0
  0
POINT
  5
616
100
AcDbEntity
  8
DEFPOINTS
  6
CONTINUOUS
 62
     7
100
AcDbPoint
 10
1122.333893
 20
1764.618502
 30
0.0
  0
CIRCLE
  5
617
100
AcDbEntity
  8
FIX
  6
CONTINUOUS
 62
    11
100
AcDbCircle
 10
1122.333893
 20
1746.618502
 30
0.0
 40
14.940051
  0
LINE
  5
618
100
AcDbEntity
  8
NOTE
  6
CONTINUOUS
 62
     4
100
AcDbLine
 10
1140.333893
 20
1746.618502
 30
0.0
 11
1104.333893
 21
1746.618502
 31
0.0
  0
LINE
  5
619
100
AcDbEntity
  8
NOTE
  6
CONTINUOUS
 62
     4
100
AcDbLine
 10
1122.333893
 20
1764.618502
 30
0.0
 11
1122.333893
 21
1728.618502
 31
0.0
  0
LINE
  5
61A
100
AcDbEntity
  8
DETAIL
  6
CONTINUOUS
 62
     5
100
AcDbLine
 10
1128.333893
 20
1769.893502
 30
0.0
 11
1147.333893
 21
1769.893502
 31
0.0
  0
LINE
  5
61B
100
AcDbEntity
  8
DETAIL
  6
CONTINUOUS
 62
     5
100
AcDbLine
 10
1097.333893
 20
1769.893502
 30
0.0
 11
1116.333893
 21
1769.893502
 31
0.0
  0
LINE
  5
61C
100
AcDbEntity
  8
DETAIL
  6
CONTINUOUS
 62
     5
100
AcDbLine
 10
1128.333893
 20
1753.893502
 30
0.0
 11
1130.333893
 21
1753.893502
 31
0.0
  0
LINE
  5
61D
100
AcDbEntity
  8
DETAIL
  6
CONTINUOUS
 62
     5
100
AcDbLine
 10
1114.333893
 20
1753.893502
 30
0.0
 11
1116.333893
 21
1753.893502
 31
0.0
  0
LINE
  5
61E
100
AcDbEntity
  8
DETAIL
  6
CONTINUOUS
 62
     5
100
AcDbLine
 10
1114.333893
 20
1739.893502
 30
0.0
 11
1130.333893
 21
1739.893502
 31
0.0
  0
ARC
  5
61F
100
AcDbEntity
  8
DETAIL
  6
CONTINUOUS
 62
     5
100
AcDbCircle
 10
1130.333893
 20
1746.893502
 30
0.0
 40
7.0
100
AcDbArc
 50
270.0
 51
90.0
  0
ARC
  5
620
100
AcDbEntity
  8
DETAIL
  6
CONTINUOUS
 62
     5
100
AcDbCircle
 10
1114.333893
 20
1746.893502
 30
0.0
 40
7.0
100
AcDbArc
 50
90.0
 51
270.0
  0
LINE
  5
621
100
AcDbEntity
  8
DETAIL
  6
CONTINUOUS
 62
     5
100
AcDbLine
 10
1128.333893
 20
1769.893502
 30
0.0
 11
1128.333893
 21
1753.893502
 31
0.0
  0
LINE
  5
622
100
AcDbEntity
  8
DETAIL
  6
CONTINUOUS
 62
     5
100
AcDbLine
 10
1116.333893
 20
1769.893502
 30
0.0
 11
1116.333893
 21
1753.893502
 31
0.0
  0
LINE
  5
623
100
AcDbEntity
  8
DETAIL
  6
CONTINUOUS
 62
     5
100
AcDbLine
 10
1147.333893
 20
1769.893502
 30
0.0
 11
1147.333893
 21
1722.618502
 31
0.0
  0
LINE
  5
624
100
AcDbEntity
  8
DETAIL
  6
CONTINUOUS
 62
     5
100
AcDbLine
 10
1097.333893
 20
1769.893502
 30
0.0
 11
1097.333893
 21
1722.618502
 31
0.0
  0
LINE
  5
625
100
AcDbEntity
  8
NOTE
  6
CONTINUOUS
 62
     4
100
AcDbLine
 10
1122.333262
 20
1746.619587
 30
0.0
 11
1095.416973
 21
1768.017321
 31
0.0
  0
LINE
  5
626
100
AcDbEntity
  8
NOTE
  6
CONTINUOUS
 62
     4
100
AcDbLine
 10
1122.333262
 20
1746.619587
 30
0.0
 11
1109.721939
 21
1778.608713
 31
0.0
  0
ARC
  5
627
100
AcDbEntity
  8
NOTE
  6
CONTINUOUS
 62
     4
100
AcDbCircle
 10
1296.604285
 20
1834.882061
 30
0.0
 40
2.236779
100
AcDbArc
 50
139.904575
 51
220.095425
  0
ARC
  5
628
100
AcDbEntity
  8
NOTE
  6
CONTINUOUS
 62
     4
100
AcDbCircle
 10
1296.856752
 20
1824.882061
 30
0.0
 40
2.428163
100
AcDbArc
 50
138.67406
 51
221.32594
  0
ARC
  5
629
100
AcDbEntity
  8
NOTE
  6
CONTINUOUS
 62
     4
100
AcDbCircle
 10
1296.160853
 20
1814.882061
 30
0.0
 40
1.892533
100
AcDbArc
 50
141.923328
 51
218.076672
  0
ARC
  5
62A
100
AcDbEntity
  8
NOTE
  6
CONTINUOUS
 62
     4
100
AcDbCircle
 10
1302.542939
 20
1829.882061
 30
0.0
 40
10.0
100
AcDbArc
 50
330.0
 51
30.0
  0
ARC
  5
62B
100
AcDbEntity
  8
NOTE
  6
CONTINUOUS
 62
     4
100
AcDbCircle
 10
1302.542939
 20
1819.882061
 30
0.0
 40
10.0
100
AcDbArc
 50
330.0
 51
30.0
  0
LINE
  5
62C
100
AcDbEntity
  8
NOTE
  6
CONTINUOUS
 62
     4
100
AcDbLine
 10
1744.333893
 20
1620.904135
 30
0.0
 11
1764.333893
 21
1640.904135
 31
0.0
  0
LINE
  5
62D
100
AcDbEntity
  8
NOTE
  6
CONTINUOUS
 62
     4
100
AcDbLine
 10
1744.333893
 20
1585.548796
 30
0.0
 11
1764.333893
 21
1605.548796
 31
0.0
  0
LINE
  5
62E
100
AcDbEntity
  8
NOTE
  6
CONTINUOUS
 62
     4
100
AcDbLine
 10
1744.333893
 20
1550.193457
 30
0.0
 11
1764.333893
 21
1570.193457
 31
0.0
  0
LINE
  5
62F
100
AcDbEntity
  8
NOTE
  6
CONTINUOUS
 62
     4
100
AcDbLine
 10
1744.333893
 20
1514.838118
 30
0.0
 11
1764.333893
 21
1534.838118
 31
0.0
  0
LINE
  5
630
100
AcDbEntity
  8
NOTE
  6
CONTINUOUS
 62
     4
100
AcDbLine
 10
1744.333893
 20
1479.482779
 30
0.0
 11
1764.333893
 21
1499.482779
 31
0.0
  0
LINE
  5
631
100
AcDbEntity
  8
NOTE
  6
CONTINUOUS
 62
     4
100
AcDbLine
 10
1744.333893
 20
1444.12744
 30
0.0
 11
1764.333893
 21
1464.12744
 31
0.0
  0
LINE
  5
632
100
AcDbEntity
  8
NOTE
  6
CONTINUOUS
 62
     4
100
AcDbLine
 10
1744.333893
 20
1408.7721
 30
0.0
 11
1764.333893
 21
1428.7721
 31
0.0
  0
LINE
  5
633
100
AcDbEntity
  8
NOTE
  6
CONTINUOUS
 62
     4
100
AcDbLine
 10
1744.333893
 20
1373.416761
 30
0.0
 11
1764.333893
 21
1393.416761
 31
0.0
  0
LINE
  5
634
100
AcDbEntity
  8
NOTE
  6
CONTINUOUS
 62
     4
100
AcDbLine
 10
1744.333893
 20
1338.061422
 30
0.0
 11
1764.333893
 21
1358.061422
 31
0.0
  0
LINE
  5
635
100
AcDbEntity
  8
NOTE
  6
CONTINUOUS
 62
     4
100
AcDbLine
 10
1744.333893
 20
1903.746847
 30
0.0
 11
1764.333893
 21
1923.746847
 31
0.0
  0
LINE
  5
636
100
AcDbEntity
  8
NOTE
  6
CONTINUOUS
 62
     4
100
AcDbLine
 10
1744.333893
 20
1868.391508
 30
0.0
 11
1764.333893
 21
1888.391508
 31
0.0
  0
LINE
  5
637
100
AcDbEntity
  8
NOTE
  6
CONTINUOUS
 62
     4
100
AcDbLine
 10
1744.333893
 20
1833.036169
 30
0.0
 11
1764.333893
 21
1853.036169
 31
0.0
  0
LINE
  5
638
100
AcDbEntity
  8
NOTE
  6
CONTINUOUS
 62
     4
100
AcDbLine
 10
1744.333893
 20
1797.68083
 30
0.0
 11
1764.333893
 21
1817.68083
 31
0.0
  0
LINE
  5
639
100
AcDbEntity
  8
NOTE
  6
CONTINUOUS
 62
     4
100
AcDbLine
 10
1744.333893
 20
1762.325491
 30
0.0
 11
1764.333893
 21
1782.325491
 31
0.0
  0
LINE
  5
63A
100
AcDbEntity
  8
NOTE
  6
CONTINUOUS
 62
     4
100
AcDbLine
 10
1744.333893
 20
1726.970152
 30
0.0
 11
1764.333893
 21
1746.970152
 31
0.0
  0
LINE
  5
63B
100
AcDbEntity
  8
NOTE
  6
CONTINUOUS
 62
     4
100
AcDbLine
 10
1744.333893
 20
1691.614813
 30
0.0
 11
1764.333893
 21
1711.614813
 31
0.0
  0
LINE
  5
63C
100
AcDbEntity
  8
NOTE
  6
CONTINUOUS
 62
     4
100
AcDbLine
 10
1744.333893
 20
1656.259474
 30
0.0
 11
1764.333893
 21
1676.259474
 31
0.0
  0
POINT
  5
63D
100
AcDbEntity
  8
DEFPOINTS
  6
CONTINUOUS
 62
     7
100
AcDbPoint
 10
1696.333893
 20
1764.618502
 30
0.0
  0
POINT
  5
63E
100
AcDbEntity
  8
DEFPOINTS
  6
CONTINUOUS
 62
     7
100
AcDbPoint
 10
1696.333893
 20
1764.618502
 30
0.0
  0
LINE
  5
63F
100
AcDbEntity
  8
NOTE
  6
CONTINUOUS
 62
     4
100
AcDbLine
 10
1696.333893
 20
1764.618502
 30
0.0
 11
1696.333893
 21
1728.618502
 31
0.0
  0
CIRCLE
  5
640
100
AcDbEntity
  8
FIX
  6
CONTINUOUS
 62
    11
100
AcDbCircle
 10
1696.333893
 20
1746.618502
 30
0.0
 40
14.940051
  0
LINE
  5
641
100
AcDbEntity
  8
NOTE
  6
CONTINUOUS
 62
     4
100
AcDbLine
 10
1714.333893
 20
1746.618502
 30
0.0
 11
1678.333893
 21
1746.618502
 31
0.0
  0
LINE
  5
642
100
AcDbEntity
  8
NOTE
  6
CONTINUOUS
 62
     4
100
AcDbLine
 10
1696.333893
 20
1764.618502
 30
0.0
 11
1696.333893
 21
1728.618502
 31
0.0
  0
LINE
  5
643
100
AcDbEntity
  8
DETAIL
  6
CONTINUOUS
 62
     5
100
AcDbLine
 10
1702.333893
 20
1769.893502
 30
0.0
 11
1721.333893
 21
1769.893502
 31
0.0
  0
LINE
  5
644
100
AcDbEntity
  8
DETAIL
  6
CONTINUOUS
 62
     5
100
AcDbLine
 10
1671.333893
 20
1769.893502
 30
0.0
 11
1690.333893
 21
1769.893502
 31
0.0
  0
LINE
  5
645
100
AcDbEntity
  8
DETAIL
  6
CONTINUOUS
 62
     5
100
AcDbLine
 10
1702.333893
 20
1753.893502
 30
0.0
 11
1704.333893
 21
1753.893502
 31
0.0
  0
LINE
  5
646
100
AcDbEntity
  8
DETAIL
  6
CONTINUOUS
 62
     5
100
AcDbLine
 10
1688.333893
 20
1753.893502
 30
0.0
 11
1690.333893
 21
1753.893502
 31
0.0
  0
ARC
  5
647
100
AcDbEntity
  8
DETAIL
  6
CONTINUOUS
 62
     5
100
AcDbCircle
 10
1704.333893
 20
1746.893502
 30
0.0
 40
7.0
100
AcDbArc
 50
270.0
 51
90.0
  0
ARC
  5
648
100
AcDbEntity
  8
DETAIL
  6
CONTINUOUS
 62
     5
100
AcDbCircle
 10
1688.333893
 20
1746.893502
 30
0.0
 40
7.0
100
AcDbArc
 50
90.0
 51
270.0
  0
LINE
  5
649
100
AcDbEntity
  8
DETAIL
  6
CONTINUOUS
 62
     5
100
AcDbLine
 10
1702.333893
 20
1769.893502
 30
0.0
 11
1702.333893
 21
1753.893502
 31
0.0
  0
LINE
  5
64A
100
AcDbEntity
  8
DETAIL
  6
CONTINUOUS
 62
     5
100
AcDbLine
 10
1690.333893
 20
1769.893502
 30
0.0
 11
1690.333893
 21
1753.893502
 31
0.0
  0
LINE
  5
64B
100
AcDbEntity
  8
DETAIL
  6
CONTINUOUS
 62
     5
100
AcDbLine
 10
1721.333893
 20
1769.893502
 30
0.0
 11
1721.333893
 21
1722.618502
 31
0.0
  0
LINE
  5
64C
100
AcDbEntity
  8
DETAIL
  6
CONTINUOUS
 62
     5
100
AcDbLine
 10
1671.333893
 20
1769.893502
 30
0.0
 11
1671.333893
 21
1722.618502
 31
0.0
  0
LINE
  5
64D
100
AcDbEntity
  8
DETAIL
  6
CONTINUOUS
 62
     5
100
AcDbLine
 10
1688.333893
 20
1739.893502
 30
0.0
 11
1704.333893
 21
1739.893502
 31
0.0
  0
TEXT
  5
64E
100
AcDbEntity
  8
SIZE
  6
CONTINUOUS
 62
    30
100
AcDbText
 10
1135.669607
 20
2275.992225
 30
0.0
 40
55.0
  1
670(天井開口寸法)
 41
0.9
 72
     1
 11
1409.333893
 21
2275.992225
 31
0.0
100
AcDbText
  0
LINE
  5
64F
100
AcDbEntity
  8
SIZE
  6
CONTINUOUS
 62
    30
100
AcDbLine
 10
1084.333893
 20
2256.587463
 30
0.0
 11
1734.333893
 21
2256.587463
 31
0.0
  0
TEXT
  5
650
100
AcDbEntity
  8
SIZE
  6
CONTINUOUS
 62
    30
100
AcDbText
 10
1150.519607
 20
2142.774814
 30
0.0
 40
55.0
  1
574(吊りﾎﾞﾙﾄﾋﾟｯﾁ)
 41
0.9
 72
     1
 11
1409.333893
 21
2142.774814
 31
0.0
100
AcDbText
  0
LINE
  5
651
100
AcDbEntity
  8
SIZE
  6
CONTINUOUS
 62
    30
100
AcDbLine
 10
1132.333893
 20
2123.370052
 30
0.0
 11
1686.333893
 21
2123.370052
 31
0.0
  0
LINE
  5
652
100
AcDbEntity
  8
NOTE
  6
CONTINUOUS
 62
     4
100
AcDbLine
 10
1517.007496
 20
1994.618502
 30
0.0
 11
1537.007496
 21
2014.618502
 31
0.0
  0
LINE
  5
653
100
AcDbEntity
  8
NOTE
  6
CONTINUOUS
 62
     4
100
AcDbLine
 10
1092.743427
 20
1994.618502
 30
0.0
 11
1112.743427
 21
2014.618502
 31
0.0
  0
LINE
  5
654
100
AcDbEntity
  8
NOTE
  6
CONTINUOUS
 62
     4
100
AcDbLine
 10
1128.098767
 20
1994.618502
 30
0.0
 11
1148.098767
 21
2014.618502
 31
0.0
  0
LINE
  5
655
100
AcDbEntity
  8
NOTE
  6
CONTINUOUS
 62
     4
100
AcDbLine
 10
1163.454106
 20
1994.618502
 30
0.0
 11
1183.454106
 21
2014.618502
 31
0.0
  0
LINE
  5
656
100
AcDbEntity
  8
NOTE
  6
CONTINUOUS
 62
     4
100
AcDbLine
 10
1198.809445
 20
1994.618502
 30
0.0
 11
1218.809445
 21
2014.618502
 31
0.0
  0
LINE
  5
657
100
AcDbEntity
  8
NOTE
  6
CONTINUOUS
 62
     4
100
AcDbLine
 10
1234.164784
 20
1994.618502
 30
0.0
 11
1254.164784
 21
2014.618502
 31
0.0
  0
LINE
  5
658
100
AcDbEntity
  8
NOTE
  6
CONTINUOUS
 62
     4
100
AcDbLine
 10
1269.520123
 20
1994.618502
 30
0.0
 11
1289.520123
 21
2014.618502
 31
0.0
  0
LINE
  5
659
100
AcDbEntity
  8
SIZE
  6
CONTINUOUS
 62
    30
100
AcDbLine
 10
1127.333893
 20
2123.370052
 30
0.0
 11
1132.333893
 21
2123.370052
 31
0.0
  0
CIRCLE
  5
65A
100
AcDbEntity
  8
SIZE
  6
CONTINUOUS
 62
    30
100
AcDbCircle
 10
1122.333893
 20
2123.370052
 30
0.0
 40
5.0
  0
POINT
  5
65B
100
AcDbEntity
  8
DEFPOINTS
  6
CONTINUOUS
 62
     7
100
AcDbPoint
 10
1122.333893
 20
2123.370052
 30
0.0
  0
LINE
  5
65C
100
AcDbEntity
  8
SIZE
  6
CONTINUOUS
 62
    30
100
AcDbLine
 10
1127.333893
 20
2123.370052
 30
0.0
 11
1132.333893
 21
2123.370052
 31
0.0
  0
CIRCLE
  5
65D
100
AcDbEntity
  8
SIZE
  6
CONTINUOUS
 62
    30
100
AcDbCircle
 10
1122.333893
 20
2123.370052
 30
0.0
 40
5.0
  0
LINE
  5
65E
100
AcDbEntity
  8
SIZE
  6
CONTINUOUS
 62
    30
100
AcDbLine
 10
1132.333893
 20
2123.370052
 30
0.0
 11
1142.333893
 21
2123.370052
 31
0.0
  0
LINE
  5
65F
100
AcDbEntity
  8
NOTE
  6
CONTINUOUS
 62
     4
100
AcDbLine
 10
1410.941479
 20
1994.618502
 30
0.0
 11
1430.941479
 21
2014.618502
 31
0.0
  0
LINE
  5
660
100
AcDbEntity
  8
NOTE
  6
CONTINUOUS
 62
     4
100
AcDbLine
 10
1304.875462
 20
1994.618502
 30
0.0
 11
1324.875462
 21
2014.618502
 31
0.0
  0
LINE
  5
661
100
AcDbEntity
  8
NOTE
  6
CONTINUOUS
 62
     4
100
AcDbLine
 10
1340.230801
 20
1994.618502
 30
0.0
 11
1360.230801
 21
2014.618502
 31
0.0
  0
LINE
  5
662
100
AcDbEntity
  8
NOTE
  6
CONTINUOUS
 62
     4
100
AcDbLine
 10
1375.58614
 20
1994.618502
 30
0.0
 11
1395.58614
 21
2014.618502
 31
0.0
  0
LINE
  5
663
100
AcDbEntity
  8
NOTE
  6
CONTINUOUS
 62
     4
100
AcDbLine
 10
1446.296818
 20
1994.618502
 30
0.0
 11
1466.296818
 21
2014.618502
 31
0.0
  0
LINE
  5
664
100
AcDbEntity
  8
NOTE
  6
CONTINUOUS
 62
     4
100
AcDbLine
 10
1481.652157
 20
1994.618502
 30
0.0
 11
1501.652157
 21
2014.618502
 31
0.0
  0
TEXT
  5
665
100
AcDbEntity
  8
SIZE
  6
CONTINUOUS
 62
    30
100
AcDbText
 10
1350.405322
 20
2404.394143
 30
0.0
 40
55.0
  1
710
 41
0.9
 72
     1
 11
1409.333893
 21
2404.394143
 31
0.0
100
AcDbText
  0
LINE
  5
666
100
AcDbEntity
  8
SIZE
  6
CONTINUOUS
 62
    30
100
AcDbLine
 10
1764.333893
 20
2034.618502
 30
0.0
 11
1764.333893
 21
2419.394143
 31
0.0
  0
LINE
  5
667
100
AcDbEntity
  8
SIZE
  6
CONTINUOUS
 62
    30
100
AcDbLine
 10
1744.333893
 20
2014.618502
 30
0.0
 11
1744.333893
 21
2286.587463
 31
0.0
  0
LINE
  5
668
100
AcDbEntity
  8
SIZE
  6
CONTINUOUS
 62
    30
100
AcDbLine
 10
1749.333893
 20
2123.370052
 30
0.0
 11
1754.333893
 21
2123.370052
 31
0.0
  0
LINE
  5
669
100
AcDbEntity
  8
SIZE
  6
CONTINUOUS
 62
    30
100
AcDbLine
 10
1891.052019
 20
2123.370052
 30
0.0
 11
1744.333893
 21
2123.370052
 31
0.0
  0
LINE
  5
66A
100
AcDbEntity
  8
NOTE
  6
CONTINUOUS
 62
     4
100
AcDbLine
 10
1744.333893
 20
1974.457525
 30
0.0
 11
1764.333893
 21
1994.457525
 31
0.0
  0
LINE
  5
66B
100
AcDbEntity
  8
SIZE
  6
CONTINUOUS
 62
    30
100
AcDbLine
 10
1744.333893
 20
2014.618502
 30
0.0
 11
1744.333893
 21
2153.370052
 31
0.0
  0
LINE
  5
66C
100
AcDbEntity
  8
NOTE
  6
CONTINUOUS
 62
     4
100
AcDbLine
 10
1623.073513
 20
1994.618502
 30
0.0
 11
1643.073513
 21
2014.618502
 31
0.0
  0
LINE
  5
66D
100
AcDbEntity
  8
NOTE
  6
CONTINUOUS
 62
     4
100
AcDbLine
 10
1552.362835
 20
1994.618502
 30
0.0
 11
1572.362835
 21
2014.618502
 31
0.0
  0
LINE
  5
66E
100
AcDbEntity
  8
NOTE
  6
CONTINUOUS
 62
     4
100
AcDbLine
 10
1587.718174
 20
1994.618502
 30
0.0
 11
1607.718174
 21
2014.618502
 31
0.0
  0
POINT
  5
66F
100
AcDbEntity
  8
DEFPOINTS
  6
CONTINUOUS
 62
     7
100
AcDbPoint
 10
1744.333893
 20
1994.618502
 30
0.0
  0
POINT
  5
670
100
AcDbEntity
  8
DEFPOINTS
  6
CONTINUOUS
 62
     7
100
AcDbPoint
 10
1744.333893
 20
1994.618502
 30
0.0
  0
LINE
  5
671
100
AcDbEntity
  8
NOTE
  6
CONTINUOUS
 62
     4
100
AcDbLine
 10
1658.428852
 20
1994.618502
 30
0.0
 11
1678.428852
 21
2014.618502
 31
0.0
  0
LINE
  5
672
100
AcDbEntity
  8
NOTE
  6
CONTINUOUS
 62
     4
100
AcDbLine
 10
1693.784191
 20
1994.618502
 30
0.0
 11
1713.784191
 21
2014.618502
 31
0.0
  0
LINE
  5
673
100
AcDbEntity
  8
NOTE
  6
CONTINUOUS
 62
     4
100
AcDbLine
 10
1729.139531
 20
1994.618502
 30
0.0
 11
1749.139531
 21
2014.618502
 31
0.0
  0
POINT
  5
674
100
AcDbEntity
  8
DEFPOINTS
  6
CONTINUOUS
 62
     7
100
AcDbPoint
 10
1744.333893
 20
2123.370052
 30
0.0
  0
CIRCLE
  5
675
100
AcDbEntity
  8
SIZE
  6
CONTINUOUS
 62
    30
100
AcDbCircle
 10
1744.333893
 20
2123.370052
 30
0.0
 40
5.0
  0
LINE
  5
676
100
AcDbEntity
  8
SIZE
  6
CONTINUOUS
 62
    30
100
AcDbLine
 10
1691.333893
 20
2123.370052
 30
0.0
 11
1686.333893
 21
2123.370052
 31
0.0
  0
CIRCLE
  5
677
100
AcDbEntity
  8
SIZE
  6
CONTINUOUS
 62
    30
100
AcDbCircle
 10
1696.333893
 20
2123.370052
 30
0.0
 40
5.0
  0
LINE
  5
678
100
AcDbEntity
  8
SIZE
  6
CONTINUOUS
 62
    30
100
AcDbLine
 10
1696.333893
 20
2123.370052
 30
0.0
 11
1744.333893
 21
2123.370052
 31
0.0
  0
LINE
  5
679
100
AcDbEntity
  8
SIZE
  6
CONTINUOUS
 62
    30
100
AcDbLine
 10
1696.333893
 20
2123.370052
 30
0.0
 11
1744.333893
 21
2123.370052
 31
0.0
  0
LINE
  5
67A
100
AcDbEntity
  8
SIZE
  6
CONTINUOUS
 62
    30
100
AcDbLine
 10
1686.333893
 20
2123.370052
 30
0.0
 11
1676.333893
 21
2123.370052
 31
0.0
  0
POINT
  5
67B
100
AcDbEntity
  8
DEFPOINTS
  6
CONTINUOUS
 62
     7
100
AcDbPoint
 10
1696.333893
 20
2123.370052
 30
0.0
  0
LINE
  5
67C
100
AcDbEntity
  8
SIZE
  6
CONTINUOUS
 62
    30
100
AcDbLine
 10
1691.333893
 20
2123.370052
 30
0.0
 11
1686.333893
 21
2123.370052
 31
0.0
  0
CIRCLE
  5
67D
100
AcDbEntity
  8
SIZE
  6
CONTINUOUS
 62
    30
100
AcDbCircle
 10
1696.333893
 20
2123.370052
 30
0.0
 40
5.0
  0
POINT
  5
67E
100
AcDbEntity
  8
DEFPOINTS
  6
CONTINUOUS
 62
     7
100
AcDbPoint
 10
1764.333893
 20
2014.618502
 30
0.0
  0
POINT
  5
67F
100
AcDbEntity
  8
DEFPOINTS
  6
CONTINUOUS
 62
     7
100
AcDbPoint
 10
1764.333893
 20
2014.618502
 30
0.0
  0
TEXT
  5
680
100
AcDbEntity
  8
SIZE
  6
CONTINUOUS
 62
    30
100
AcDbText
 10
1795.909162
 20
2138.370052
 30
0.0
 40
55.0
  1
48
 41
0.9
 72
     1
 11
1835.98059
 21
2138.370052
 31
0.0
100
AcDbText
  0
LINE
  5
681
100
AcDbEntity
  8
SIZE
  6
CONTINUOUS
 62
    30
100
AcDbLine
 10
1754.333893
 20
2123.370052
 30
0.0
 11
1764.333893
 21
2123.370052
 31
0.0
  0
POINT
  5
682
100
AcDbEntity
  8
DEFPOINTS
  6
CONTINUOUS
 62
     7
100
AcDbPoint
 10
1744.333893
 20
2256.587463
 30
0.0
  0
LINE
  5
683
100
AcDbEntity
  8
SIZE
  6
CONTINUOUS
 62
    30
100
AcDbLine
 10
1739.333893
 20
2256.587463
 30
0.0
 11
1734.333893
 21
2256.587463
 31
0.0
  0
CIRCLE
  5
684
100
AcDbEntity
  8
SIZE
  6
CONTINUOUS
 62
    30
100
AcDbCircle
 10
1744.333893
 20
2256.587463
 30
0.0
 40
5.0
  0
POINT
  5
685
100
AcDbEntity
  8
DEFPOINTS
  6
CONTINUOUS
 62
     7
100
AcDbPoint
 10
1764.333893
 20
2389.394143
 30
0.0
  0
LINE
  5
686
100
AcDbEntity
  8
SIZE
  6
CONTINUOUS
 62
    30
100
AcDbLine
 10
1759.333893
 20
2389.394143
 30
0.0
 11
1754.333893
 21
2389.394143
 31
0.0
  0
CIRCLE
  5
687
100
AcDbEntity
  8
SIZE
  6
CONTINUOUS
 62
    30
100
AcDbCircle
 10
1764.333893
 20
2389.394143
 30
0.0
 40
5.0
  0
POINT
  5
688
100
AcDbEntity
  8
DEFPOINTS
  6
CONTINUOUS
 62
     7
100
AcDbPoint
 10
2267.198701
 20
2014.618502
 30
0.0
  0
LINE
  5
689
100
AcDbEntity
  8
SIZE
  6
CONTINUOUS
 62
    30
100
AcDbLine
 10
2267.198701
 20
2009.618502
 30
0.0
 11
2267.198701
 21
2004.618502
 31
0.0
  0
CIRCLE
  5
68A
100
AcDbEntity
  8
SIZE
  6
CONTINUOUS
 62
    30
100
AcDbCircle
 10
2267.198701
 20
2014.618502
 30
0.0
 40
5.0
  0
ENDBLK
  5
68C
100
AcDbEntity
  8
0
 62
     7
100
AcDbBlockEnd
  0
ENDSEC
  0
SECTION
  2
ENTITIES
  0
TEXT
  5
68E
100
AcDbEntity
  8
ETC
  6
CONTINUOUS
 62
    61
100
AcDbText
 10
-1409.33389
 20
1207.189933
 30
0.0
 40
80.0
  1
PLFY-P22_45LM-E(ﾘﾌﾟﾚｽﾊﾟﾈﾙ)_1
 50
0.000003
 41
0.8
100
AcDbText
  0
TEXT
  5
68F
100
AcDbEntity
  8
NOTE
  6
CONTINUOUS
 62
     4
100
AcDbText
 10
-843.142424
 20
-1229.161572
 30
0.0
 40
64.0
  1
RL %%C6.35
 41
0.9
100
AcDbText
  0
LINE
  5
690
100
AcDbEntity
  8
NOTE
  6
CONTINUOUS
 62
     4
100
AcDbLine
 10
-458.841218
 20
-1249.03216
 30
0.0
 11
101.000482
 21
-454.999319
 31
0.0
  0
LINE
  5
691
100
AcDbEntity
  8
SIZE
  6
CONTINUOUS
 62
    30
100
AcDbLine
 10
-317.0
 20
-408.0
 30
0.0
 11
-317.0
 21
-1334.618498
 31
0.0
  0
LINE
  5
692
100
AcDbEntity
  8
SIZE
  6
CONTINUOUS
 62
    30
100
AcDbLine
 10
317.0
 20
-408.0
 30
0.0
 11
317.0
 21
-1334.618498
 31
0.0
  0
LINE
  5
693
100
AcDbEntity
  8
NOTE
  6
CONTINUOUS
 62
     4
100
AcDbLine
 10
-877.540182
 20
-1249.03216
 30
0.0
 11
-458.841218
 21
-1249.03216
 31
0.0
  0
LINE
  5
694
100
AcDbEntity
  8
SIZE
  6
CONTINUOUS
 62
    30
100
AcDbLine
 10
307.0
 20
-1304.618498
 30
0.0
 11
-307.0
 21
-1304.618498
 31
0.0
  0
POINT
  5
695
100
AcDbEntity
  8
DEFPOINTS
  6
CONTINUOUS
 62
     7
100
AcDbPoint
 10
-317.0
 20
-1304.618498
 30
0.0
  0
LINE
  5
696
100
AcDbEntity
  8
SIZE
  6
CONTINUOUS
 62
    30
100
AcDbLine
 10
-312.0
 20
-1304.618498
 30
0.0
 11
-307.0
 21
-1304.618498
 31
0.0
  0
CIRCLE
  5
697
100
AcDbEntity
  8
SIZE
  6
CONTINUOUS
 62
    30
100
AcDbCircle
 10
-317.0
 20
-1304.618498
 30
0.0
 40
5.0
  0
TEXT
  5
698
100
AcDbEntity
  8
SIZE
  6
CONTINUOUS
 62
    30
100
AcDbText
 10
-57.616307
 20
-1289.618498
 30
0.0
 40
55.0
  1
634
 41
0.9
 72
     1
 11
7.205122
 21
-1289.618498
 31
0.0
100
AcDbText
  0
LINE
  5
699
100
AcDbEntity
  8
SIZE
  6
CONTINUOUS
 62
    30
100
AcDbLine
 10
312.0
 20
-1304.618498
 30
0.0
 11
307.0
 21
-1304.618498
 31
0.0
  0
CIRCLE
  5
69A
100
AcDbEntity
  8
SIZE
  6
CONTINUOUS
 62
    30
100
AcDbCircle
 10
317.0
 20
-1304.618498
 30
0.0
 40
5.0
  0
LINE
  5
69B
100
AcDbEntity
  8
BASIS
  6
DASHDOT
 62
     6
100
AcDbLine
 10
381.020374
 20
0.0
 30
0.0
 11
-381.020374
 21
0.0
 31
0.0
  0
POLYLINE
  5
69C
100
AcDbEntity
  8
OUTLINE
  6
CONTINUOUS
 62
     3
100
AcDb2dPolyline
 66
     1
 10
0.0
 20
0.0
 30
0.0
 70
     1
  0
VERTEX
  5
69D
100
AcDbEntity
  8
OUTLINE
  6
CONTINUOUS
 62
     3
100
AcDbVertex
100
AcDb2dVertex
 10
-355.0
 20
680.0
 30
0.0
  0
VERTEX
  5
69E
100
AcDbEntity
  8
OUTLINE
  6
CONTINUOUS
 62
     3
100
AcDbVertex
100
AcDb2dVertex
 10
355.0
 20
680.0
 30
0.0
  0
VERTEX
  5
69F
100
AcDbEntity
  8
OUTLINE
  6
CONTINUOUS
 62
     3
100
AcDbVertex
100
AcDb2dVertex
 10
355.0
 20
-680.0
 30
0.0
  0
VERTEX
  5
6A0
100
AcDbEntity
  8
OUTLINE
  6
CONTINUOUS
 62
     3
100
AcDbVertex
100
AcDb2dVertex
 10
-355.0
 20
-680.0
 30
0.0
  0
SEQEND
  5
6A1
100
AcDbEntity
  8
OUTLINE
  6
CONTINUOUS
 62
     3
  0
LINE
  5
6A2
100
AcDbEntity
  8
NOTE
  6
CONTINUOUS
 62
     4
100
AcDbLine
 10
-442.10256
 20
-1063.256536
 30
0.0
 11
-179.999606
 21
-448.000534
 31
0.0
  0
LINE
  5
6A3
100
AcDbEntity
  8
NOTE
  6
CONTINUOUS
 62
     4
100
AcDbLine
 10
-559.489178
 20
-846.67917
 30
0.0
 11
-189.999606
 21
-448.000534
 31
0.0
  0
LINE
  5
6A4
100
AcDbEntity
  8
SIZE
  6
CONTINUOUS
 62
    30
100
AcDbLine
 10
-325.0
 20
412.0
 30
0.0
 11
-705.566075
 21
412.0
 31
0.0
  0
LINE
  5
6A5
100
AcDbEntity
  8
SIZE
  6
CONTINUOUS
 62
    30
100
AcDbLine
 10
-325.0
 20
412.0
 30
0.0
 11
-705.566075
 21
412.0
 31
0.0
  0
LINE
  5
6A6
100
AcDbEntity
  8
SIZE
  6
CONTINUOUS
 62
    30
100
AcDbLine
 10
-325.0
 20
-412.0
 30
0.0
 11
-705.566075
 21
-412.0
 31
0.0
  0
LINE
  5
6A7
100
AcDbEntity
  8
SIZE
  6
CONTINUOUS
 62
    30
100
AcDbLine
 10
-325.0
 20
-412.0
 30
0.0
 11
-705.566075
 21
-412.0
 31
0.0
  0
LINE
  5
6A8
100
AcDbEntity
  8
SIZE
  6
CONTINUOUS
 62
    30
100
AcDbLine
 10
-182.675
 20
-448.0
 30
0.0
 11
-459.546566
 21
-448.0
 31
0.0
  0
LINE
  5
6A9
100
AcDbEntity
  8
SIZE
  6
CONTINUOUS
 62
    30
100
AcDbLine
 10
-345.0
 20
1054.775641
 30
0.0
 11
345.0
 21
1054.775641
 31
0.0
  0
LINE
  5
6AA
100
AcDbEntity
  8
SIZE
  6
CONTINUOUS
 62
    30
100
AcDbLine
 10
-330.0
 20
921.968961
 30
0.0
 11
-325.0
 21
921.968961
 31
0.0
  0
LINE
  5
6AB
100
AcDbEntity
  8
SIZE
  6
CONTINUOUS
 62
    30
100
AcDbLine
 10
-287.0
 20
788.75155
 30
0.0
 11
-335.0
 21
788.75155
 31
0.0
  0
LINE
  5
6AD
100
AcDbEntity
  8
DETAIL
  6
CONTINUOUS
 62
     5
100
AcDbLine
 10
355.0
 20
-680.0
 30
0.0
 11
-355.0
 21
-680.0
 31
0.0
  0
LINE
  5
6AE
100
AcDbEntity
  8
DETAIL
  6
CONTINUOUS
 62
     5
100
AcDbLine
 10
355.0
 20
680.0
 30
0.0
 11
-355.0
 21
680.0
 31
0.0
  0
LINE
  5
6AF
100
AcDbEntity
  8
DETAIL
  6
CONTINUOUS
 62
     5
100
AcDbLine
 10
335.0
 20
-660.0
 30
0.0
 11
-335.0
 21
-660.0
 31
0.0
  0
LINE
  5
6B0
100
AcDbEntity
  8
DETAIL
  6
CONTINUOUS
 62
     5
100
AcDbLine
 10
335.0
 20
660.0
 30
0.0
 11
-335.0
 21
660.0
 31
0.0
  0
LINE
  5
6B1
100
AcDbEntity
  8
DETAIL
  6
CONTINUOUS
 62
     5
100
AcDbLine
 10
335.0
 20
-660.0
 30
0.0
 11
-335.0
 21
-660.0
 31
0.0
  0
LINE
  5
6B2
100
AcDbEntity
  8
NOTE
  6
CONTINUOUS
 62
     4
100
AcDbLine
 10
-566.786499
 20
791.579051
 30
0.0
 11
-287.000297
 21
412.000599
 31
0.0
  0
TEXT
  5
6B3
100
AcDbEntity
  8
SIZE
  6
CONTINUOUS
 62
    30
100
AcDbText
 10
-864.583054
 20
-292.521429
 30
0.0
 40
55.0
  1
1320(天井開口寸法)
 50
90.0
 41
0.9
 72
     1
 11
-864.583054
 21
0.0
 31
0.0
100
AcDbText
  0
LINE
  5
6B4
100
AcDbEntity
  8
SIZE
  6
CONTINUOUS
 62
    30
100
AcDbLine
 10
-845.178292
 20
650.0
 30
0.0
 11
-845.178292
 21
-650.0
 31
0.0
  0
TEXT
  5
6B5
100
AcDbEntity
  8
SIZE
  6
CONTINUOUS
 62
    30
100
AcDbText
 10
-694.970837
 20
-258.814286
 30
0.0
 40
55.0
  1
824(吊りﾎﾞﾙﾄﾋﾟｯﾁ)
 50
90.0
 41
0.9
 72
     1
 11
-694.970837
 21
0.0
 31
0.0
100
AcDbText
  0
LINE
  5
6B6
100
AcDbEntity
  8
SIZE
  6
CONTINUOUS
 62
    30
100
AcDbLine
 10
-675.566075
 20
-402.0
 30
0.0
 11
-675.566075
 21
402.0
 31
0.0
  0
TEXT
  5
6B7
100
AcDbEntity
  8
SIZE
  6
CONTINUOUS
 62
    30
100
AcDbText
 10
-570.191246
 20
-62.464286
 30
0.0
 40
55.0
  1
776
 50
90.0
 41
0.9
 72
     1
 11
-570.191246
 21
0.0
 31
0.0
100
AcDbText
  0
LINE
  5
6B8
100
AcDbEntity
  8
SIZE
  6
CONTINUOUS
 62
    30
100
AcDbLine
 10
-555.191246
 20
-378.0
 30
0.0
 11
-555.191246
 21
378.0
 31
0.0
  0
CIRCLE
  5
6B9
100
AcDbEntity
  8
SIZE
  6
CONTINUOUS
 62
    30
100
AcDbCircle
 10
-429.546566
 20
0.0
 30
0.0
 40
5.0
  0
LINE
  5
6BB
100
AcDbEntity
  8
DETAIL
  6
CONTINUOUS
 62
     5
100
AcDbLine
 10
-355.0
 20
-680.0
 30
0.0
 11
-355.0
 21
680.0
 31
0.0
  0
LINE
  5
6BC
100
AcDbEntity
  8
DETAIL
  6
CONTINUOUS
 62
     5
100
AcDbLine
 10
-335.0
 20
-660.0
 30
0.0
 11
-335.0
 21
660.0
 31
0.0
  0
LINE
  5
6BD
100
AcDbEntity
  8
SIZE
  6
CONTINUOUS
 62
    30
100
AcDbLine
 10
-675.566075
 20
-650.0
 30
0.0
 11
-675.566075
 21
-422.0
 31
0.0
  0
TEXT
  5
6BE
100
AcDbEntity
  8
SIZE
  6
CONTINUOUS
 62
    30
100
AcDbText
 10
-448.951327
 20
-616.785714
 30
0.0
 40
55.0
  1
(60)
 50
90.0
 41
0.9
 72
     1
 11
-448.951327
 21
-544.892857
 31
0.0
100
AcDbText
  0
LINE
  5
6BF
100
AcDbEntity
  8
SIZE
  6
CONTINUOUS
 62
    30
100
AcDbLine
 10
-429.546566
 20
-448.0
 30
0.0
 11
-429.546566
 21
-621.785714
 31
0.0
  0
LINE
  5
6C1
100
AcDbEntity
  8
NOTE
  6
CONTINUOUS
 62
     4
100
AcDbLine
 10
-862.515672
 20
-1063.256536
 30
0.0
 11
-442.10256
 21
-1063.256536
 31
0.0
  0
TEXT
  5
6C2
100
AcDbEntity
  8
NOTE
  6
CONTINUOUS
 62
     4
100
AcDbText
 10
-846.280795
 20
-1043.385948
 30
0.0
 40
64.0
  1
D VP-25
 41
0.9
100
AcDbText
  0
TEXT
  5
6C3
100
AcDbEntity
  8
NOTE
  6
CONTINUOUS
 62
     4
100
AcDbText
 10
-1003.515127
 20
-921.406655
 30
0.0
 40
64.0
  1
（自然排水口）
 41
0.9
100
AcDbText
  0
LINE
  5
6C4
100
AcDbEntity
  8
NOTE
  6
CONTINUOUS
 62
     4
100
AcDbLine
 10
-1028.354252
 20
-846.67917
 30
0.0
 11
-559.489178
 21
-846.67917
 31
0.0
  0
LINE
  5
6C5
100
AcDbEntity
  8
SIZE
  6
CONTINUOUS
 62
    30
100
AcDbLine
 10
-355.0
 20
-660.0
 30
0.0
 11
-875.178292
 21
-660.0
 31
0.0
  0
TEXT
  5
6C6
100
AcDbEntity
  8
NOTE
  6
CONTINUOUS
 62
     4
100
AcDbText
 10
-976.743491
 20
-819.737054
 30
0.0
 40
64.0
  1
D抜き
 41
0.9
100
AcDbText
  0
POINT
  5
6C7
100
AcDbEntity
  8
DEFPOINTS
  6
CONTINUOUS
 62
     7
100
AcDbPoint
 10
-845.178292
 20
-660.0
 30
0.0
  0
LINE
  5
6C8
100
AcDbEntity
  8
SIZE
  6
CONTINUOUS
 62
    30
100
AcDbLine
 10
-845.178292
 20
-655.0
 30
0.0
 11
-845.178292
 21
-650.0
 31
0.0
  0
CIRCLE
  5
6C9
100
AcDbEntity
  8
SIZE
  6
CONTINUOUS
 62
    30
100
AcDbCircle
 10
-845.178292
 20
-660.0
 30
0.0
 40
5.0
  0
LINE
  5
6CA
100
AcDbEntity
  8
SIZE
  6
CONTINUOUS
 62
    30
100
AcDbLine
 10
-355.0
 20
-660.0
 30
0.0
 11
-705.566075
 21
-660.0
 31
0.0
  0
LINE
  5
6CB
100
AcDbEntity
  8
SIZE
  6
CONTINUOUS
 62
    30
100
AcDbLine
 10
-675.566075
 20
-655.0
 30
0.0
 11
-675.566075
 21
-650.0
 31
0.0
  0
CIRCLE
  5
6CC
100
AcDbEntity
  8
SIZE
  6
CONTINUOUS
 62
    30
100
AcDbCircle
 10
-675.566075
 20
-660.0
 30
0.0
 40
5.0
  0
LINE
  5
6D0
100
AcDbEntity
  8
SIZE
  6
CONTINUOUS
 62
    30
100
AcDbLine
 10
-429.546566
 20
-10.0
 30
0.0
 11
-429.546566
 21
-378.0
 31
0.0
  0
CIRCLE
  5
6D1
100
AcDbEntity
  8
SIZE
  6
CONTINUOUS
 62
    30
100
AcDbCircle
 10
-555.191246
 20
-388.0
 30
0.0
 40
5.0
  0
LINE
  5
6D2
100
AcDbEntity
  8
SIZE
  6
CONTINUOUS
 62
    30
100
AcDbLine
 10
-337.0
 20
-388.0
 30
0.0
 11
-585.191246
 21
-388.0
 31
0.0
  0
TEXT
  5
6D3
100
AcDbEntity
  8
SIZE
  6
CONTINUOUS
 62
    30
100
AcDbText
 10
-690.566075
 20
-599.642857
 30
0.0
 40
55.0
  1
248
 50
90.0
 41
0.9
 72
     1
 11
-690.566075
 21
-536.0
 31
0.0
100
AcDbText
  0
LINE
  5
6D4
100
AcDbEntity
  8
SIZE
  6
CONTINUOUS
 62
    30
100
AcDbLine
 10
-675.566075
 20
-407.0
 30
0.0
 11
-675.566075
 21
-402.0
 31
0.0
  0
CIRCLE
  5
6D5
100
AcDbEntity
  8
SIZE
  6
CONTINUOUS
 62
    30
100
AcDbCircle
 10
-675.566075
 20
-412.0
 30
0.0
 40
5.0
  0
POINT
  5
6D6
100
AcDbEntity
  8
DEFPOINTS
  6
CONTINUOUS
 62
     7
100
AcDbPoint
 10
-675.566075
 20
-412.0
 30
0.0
  0
LINE
  5
6D7
100
AcDbEntity
  8
SIZE
  6
CONTINUOUS
 62
    30
100
AcDbLine
 10
-675.566075
 20
-417.0
 30
0.0
 11
-675.566075
 21
-422.0
 31
0.0
  0
CIRCLE
  5
6D8
100
AcDbEntity
  8
SIZE
  6
CONTINUOUS
 62
    30
100
AcDbCircle
 10
-675.566075
 20
-412.0
 30
0.0
 40
5.0
  0
LINE
  5
6D9
100
AcDbEntity
  8
SIZE
  6
CONTINUOUS
 62
    30
100
AcDbLine
 10
-555.191246
 20
-383.0
 30
0.0
 11
-555.191246
 21
-378.0
 31
0.0
  0
LINE
  5
6DE
100
AcDbEntity
  8
SIZE
  6
CONTINUOUS
 62
    30
100
AcDbLine
 10
-337.0
 20
-388.0
 30
0.0
 11
-459.546566
 21
-388.0
 31
0.0
  0
LINE
  5
6DF
100
AcDbEntity
  8
SIZE
  6
CONTINUOUS
 62
    30
100
AcDbLine
 10
-337.0
 20
-388.0
 30
0.0
 11
-459.546566
 21
-388.0
 31
0.0
  0
POINT
  5
6E0
100
AcDbEntity
  8
DEFPOINTS
  6
CONTINUOUS
 62
     7
100
AcDbPoint
 10
-429.546566
 20
-388.0
 30
0.0
  0
LINE
  5
6E1
100
AcDbEntity
  8
SIZE
  6
CONTINUOUS
 62
    30
100
AcDbLine
 10
-429.546566
 20
-383.0
 30
0.0
 11
-429.546566
 21
-378.0
 31
0.0
  0
CIRCLE
  5
6E2
100
AcDbEntity
  8
SIZE
  6
CONTINUOUS
 62
    30
100
AcDbCircle
 10
-429.546566
 20
-388.0
 30
0.0
 40
5.0
  0
POINT
  5
6E3
100
AcDbEntity
  8
DEFPOINTS
  6
CONTINUOUS
 62
     7
100
AcDbPoint
 10
-429.546566
 20
-448.0
 30
0.0
  0
LINE
  5
6E4
100
AcDbEntity
  8
SIZE
  6
CONTINUOUS
 62
    30
100
AcDbLine
 10
-429.546566
 20
-443.0
 30
0.0
 11
-429.546566
 21
-438.0
 31
0.0
  0
CIRCLE
  5
6E5
100
AcDbEntity
  8
SIZE
  6
CONTINUOUS
 62
    30
100
AcDbCircle
 10
-429.546566
 20
-448.0
 30
0.0
 40
5.0
  0
LINE
  5
6E6
100
AcDbEntity
  8
SIZE
  6
CONTINUOUS
 62
    30
100
AcDbLine
 10
-429.546566
 20
-393.0
 30
0.0
 11
-429.546566
 21
-398.0
 31
0.0
  0
CIRCLE
  5
6E7
100
AcDbEntity
  8
SIZE
  6
CONTINUOUS
 62
    30
100
AcDbCircle
 10
-429.546566
 20
-388.0
 30
0.0
 40
5.0
  0
LINE
  5
6E8
100
AcDbEntity
  8
SIZE
  6
CONTINUOUS
 62
    30
100
AcDbLine
 10
-429.546566
 20
-398.0
 30
0.0
 11
-429.546566
 21
-438.0
 31
0.0
  0
TEXT
  5
6ED
100
AcDbEntity
  8
SIZE
  6
CONTINUOUS
 62
    30
100
AcDbText
 10
-444.546566
 20
-257.642857
 30
0.0
 40
55.0
  1
388
 50
90.0
 41
0.9
 72
     1
 11
-444.546566
 21
-194.0
 31
0.0
100
AcDbText
  0
LINE
  5
6F3
100
AcDbEntity
  8
SIZE
  6
CONTINUOUS
 62
    30
100
AcDbLine
 10
-429.546566
 20
-5.0
 30
0.0
 11
-429.546566
 21
-10.0
 31
0.0
  0
LINE
  5
6F7
100
AcDbEntity
  8
NOTE
  6
CONTINUOUS
 62
     4
100
AcDbLine
 10
-1238.979593
 20
791.579051
 30
0.0
 11
-566.786499
 21
791.579051
 31
0.0
  0
LINE
  5
6F8
100
AcDbEntity
  8
SIZE
  6
CONTINUOUS
 62
    30
100
AcDbLine
 10
-675.566075
 20
422.0
 30
0.0
 11
-675.566075
 21
650.0
 31
0.0
  0
LINE
  5
6FA
100
AcDbEntity
  8
SIZE
  6
CONTINUOUS
 62
    30
100
AcDbLine
 10
-401.020374
 20
0.0
 30
0.0
 11
-459.546566
 21
0.0
 31
0.0
  0
POINT
  5
6FB
100
AcDbEntity
  8
DEFPOINTS
  6
CONTINUOUS
 62
     7
100
AcDbPoint
 10
-381.020374
 20
0.0
 30
0.0
  0
CIRCLE
  5
705
100
AcDbEntity
  8
SIZE
  6
CONTINUOUS
 62
    30
100
AcDbCircle
 10
-555.191246
 20
388.0
 30
0.0
 40
5.0
  0
LINE
  5
706
100
AcDbEntity
  8
SIZE
  6
CONTINUOUS
 62
    30
100
AcDbLine
 10
-337.0
 20
388.0
 30
0.0
 11
-585.191246
 21
388.0
 31
0.0
  0
LINE
  5
707
100
AcDbEntity
  8
SIZE
  6
CONTINUOUS
 62
    30
100
AcDbLine
 10
-675.566075
 20
417.0
 30
0.0
 11
-675.566075
 21
422.0
 31
0.0
  0
CIRCLE
  5
708
100
AcDbEntity
  8
SIZE
  6
CONTINUOUS
 62
    30
100
AcDbCircle
 10
-675.566075
 20
412.0
 30
0.0
 40
5.0
  0
POINT
  5
709
100
AcDbEntity
  8
DEFPOINTS
  6
CONTINUOUS
 62
     7
100
AcDbPoint
 10
-675.566075
 20
412.0
 30
0.0
  0
LINE
  5
70A
100
AcDbEntity
  8
SIZE
  6
CONTINUOUS
 62
    30
100
AcDbLine
 10
-675.566075
 20
407.0
 30
0.0
 11
-675.566075
 21
402.0
 31
0.0
  0
CIRCLE
  5
70B
100
AcDbEntity
  8
SIZE
  6
CONTINUOUS
 62
    30
100
AcDbCircle
 10
-675.566075
 20
412.0
 30
0.0
 40
5.0
  0
POINT
  5
70C
100
AcDbEntity
  8
DEFPOINTS
  6
CONTINUOUS
 62
     7
100
AcDbPoint
 10
-555.191246
 20
388.0
 30
0.0
  0
LINE
  5
70D
100
AcDbEntity
  8
SIZE
  6
CONTINUOUS
 62
    30
100
AcDbLine
 10
-555.191246
 20
383.0
 30
0.0
 11
-555.191246
 21
378.0
 31
0.0
  0
TEXT
  5
70E
100
AcDbEntity
  8
SIZE
  6
CONTINUOUS
 62
    30
100
AcDbText
 10
-690.566075
 20
472.357143
 30
0.0
 40
55.0
  1
248
 50
90.0
 41
0.9
 72
     1
 11
-690.566075
 21
536.0
 31
0.0
100
AcDbText
  0
TEXT
  5
717
100
AcDbEntity
  8
NOTE
  6
CONTINUOUS
 62
     4
100
AcDbText
 10
-1219.399958
 20
811.449639
 30
0.0
 40
64.0
  1
AH4-14×30長穴
 41
0.9
100
AcDbText
  0
LINE
  5
718
100
AcDbEntity
  8
SIZE
  6
CONTINUOUS
 62
    30
100
AcDbLine
 10
-355.0
 20
660.0
 30
0.0
 11
-875.178292
 21
660.0
 31
0.0
  0
LINE
  5
719
100
AcDbEntity
  8
SIZE
  6
CONTINUOUS
 62
    30
100
AcDbLine
 10
-845.178292
 20
655.0
 30
0.0
 11
-845.178292
 21
650.0
 31
0.0
  0
CIRCLE
  5
71A
100
AcDbEntity
  8
SIZE
  6
CONTINUOUS
 62
    30
100
AcDbCircle
 10
-845.178292
 20
660.0
 30
0.0
 40
5.0
  0
LINE
  5
71B
100
AcDbEntity
  8
SIZE
  6
CONTINUOUS
 62
    30
100
AcDbLine
 10
-355.0
 20
700.0
 30
0.0
 11
-355.0
 21
1084.775641
 31
0.0
  0
LINE
  5
71C
100
AcDbEntity
  8
SIZE
  6
CONTINUOUS
 62
    30
100
AcDbLine
 10
-335.0
 20
680.0
 30
0.0
 11
-335.0
 21
951.968961
 31
0.0
  0
LINE
  5
71D
100
AcDbEntity
  8
SIZE
  6
CONTINUOUS
 62
    30
100
AcDbLine
 10
-355.0
 20
660.0
 30
0.0
 11
-705.566075
 21
660.0
 31
0.0
  0
POINT
  5
71E
100
AcDbEntity
  8
DEFPOINTS
  6
CONTINUOUS
 62
     7
100
AcDbPoint
 10
-675.566075
 20
660.0
 30
0.0
  0
LINE
  5
71F
100
AcDbEntity
  8
SIZE
  6
CONTINUOUS
 62
    30
100
AcDbLine
 10
-675.566075
 20
655.0
 30
0.0
 11
-675.566075
 21
650.0
 31
0.0
  0
CIRCLE
  5
720
100
AcDbEntity
  8
SIZE
  6
CONTINUOUS
 62
    30
100
AcDbCircle
 10
-675.566075
 20
660.0
 30
0.0
 40
5.0
  0
LINE
  5
721
100
AcDbEntity
  8
SIZE
  6
CONTINUOUS
 62
    30
100
AcDbLine
 10
-335.0
 20
680.0
 30
0.0
 11
-335.0
 21
818.75155
 31
0.0
  0
TEXT
  5
729
100
AcDbEntity
  8
SIZE
  6
CONTINUOUS
 62
    30
100
AcDbText
 10
-459.098981
 20
803.75155
 30
0.0
 40
55.0
  1
48
 41
0.9
 72
     1
 11
-419.027552
 21
803.75155
 31
0.0
100
AcDbText
  0
LINE
  5
72A
100
AcDbEntity
  8
SIZE
  6
CONTINUOUS
 62
    30
100
AcDbLine
 10
-345.0
 20
788.75155
 30
0.0
 11
-474.098981
 21
788.75155
 31
0.0
  0
LINE
  5
72B
100
AcDbEntity
  8
SIZE
  6
CONTINUOUS
 62
    30
100
AcDbLine
 10
-340.0
 20
788.75155
 30
0.0
 11
-345.0
 21
788.75155
 31
0.0
  0
CIRCLE
  5
72C
100
AcDbEntity
  8
SIZE
  6
CONTINUOUS
 62
    30
100
AcDbCircle
 10
-335.0
 20
788.75155
 30
0.0
 40
5.0
  0
LINE
  5
72D
100
AcDbEntity
  8
SIZE
  6
CONTINUOUS
 62
    30
100
AcDbLine
 10
-350.0
 20
1054.775641
 30
0.0
 11
-345.0
 21
1054.775641
 31
0.0
  0
CIRCLE
  5
72E
100
AcDbEntity
  8
SIZE
  6
CONTINUOUS
 62
    30
100
AcDbCircle
 10
-355.0
 20
1054.775641
 30
0.0
 40
5.0
  0
CIRCLE
  5
72F
100
AcDbEntity
  8
SIZE
  6
CONTINUOUS
 62
    30
100
AcDbCircle
 10
-335.0
 20
921.968961
 30
0.0
 40
5.0
  0
LINE
  5
730
100
AcDbEntity
  8
BASIS
  6
DASHDOT
 62
     6
100
AcDbLine
 10
0.0
 20
711.889009
 30
0.0
 11
0.0
 21
-708.110991
 31
0.0
  0
LINE
  5
731
100
AcDbEntity
  8
ARRANGE
  6
CONTINUOUS
 62
     1
100
AcDbLine
 10
42.469199
 20
42.157106
 30
0.0
 11
-42.469199
 21
-42.157106
 31
0.0
  0
CIRCLE
  5
732
100
AcDbEntity
  8
ARRANGE
  6
CONTINUOUS
 62
     1
100
AcDbCircle
 10
0.0
 20
0.0
 30
0.0
 40
42.5
  0
TEXT
  5
733
100
AcDbEntity
  8
SIZE
  6
CONTINUOUS
 62
    30
100
AcDbText
 10
842.864808
 20
-110.29657
 30
0.0
 40
55.0
  1
1360
 50
90.0
 41
0.9
 72
     1
 11
842.864808
 21
-27.79657
 31
0.0
100
AcDbText
  0
LINE
  5
734
100
AcDbEntity
  8
SIZE
  6
CONTINUOUS
 62
    30
100
AcDbLine
 10
857.864808
 20
-670.0
 30
0.0
 11
857.864808
 21
670.0
 31
0.0
  0
LINE
  5
735
100
AcDbEntity
  8
ARRANGE
  6
CONTINUOUS
 62
     1
100
AcDbLine
 10
42.531748
 20
-42.094
 30
0.0
 11
-42.531748
 21
42.094
 31
0.0
  0
LINE
  5
736
100
AcDbEntity
  8
DETAIL
  6
CONTINUOUS
 62
     5
100
AcDbLine
 10
355.0
 20
680.0
 30
0.0
 11
355.0
 21
-680.0
 31
0.0
  0
LINE
  5
737
100
AcDbEntity
  8
DETAIL
  6
CONTINUOUS
 62
     5
100
AcDbLine
 10
-317.0
 20
-388.0
 30
0.0
 11
-317.0
 21
388.0
 31
0.0
  0
LINE
  5
738
100
AcDbEntity
  8
DETAIL
  6
CONTINUOUS
 62
     5
100
AcDbLine
 10
317.0
 20
388.0
 30
0.0
 11
317.0
 21
-388.0
 31
0.0
  0
LINE
  5
739
100
AcDbEntity
  8
DETAIL
  6
CONTINUOUS
 62
     5
100
AcDbLine
 10
335.0
 20
660.0
 30
0.0
 11
335.0
 21
-660.0
 31
0.0
  0
LINE
  5
73A
100
AcDbEntity
  8
NOTE
  6
CONTINUOUS
 62
     4
100
AcDbLine
 10
676.624883
 20
-953.152469
 30
0.0
 11
171.000394
 21
-466.000534
 31
0.0
  0
LINE
  5
73B
100
AcDbEntity
  8
SIZE
  6
CONTINUOUS
 62
    30
100
AcDbLine
 10
375.0
 20
-680.0
 30
0.0
 11
887.864808
 21
-680.0
 31
0.0
  0
LINE
  5
73C
100
AcDbEntity
  8
SIZE
  6
CONTINUOUS
 62
    30
100
AcDbLine
 10
337.0
 20
-388.0
 30
0.0
 11
773.034135
 21
-388.0
 31
0.0
  0
LINE
  5
73D
100
AcDbEntity
  8
SIZE
  6
CONTINUOUS
 62
    30
100
AcDbLine
 10
209.0
 20
-466.0
 30
0.0
 11
773.034135
 21
-466.0
 31
0.0
  0
TEXT
  5
73E
100
AcDbEntity
  8
SIZE
  6
CONTINUOUS
 62
    30
100
AcDbText
 10
585.218316
 20
-624.992431
 30
0.0
 40
55.0
  1
(67)
 50
90.0
 41
0.9
 72
     1
 11
585.218316
 21
-553.099574
 31
0.0
100
AcDbText
  0
LINE
  5
73F
100
AcDbEntity
  8
SIZE
  6
CONTINUOUS
 62
    30
100
AcDbLine
 10
139.0
 20
-455.0
 30
0.0
 11
634.623078
 21
-455.0
 31
0.0
  0
LINE
  5
740
100
AcDbEntity
  8
SIZE
  6
CONTINUOUS
 62
    30
100
AcDbLine
 10
337.0
 20
-388.0
 30
0.0
 11
634.623078
 21
-388.0
 31
0.0
  0
LINE
  5
741
100
AcDbEntity
  8
SIZE
  6
CONTINUOUS
 62
    30
100
AcDbLine
 10
101.0
 20
-493.0
 30
0.0
 11
101.0
 21
-986.337945
 31
0.0
  0
LINE
  5
742
100
AcDbEntity
  8
SIZE
  6
CONTINUOUS
 62
    30
100
AcDbLine
 10
171.0
 20
-504.0
 30
0.0
 11
171.0
 21
-986.337945
 31
0.0
  0
LINE
  5
743
100
AcDbEntity
  8
SIZE
  6
CONTINUOUS
 62
    30
100
AcDbLine
 10
171.0
 20
-504.0
 30
0.0
 11
171.0
 21
-986.337945
 31
0.0
  0
LINE
  5
744
100
AcDbEntity
  8
SIZE
  6
CONTINUOUS
 62
    30
100
AcDbLine
 10
317.0
 20
-408.0
 30
0.0
 11
317.0
 21
-986.337945
 31
0.0
  0
TEXT
  5
745
100
AcDbEntity
  8
SIZE
  6
CONTINUOUS
 62
    30
100
AcDbText
 10
448.498057
 20
-625.0
 30
0.0
 40
55.0
  1
20
 50
90.0
 41
0.9
 72
     1
 11
448.498057
 21
-584.928571
 31
0.0
100
AcDbText
  0
LINE
  5
746
100
AcDbEntity
  8
SIZE
  6
CONTINUOUS
 62
    30
100
AcDbLine
 10
463.498057
 20
-650.0
 30
0.0
 11
463.498057
 21
-529.857143
 31
0.0
  0
LINE
  5
747
100
AcDbEntity
  8
SIZE
  6
CONTINUOUS
 62
    30
100
AcDbLine
 10
-190.0
 20
-486.0
 30
0.0
 11
-190.0
 21
-1220.356854
 31
0.0
  0
LINE
  5
748
100
AcDbEntity
  8
SIZE
  6
CONTINUOUS
 62
    30
100
AcDbLine
 10
317.0
 20
-408.0
 30
0.0
 11
317.0
 21
-1220.356854
 31
0.0
  0
LINE
  5
749
100
AcDbEntity
  8
SIZE
  6
CONTINUOUS
 62
    30
100
AcDbLine
 10
-180.0
 20
-486.0
 30
0.0
 11
-180.0
 21
-1108.959024
 31
0.0
  0
LINE
  5
74A
100
AcDbEntity
  8
SIZE
  6
CONTINUOUS
 62
    30
100
AcDbLine
 10
317.0
 20
-408.0
 30
0.0
 11
317.0
 21
-1108.959024
 31
0.0
  0
LINE
  5
74C
100
AcDbEntity
  8
SIZE
  6
CONTINUOUS
 62
    30
100
AcDbLine
 10
161.0
 20
-956.337945
 30
0.0
 11
111.0
 21
-956.337945
 31
0.0
  0
TEXT
  5
74D
100
AcDbEntity
  8
SIZE
  6
CONTINUOUS
 62
    30
100
AcDbText
 10
10.57777
 20
-1175.356854
 30
0.0
 40
55.0
  1
507
 41
0.9
 72
     1
 11
74.220627
 21
-1175.356854
 31
0.0
100
AcDbText
  0
LINE
  5
74E
100
AcDbEntity
  8
SIZE
  6
CONTINUOUS
 62
    30
100
AcDbLine
 10
307.0
 20
-1190.356854
 30
0.0
 11
-180.0
 21
-1190.356854
 31
0.0
  0
TEXT
  5
74F
100
AcDbEntity
  8
SIZE
  6
CONTINUOUS
 62
    30
100
AcDbText
 10
16.32599
 20
-1063.959024
 30
0.0
 40
55.0
  1
497
 41
0.9
 72
     1
 11
79.968847
 21
-1063.959024
 31
0.0
100
AcDbText
  0
LINE
  5
750
100
AcDbEntity
  8
SIZE
  6
CONTINUOUS
 62
    30
100
AcDbLine
 10
307.0
 20
-1078.959024
 30
0.0
 11
-170.0
 21
-1078.959024
 31
0.0
  0
TEXT
  5
752
100
AcDbEntity
  8
SIZE
  6
CONTINUOUS
 62
    30
100
AcDbText
 10
-31.726774
 20
-941.337945
 30
0.0
 40
55.0
  1
70
 41
0.9
 72
     1
 11
8.344655
 21
-941.337945
 31
0.0
100
AcDbText
  0
POINT
  5
753
100
AcDbEntity
  8
DEFPOINTS
  6
CONTINUOUS
 62
     7
100
AcDbPoint
 10
-190.0
 20
-1190.356854
 30
0.0
  0
LINE
  5
754
100
AcDbEntity
  8
SIZE
  6
CONTINUOUS
 62
    30
100
AcDbLine
 10
-185.0
 20
-1190.356854
 30
0.0
 11
-180.0
 21
-1190.356854
 31
0.0
  0
CIRCLE
  5
755
100
AcDbEntity
  8
SIZE
  6
CONTINUOUS
 62
    30
100
AcDbCircle
 10
-190.0
 20
-1190.356854
 30
0.0
 40
5.0
  0
POINT
  5
756
100
AcDbEntity
  8
DEFPOINTS
  6
CONTINUOUS
 62
     7
100
AcDbPoint
 10
-180.0
 20
-1078.959024
 30
0.0
  0
LINE
  5
757
100
AcDbEntity
  8
SIZE
  6
CONTINUOUS
 62
    30
100
AcDbLine
 10
-175.0
 20
-1078.959024
 30
0.0
 11
-170.0
 21
-1078.959024
 31
0.0
  0
CIRCLE
  5
758
100
AcDbEntity
  8
SIZE
  6
CONTINUOUS
 62
    30
100
AcDbCircle
 10
-180.0
 20
-1078.959024
 30
0.0
 40
5.0
  0
LINE
  5
759
100
AcDbEntity
  8
SIZE
  6
CONTINUOUS
 62
    30
100
AcDbLine
 10
-46.726774
 20
-956.337945
 30
0.0
 11
101.0
 21
-956.337945
 31
0.0
  0
POINT
  5
75A
100
AcDbEntity
  8
DEFPOINTS
  6
CONTINUOUS
 62
     7
100
AcDbPoint
 10
101.0
 20
-956.337945
 30
0.0
  0
LINE
  5
75B
100
AcDbEntity
  8
SIZE
  6
CONTINUOUS
 62
    30
100
AcDbLine
 10
106.0
 20
-956.337945
 30
0.0
 11
111.0
 21
-956.337945
 31
0.0
  0
CIRCLE
  5
75C
100
AcDbEntity
  8
SIZE
  6
CONTINUOUS
 62
    30
100
AcDbCircle
 10
101.0
 20
-956.337945
 30
0.0
 40
5.0
  0
LINE
  5
761
100
AcDbEntity
  8
NOTE
  6
CONTINUOUS
 62
     4
100
AcDbLine
 10
-171.666225
 20
-680.0
 30
0.0
 11
-151.666225
 21
-660.0
 31
0.0
  0
TEXT
  5
769
100
AcDbEntity
  8
SIZE
  6
CONTINUOUS
 62
    30
100
AcDbText
 10
186.25
 20
-941.337945
 30
0.0
 40
55.0
  1
146
 41
0.9
 72
     1
 11
244.0
 21
-941.337945
 31
0.0
100
AcDbText
  0
LINE
  5
76A
100
AcDbEntity
  8
SIZE
  6
CONTINUOUS
 62
    30
100
AcDbLine
 10
312.0
 20
-1190.356854
 30
0.0
 11
307.0
 21
-1190.356854
 31
0.0
  0
CIRCLE
  5
76B
100
AcDbEntity
  8
SIZE
  6
CONTINUOUS
 62
    30
100
AcDbCircle
 10
317.0
 20
-1190.356854
 30
0.0
 40
5.0
  0
LINE
  5
76C
100
AcDbEntity
  8
SIZE
  6
CONTINUOUS
 62
    30
100
AcDbLine
 10
312.0
 20
-1078.959024
 30
0.0
 11
307.0
 21
-1078.959024
 31
0.0
  0
CIRCLE
  5
76D
100
AcDbEntity
  8
SIZE
  6
CONTINUOUS
 62
    30
100
AcDbCircle
 10
317.0
 20
-1078.959024
 30
0.0
 40
5.0
  0
LINE
  5
76E
100
AcDbEntity
  8
SIZE
  6
CONTINUOUS
 62
    30
100
AcDbLine
 10
307.0
 20
-956.337945
 30
0.0
 11
181.0
 21
-956.337945
 31
0.0
  0
LINE
  5
76F
100
AcDbEntity
  8
SIZE
  6
CONTINUOUS
 62
    30
100
AcDbLine
 10
166.0
 20
-956.337945
 30
0.0
 11
161.0
 21
-956.337945
 31
0.0
  0
CIRCLE
  5
770
100
AcDbEntity
  8
SIZE
  6
CONTINUOUS
 62
    30
100
AcDbCircle
 10
171.0
 20
-956.337945
 30
0.0
 40
5.0
  0
POINT
  5
771
100
AcDbEntity
  8
DEFPOINTS
  6
CONTINUOUS
 62
     7
100
AcDbPoint
 10
171.0
 20
-956.337945
 30
0.0
  0
LINE
  5
772
100
AcDbEntity
  8
SIZE
  6
CONTINUOUS
 62
    30
100
AcDbLine
 10
176.0
 20
-956.337945
 30
0.0
 11
181.0
 21
-956.337945
 31
0.0
  0
CIRCLE
  5
773
100
AcDbEntity
  8
SIZE
  6
CONTINUOUS
 62
    30
100
AcDbCircle
 10
171.0
 20
-956.337945
 30
0.0
 40
5.0
  0
LINE
  5
774
100
AcDbEntity
  8
SIZE
  6
CONTINUOUS
 62
    30
100
AcDbLine
 10
312.0
 20
-956.337945
 30
0.0
 11
307.0
 21
-956.337945
 31
0.0
  0
CIRCLE
  5
775
100
AcDbEntity
  8
SIZE
  6
CONTINUOUS
 62
    30
100
AcDbCircle
 10
317.0
 20
-956.337945
 30
0.0
 40
5.0
  0
LINE
  5
776
100
AcDbEntity
  8
SIZE
  6
CONTINUOUS
 62
    30
100
AcDbLine
 10
335.0
 20
-840.346041
 30
0.0
 11
355.0
 21
-840.346041
 31
0.0
  0
LINE
  5
778
100
AcDbEntity
  8
SIZE
  6
CONTINUOUS
 62
    30
100
AcDbLine
 10
335.0
 20
-680.0
 30
0.0
 11
335.0
 21
-870.346041
 31
0.0
  0
LINE
  5
779
100
AcDbEntity
  8
SIZE
  6
CONTINUOUS
 62
    30
100
AcDbLine
 10
330.0
 20
-840.346041
 30
0.0
 11
325.0
 21
-840.346041
 31
0.0
  0
CIRCLE
  5
77A
100
AcDbEntity
  8
SIZE
  6
CONTINUOUS
 62
    30
100
AcDbCircle
 10
335.0
 20
-840.346041
 30
0.0
 40
5.0
  0
LINE
  5
77B
100
AcDbEntity
  8
SIZE
  6
CONTINUOUS
 62
    30
100
AcDbLine
 10
325.0
 20
-840.346041
 30
0.0
 11
315.0
 21
-840.346041
 31
0.0
  0
LINE
  5
783
100
AcDbEntity
  8
SIZE
  6
CONTINUOUS
 62
    30
100
AcDbLine
 10
355.0
 20
-700.0
 30
0.0
 11
355.0
 21
-870.346041
 31
0.0
  0
TEXT
  5
784
100
AcDbEntity
  8
SIZE
  6
CONTINUOUS
 62
    30
100
AcDbText
 10
390.0
 20
-825.346041
 30
0.0
 40
55.0
  1
20
 41
0.9
 72
     1
 11
430.071429
 21
-825.346041
 31
0.0
100
AcDbText
  0
LINE
  5
785
100
AcDbEntity
  8
SIZE
  6
CONTINUOUS
 62
    30
100
AcDbLine
 10
365.0
 20
-840.346041
 30
0.0
 11
485.142857
 21
-840.346041
 31
0.0
  0
POINT
  5
786
100
AcDbEntity
  8
DEFPOINTS
  6
CONTINUOUS
 62
     7
100
AcDbPoint
 10
355.0
 20
-840.346041
 30
0.0
  0
LINE
  5
787
100
AcDbEntity
  8
SIZE
  6
CONTINUOUS
 62
    30
100
AcDbLine
 10
360.0
 20
-840.346041
 30
0.0
 11
365.0
 21
-840.346041
 31
0.0
  0
CIRCLE
  5
788
100
AcDbEntity
  8
SIZE
  6
CONTINUOUS
 62
    30
100
AcDbCircle
 10
355.0
 20
-840.346041
 30
0.0
 40
5.0
  0
LINE
  5
789
100
AcDbEntity
  8
SIZE
  6
CONTINUOUS
 62
    30
100
AcDbLine
 10
375.0
 20
-680.0
 30
0.0
 11
493.498057
 21
-680.0
 31
0.0
  0
LINE
  5
78A
100
AcDbEntity
  8
SIZE
  6
CONTINUOUS
 62
    30
100
AcDbLine
 10
355.0
 20
-660.0
 30
0.0
 11
493.498057
 21
-660.0
 31
0.0
  0
POINT
  5
78E
100
AcDbEntity
  8
DEFPOINTS
  6
CONTINUOUS
 62
     7
100
AcDbPoint
 10
463.498057
 20
-680.0
 30
0.0
  0
LINE
  5
78F
100
AcDbEntity
  8
SIZE
  6
CONTINUOUS
 62
    30
100
AcDbLine
 10
463.498057
 20
-655.0
 30
0.0
 11
463.498057
 21
-650.0
 31
0.0
  0
CIRCLE
  5
790
100
AcDbEntity
  8
SIZE
  6
CONTINUOUS
 62
    30
100
AcDbCircle
 10
463.498057
 20
-660.0
 30
0.0
 40
5.0
  0
LINE
  5
791
100
AcDbEntity
  8
SIZE
  6
CONTINUOUS
 62
    30
100
AcDbLine
 10
463.498057
 20
-685.0
 30
0.0
 11
463.498057
 21
-690.0
 31
0.0
  0
CIRCLE
  5
792
100
AcDbEntity
  8
SIZE
  6
CONTINUOUS
 62
    30
100
AcDbCircle
 10
463.498057
 20
-680.0
 30
0.0
 40
5.0
  0
LINE
  5
793
100
AcDbEntity
  8
SIZE
  6
CONTINUOUS
 62
    30
100
AcDbLine
 10
463.498057
 20
-680.0
 30
0.0
 11
463.498057
 21
-660.0
 31
0.0
  0
LINE
  5
794
100
AcDbEntity
  8
SIZE
  6
CONTINUOUS
 62
    30
100
AcDbLine
 10
463.498057
 20
-690.0
 30
0.0
 11
463.498057
 21
-700.0
 31
0.0
  0
LINE
  5
795
100
AcDbEntity
  8
DETAIL
  6
CONTINUOUS
 62
     5
100
AcDbLine
 10
317.0
 20
-388.0
 30
0.0
 11
-317.0
 21
-388.0
 31
0.0
  0
LINE
  5
796
100
AcDbEntity
  8
DETAIL
  6
CONTINUOUS
 62
     5
100
AcDbLine
 10
82.191501
 20
-392.399996
 30
0.0
 11
119.774441
 21
-392.399996
 31
0.0
  0
LINE
  5
797
100
AcDbEntity
  8
DETAIL
  6
CONTINUOUS
 62
     5
100
AcDbLine
 10
101.0
 20
-418.0
 30
0.0
 11
122.0
 21
-418.0
 31
0.0
  0
ARC
  5
798
100
AcDbEntity
  8
DETAIL
  6
CONTINUOUS
 62
     5
100
AcDbCircle
 10
122.928582
 20
-392.399996
 30
0.0
 40
3.928583
100
AcDbArc
 50
180.0
 51
231.121378
  0
LINE
  5
799
100
AcDbEntity
  8
DETAIL
  6
CONTINUOUS
 62
     5
100
AcDbLine
 10
-108.0
 20
-495.125
 30
0.0
 11
30.0
 21
-495.125
 31
0.0
  0
LINE
  5
79A
100
AcDbEntity
  8
NOTE
  6
CONTINUOUS
 62
     4
100
AcDbLine
 10
-179.999856
 20
-448.001069
 30
0.0
 11
-184.756778
 21
-482.055751
 31
0.0
  0
LINE
  5
79B
100
AcDbEntity
  8
NOTE
  6
CONTINUOUS
 62
     4
100
AcDbLine
 10
-179.999856
 20
-448.001069
 30
0.0
 11
-201.146813
 21
-475.114827
 31
0.0
  0
LINE
  5
79C
100
AcDbEntity
  8
NOTE
  6
CONTINUOUS
 62
     4
100
AcDbLine
 10
-190.000022
 20
-448.000953
 30
0.0
 11
-205.984554
 21
-478.445072
 31
0.0
  0
LINE
  5
79D
100
AcDbEntity
  8
NOTE
  6
CONTINUOUS
 62
     4
100
AcDbLine
 10
-190.000022
 20
-448.000953
 30
0.0
 11
-219.065093
 21
-466.374067
 31
0.0
  0
LINE
  5
79E
100
AcDbEntity
  8
NOTE
  6
CONTINUOUS
 62
     4
100
AcDbLine
 10
-180.0
 20
-430.0
 30
0.0
 11
-180.0
 21
-466.0
 31
0.0
  0
LINE
  5
79F
100
AcDbEntity
  8
NOTE
  6
CONTINUOUS
 62
     4
100
AcDbLine
 10
-190.0
 20
-430.0
 30
0.0
 11
-190.0
 21
-466.0
 31
0.0
  0
LINE
  5
7A0
100
AcDbEntity
  8
DETAIL
  6
CONTINUOUS
 62
     5
100
AcDbLine
 10
-108.0
 20
-388.0
 30
0.0
 11
-108.0
 21
-495.125
 31
0.0
  0
POINT
  5
7A1
100
AcDbEntity
  8
DEFPOINTS
  6
CONTINUOUS
 62
     7
100
AcDbPoint
 10
-190.0
 20
-466.0
 30
0.0
  0
POINT
  5
7A2
100
AcDbEntity
  8
DEFPOINTS
  6
CONTINUOUS
 62
     7
100
AcDbPoint
 10
-180.0
 20
-466.0
 30
0.0
  0
POINT
  5
7A3
100
AcDbEntity
  8
DEFPOINTS
  6
CONTINUOUS
 62
     7
100
AcDbPoint
 10
-305.0
 20
-412.0
 30
0.0
  0
POINT
  5
7A4
100
AcDbEntity
  8
DEFPOINTS
  6
CONTINUOUS
 62
     7
100
AcDbPoint
 10
-305.0
 20
-412.0
 30
0.0
  0
POINT
  5
7A5
100
AcDbEntity
  8
DEFPOINTS
  6
CONTINUOUS
 62
     7
100
AcDbPoint
 10
-317.0
 20
-388.0
 30
0.0
  0
POINT
  5
7A6
100
AcDbEntity
  8
DEFPOINTS
  6
CONTINUOUS
 62
     7
100
AcDbPoint
 10
-317.0
 20
-388.0
 30
0.0
  0
POINT
  5
7A7
100
AcDbEntity
  8
DEFPOINTS
  6
CONTINUOUS
 62
     7
100
AcDbPoint
 10
-317.0
 20
-388.0
 30
0.0
  0
POINT
  5
7A8
100
AcDbEntity
  8
DEFPOINTS
  6
CONTINUOUS
 62
     7
100
AcDbPoint
 10
-317.0
 20
-388.0
 30
0.0
  0
CIRCLE
  5
7A9
100
AcDbEntity
  8
FIX
  6
CONTINUOUS
 62
    11
100
AcDbCircle
 10
-287.0
 20
-412.0
 30
0.0
 40
14.940051
  0
LINE
  5
7AA
100
AcDbEntity
  8
NOTE
  6
CONTINUOUS
 62
     4
100
AcDbLine
 10
-269.0
 20
-412.0
 30
0.0
 11
-305.0
 21
-412.0
 31
0.0
  0
LINE
  5
7AB
100
AcDbEntity
  8
NOTE
  6
CONTINUOUS
 62
     4
100
AcDbLine
 10
-287.0
 20
-394.0
 30
0.0
 11
-287.0
 21
-430.0
 31
0.0
  0
LINE
  5
7AC
100
AcDbEntity
  8
DETAIL
  6
CONTINUOUS
 62
     5
100
AcDbLine
 10
-281.0
 20
-435.125
 30
0.0
 11
-262.0
 21
-435.125
 31
0.0
  0
LINE
  5
7AD
100
AcDbEntity
  8
DETAIL
  6
CONTINUOUS
 62
     5
100
AcDbLine
 10
-312.0
 20
-435.125
 30
0.0
 11
-293.0
 21
-435.125
 31
0.0
  0
LINE
  5
7AE
100
AcDbEntity
  8
DETAIL
  6
CONTINUOUS
 62
     5
100
AcDbLine
 10
-281.0
 20
-419.125
 30
0.0
 11
-279.0
 21
-419.125
 31
0.0
  0
LINE
  5
7AF
100
AcDbEntity
  8
DETAIL
  6
CONTINUOUS
 62
     5
100
AcDbLine
 10
-295.0
 20
-419.125
 30
0.0
 11
-293.0
 21
-419.125
 31
0.0
  0
LINE
  5
7B0
100
AcDbEntity
  8
DETAIL
  6
CONTINUOUS
 62
     5
100
AcDbLine
 10
-295.0
 20
-405.125
 30
0.0
 11
-279.0
 21
-405.125
 31
0.0
  0
ARC
  5
7B1
100
AcDbEntity
  8
DETAIL
  6
CONTINUOUS
 62
     5
100
AcDbCircle
 10
-279.0
 20
-412.125
 30
0.0
 40
7.0
100
AcDbArc
 50
270.0
 51
90.0
  0
ARC
  5
7B2
100
AcDbEntity
  8
DETAIL
  6
CONTINUOUS
 62
     5
100
AcDbCircle
 10
-295.0
 20
-412.125
 30
0.0
 40
7.0
100
AcDbArc
 50
90.0
 51
270.0
  0
LINE
  5
7B3
100
AcDbEntity
  8
DETAIL
  6
CONTINUOUS
 62
     5
100
AcDbLine
 10
-281.0
 20
-435.125
 30
0.0
 11
-281.0
 21
-419.125
 31
0.0
  0
LINE
  5
7B4
100
AcDbEntity
  8
DETAIL
  6
CONTINUOUS
 62
     5
100
AcDbLine
 10
-293.0
 20
-435.125
 30
0.0
 11
-293.0
 21
-419.125
 31
0.0
  0
LINE
  5
7B5
100
AcDbEntity
  8
DETAIL
  6
CONTINUOUS
 62
     5
100
AcDbLine
 10
-262.0
 20
-435.125
 30
0.0
 11
-262.0
 21
-388.0
 31
0.0
  0
LINE
  5
7B6
100
AcDbEntity
  8
DETAIL
  6
CONTINUOUS
 62
     5
100
AcDbLine
 10
-312.0
 20
-435.125
 30
0.0
 11
-312.0
 21
-388.0
 31
0.0
  0
POINT
  5
7B7
100
AcDbEntity
  8
DEFPOINTS
  6
CONTINUOUS
 62
     7
100
AcDbPoint
 10
-162.675
 20
-448.0
 30
0.0
  0
LINE
  5
7B8
100
AcDbEntity
  8
NOTE
  6
CONTINUOUS
 62
     4
100
AcDbLine
 10
-162.675
 20
-448.0
 30
0.0
 11
-197.325
 21
-448.0
 31
0.0
  0
LINE
  5
7B9
100
AcDbEntity
  8
DETAIL
  6
CONTINUOUS
 62
     5
100
AcDbLine
 10
-197.325
 20
-448.0
 30
0.0
 11
-197.325
 21
-388.0
 31
0.0
  0
LINE
  5
7BA
100
AcDbEntity
  8
DETAIL
  6
CONTINUOUS
 62
     5
100
AcDbLine
 10
-162.675
 20
-448.0
 30
0.0
 11
-162.675
 21
-388.0
 31
0.0
  0
LINE
  5
7BB
100
AcDbEntity
  8
DETAIL
  6
CONTINUOUS
 62
     5
100
AcDbLine
 10
-162.675
 20
-448.0
 30
0.0
 11
-197.325
 21
-448.0
 31
0.0
  0
LINE
  5
7BC
100
AcDbEntity
  8
NOTE
  6
CONTINUOUS
 62
     4
100
AcDbLine
 10
-172.675
 20
-448.0
 30
0.0
 11
-207.325
 21
-448.0
 31
0.0
  0
LINE
  5
7BE
100
AcDbEntity
  8
DETAIL
  6
CONTINUOUS
 62
     5
100
AcDbLine
 10
-172.675
 20
-448.0
 30
0.0
 11
-207.325
 21
-448.0
 31
0.0
  0
LINE
  5
7BF
100
AcDbEntity
  8
NOTE
  6
CONTINUOUS
 62
     4
100
AcDbLine
 10
101.000126
 20
-454.99979
 30
0.0
 11
89.203705
 21
-487.298305
 31
0.0
  0
LINE
  5
7C0
100
AcDbEntity
  8
NOTE
  6
CONTINUOUS
 62
     4
100
AcDbLine
 10
101.000126
 20
-454.99979
 30
0.0
 11
74.634867
 21
-477.072913
 31
0.0
  0
LINE
  5
7C1
100
AcDbEntity
  8
NOTE
  6
CONTINUOUS
 62
     4
100
AcDbLine
 10
101.0
 20
-437.0
 30
0.0
 11
101.0
 21
-473.0
 31
0.0
  0
LINE
  5
7C2
100
AcDbEntity
  8
DETAIL
  6
CONTINUOUS
 62
     5
100
AcDbLine
 10
30.0
 20
-388.0
 30
0.0
 11
30.0
 21
-495.125
 31
0.0
  0
POINT
  5
7CF
100
AcDbEntity
  8
DEFPOINTS
  6
CONTINUOUS
 62
     7
100
AcDbPoint
 10
101.0
 20
-473.0
 30
0.0
  0
POINT
  5
7D0
100
AcDbEntity
  8
DEFPOINTS
  6
CONTINUOUS
 62
     7
100
AcDbPoint
 10
119.0
 20
-455.0
 30
0.0
  0
LINE
  5
7D1
100
AcDbEntity
  8
NOTE
  6
CONTINUOUS
 62
     4
100
AcDbLine
 10
119.0
 20
-455.0
 30
0.0
 11
83.0
 21
-455.0
 31
0.0
  0
LINE
  5
7D2
100
AcDbEntity
  8
DETAIL
  6
CONTINUOUS
 62
     5
100
AcDbLine
 10
82.191501
 20
-392.399996
 30
0.0
 11
82.191501
 21
-388.0
 31
0.0
  0
LINE
  5
7D3
100
AcDbEntity
  8
DETAIL
  6
CONTINUOUS
 62
     5
100
AcDbLine
 10
80.0
 20
-398.672521
 30
0.0
 11
80.0
 21
-418.0
 31
0.0
  0
LINE
  5
7D4
100
AcDbEntity
  8
DETAIL
  6
CONTINUOUS
 62
     5
100
AcDbLine
 10
96.24
 20
-418.0
 30
0.0
 11
93.24
 21
-418.0
 31
0.0
  0
LINE
  5
7D5
100
AcDbEntity
  8
DETAIL
  6
CONTINUOUS
 62
     5
100
AcDbLine
 10
83.0
 20
-418.0
 30
0.0
 11
93.0
 21
-418.0
 31
0.0
  0
LINE
  5
7D6
100
AcDbEntity
  8
DETAIL
  6
CONTINUOUS
 62
     5
100
AcDbLine
 10
83.0
 20
-418.0
 30
0.0
 11
80.0
 21
-418.0
 31
0.0
  0
LINE
  5
7D8
100
AcDbEntity
  8
DETAIL
  6
CONTINUOUS
 62
     5
100
AcDbLine
 10
92.5
 20
-437.0
 30
0.0
 11
92.5
 21
-418.0
 31
0.0
  0
LINE
  5
7D9
100
AcDbEntity
  8
DETAIL
  6
CONTINUOUS
 62
     5
100
AcDbLine
 10
109.5
 20
-437.0
 30
0.0
 11
109.5
 21
-418.0
 31
0.0
  0
LINE
  5
7DA
100
AcDbEntity
  8
DETAIL
  6
CONTINUOUS
 62
     5
100
AcDbLine
 10
92.5
 20
-418.0
 30
0.0
 11
109.5
 21
-418.0
 31
0.0
  0
POLYLINE
  5
7DB
100
AcDbEntity
  8
DETAIL
  6
CONTINUOUS
 62
     5
100
AcDb2dPolyline
 66
     1
 10
0.0
 20
0.0
 30
0.0
  0
VERTEX
  5
7DC
100
AcDbEntity
  8
DETAIL
  6
CONTINUOUS
 62
     5
100
AcDbVertex
100
AcDb2dVertex
 10
101.0
 20
-437.000001
 30
0.0
  0
VERTEX
  5
7DD
100
AcDbEntity
  8
DETAIL
  6
CONTINUOUS
 62
     5
100
AcDbVertex
100
AcDb2dVertex
 10
101.081663
 20
-437.195091
 30
0.0
  0
VERTEX
  5
7DE
100
AcDbEntity
  8
DETAIL
  6
CONTINUOUS
 62
     5
100
AcDbVertex
100
AcDb2dVertex
 10
101.323513
 20
-437.382684
 30
0.0
  0
VERTEX
  5
7DF
100
AcDbEntity
  8
DETAIL
  6
CONTINUOUS
 62
     5
100
AcDbVertex
100
AcDb2dVertex
 10
101.716256
 20
-437.555571
 30
0.0
  0
VERTEX
  5
7E0
100
AcDbEntity
  8
DETAIL
  6
CONTINUOUS
 62
     5
100
AcDbVertex
100
AcDb2dVertex
 10
102.244798
 20
-437.707107
 30
0.0
  0
VERTEX
  5
7E1
100
AcDbEntity
  8
DETAIL
  6
CONTINUOUS
 62
     5
100
AcDbVertex
100
AcDb2dVertex
 10
102.888829
 20
-437.83147
 30
0.0
  0
VERTEX
  5
7E2
100
AcDbEntity
  8
DETAIL
  6
CONTINUOUS
 62
     5
100
AcDbVertex
100
AcDb2dVertex
 10
103.623598
 20
-437.92388
 30
0.0
  0
VERTEX
  5
7E3
100
AcDbEntity
  8
DETAIL
  6
CONTINUOUS
 62
     5
100
AcDbVertex
100
AcDb2dVertex
 10
104.420868
 20
-437.980785
 30
0.0
  0
VERTEX
  5
7E4
100
AcDbEntity
  8
DETAIL
  6
CONTINUOUS
 62
     5
100
AcDbVertex
100
AcDb2dVertex
 10
105.250002
 20
-438.0
 30
0.0
  0
VERTEX
  5
7E5
100
AcDbEntity
  8
DETAIL
  6
CONTINUOUS
 62
     5
100
AcDbVertex
100
AcDb2dVertex
 10
106.079136
 20
-437.980785
 30
0.0
  0
VERTEX
  5
7E6
100
AcDbEntity
  8
DETAIL
  6
CONTINUOUS
 62
     5
100
AcDbVertex
100
AcDb2dVertex
 10
106.876406
 20
-437.923879
 30
0.0
  0
VERTEX
  5
7E7
100
AcDbEntity
  8
DETAIL
  6
CONTINUOUS
 62
     5
100
AcDbVertex
100
AcDb2dVertex
 10
107.611175
 20
-437.831469
 30
0.0
  0
VERTEX
  5
7E8
100
AcDbEntity
  8
DETAIL
  6
CONTINUOUS
 62
     5
100
AcDbVertex
100
AcDb2dVertex
 10
108.255205
 20
-437.707107
 30
0.0
  0
VERTEX
  5
7E9
100
AcDbEntity
  8
DETAIL
  6
CONTINUOUS
 62
     5
100
AcDbVertex
100
AcDb2dVertex
 10
108.783746
 20
-437.55557
 30
0.0
  0
VERTEX
  5
7EA
100
AcDbEntity
  8
DETAIL
  6
CONTINUOUS
 62
     5
100
AcDbVertex
100
AcDb2dVertex
 10
109.176488
 20
-437.382683
 30
0.0
  0
VERTEX
  5
7EB
100
AcDbEntity
  8
DETAIL
  6
CONTINUOUS
 62
     5
100
AcDbVertex
100
AcDb2dVertex
 10
109.418337
 20
-437.19509
 30
0.0
  0
VERTEX
  5
7EC
100
AcDbEntity
  8
DETAIL
  6
CONTINUOUS
 62
     5
100
AcDbVertex
100
AcDb2dVertex
 10
109.5
 20
-437.0
 30
0.0
  0
SEQEND
  5
7ED
100
AcDbEntity
  8
DETAIL
  6
CONTINUOUS
 62
     5
  0
POLYLINE
  5
7EE
100
AcDbEntity
  8
DETAIL
  6
CONTINUOUS
 62
     5
100
AcDb2dPolyline
 66
     1
 10
0.0
 20
0.0
 30
0.0
  0
VERTEX
  5
7EF
100
AcDbEntity
  8
DETAIL
  6
CONTINUOUS
 62
     5
100
AcDbVertex
100
AcDb2dVertex
 10
92.5
 20
-437.0
 30
0.0
  0
VERTEX
  5
7F0
100
AcDbEntity
  8
DETAIL
  6
CONTINUOUS
 62
     5
100
AcDbVertex
100
AcDb2dVertex
 10
92.572364
 20
-437.18375
 30
0.0
  0
VERTEX
  5
7F1
100
AcDbEntity
  8
DETAIL
  6
CONTINUOUS
 62
     5
100
AcDbVertex
100
AcDb2dVertex
 10
92.786993
 20
-437.361242
 30
0.0
  0
VERTEX
  5
7F2
100
AcDbEntity
  8
DETAIL
  6
CONTINUOUS
 62
     5
100
AcDbVertex
100
AcDb2dVertex
 10
93.136578
 20
-437.526432
 30
0.0
  0
VERTEX
  5
7F3
100
AcDbEntity
  8
DETAIL
  6
CONTINUOUS
 62
     5
100
AcDbVertex
100
AcDb2dVertex
 10
93.609213
 20
-437.673696
 30
0.0
  0
VERTEX
  5
7F4
100
AcDbEntity
  8
DETAIL
  6
CONTINUOUS
 62
     5
100
AcDbVertex
100
AcDb2dVertex
 10
94.188804
 20
-437.798017
 30
0.0
  0
VERTEX
  5
7F5
100
AcDbEntity
  8
DETAIL
  6
CONTINUOUS
 62
     5
100
AcDbVertex
100
AcDb2dVertex
 10
94.855613
 20
-437.895163
 30
0.0
  0
VERTEX
  5
7F6
100
AcDbEntity
  8
DETAIL
  6
CONTINUOUS
 62
     5
100
AcDbVertex
100
AcDb2dVertex
 10
95.586934
 20
-437.961826
 30
0.0
  0
VERTEX
  5
7F7
100
AcDbEntity
  8
DETAIL
  6
CONTINUOUS
 62
     5
100
AcDbVertex
100
AcDb2dVertex
 10
96.357861
 20
-437.995734
 30
0.0
  0
VERTEX
  5
7F8
100
AcDbEntity
  8
DETAIL
  6
CONTINUOUS
 62
     5
100
AcDbVertex
100
AcDb2dVertex
 10
97.142143
 20
-437.995734
 30
0.0
  0
VERTEX
  5
7F9
100
AcDbEntity
  8
DETAIL
  6
CONTINUOUS
 62
     5
100
AcDbVertex
100
AcDb2dVertex
 10
97.91307
 20
-437.961825
 30
0.0
  0
VERTEX
  5
7FA
100
AcDbEntity
  8
DETAIL
  6
CONTINUOUS
 62
     5
100
AcDbVertex
100
AcDb2dVertex
 10
98.64439
 20
-437.895163
 30
0.0
  0
VERTEX
  5
7FB
100
AcDbEntity
  8
DETAIL
  6
CONTINUOUS
 62
     5
100
AcDbVertex
100
AcDb2dVertex
 10
99.311199
 20
-437.798017
 30
0.0
  0
VERTEX
  5
7FC
100
AcDbEntity
  8
DETAIL
  6
CONTINUOUS
 62
     5
100
AcDbVertex
100
AcDb2dVertex
 10
99.89079
 20
-437.673695
 30
0.0
  0
VERTEX
  5
7FD
100
AcDbEntity
  8
DETAIL
  6
CONTINUOUS
 62
     5
100
AcDbVertex
100
AcDb2dVertex
 10
100.363425
 20
-437.526432
 30
0.0
  0
VERTEX
  5
7FE
100
AcDbEntity
  8
DETAIL
  6
CONTINUOUS
 62
     5
100
AcDbVertex
100
AcDb2dVertex
 10
100.713008
 20
-437.361241
 30
0.0
  0
VERTEX
  5
7FF
100
AcDbEntity
  8
DETAIL
  6
CONTINUOUS
 62
     5
100
AcDbVertex
100
AcDb2dVertex
 10
100.927636
 20
-437.183749
 30
0.0
  0
VERTEX
  5
800
100
AcDbEntity
  8
DETAIL
  6
CONTINUOUS
 62
     5
100
AcDbVertex
100
AcDb2dVertex
 10
101.0
 20
-436.999999
 30
0.0
  0
SEQEND
  5
801
100
AcDbEntity
  8
DETAIL
  6
CONTINUOUS
 62
     5
  0
LINE
  5
802
100
AcDbEntity
  8
DETAIL
  6
CONTINUOUS
 62
     5
100
AcDbLine
 10
101.0
 20
-450.0
 30
0.0
 11
101.0
 21
-441.564955
 31
0.0
  0
LINE
  5
803
100
AcDbEntity
  8
DETAIL
  6
CONTINUOUS
 62
     5
100
AcDbLine
 10
109.25
 20
-440.0
 30
0.0
 11
109.488008
 21
-441.489885
 31
0.0
  0
LINE
  5
804
100
AcDbEntity
  8
DETAIL
  6
CONTINUOUS
 62
     5
100
AcDbLine
 10
92.511992
 20
-441.489885
 30
0.0
 11
92.75
 21
-440.0
 31
0.0
  0
LINE
  5
853
100
AcDbEntity
  8
DETAIL
  6
CONTINUOUS
 62
     5
100
AcDbLine
 10
109.5
 20
-451.0
 30
0.0
 11
109.5
 21
-441.564955
 31
0.0
  0
LINE
  5
854
100
AcDbEntity
  8
DETAIL
  6
CONTINUOUS
 62
     5
100
AcDbLine
 10
92.5
 20
-451.0
 30
0.0
 11
92.5
 21
-441.564955
 31
0.0
  0
LINE
  5
855
100
AcDbEntity
  8
DETAIL
  6
CONTINUOUS
 62
     5
100
AcDbLine
 10
96.750004
 20
-438.0
 30
0.0
 11
105.250004
 21
-438.0
 31
0.0
  0
LINE
  5
856
100
AcDbEntity
  8
DETAIL
  6
CONTINUOUS
 62
     5
100
AcDbLine
 10
105.5
 20
-437.998268
 30
0.0
 11
105.5
 21
-440.0
 31
0.0
  0
LINE
  5
857
100
AcDbEntity
  8
DETAIL
  6
CONTINUOUS
 62
     5
100
AcDbLine
 10
96.5
 20
-437.998268
 30
0.0
 11
96.5
 21
-440.0
 31
0.0
  0
LINE
  5
858
100
AcDbEntity
  8
DETAIL
  6
CONTINUOUS
 62
     5
100
AcDbLine
 10
107.0
 20
-455.0
 30
0.0
 11
109.5
 21
-451.0
 31
0.0
  0
LINE
  5
859
100
AcDbEntity
  8
DETAIL
  6
CONTINUOUS
 62
     5
100
AcDbLine
 10
92.5
 20
-451.0
 30
0.0
 11
95.0
 21
-455.0
 31
0.0
  0
LINE
  5
85A
100
AcDbEntity
  8
DETAIL
  6
CONTINUOUS
 62
     5
100
AcDbLine
 10
107.0
 20
-455.0
 30
0.0
 11
95.0
 21
-455.0
 31
0.0
  0
LINE
  5
85B
100
AcDbEntity
  8
DETAIL
  6
CONTINUOUS
 62
     5
100
AcDbLine
 10
109.5
 20
-451.0
 30
0.0
 11
92.5
 21
-451.0
 31
0.0
  0
LINE
  5
85C
100
AcDbEntity
  8
DETAIL
  6
CONTINUOUS
 62
     5
100
AcDbLine
 10
109.25
 20
-440.0
 30
0.0
 11
92.75
 21
-440.0
 31
0.0
  0
ARC
  5
85D
100
AcDbEntity
  8
DETAIL
  6
CONTINUOUS
 62
     5
100
AcDbCircle
 10
79.071418
 20
-392.399996
 30
0.0
 40
3.928583
100
AcDbArc
 50
308.878622
 51
0.0
  0
ARC
  5
85E
100
AcDbEntity
  8
DETAIL
  6
CONTINUOUS
 62
     5
100
AcDbCircle
 10
84.128845
 20
-398.672521
 30
0.0
 40
4.128845
100
AcDbArc
 50
128.878622
 51
180.0
  0
LINE
  5
868
100
AcDbEntity
  8
NOTE
  6
CONTINUOUS
 62
     4
100
AcDbLine
 10
171.0
 20
-448.0
 30
0.0
 11
171.0
 21
-484.0
 31
0.0
  0
LINE
  5
869
100
AcDbEntity
  8
DETAIL
  6
CONTINUOUS
 62
     5
100
AcDbLine
 10
157.5
 20
-460.0
 30
0.0
 11
160.0
 21
-466.0
 31
0.0
  0
LINE
  5
86A
100
AcDbEntity
  8
DETAIL
  6
CONTINUOUS
 62
     5
100
AcDbLine
 10
182.0
 20
-466.0
 30
0.0
 11
184.5
 21
-460.0
 31
0.0
  0
LINE
  5
86B
100
AcDbEntity
  8
NOTE
  6
CONTINUOUS
 62
     4
100
AcDbLine
 10
171.000805
 20
-466.000958
 30
0.0
 11
201.129526
 21
-482.572314
 31
0.0
  0
LINE
  5
86C
100
AcDbEntity
  8
NOTE
  6
CONTINUOUS
 62
     4
100
AcDbLine
 10
171.000805
 20
-466.000958
 30
0.0
 11
188.807364
 21
-495.416534
 31
0.0
  0
POINT
  5
86D
100
AcDbEntity
  8
DEFPOINTS
  6
CONTINUOUS
 62
     7
100
AcDbPoint
 10
171.0
 20
-484.0
 30
0.0
  0
POINT
  5
86E
100
AcDbEntity
  8
DEFPOINTS
  6
CONTINUOUS
 62
     7
100
AcDbPoint
 10
171.0
 20
-484.0
 30
0.0
  0
POINT
  5
86F
100
AcDbEntity
  8
DEFPOINTS
  6
CONTINUOUS
 62
     7
100
AcDbPoint
 10
189.0
 20
-466.0
 30
0.0
  0
LINE
  5
870
100
AcDbEntity
  8
NOTE
  6
CONTINUOUS
 62
     4
100
AcDbLine
 10
189.0
 20
-466.0
 30
0.0
 11
153.0
 21
-466.0
 31
0.0
  0
LINE
  5
871
100
AcDbEntity
  8
DETAIL
  6
CONTINUOUS
 62
     5
100
AcDbLine
 10
160.0
 20
-466.0
 30
0.0
 11
182.0
 21
-466.0
 31
0.0
  0
LINE
  5
872
100
AcDbEntity
  8
DETAIL
  6
CONTINUOUS
 62
     5
100
AcDbLine
 10
119.774472
 20
-388.0
 30
0.0
 11
119.774472
 21
-392.399996
 31
0.0
  0
ARC
  5
873
100
AcDbEntity
  8
DETAIL
  6
CONTINUOUS
 62
     5
100
AcDbCircle
 10
122.774472
 20
-391.399996
 30
0.0
 40
3.0
100
AcDbArc
 50
177.611985
 51
180.0
  0
LINE
  5
874
100
AcDbEntity
  8
DETAIL
  6
CONTINUOUS
 62
     5
100
AcDbLine
 10
152.20853
 20
-397.399996
 30
0.0
 11
189.79147
 21
-397.399996
 31
0.0
  0
LINE
  5
875
100
AcDbEntity
  8
DETAIL
  6
CONTINUOUS
 62
     5
100
AcDbLine
 10
189.791501
 20
-388.0
 30
0.0
 11
189.791501
 21
-397.399996
 31
0.0
  0
ARC
  5
876
100
AcDbEntity
  8
DETAIL
  6
CONTINUOUS
 62
     5
100
AcDbCircle
 10
192.791501
 20
-396.399996
 30
0.0
 40
3.0
100
AcDbArc
 50
177.611985
 51
180.0
  0
ARC
  5
877
100
AcDbEntity
  8
DETAIL
  6
CONTINUOUS
 62
     5
100
AcDbCircle
 10
149.208499
 20
-396.399996
 30
0.0
 40
3.0
100
AcDbArc
 50
0.0
 51
2.388015
  0
LINE
  5
878
100
AcDbEntity
  8
DETAIL
  6
CONTINUOUS
 62
     5
100
AcDbLine
 10
152.20853
 20
-397.399996
 30
0.0
 11
152.20853
 21
-388.0
 31
0.0
  0
LINE
  5
879
100
AcDbEntity
  8
DETAIL
  6
CONTINUOUS
 62
     5
100
AcDbLine
 10
192.0
 20
-422.0
 30
0.0
 11
192.0
 21
-403.672521
 31
0.0
  0
LINE
  5
87A
100
AcDbEntity
  8
DETAIL
  6
CONTINUOUS
 62
     5
100
AcDbLine
 10
150.0
 20
-422.0
 30
0.0
 11
150.0
 21
-403.672521
 31
0.0
  0
LINE
  5
87B
100
AcDbEntity
  8
DETAIL
  6
CONTINUOUS
 62
     5
100
AcDbLine
 10
122.0
 20
-418.0
 30
0.0
 11
122.0
 21
-398.672521
 31
0.0
  0
LINE
  5
87C
100
AcDbEntity
  8
DETAIL
  6
CONTINUOUS
 62
     5
100
AcDbLine
 10
164.250004
 20
-442.0
 30
0.0
 11
177.749996
 21
-442.0
 31
0.0
  0
LINE
  5
87D
100
AcDbEntity
  8
DETAIL
  6
CONTINUOUS
 62
     5
100
AcDbLine
 10
157.5
 20
-460.0
 30
0.0
 11
184.5
 21
-460.0
 31
0.0
  0
LINE
  5
87E
100
AcDbEntity
  8
DETAIL
  6
CONTINUOUS
 62
     5
100
AcDbLine
 10
157.5
 20
-444.0
 30
0.0
 11
184.5
 21
-444.0
 31
0.0
  0
LINE
  5
87F
100
AcDbEntity
  8
DETAIL
  6
CONTINUOUS
 62
     5
100
AcDbLine
 10
179.15
 20
-442.0
 30
0.0
 11
179.15
 21
-444.0
 31
0.0
  0
LINE
  5
880
100
AcDbEntity
  8
DETAIL
  6
CONTINUOUS
 62
     5
100
AcDbLine
 10
171.0
 20
-444.0
 30
0.0
 11
180.0
 21
-444.0
 31
0.0
  0
LINE
  5
881
100
AcDbEntity
  8
DETAIL
  6
CONTINUOUS
 62
     5
100
AcDbLine
 10
162.0
 20
-444.0
 30
0.0
 11
162.85
 21
-444.0
 31
0.0
  0
LINE
  5
882
100
AcDbEntity
  8
DETAIL
  6
CONTINUOUS
 62
     5
100
AcDbLine
 10
162.85
 20
-442.0
 30
0.0
 11
162.85
 21
-444.0
 31
0.0
  0
POLYLINE
  5
8BB
100
AcDbEntity
  8
DETAIL
  6
CONTINUOUS
 62
     5
100
AcDb2dPolyline
 66
     1
 10
0.0
 20
0.0
 30
0.0
  0
VERTEX
  5
8BC
100
AcDbEntity
  8
DETAIL
  6
CONTINUOUS
 62
     5
100
AcDbVertex
100
AcDb2dVertex
 10
157.5
 20
-440.705633
 30
0.0
  0
VERTEX
  5
8BD
100
AcDbEntity
  8
DETAIL
  6
CONTINUOUS
 62
     5
100
AcDbVertex
100
AcDb2dVertex
 10
158.373324
 20
-441.107476
 30
0.0
  0
VERTEX
  5
8BE
100
AcDbEntity
  8
DETAIL
  6
CONTINUOUS
 62
     5
100
AcDbVertex
100
AcDb2dVertex
 10
159.451817
 20
-441.447203
 30
0.0
  0
VERTEX
  5
8BF
100
AcDbEntity
  8
DETAIL
  6
CONTINUOUS
 62
     5
100
AcDbVertex
100
AcDb2dVertex
 10
160.697825
 20
-441.712953
 30
0.0
  0
VERTEX
  5
8C0
100
AcDbEntity
  8
DETAIL
  6
CONTINUOUS
 62
     5
100
AcDbVertex
100
AcDb2dVertex
 10
162.067848
 20
-441.895447
 30
0.0
  0
VERTEX
  5
8C1
100
AcDbEntity
  8
DETAIL
  6
CONTINUOUS
 62
     5
100
AcDbVertex
100
AcDb2dVertex
 10
163.514054
 20
-441.988315
 30
0.0
  0
VERTEX
  5
8C2
100
AcDbEntity
  8
DETAIL
  6
CONTINUOUS
 62
     5
100
AcDbVertex
100
AcDb2dVertex
 10
164.985954
 20
-441.988315
 30
0.0
  0
VERTEX
  5
8C3
100
AcDbEntity
  8
DETAIL
  6
CONTINUOUS
 62
     5
100
AcDbVertex
100
AcDb2dVertex
 10
166.43216
 20
-441.895445
 30
0.0
  0
VERTEX
  5
8C4
100
AcDbEntity
  8
DETAIL
  6
CONTINUOUS
 62
     5
100
AcDbVertex
100
AcDb2dVertex
 10
167.802182
 20
-441.71295
 30
0.0
  0
VERTEX
  5
8C5
100
AcDbEntity
  8
DETAIL
  6
CONTINUOUS
 62
     5
100
AcDbVertex
100
AcDb2dVertex
 10
169.048188
 20
-441.447199
 30
0.0
  0
VERTEX
  5
8C6
100
AcDbEntity
  8
DETAIL
  6
CONTINUOUS
 62
     5
100
AcDbVertex
100
AcDb2dVertex
 10
170.126678
 20
-441.107472
 30
0.0
  0
VERTEX
  5
8C7
100
AcDbEntity
  8
DETAIL
  6
CONTINUOUS
 62
     5
100
AcDbVertex
100
AcDb2dVertex
 10
171.0
 20
-440.705628
 30
0.0
  0
SEQEND
  5
8C8
100
AcDbEntity
  8
DETAIL
  6
CONTINUOUS
 62
     5
  0
POLYLINE
  5
8C9
100
AcDbEntity
  8
DETAIL
  6
CONTINUOUS
 62
     5
100
AcDb2dPolyline
 66
     1
 10
0.0
 20
0.0
 30
0.0
  0
VERTEX
  5
8CA
100
AcDbEntity
  8
DETAIL
  6
CONTINUOUS
 62
     5
100
AcDbVertex
100
AcDb2dVertex
 10
171.0
 20
-440.705628
 30
0.0
  0
VERTEX
  5
8CB
100
AcDbEntity
  8
DETAIL
  6
CONTINUOUS
 62
     5
100
AcDbVertex
100
AcDb2dVertex
 10
171.873322
 20
-441.107472
 30
0.0
  0
VERTEX
  5
8CC
100
AcDbEntity
  8
DETAIL
  6
CONTINUOUS
 62
     5
100
AcDbVertex
100
AcDb2dVertex
 10
172.951812
 20
-441.447199
 30
0.0
  0
VERTEX
  5
8CD
100
AcDbEntity
  8
DETAIL
  6
CONTINUOUS
 62
     5
100
AcDbVertex
100
AcDb2dVertex
 10
174.197818
 20
-441.71295
 30
0.0
  0
VERTEX
  5
8CE
100
AcDbEntity
  8
DETAIL
  6
CONTINUOUS
 62
     5
100
AcDbVertex
100
AcDb2dVertex
 10
175.56784
 20
-441.895445
 30
0.0
  0
VERTEX
  5
8CF
100
AcDbEntity
  8
DETAIL
  6
CONTINUOUS
 62
     5
100
AcDbVertex
100
AcDb2dVertex
 10
177.014046
 20
-441.988315
 30
0.0
  0
VERTEX
  5
8D0
100
AcDbEntity
  8
DETAIL
  6
CONTINUOUS
 62
     5
100
AcDbVertex
100
AcDb2dVertex
 10
178.485946
 20
-441.988315
 30
0.0
  0
VERTEX
  5
8D1
100
AcDbEntity
  8
DETAIL
  6
CONTINUOUS
 62
     5
100
AcDbVertex
100
AcDb2dVertex
 10
179.932152
 20
-441.895447
 30
0.0
  0
VERTEX
  5
8D2
100
AcDbEntity
  8
DETAIL
  6
CONTINUOUS
 62
     5
100
AcDbVertex
100
AcDb2dVertex
 10
181.302175
 20
-441.712953
 30
0.0
  0
VERTEX
  5
8D3
100
AcDbEntity
  8
DETAIL
  6
CONTINUOUS
 62
     5
100
AcDbVertex
100
AcDb2dVertex
 10
182.548183
 20
-441.447203
 30
0.0
  0
VERTEX
  5
8D4
100
AcDbEntity
  8
DETAIL
  6
CONTINUOUS
 62
     5
100
AcDbVertex
100
AcDb2dVertex
 10
183.626676
 20
-441.107476
 30
0.0
  0
VERTEX
  5
8D5
100
AcDbEntity
  8
DETAIL
  6
CONTINUOUS
 62
     5
100
AcDbVertex
100
AcDb2dVertex
 10
184.5
 20
-440.705633
 30
0.0
  0
SEQEND
  5
8D6
100
AcDbEntity
  8
DETAIL
  6
CONTINUOUS
 62
     5
  0
LINE
  5
8D7
100
AcDbEntity
  8
DETAIL
  6
CONTINUOUS
 62
     5
100
AcDbLine
 10
157.5
 20
-440.705633
 30
0.0
 11
157.5
 21
-422.0
 31
0.0
  0
LINE
  5
8D8
100
AcDbEntity
  8
DETAIL
  6
CONTINUOUS
 62
     5
100
AcDbLine
 10
157.5
 20
-460.0
 30
0.0
 11
157.5
 21
-444.0
 31
0.0
  0
LINE
  5
8D9
100
AcDbEntity
  8
DETAIL
  6
CONTINUOUS
 62
     5
100
AcDbLine
 10
184.5
 20
-440.705633
 30
0.0
 11
184.5
 21
-422.0
 31
0.0
  0
LINE
  5
8DA
100
AcDbEntity
  8
DETAIL
  6
CONTINUOUS
 62
     5
100
AcDbLine
 10
184.5
 20
-460.0
 30
0.0
 11
184.5
 21
-444.0
 31
0.0
  0
LINE
  5
8DB
100
AcDbEntity
  8
DETAIL
  6
CONTINUOUS
 62
     5
100
AcDbLine
 10
150.0
 20
-422.0
 30
0.0
 11
192.0
 21
-422.0
 31
0.0
  0
ARC
  5
8DC
100
AcDbEntity
  8
DETAIL
  6
CONTINUOUS
 62
     5
100
AcDbCircle
 10
192.928582
 20
-397.399996
 30
0.0
 40
3.928583
100
AcDbArc
 50
180.0
 51
231.121378
  0
ARC
  5
8DD
100
AcDbEntity
  8
DETAIL
  6
CONTINUOUS
 62
     5
100
AcDbCircle
 10
187.871155
 20
-403.672521
 30
0.0
 40
4.128845
100
AcDbArc
 50
0.0
 51
51.121378
  0
ARC
  5
8DE
100
AcDbEntity
  8
DETAIL
  6
CONTINUOUS
 62
     5
100
AcDbCircle
 10
117.871155
 20
-398.672521
 30
0.0
 40
4.128845
100
AcDbArc
 50
0.0
 51
51.121378
  0
ARC
  5
8DF
100
AcDbEntity
  8
DETAIL
  6
CONTINUOUS
 62
     5
100
AcDbCircle
 10
154.128845
 20
-403.672521
 30
0.0
 40
4.128845
100
AcDbArc
 50
128.878622
 51
180.0
  0
ARC
  5
8E0
100
AcDbEntity
  8
DETAIL
  6
CONTINUOUS
 62
     5
100
AcDbCircle
 10
149.071418
 20
-397.399996
 30
0.0
 40
3.928583
100
AcDbArc
 50
308.878622
 51
0.0
  0
POINT
  5
8E1
100
AcDbEntity
  8
DEFPOINTS
  6
CONTINUOUS
 62
     7
100
AcDbPoint
 10
317.0
 20
-388.0
 30
0.0
  0
POINT
  5
8E2
100
AcDbEntity
  8
DEFPOINTS
  6
CONTINUOUS
 62
     7
100
AcDbPoint
 10
317.0
 20
-388.0
 30
0.0
  0
POINT
  5
8E3
100
AcDbEntity
  8
DEFPOINTS
  6
CONTINUOUS
 62
     7
100
AcDbPoint
 10
317.0
 20
-388.0
 30
0.0
  0
LINE
  5
8E4
100
AcDbEntity
  8
NOTE
  6
CONTINUOUS
 62
     4
100
AcDbLine
 10
287.0
 20
-394.0
 30
0.0
 11
287.0
 21
-430.0
 31
0.0
  0
POINT
  5
8E5
100
AcDbEntity
  8
DEFPOINTS
  6
CONTINUOUS
 62
     7
100
AcDbPoint
 10
317.0
 20
-388.0
 30
0.0
  0
POINT
  5
8E6
100
AcDbEntity
  8
DEFPOINTS
  6
CONTINUOUS
 62
     7
100
AcDbPoint
 10
317.0
 20
-388.0
 30
0.0
  0
POINT
  5
8E7
100
AcDbEntity
  8
DEFPOINTS
  6
CONTINUOUS
 62
     7
100
AcDbPoint
 10
317.0
 20
-388.0
 30
0.0
  0
CIRCLE
  5
8E8
100
AcDbEntity
  8
FIX
  6
CONTINUOUS
 62
    11
100
AcDbCircle
 10
287.0
 20
-413.0125
 30
0.0
 40
14.940051
  0
LINE
  5
8E9
100
AcDbEntity
  8
NOTE
  6
CONTINUOUS
 62
     4
100
AcDbLine
 10
305.0
 20
-413.0125
 30
0.0
 11
269.0
 21
-413.0125
 31
0.0
  0
LINE
  5
8EA
100
AcDbEntity
  8
NOTE
  6
CONTINUOUS
 62
     4
100
AcDbLine
 10
287.0
 20
-395.0125
 30
0.0
 11
287.0
 21
-431.0125
 31
0.0
  0
LINE
  5
8EB
100
AcDbEntity
  8
DETAIL
  6
CONTINUOUS
 62
     5
100
AcDbLine
 10
293.0
 20
-435.125
 30
0.0
 11
312.0
 21
-435.125
 31
0.0
  0
LINE
  5
8EC
100
AcDbEntity
  8
DETAIL
  6
CONTINUOUS
 62
     5
100
AcDbLine
 10
262.0
 20
-435.125
 30
0.0
 11
281.0
 21
-435.125
 31
0.0
  0
LINE
  5
8ED
100
AcDbEntity
  8
DETAIL
  6
CONTINUOUS
 62
     5
100
AcDbLine
 10
293.0
 20
-419.125
 30
0.0
 11
295.0
 21
-419.125
 31
0.0
  0
LINE
  5
8EE
100
AcDbEntity
  8
DETAIL
  6
CONTINUOUS
 62
     5
100
AcDbLine
 10
279.0
 20
-419.125
 30
0.0
 11
281.0
 21
-419.125
 31
0.0
  0
ARC
  5
8EF
100
AcDbEntity
  8
DETAIL
  6
CONTINUOUS
 62
     5
100
AcDbCircle
 10
295.0
 20
-412.125
 30
0.0
 40
7.0
100
AcDbArc
 50
270.0
 51
90.0
  0
ARC
  5
8F0
100
AcDbEntity
  8
DETAIL
  6
CONTINUOUS
 62
     5
100
AcDbCircle
 10
279.0
 20
-412.125
 30
0.0
 40
7.0
100
AcDbArc
 50
90.0
 51
270.0
  0
LINE
  5
8F1
100
AcDbEntity
  8
DETAIL
  6
CONTINUOUS
 62
     5
100
AcDbLine
 10
293.0
 20
-435.125
 30
0.0
 11
293.0
 21
-419.125
 31
0.0
  0
LINE
  5
8F2
100
AcDbEntity
  8
DETAIL
  6
CONTINUOUS
 62
     5
100
AcDbLine
 10
281.0
 20
-435.125
 30
0.0
 11
281.0
 21
-419.125
 31
0.0
  0
LINE
  5
8F3
100
AcDbEntity
  8
DETAIL
  6
CONTINUOUS
 62
     5
100
AcDbLine
 10
312.0
 20
-435.125
 30
0.0
 11
312.0
 21
-388.0
 31
0.0
  0
LINE
  5
8F4
100
AcDbEntity
  8
DETAIL
  6
CONTINUOUS
 62
     5
100
AcDbLine
 10
262.0
 20
-435.125
 30
0.0
 11
262.0
 21
-388.0
 31
0.0
  0
LINE
  5
8F5
100
AcDbEntity
  8
DETAIL
  6
CONTINUOUS
 62
     5
100
AcDbLine
 10
279.0
 20
-405.125
 30
0.0
 11
295.0
 21
-405.125
 31
0.0
  0
TEXT
  5
8FE
100
AcDbEntity
  8
SIZE
  6
CONTINUOUS
 62
    30
100
AcDbText
 10
723.629373
 20
-624.785714
 30
0.0
 40
55.0
  1
(78)
 50
90.0
 41
0.9
 72
     1
 11
723.629373
 21
-552.892857
 31
0.0
100
AcDbText
  0
LINE
  5
8FF
100
AcDbEntity
  8
SIZE
  6
CONTINUOUS
 62
    30
100
AcDbLine
 10
743.034135
 20
-466.0
 30
0.0
 11
743.034135
 21
-629.785714
 31
0.0
  0
LINE
  5
900
100
AcDbEntity
  8
SIZE
  6
CONTINUOUS
 62
    30
100
AcDbLine
 10
604.623078
 20
-455.0
 30
0.0
 11
604.623078
 21
-629.992431
 31
0.0
  0
LINE
  5
901
100
AcDbEntity
  8
NOTE
  6
CONTINUOUS
 62
     4
100
AcDbLine
 10
676.624883
 20
-953.152469
 30
0.0
 11
1077.160967
 21
-953.152469
 31
0.0
  0
TEXT
  5
902
100
AcDbEntity
  8
NOTE
  6
CONTINUOUS
 62
     4
100
AcDbText
 10
692.85976
 20
-933.281881
 30
0.0
 40
64.0
  1
RG %%C12.7
 41
0.9
100
AcDbText
  0
LINE
  5
903
100
AcDbEntity
  8
SIZE
  6
CONTINUOUS
 62
    30
100
AcDbLine
 10
857.864808
 20
-675.0
 30
0.0
 11
857.864808
 21
-670.0
 31
0.0
  0
CIRCLE
  5
904
100
AcDbEntity
  8
SIZE
  6
CONTINUOUS
 62
    30
100
AcDbCircle
 10
857.864808
 20
-680.0
 30
0.0
 40
5.0
  0
CIRCLE
  5
905
100
AcDbEntity
  8
SIZE
  6
CONTINUOUS
 62
    30
100
AcDbCircle
 10
743.034135
 20
-466.0
 30
0.0
 40
5.0
  0
POINT
  5
906
100
AcDbEntity
  8
DEFPOINTS
  6
CONTINUOUS
 62
     7
100
AcDbPoint
 10
604.623078
 20
-455.0
 30
0.0
  0
LINE
  5
907
100
AcDbEntity
  8
SIZE
  6
CONTINUOUS
 62
    30
100
AcDbLine
 10
604.623078
 20
-450.0
 30
0.0
 11
604.623078
 21
-445.0
 31
0.0
  0
CIRCLE
  5
908
100
AcDbEntity
  8
SIZE
  6
CONTINUOUS
 62
    30
100
AcDbCircle
 10
604.623078
 20
-455.0
 30
0.0
 40
5.0
  0
LINE
  5
909
100
AcDbEntity
  8
SIZE
  6
CONTINUOUS
 62
    30
100
AcDbLine
 10
604.623078
 20
-393.0
 30
0.0
 11
604.623078
 21
-398.0
 31
0.0
  0
CIRCLE
  5
90A
100
AcDbEntity
  8
SIZE
  6
CONTINUOUS
 62
    30
100
AcDbCircle
 10
604.623078
 20
-388.0
 30
0.0
 40
5.0
  0
LINE
  5
90B
100
AcDbEntity
  8
SIZE
  6
CONTINUOUS
 62
    30
100
AcDbLine
 10
604.623078
 20
-398.0
 30
0.0
 11
604.623078
 21
-445.0
 31
0.0
  0
POINT
  5
90C
100
AcDbEntity
  8
DEFPOINTS
  6
CONTINUOUS
 62
     7
100
AcDbPoint
 10
743.034135
 20
-388.0
 30
0.0
  0
LINE
  5
90D
100
AcDbEntity
  8
SIZE
  6
CONTINUOUS
 62
    30
100
AcDbLine
 10
743.034135
 20
-461.0
 30
0.0
 11
743.034135
 21
-456.0
 31
0.0
  0
LINE
  5
90E
100
AcDbEntity
  8
SIZE
  6
CONTINUOUS
 62
    30
100
AcDbLine
 10
743.034135
 20
-393.0
 30
0.0
 11
743.034135
 21
-398.0
 31
0.0
  0
CIRCLE
  5
90F
100
AcDbEntity
  8
SIZE
  6
CONTINUOUS
 62
    30
100
AcDbCircle
 10
743.034135
 20
-388.0
 30
0.0
 40
5.0
  0
LINE
  5
910
100
AcDbEntity
  8
SIZE
  6
CONTINUOUS
 62
    30
100
AcDbLine
 10
743.034135
 20
-398.0
 30
0.0
 11
743.034135
 21
-456.0
 31
0.0
  0
LINE
  5
911
100
AcDbEntity
  8
SIZE
  6
CONTINUOUS
 62
    30
100
AcDbLine
 10
375.0
 20
680.0
 30
0.0
 11
887.864808
 21
680.0
 31
0.0
  0
LINE
  5
912
100
AcDbEntity
  8
SIZE
  6
CONTINUOUS
 62
    30
100
AcDbLine
 10
287.0
 20
450.0
 30
0.0
 11
287.0
 21
818.75155
 31
0.0
  0
LINE
  5
913
100
AcDbEntity
  8
SIZE
  6
CONTINUOUS
 62
    30
100
AcDbLine
 10
287.0
 20
450.0
 30
0.0
 11
287.0
 21
818.75155
 31
0.0
  0
LINE
  5
914
100
AcDbEntity
  8
SIZE
  6
CONTINUOUS
 62
    30
100
AcDbLine
 10
-287.0
 20
450.0
 30
0.0
 11
-287.0
 21
818.75155
 31
0.0
  0
LINE
  5
915
100
AcDbEntity
  8
SIZE
  6
CONTINUOUS
 62
    30
100
AcDbLine
 10
-287.0
 20
450.0
 30
0.0
 11
-287.0
 21
818.75155
 31
0.0
  0
TEXT
  5
917
100
AcDbEntity
  8
NOTE
  6
CONTINUOUS
 62
     4
100
AcDbText
 10
-51.221776
 20
455.887019
 30
0.0
 40
55.0
  1
外気吸込
 41
0.9
100
AcDbText
  0
LINE
  5
918
100
AcDbEntity
  8
DETAIL
  6
CONTINUOUS
 62
     5
100
AcDbLine
 10
317.0
 20
388.0
 30
0.0
 11
-317.0
 21
388.0
 31
0.0
  0
LINE
  5
91F
100
AcDbEntity
  8
NOTE
  6
CONTINUOUS
 62
     4
100
AcDbLine
 10
-91.504535
 20
459.817084
 30
0.0
 11
-106.790954
 21
427.035253
 31
0.0
  0
LINE
  5
920
100
AcDbEntity
  8
NOTE
  6
CONTINUOUS
 62
     4
100
AcDbLine
 10
-122.077373
 20
459.817084
 30
0.0
 11
-106.790954
 21
427.035253
 31
0.0
  0
LINE
  5
921
100
AcDbEntity
  8
NOTE
  6
CONTINUOUS
 62
     4
100
AcDbLine
 10
-106.790954
 20
526.788623
 30
0.0
 11
-106.790954
 21
427.035253
 31
0.0
  0
POINT
  5
922
100
AcDbEntity
  8
DEFPOINTS
  6
CONTINUOUS
 62
     7
100
AcDbPoint
 10
-305.0
 20
412.0
 30
0.0
  0
POINT
  5
923
100
AcDbEntity
  8
DEFPOINTS
  6
CONTINUOUS
 62
     7
100
AcDbPoint
 10
-305.0
 20
412.0
 30
0.0
  0
POINT
  5
924
100
AcDbEntity
  8
DEFPOINTS
  6
CONTINUOUS
 62
     7
100
AcDbPoint
 10
-317.0
 20
388.0
 30
0.0
  0
POINT
  5
925
100
AcDbEntity
  8
DEFPOINTS
  6
CONTINUOUS
 62
     7
100
AcDbPoint
 10
-287.0
 20
430.0
 30
0.0
  0
POINT
  5
926
100
AcDbEntity
  8
DEFPOINTS
  6
CONTINUOUS
 62
     7
100
AcDbPoint
 10
-287.0
 20
430.0
 30
0.0
  0
CIRCLE
  5
927
100
AcDbEntity
  8
FIX
  6
CONTINUOUS
 62
    11
100
AcDbCircle
 10
-287.0
 20
412.0
 30
0.0
 40
14.940051
  0
LINE
  5
928
100
AcDbEntity
  8
NOTE
  6
CONTINUOUS
 62
     4
100
AcDbLine
 10
-269.0
 20
412.0
 30
0.0
 11
-305.0
 21
412.0
 31
0.0
  0
LINE
  5
929
100
AcDbEntity
  8
NOTE
  6
CONTINUOUS
 62
     4
100
AcDbLine
 10
-287.0
 20
430.0
 30
0.0
 11
-287.0
 21
394.0
 31
0.0
  0
LINE
  5
92A
100
AcDbEntity
  8
DETAIL
  6
CONTINUOUS
 62
     5
100
AcDbLine
 10
-281.0
 20
435.275
 30
0.0
 11
-262.0
 21
435.275
 31
0.0
  0
LINE
  5
92B
100
AcDbEntity
  8
DETAIL
  6
CONTINUOUS
 62
     5
100
AcDbLine
 10
-312.0
 20
435.275
 30
0.0
 11
-293.0
 21
435.275
 31
0.0
  0
LINE
  5
92C
100
AcDbEntity
  8
DETAIL
  6
CONTINUOUS
 62
     5
100
AcDbLine
 10
-281.0
 20
419.275
 30
0.0
 11
-279.0
 21
419.275
 31
0.0
  0
LINE
  5
92D
100
AcDbEntity
  8
DETAIL
  6
CONTINUOUS
 62
     5
100
AcDbLine
 10
-295.0
 20
419.275
 30
0.0
 11
-293.0
 21
419.275
 31
0.0
  0
LINE
  5
92E
100
AcDbEntity
  8
DETAIL
  6
CONTINUOUS
 62
     5
100
AcDbLine
 10
-295.0
 20
405.275
 30
0.0
 11
-279.0
 21
405.275
 31
0.0
  0
ARC
  5
92F
100
AcDbEntity
  8
DETAIL
  6
CONTINUOUS
 62
     5
100
AcDbCircle
 10
-279.0
 20
412.275
 30
0.0
 40
7.0
100
AcDbArc
 50
270.0
 51
90.0
  0
ARC
  5
930
100
AcDbEntity
  8
DETAIL
  6
CONTINUOUS
 62
     5
100
AcDbCircle
 10
-295.0
 20
412.275
 30
0.0
 40
7.0
100
AcDbArc
 50
90.0
 51
270.0
  0
LINE
  5
931
100
AcDbEntity
  8
DETAIL
  6
CONTINUOUS
 62
     5
100
AcDbLine
 10
-281.0
 20
435.275
 30
0.0
 11
-281.0
 21
419.275
 31
0.0
  0
LINE
  5
932
100
AcDbEntity
  8
DETAIL
  6
CONTINUOUS
 62
     5
100
AcDbLine
 10
-293.0
 20
435.275
 30
0.0
 11
-293.0
 21
419.275
 31
0.0
  0
LINE
  5
933
100
AcDbEntity
  8
DETAIL
  6
CONTINUOUS
 62
     5
100
AcDbLine
 10
-262.0
 20
435.275
 30
0.0
 11
-262.0
 21
388.0
 31
0.0
  0
LINE
  5
934
100
AcDbEntity
  8
DETAIL
  6
CONTINUOUS
 62
     5
100
AcDbLine
 10
-312.0
 20
435.275
 30
0.0
 11
-312.0
 21
388.0
 31
0.0
  0
LINE
  5
935
100
AcDbEntity
  8
NOTE
  6
CONTINUOUS
 62
     4
100
AcDbLine
 10
-287.000631
 20
412.001085
 30
0.0
 11
-313.91692
 21
433.398819
 31
0.0
  0
LINE
  5
936
100
AcDbEntity
  8
NOTE
  6
CONTINUOUS
 62
     4
100
AcDbLine
 10
-287.000631
 20
412.001085
 30
0.0
 11
-299.611954
 21
443.990211
 31
0.0
  0
POINT
  5
94D
100
AcDbEntity
  8
DEFPOINTS
  6
CONTINUOUS
 62
     7
100
AcDbPoint
 10
287.0
 20
430.0
 30
0.0
  0
POINT
  5
94E
100
AcDbEntity
  8
DEFPOINTS
  6
CONTINUOUS
 62
     7
100
AcDbPoint
 10
287.0
 20
430.0
 30
0.0
  0
LINE
  5
94F
100
AcDbEntity
  8
NOTE
  6
CONTINUOUS
 62
     4
100
AcDbLine
 10
287.0
 20
430.0
 30
0.0
 11
287.0
 21
394.0
 31
0.0
  0
CIRCLE
  5
950
100
AcDbEntity
  8
FIX
  6
CONTINUOUS
 62
    11
100
AcDbCircle
 10
287.0
 20
412.0
 30
0.0
 40
14.940051
  0
LINE
  5
951
100
AcDbEntity
  8
NOTE
  6
CONTINUOUS
 62
     4
100
AcDbLine
 10
305.0
 20
412.0
 30
0.0
 11
269.0
 21
412.0
 31
0.0
  0
LINE
  5
952
100
AcDbEntity
  8
NOTE
  6
CONTINUOUS
 62
     4
100
AcDbLine
 10
287.0
 20
430.0
 30
0.0
 11
287.0
 21
394.0
 31
0.0
  0
LINE
  5
953
100
AcDbEntity
  8
DETAIL
  6
CONTINUOUS
 62
     5
100
AcDbLine
 10
293.0
 20
435.275
 30
0.0
 11
312.0
 21
435.275
 31
0.0
  0
LINE
  5
954
100
AcDbEntity
  8
DETAIL
  6
CONTINUOUS
 62
     5
100
AcDbLine
 10
262.0
 20
435.275
 30
0.0
 11
281.0
 21
435.275
 31
0.0
  0
LINE
  5
955
100
AcDbEntity
  8
DETAIL
  6
CONTINUOUS
 62
     5
100
AcDbLine
 10
293.0
 20
419.275
 30
0.0
 11
295.0
 21
419.275
 31
0.0
  0
LINE
  5
956
100
AcDbEntity
  8
DETAIL
  6
CONTINUOUS
 62
     5
100
AcDbLine
 10
279.0
 20
419.275
 30
0.0
 11
281.0
 21
419.275
 31
0.0
  0
ARC
  5
957
100
AcDbEntity
  8
DETAIL
  6
CONTINUOUS
 62
     5
100
AcDbCircle
 10
295.0
 20
412.275
 30
0.0
 40
7.0
100
AcDbArc
 50
270.0
 51
90.0
  0
ARC
  5
958
100
AcDbEntity
  8
DETAIL
  6
CONTINUOUS
 62
     5
100
AcDbCircle
 10
279.0
 20
412.275
 30
0.0
 40
7.0
100
AcDbArc
 50
90.0
 51
270.0
  0
LINE
  5
959
100
AcDbEntity
  8
DETAIL
  6
CONTINUOUS
 62
     5
100
AcDbLine
 10
293.0
 20
435.275
 30
0.0
 11
293.0
 21
419.275
 31
0.0
  0
LINE
  5
95A
100
AcDbEntity
  8
DETAIL
  6
CONTINUOUS
 62
     5
100
AcDbLine
 10
281.0
 20
435.275
 30
0.0
 11
281.0
 21
419.275
 31
0.0
  0
LINE
  5
95B
100
AcDbEntity
  8
DETAIL
  6
CONTINUOUS
 62
     5
100
AcDbLine
 10
312.0
 20
435.275
 30
0.0
 11
312.0
 21
388.0
 31
0.0
  0
LINE
  5
95C
100
AcDbEntity
  8
DETAIL
  6
CONTINUOUS
 62
     5
100
AcDbLine
 10
262.0
 20
435.275
 30
0.0
 11
262.0
 21
388.0
 31
0.0
  0
LINE
  5
95D
100
AcDbEntity
  8
DETAIL
  6
CONTINUOUS
 62
     5
100
AcDbLine
 10
279.0
 20
405.275
 30
0.0
 11
295.0
 21
405.275
 31
0.0
  0
TEXT
  5
95E
100
AcDbEntity
  8
SIZE
  6
CONTINUOUS
 62
    30
100
AcDbText
 10
-273.664286
 20
941.373723
 30
0.0
 40
55.0
  1
670(天井開口寸法)
 41
0.9
 72
     1
 11
0.0
 21
941.373723
 31
0.0
100
AcDbText
  0
LINE
  5
95F
100
AcDbEntity
  8
SIZE
  6
CONTINUOUS
 62
    30
100
AcDbLine
 10
-325.0
 20
921.968961
 30
0.0
 11
325.0
 21
921.968961
 31
0.0
  0
TEXT
  5
960
100
AcDbEntity
  8
SIZE
  6
CONTINUOUS
 62
    30
100
AcDbText
 10
-258.814286
 20
808.156312
 30
0.0
 40
55.0
  1
574(吊りﾎﾞﾙﾄﾋﾟｯﾁ)
 41
0.9
 72
     1
 11
0.0
 21
808.156312
 31
0.0
100
AcDbText
  0
LINE
  5
961
100
AcDbEntity
  8
SIZE
  6
CONTINUOUS
 62
    30
100
AcDbLine
 10
-277.0
 20
788.75155
 30
0.0
 11
277.0
 21
788.75155
 31
0.0
  0
LINE
  5
969
100
AcDbEntity
  8
SIZE
  6
CONTINUOUS
 62
    30
100
AcDbLine
 10
-282.0
 20
788.75155
 30
0.0
 11
-277.0
 21
788.75155
 31
0.0
  0
CIRCLE
  5
96A
100
AcDbEntity
  8
SIZE
  6
CONTINUOUS
 62
    30
100
AcDbCircle
 10
-287.0
 20
788.75155
 30
0.0
 40
5.0
  0
POINT
  5
96B
100
AcDbEntity
  8
DEFPOINTS
  6
CONTINUOUS
 62
     7
100
AcDbPoint
 10
-287.0
 20
788.75155
 30
0.0
  0
LINE
  5
96C
100
AcDbEntity
  8
SIZE
  6
CONTINUOUS
 62
    30
100
AcDbLine
 10
-282.0
 20
788.75155
 30
0.0
 11
-277.0
 21
788.75155
 31
0.0
  0
CIRCLE
  5
96D
100
AcDbEntity
  8
SIZE
  6
CONTINUOUS
 62
    30
100
AcDbCircle
 10
-287.0
 20
788.75155
 30
0.0
 40
5.0
  0
LINE
  5
96E
100
AcDbEntity
  8
SIZE
  6
CONTINUOUS
 62
    30
100
AcDbLine
 10
-277.0
 20
788.75155
 30
0.0
 11
-267.0
 21
788.75155
 31
0.0
  0
TEXT
  5
975
100
AcDbEntity
  8
SIZE
  6
CONTINUOUS
 62
    30
100
AcDbText
 10
-58.928571
 20
1069.775641
 30
0.0
 40
55.0
  1
710
 41
0.9
 72
     1
 11
0.0
 21
1069.775641
 31
0.0
100
AcDbText
  0
LINE
  5
976
100
AcDbEntity
  8
SIZE
  6
CONTINUOUS
 62
    30
100
AcDbLine
 10
355.0
 20
700.0
 30
0.0
 11
355.0
 21
1084.775641
 31
0.0
  0
LINE
  5
977
100
AcDbEntity
  8
SIZE
  6
CONTINUOUS
 62
    30
100
AcDbLine
 10
335.0
 20
680.0
 30
0.0
 11
335.0
 21
951.968961
 31
0.0
  0
LINE
  5
978
100
AcDbEntity
  8
SIZE
  6
CONTINUOUS
 62
    30
100
AcDbLine
 10
340.0
 20
788.75155
 30
0.0
 11
345.0
 21
788.75155
 31
0.0
  0
LINE
  5
979
100
AcDbEntity
  8
SIZE
  6
CONTINUOUS
 62
    30
100
AcDbLine
 10
481.718126
 20
788.75155
 30
0.0
 11
335.0
 21
788.75155
 31
0.0
  0
LINE
  5
97B
100
AcDbEntity
  8
SIZE
  6
CONTINUOUS
 62
    30
100
AcDbLine
 10
335.0
 20
680.0
 30
0.0
 11
335.0
 21
818.75155
 31
0.0
  0
POINT
  5
984
100
AcDbEntity
  8
DEFPOINTS
  6
CONTINUOUS
 62
     7
100
AcDbPoint
 10
335.0
 20
788.75155
 30
0.0
  0
CIRCLE
  5
985
100
AcDbEntity
  8
SIZE
  6
CONTINUOUS
 62
    30
100
AcDbCircle
 10
335.0
 20
788.75155
 30
0.0
 40
5.0
  0
LINE
  5
986
100
AcDbEntity
  8
SIZE
  6
CONTINUOUS
 62
    30
100
AcDbLine
 10
282.0
 20
788.75155
 30
0.0
 11
277.0
 21
788.75155
 31
0.0
  0
CIRCLE
  5
987
100
AcDbEntity
  8
SIZE
  6
CONTINUOUS
 62
    30
100
AcDbCircle
 10
287.0
 20
788.75155
 30
0.0
 40
5.0
  0
LINE
  5
988
100
AcDbEntity
  8
SIZE
  6
CONTINUOUS
 62
    30
100
AcDbLine
 10
287.0
 20
788.75155
 30
0.0
 11
335.0
 21
788.75155
 31
0.0
  0
LINE
  5
989
100
AcDbEntity
  8
SIZE
  6
CONTINUOUS
 62
    30
100
AcDbLine
 10
287.0
 20
788.75155
 30
0.0
 11
335.0
 21
788.75155
 31
0.0
  0
LINE
  5
98A
100
AcDbEntity
  8
SIZE
  6
CONTINUOUS
 62
    30
100
AcDbLine
 10
277.0
 20
788.75155
 30
0.0
 11
267.0
 21
788.75155
 31
0.0
  0
POINT
  5
98B
100
AcDbEntity
  8
DEFPOINTS
  6
CONTINUOUS
 62
     7
100
AcDbPoint
 10
287.0
 20
788.75155
 30
0.0
  0
LINE
  5
98C
100
AcDbEntity
  8
SIZE
  6
CONTINUOUS
 62
    30
100
AcDbLine
 10
282.0
 20
788.75155
 30
0.0
 11
277.0
 21
788.75155
 31
0.0
  0
CIRCLE
  5
98D
100
AcDbEntity
  8
SIZE
  6
CONTINUOUS
 62
    30
100
AcDbCircle
 10
287.0
 20
788.75155
 30
0.0
 40
5.0
  0
POINT
  5
98E
100
AcDbEntity
  8
DEFPOINTS
  6
CONTINUOUS
 62
     7
100
AcDbPoint
 10
355.0
 20
680.0
 30
0.0
  0
POINT
  5
98F
100
AcDbEntity
  8
DEFPOINTS
  6
CONTINUOUS
 62
     7
100
AcDbPoint
 10
355.0
 20
680.0
 30
0.0
  0
TEXT
  5
990
100
AcDbEntity
  8
SIZE
  6
CONTINUOUS
 62
    30
100
AcDbText
 10
386.575268
 20
803.75155
 30
0.0
 40
55.0
  1
48
 41
0.9
 72
     1
 11
426.646697
 21
803.75155
 31
0.0
100
AcDbText
  0
LINE
  5
991
100
AcDbEntity
  8
SIZE
  6
CONTINUOUS
 62
    30
100
AcDbLine
 10
345.0
 20
788.75155
 30
0.0
 11
355.0
 21
788.75155
 31
0.0
  0
POINT
  5
992
100
AcDbEntity
  8
DEFPOINTS
  6
CONTINUOUS
 62
     7
100
AcDbPoint
 10
335.0
 20
921.968961
 30
0.0
  0
LINE
  5
993
100
AcDbEntity
  8
SIZE
  6
CONTINUOUS
 62
    30
100
AcDbLine
 10
330.0
 20
921.968961
 30
0.0
 11
325.0
 21
921.968961
 31
0.0
  0
CIRCLE
  5
994
100
AcDbEntity
  8
SIZE
  6
CONTINUOUS
 62
    30
100
AcDbCircle
 10
335.0
 20
921.968961
 30
0.0
 40
5.0
  0
POINT
  5
995
100
AcDbEntity
  8
DEFPOINTS
  6
CONTINUOUS
 62
     7
100
AcDbPoint
 10
355.0
 20
1054.775641
 30
0.0
  0
LINE
  5
996
100
AcDbEntity
  8
SIZE
  6
CONTINUOUS
 62
    30
100
AcDbLine
 10
350.0
 20
1054.775641
 30
0.0
 11
345.0
 21
1054.775641
 31
0.0
  0
CIRCLE
  5
997
100
AcDbEntity
  8
SIZE
  6
CONTINUOUS
 62
    30
100
AcDbCircle
 10
355.0
 20
1054.775641
 30
0.0
 40
5.0
  0
POINT
  5
998
100
AcDbEntity
  8
DEFPOINTS
  6
CONTINUOUS
 62
     7
100
AcDbPoint
 10
857.864808
 20
680.0
 30
0.0
  0
LINE
  5
999
100
AcDbEntity
  8
SIZE
  6
CONTINUOUS
 62
    30
100
AcDbLine
 10
857.864808
 20
675.0
 30
0.0
 11
857.864808
 21
670.0
 31
0.0
  0
CIRCLE
  5
99A
100
AcDbEntity
  8
SIZE
  6
CONTINUOUS
 62
    30
100
AcDbCircle
 10
857.864808
 20
680.0
 30
0.0
 40
5.0
  0
ENDSEC
  0
SECTION
  2
OBJECTS
  0
DICTIONARY
  5
351
100
AcDbDictionary
  3
ACAD_GROUP
350
352
  3
ACAD_MLINESTYLE
350
360
  0
DICTIONARY
  5
352
102
{ACAD_REACTORS
330
351
102
}
100
AcDbDictionary
  0
DICTIONARY
  5
360
102
{ACAD_REACTORS
330
351
102
}
100
AcDbDictionary
  3
STANDARD
350
361
  0
MLINESTYLE
  5
361
102
{ACAD_REACTORS
330
360
102
}
100
AcDbMlineStyle
  2
STANDARD
 70
     0
  3

 62
   256
 51
90.0
 52
90.0
 71
     2
 49
0.5
 62
   256
  6
BYLAYER
 49
-0.5
 62
   256
  6
BYLAYER
  0
ENDSEC
  0
EOF
