  0
SECTION
  2
HEADER
  9
$ACADVER
  1
AC1009
  9
$INSBASE
 10
0.0
 20
0.0
 30
0.0
  9
$EXTMIN
 10
-1081.1664955419581
 20
-677.6976815747438
 30
-0.0000000349181948
  9
$EXTMAX
 10
1218.764450250892
 20
1109.526592544305
 30
0.0000000814935747
  9
$LIMMIN
 10
-4267.1522210604817
 20
-2696.083210198412
  9
$LIMMAX
 10
7190.7174225864646
 20
5141.155363923066
  9
$ORTHOMODE
 70
     1
  9
$REGENMODE
 70
     1
  9
$FILLMODE
 70
     1
  9
$QTEXTMODE
 70
     0
  9
$MIRRTEXT
 70
     0
  9
$DRAGMODE
 70
     2
  9
$LTSCALE
 40
20.0
  9
$OSMODE
 70
   175
  9
$ATTMODE
 70
     1
  9
$TEXTSIZE
 40
64.0
  9
$TRACEWID
 40
0.05
  9
$TEXTSTYLE
  7
NOTE
  9
$CLAYER
  8
SYMBOLLINE
  9
$CELTYPE
  6
CONTINUOUS
  9
$CECOLOR
 62
     7
  9
$DIMSCALE
 40
1.0
  9
$DIMASZ
 40
30.0
  9
$DIMEXO
 40
20.0
  9
$DIMDLI
 40
80.0
  9
$DIMRND
 40
0.0
  9
$DIMDLE
 40
0.0
  9
$DIMEXE
 40
20.0
  9
$DIMTP
 40
0.0
  9
$DIMTM
 40
0.0
  9
$DIMTXT
 40
60.0
  9
$DIMCEN
 40
0.09
  9
$DIMTSZ
 40
0.0
  9
$DIMTOL
 70
     0
  9
$DIMLIM
 70
     0
  9
$DIMTIH
 70
     0
  9
$DIMTOH
 70
     0
  9
$DIMSE1
 70
     0
  9
$DIMSE2
 70
     0
  9
$DIMTAD
 70
     1
  9
$DIMZIN
 70
     8
  9
$DIMBLK
  1
SMALL
  9
$DIMASO
 70
     1
  9
$DIMSHO
 70
     0
  9
$DIMPOST
  1

  9
$DIMAPOST
  1

  9
$DIMALT
 70
     0
  9
$DIMALTD
 70
     2
  9
$DIMALTF
 40
25.399999999999999
  9
$DIMLFAC
 40
1.0
  9
$DIMTOFL
 70
     1
  9
$DIMTVP
 40
0.0
  9
$DIMTIX
 70
     0
  9
$DIMSOXD
 70
     0
  9
$DIMSAH
 70
     0
  9
$DIMBLK1
  1

  9
$DIMBLK2
  1

  9
$DIMSTYLE
  2
STANDARD
  9
$DIMCLRD
 70
     0
  9
$DIMCLRE
 70
     0
  9
$DIMCLRT
 70
     0
  9
$DIMTFAC
 40
1.0
  9
$DIMGAP
 40
0.09
  9
$LUNITS
 70
     2
  9
$LUPREC
 70
     4
  9
$SKETCHINC
 40
0.1
  9
$FILLETRAD
 40
30.0
  9
$AUNITS
 70
     1
  9
$AUPREC
 70
     3
  9
$MENU
  1
ACAD
  9
$ELEVATION
 40
0.0
  9
$PELEVATION
 40
0.0
  9
$THICKNESS
 40
0.0
  9
$LIMCHECK
 70
     0
  9
$BLIPMODE
 70
     0
  9
$CHAMFERA
 40
0.0
  9
$CHAMFERB
 40
0.0
  9
$SKPOLY
 70
     0
  9
$TDCREATE
 40
2450330.4399309959
  9
$TDUPDATE
 40
2455338.5846080901
  9
$TDINDWG
 40
4.0957156250000004
  9
$TDUSRTIMER
 40
4.0957130903000003
  9
$USRTIMER
 70
     1
  9
$ANGBASE
 50
0.0
  9
$ANGDIR
 70
     0
  9
$PDMODE
 70
     3
  9
$PDSIZE
 40
-2.0
  9
$PLINEWID
 40
0.0
  9
$COORDS
 70
     0
  9
$SPLFRAME
 70
     0
  9
$SPLINETYPE
 70
     6
  9
$SPLINESEGS
 70
     8
  9
$ATTDIA
 70
     0
  9
$ATTREQ
 70
     1
  9
$HANDLING
 70
     1
  9
$HANDSEED
  5
3CE
  9
$SURFTAB1
 70
     6
  9
$SURFTAB2
 70
     6
  9
$SURFTYPE
 70
     6
  9
$SURFU
 70
     6
  9
$SURFV
 70
     6
  9
$UCSNAME
  2

  9
$UCSORG
 10
0.0
 20
0.0
 30
0.0
  9
$UCSXDIR
 10
1.0
 20
0.0
 30
0.0
  9
$UCSYDIR
 10
0.0
 20
1.0
 30
0.0
  9
$PUCSNAME
  2

  9
$PUCSORG
 10
0.0
 20
0.0
 30
0.0
  9
$PUCSXDIR
 10
1.0
 20
0.0
 30
0.0
  9
$PUCSYDIR
 10
0.0
 20
1.0
 30
0.0
  9
$USERI1
 70
     0
  9
$USERI2
 70
     0
  9
$USERI3
 70
     0
  9
$USERI4
 70
     0
  9
$USERI5
 70
     0
  9
$USERR1
 40
20.0
  9
$USERR2
 40
0.0
  9
$USERR3
 40
0.0
  9
$USERR4
 40
0.0
  9
$USERR5
 40
0.0
  9
$WORLDVIEW
 70
     1
  9
$SHADEDGE
 70
     3
  9
$SHADEDIF
 70
    70
  9
$TILEMODE
 70
     1
  9
$MAXACTVP
 70
    64
  9
$PLIMCHECK
 70
     0
  9
$PEXTMIN
 10
1.0000000000000000E+020
 20
1.0000000000000000E+020
 30
1.0000000000000000E+020
  9
$PEXTMAX
 10
-1.0000000000000000E+020
 20
-1.0000000000000000E+020
 30
-1.0000000000000000E+020
  9
$PLIMMIN
 10
0.0
 20
0.0
  9
$PLIMMAX
 10
12.0
 20
9.0
  9
$UNITMODE
 70
     0
  9
$VISRETAIN
 70
     1
  9
$PLINEGEN
 70
     0
  9
$PSLTSCALE
 70
     1
  0
ENDSEC
  0
SECTION
  2
TABLES
  0
TABLE
  2
VPORT
 70
     1
  0
VPORT
  2
*ACTIVE
 70
     0
 10
0.0
 20
0.0
 11
1.0
 21
1.0
 12
1461.782600762991
 22
1222.536076862327
 13
0.0
 23
0.0
 14
50.0
 24
50.0
 15
100.0
 25
100.0
 16
0.0
 26
0.0
 36
1.0
 17
0.0
 27
0.0
 37
0.0
 40
7896.9888046738661
 41
1.555979643765903
 42
50.0
 43
0.0
 44
0.0
 50
0.0
 51
0.0
 71
     0
 72
  1000
 73
     1
 74
     0
 75
     0
 76
     0
 77
     0
 78
     0
  0
ENDTAB
  0
TABLE
  2
LTYPE
 70
     3
  0
LTYPE
  2
CONTINUOUS
 70
     0
  3
実線
 72
    65
 73
     0
 40
0.0
  0
LTYPE
  2
DASHDOT
 70
     0
  3
____ _ ____ _ ____ _ ____ _ ____ _ ____ _ ____
 72
    65
 73
     4
 40
5.5
 49
4.0
 49
-0.6
 49
0.3
 49
-0.6
  0
ENDTAB
  0
TABLE
  2
LAYER
 70
    12
  0
LAYER
  2
0
 70
     0
 62
     7
  6
CONTINUOUS
  0
LAYER
  2
SYMBOLLINE
 70
     0
 62
    15
  6
CONTINUOUS
  0
LAYER
  2
OUTLINE
 70
     0
 62
     3
  6
CONTINUOUS
  0
LAYER
  2
DETAIL
 70
     0
 62
     5
  6
CONTINUOUS
  0
LAYER
  2
BASIS
 70
     0
 62
     6
  6
DASHDOT
  0
LAYER
  2
SIZE
 70
     0
 62
    30
  6
CONTINUOUS
  0
LAYER
  2
NOTE
 70
     0
 62
     4
  6
CONTINUOUS
  0
LAYER
  2
ARRANGE
 70
     0
 62
     1
  6
CONTINUOUS
  0
LAYER
  2
FIX
 70
     0
 62
    11
  6
CONTINUOUS
  0
LAYER
  2
SERVICESPACE
 70
     0
 62
     2
  6
DASHDOT
  0
LAYER
  2
ETC
 70
     0
 62
    61
  6
CONTINUOUS
  0
LAYER
  2
DEFPOINTS
 70
     0
 62
     7
  6
CONTINUOUS
  0
ENDTAB
  0
TABLE
  2
STYLE
 70
     3
  0
STYLE
  2
STANDARD
 70
     0
 40
0.0
 41
0.9
 50
0.0
 71
     0
 42
64.0
  3
SIMPLEX
  4
BIGFONT
  0
STYLE
  2
ANNOTATIVE
 70
     0
 40
0.0
 41
1.0
 50
0.0
 71
     0
 42
0.2
  3
txt
  4

  0
STYLE
  2
NOTE
 70
     0
 40
0.0
 41
0.7
 50
0.0
 71
     0
 42
64.0
  3
SIMPLEX.shx
  4
BIGFONT.shx
  0
ENDTAB
  0
TABLE
  2
VIEW
 70
     3
  0
VIEW
  2
ALL
 70
     0
 40
9000.0
 10
241.50664699999999
 20
0.0
 41
12483.01
 11
0.0
 21
0.0
 31
1.0
 12
0.0
 22
0.0
 32
0.0
 42
50.0
 43
0.0
 44
0.0
 50
0.0
 71
     0
  0
ENDTAB
  0
TABLE
  2
UCS
 70
     0
  0
ENDTAB
  0
TABLE
  2
APPID
 70
     4
  0
APPID
  2
ACAD
 70
     0
  0
APPID
  2
ACADANNOTATIVE
 70
     0
  0
APPID
  2
ACAD_MLEADERVER
 70
     0
  0
APPID
  2
ACAD_EXEMPT_FROM_CAD_STANDARDS
 70
     0
  0
ENDTAB
  0
TABLE
  2
DIMSTYLE
 70
     3
  0
DIMSTYLE
  2
STANDARD
 70
     0
  3

  4

  5

  6

  7

 40
1.0
 41
0.18
 42
0.0625
 43
0.38
 44
0.18
 45
0.0
 46
0.0
 47
0.0
 48
0.0
140
0.18
141
0.09
142
0.0
143
25.399999999999999
144
1.0
145
0.0
146
1.0
147
0.09
 71
     0
 72
     0
 73
     1
 74
     1
 75
     0
 76
     0
 77
     0
 78
     0
170
     0
171
     2
172
     0
173
     0
174
     0
175
     0
176
     0
177
     0
178
     0
  0
DIMSTYLE
  2
ANNOTATIVE
 70
     0
  3

  4

  5

  6

  7

 40
1.0
 41
0.18
 42
0.0625
 43
0.38
 44
0.18
 45
0.0
 46
0.0
 47
0.0
 48
0.0
140
0.18
141
0.09
142
0.0
143
25.399999999999999
144
1.0
145
0.0
146
1.0
147
0.09
 71
     0
 72
     0
 73
     1
 74
     1
 75
     0
 76
     0
 77
     0
 78
     0
170
     0
171
     2
172
     0
173
     0
174
     0
175
     0
176
     0
177
     0
178
     0
  0
ENDTAB
  0
ENDSEC
  0
SECTION
  2
BLOCKS
  0
BLOCK
  8
0
  2
$MODEL_SPACE
 70
     0
 10
0.0
 20
0.0
 30
0.0
  3
$MODEL_SPACE
  1

  0
ENDBLK
  5
377
  8
0
  0
BLOCK
 67
     1
  8
0
  2
$PAPER_SPACE
 70
     0
 10
0.0
 20
0.0
 30
0.0
  3
$PAPER_SPACE
  1

  0
ENDBLK
  5
373
 67
     1
  8
0
  0
BLOCK
  8
0
  2
_SMALL
 70
     0
 10
0.0
 20
0.0
 30
0.0
  3
_SMALL
  1

  0
CIRCLE
  5
8B
  8
0
  6
CONTINUOUS
 62
     7
 10
0.0
 20
0.0
 30
0.0
 40
0.25
  0
ENDBLK
  5
8C
  8
0
  0
ENDSEC
  0
SECTION
  2
ENTITIES
  0
LINE
  5
8D
  8
DETAIL
  6
CONTINUOUS
 62
     5
 10
-505.45055792864679
 20
0.0059591501549221
 30
0.0
 11
-505.45055792864679
 21
45.0
 31
0.0
  0
ARC
  5
8E
  8
DETAIL
  6
CONTINUOUS
 62
     5
 10
-435.1296115158766
 20
312.8638556247256
 30
0.0
 40
332.86385562482542
 50
251.63587196019679
 51
270.00000000000028
  0
LINE
  5
8F
  8
DETAIL
  6
CONTINUOUS
 62
     5
 10
505.45055792864679
 20
0.0059591501549221
 30
0.0
 11
505.45055792864679
 21
45.000000000000448
 31
0.0
  0
ARC
  5
90
  8
DETAIL
  6
CONTINUOUS
 62
     5
 10
435.12961151587473
 20
312.8638556247256
 30
0.0
 40
332.86385562482548
 50
270.0
 51
288.36412803980318
  0
ARC
  5
91
  8
DETAIL
  6
CONTINUOUS
 62
     5
 10
501.27431395607158
 20
234.46737365290301
 30
0.0
 40
3.0008938725231871
 50
0.0
 51
90.0
  0
ARC
  5
92
  8
DETAIL
  6
CONTINUOUS
 62
     5
 10
501.27431395607158
 20
204.45843492767031
 30
0.0
 40
3.0008938725231582
 50
270.0
 51
0.0
  0
LINE
  5
93
  8
DETAIL
  6
CONTINUOUS
 62
     5
 10
504.2752078285809
 20
234.46737365290301
 30
0.0
 11
504.2752078285809
 21
204.45843492767031
 31
0.0
  0
LINE
  5
95
  8
DETAIL
  6
CONTINUOUS
 62
     5
 10
499.27371804103859
 20
237.4682675254262
 30
0.0
 11
501.27431395607158
 21
237.4682675254262
 31
0.0
  0
LINE
  5
96
  8
DETAIL
  6
CONTINUOUS
 62
     5
 10
499.27371804103859
 20
201.45754105514811
 30
0.0
 11
501.27431395607158
 21
201.45754105514811
 31
0.0
  0
LINE
  5
97
  8
NOTE
  6
CONTINUOUS
 62
     4
 10
-520.0
 20
15.010428512771339
 30
0.0
 11
-630.56452998362624
 21
15.010428512771339
 31
0.0
  0
LINE
  5
98
  8
NOTE
  6
CONTINUOUS
 62
     4
 10
520.0
 20
0.0
 30
0.0
 11
520.0
 21
15.010428512770879
 31
0.0
  0
LINE
  5
99
  8
NOTE
  6
CONTINUOUS
 62
     4
 10
-520.0
 20
0.0
 30
0.0
 11
-520.0
 21
15.010428512771339
 31
0.0
  0
LINE
  5
9A
  8
NOTE
  6
CONTINUOUS
 62
     4
 10
620.03750354193471
 20
15.010428512770879
 30
0.0
 11
520.00770779116283
 21
15.010428512770879
 31
0.0
  0
LINE
  5
9B
  8
DETAIL
  6
CONTINUOUS
 62
     5
 10
-390.30068530226879
 20
110.9871878271674
 30
0.0
 11
-388.0
 21
110.9871878271674
 31
0.0
  0
LINE
  5
9C
  8
DETAIL
  6
CONTINUOUS
 62
     5
 10
-390.30068530226879
 20
128.0
 30
0.0
 11
-390.30068530226879
 21
110.9871878271674
 31
0.0
  0
LINE
  5
9D
  8
DETAIL
  6
CONTINUOUS
 62
     5
 10
390.30068530226879
 20
110.9871878271674
 30
0.0
 11
388.0
 21
110.9871878271674
 31
0.0
  0
LINE
  5
9E
  8
DETAIL
  6
CONTINUOUS
 62
     5
 10
433.6993146977365
 20
154.0
 30
0.0
 11
390.30068530226879
 21
154.0
 31
0.0
  0
ARC
  5
9F
  8
DETAIL
  6
CONTINUOUS
 62
     5
 10
433.6993146977365
 20
151.6993146977311
 30
0.0
 40
2.3006853022679592
 50
0.0
 51
90.0
  0
LINE
  5
A0
  8
DETAIL
  6
CONTINUOUS
 62
     5
 10
436.00000000000358
 20
141.9964245099072
 30
0.0
 11
436.00000000000358
 21
151.6993146977311
 31
0.0
  0
ARC
  5
A1
  8
DETAIL
  6
CONTINUOUS
 62
     5
 10
390.30068530226879
 20
151.6993146977311
 30
0.0
 40
2.3006853022688709
 50
90.0
 51
180.0
  0
LINE
  5
A3
  8
DETAIL
  6
CONTINUOUS
 62
     5
 10
390.30068530226879
 20
151.6993146977311
 30
0.0
 11
390.30068530226879
 21
110.9871878271674
 31
0.0
  0
LINE
  5
A4
  8
DETAIL
  6
CONTINUOUS
 62
     5
 10
436.00000000000358
 20
141.9964245099072
 30
0.0
 11
433.6993146977365
 21
141.9964245099072
 31
0.0
  0
LINE
  5
A5
  8
DETAIL
  6
CONTINUOUS
 62
     5
 10
433.6993146977365
 20
141.9964245099072
 30
0.0
 11
433.6993146977365
 21
151.6993146977311
 31
0.0
  0
LINE
  5
A6
  8
DETAIL
  6
CONTINUOUS
 62
     5
 10
433.6993146977365
 20
151.6993146977311
 30
0.0
 11
390.30068530226879
 21
151.6993146977311
 31
0.0
  0
LINE
  5
A7
  8
NOTE
  6
CONTINUOUS
 62
     4
 10
-520.0
 20
3.4703441836568341
 30
0.0
 11
-531.54008432911905
 21
15.010428512771339
 31
0.0
  0
LINE
  5
A8
  8
NOTE
  6
CONTINUOUS
 62
     4
 10
-530.68196434570916
 20
0.0059591501549221
 30
0.0
 11
-545.68643370834059
 21
15.010428512771339
 31
0.0
  0
LINE
  5
A9
  8
NOTE
  6
CONTINUOUS
 62
     4
 10
-544.82831372493274
 20
0.0059591501549221
 30
0.0
 11
-559.8327830875387
 21
15.010428512771339
 31
0.0
  0
LINE
  5
AA
  8
NOTE
  6
CONTINUOUS
 62
     4
 10
-587.26736186257517
 20
0.0059591501549221
 30
0.0
 11
-602.27183122520671
 21
15.010428512771339
 31
0.0
  0
LINE
  5
AB
  8
NOTE
  6
CONTINUOUS
 62
     4
 10
-601.41371124179875
 20
0.0059591501549221
 30
0.0
 11
-616.41818060440471
 21
15.010428512771339
 31
0.0
  0
LINE
  5
AC
  8
NOTE
  6
CONTINUOUS
 62
     4
 10
-615.56006062102233
 20
0.0059591501549221
 30
0.0
 11
-630.56452998362624
 21
15.010428512771339
 31
0.0
  0
LINE
  5
AD
  8
NOTE
  6
CONTINUOUS
 62
     4
 10
535.15940726664826
 20
0.0059591501544674
 30
0.0
 11
520.15493790401695
 21
15.010428512770879
 31
0.0
  0
LINE
  5
AE
  8
NOTE
  6
CONTINUOUS
 62
     4
 10
549.30575664587195
 20
0.0059591501544674
 30
0.0
 11
534.30128728324053
 21
15.010428512770879
 31
0.0
  0
LINE
  5
AF
  8
NOTE
  6
CONTINUOUS
 62
     4
 10
591.74480478351495
 20
0.0059591501544674
 30
0.0
 11
576.74033542088364
 21
15.010428512770879
 31
0.0
  0
LINE
  5
B0
  8
NOTE
  6
CONTINUOUS
 62
     4
 10
605.89115416271295
 20
0.0059591501544674
 30
0.0
 11
590.88668480010688
 21
15.010428512770879
 31
0.0
  0
LINE
  5
B1
  8
NOTE
  6
CONTINUOUS
 62
     4
 10
620.03750354193471
 20
0.0059591501544674
 30
0.0
 11
605.03303417933046
 21
15.010428512770879
 31
0.0
  0
LINE
  5
B2
  8
DETAIL
  6
CONTINUOUS
 62
     5
 10
388.0
 20
173.65795607956761
 30
0.0
 11
499.27371804103859
 21
194.65551494408879
 31
0.0
  0
LINE
  5
B3
  8
DETAIL
  6
CONTINUOUS
 62
     5
 10
448.0
 20
266.49478574361478
 30
0.0
 11
388.0
 21
266.49478574361478
 31
0.0
  0
LINE
  5
B4
  8
DETAIL
  6
CONTINUOUS
 62
     5
 10
448.0
 20
301.50521425638522
 30
0.0
 11
448.0
 21
266.49478574361478
 31
0.0
  0
LINE
  5
B5
  8
DETAIL
  6
CONTINUOUS
 62
     5
 10
448.0
 20
301.50521425638522
 30
0.0
 11
388.0
 21
301.50521425638522
 31
0.0
  0
LINE
  5
B6
  8
DETAIL
  6
CONTINUOUS
 62
     5
 10
499.27371804103859
 20
194.65551494408879
 30
0.0
 11
499.27371804103859
 21
244.47035322798021
 31
0.0
  0
LINE
  5
B7
  8
DETAIL
  6
CONTINUOUS
 62
     5
 10
388.0
 20
244.47035322798021
 30
0.0
 11
499.27371804103859
 21
244.47035322798021
 31
0.0
  0
LINE
  5
B8
  8
DETAIL
  6
CONTINUOUS
 62
     5
 10
417.049225933917
 20
98.005959150154496
 30
0.0
 11
388.0
 21
98.005959150154496
 31
0.0
  0
LINE
  5
B9
  8
NOTE
  6
CONTINUOUS
 62
     4
 10
-512.00813561108544
 20
349.99999999999932
 30
0.0
 11
504.2752078285809
 21
349.99999999999932
 31
0.0
  0
LINE
  5
BA
  8
NOTE
  6
CONTINUOUS
 62
     4
 10
-167.58244705159811
 20
349.99999999999932
 30
0.0
 11
-137.57350832638619
 21
380.00893872523119
 31
0.0
  0
LINE
  5
BB
  8
NOTE
  6
CONTINUOUS
 62
     4
 10
-391.00598825996559
 20
349.99999999999932
 30
0.0
 11
-360.9970495347556
 21
380.00893872523119
 31
0.0
  0
LINE
  5
BC
  8
NOTE
  6
CONTINUOUS
 62
     4
 10
-364.42952946846742
 20
349.99999999999932
 30
0.0
 11
-334.42059074325738
 21
380.00893872523119
 31
0.0
  0
LINE
  5
BD
  8
NOTE
  6
CONTINUOUS
 62
     4
 10
-417.50795767466468
 20
349.99999999999932
 30
0.0
 11
-387.49901894945282
 21
380.00893872523119
 31
0.0
  0
LINE
  5
BE
  8
NOTE
  6
CONTINUOUS
 62
     4
 10
-390.93149888303373
 20
349.99999999999932
 30
0.0
 11
-360.92256015782363
 21
380.00893872523119
 31
0.0
  0
LINE
  5
BF
  8
NOTE
  6
CONTINUOUS
 62
     4
 10
-140.85700950610041
 20
349.99999999999932
 30
0.0
 11
-110.8480707808903
 21
380.00893872523119
 31
0.0
  0
LINE
  5
C0
  8
NOTE
  6
CONTINUOUS
 62
     4
 10
-114.2805507146022
 20
349.99999999999932
 30
0.0
 11
-84.271611989392113
 21
380.00893872523119
 31
0.0
  0
LINE
  5
C1
  8
NOTE
  6
CONTINUOUS
 62
     4
 10
-364.3550400915355
 20
349.99999999999932
 30
0.0
 11
-334.3461013663254
 21
380.00893872523119
 31
0.0
  0
LINE
  5
C2
  8
DETAIL
  6
CONTINUOUS
 62
     5
 10
-388.0
 20
344.0
 30
0.0
 11
388.0
 21
344.0
 31
0.0
  0
LINE
  5
C3
  8
DETAIL
  6
CONTINUOUS
 62
     5
 10
410.0
 20
54.00000000000005
 30
0.0
 11
-410.0
 21
54.00000000000005
 31
0.0
  0
LINE
  5
C4
  8
DETAIL
  6
CONTINUOUS
 62
     5
 10
388.0
 20
344.0
 30
0.0
 11
388.0
 21
54.00000000000005
 31
0.0
  0
LINE
  5
C5
  8
DETAIL
  6
CONTINUOUS
 62
     5
 10
-388.0
 20
344.0
 30
0.0
 11
-388.0
 21
332.99996052933972
 31
0.0
  0
LINE
  5
C6
  8
DETAIL
  6
CONTINUOUS
 62
     5
 10
540.0
 20
0.0
 30
0.0
 11
540.0
 21
-3.0483916855255302
 31
0.0
  0
LINE
  5
C7
  8
DETAIL
  6
CONTINUOUS
 62
     5
 10
-539.99999999999795
 20
0.0
 30
0.0
 11
-540.0
 21
-3.048391685526437
 31
0.0
  0
LINE
  5
C8
  8
DETAIL
  6
CONTINUOUS
 62
     5
 10
435.12961151587473
 20
-20.000000000100041
 30
0.0
 11
-435.1296115158766
 21
-20.000000000099948
 31
0.0
  0
LINE
  5
C9
  8
DETAIL
  6
CONTINUOUS
 62
     5
 10
-540.0
 20
0.0
 30
0.0
 11
540.0
 21
0.0
 31
0.0
  0
LINE
  5
CA
  8
NOTE
  6
CONTINUOUS
 62
     4
 10
-520.0
 20
0.0000000000004547
 30
0.0
 11
-630.56452998362624
 21
0.0
 31
0.0
  0
LINE
  5
CB
  8
NOTE
  6
CONTINUOUS
 62
     4
 10
620.02979575077188
 20
0.0
 30
0.0
 11
520.0
 21
0.0
 31
0.0
  0
LINE
  5
CC
  8
NOTE
  6
CONTINUOUS
 62
     4
 10
412.00000000000159
 20
174.00000000000091
 30
0.0
 11
412.00000000000159
 21
134.0000000000008
 31
0.0
  0
LINE
  5
CD
  8
NOTE
  6
CONTINUOUS
 62
     4
 10
392.00000000000182
 20
154.00000000000091
 30
0.0
 11
432.00000000000182
 21
154.00000000000091
 31
0.0
  0
LINE
  5
CE
  8
NOTE
  6
CONTINUOUS
 62
     4
 10
412.0
 20
174.0
 30
0.0
 11
412.0
 21
133.9999999999998
 31
0.0
  0
LINE
  5
CF
  8
NOTE
  6
CONTINUOUS
 62
     4
 10
392.0
 20
154.0
 30
0.0
 11
432.0
 21
154.0
 31
0.0
  0
LINE
  5
D0
  8
NOTE
  6
CONTINUOUS
 62
     4
 10
-411.99999999999801
 20
174.00000000000091
 30
0.0
 11
-411.99999999999801
 21
134.0000000000008
 31
0.0
  0
LINE
  5
D1
  8
NOTE
  6
CONTINUOUS
 62
     4
 10
-431.9999999999979
 20
154.00000000000091
 30
0.0
 11
-391.99999999999812
 21
154.00000000000091
 31
0.0
  0
LINE
  5
D2
  8
NOTE
  6
CONTINUOUS
 62
     4
 10
-412.0
 20
174.0
 30
0.0
 11
-412.0
 21
133.9999999999998
 31
0.0
  0
LINE
  5
D3
  8
NOTE
  6
CONTINUOUS
 62
     4
 10
-432.0
 20
154.0
 30
0.0
 11
-392.0
 21
154.0
 31
0.0
  0
LINE
  5
D4
  8
NOTE
  6
CONTINUOUS
 62
     4
 10
447.99999999995271
 20
284.00000000003541
 30
0.0
 11
753.15534135596272
 21
570.53455471664188
 31
0.0
  0
LINE
  5
D5
  8
NOTE
  6
CONTINUOUS
 62
     4
 10
469.04169650700891
 20
318.01833353290567
 30
0.0
 11
447.99999999995271
 21
284.00000000003541
 31
0.0
  0
LINE
  5
D6
  8
NOTE
  6
CONTINUOUS
 62
     4
 10
447.99999999995271
 20
284.00000000003541
 30
0.0
 11
483.23181091205282
 21
302.9398928229021
 31
0.0
  0
LINE
  5
D7
  8
NOTE
  6
CONTINUOUS
 62
     4
 10
454.9999999999672
 20
242.00000000000091
 30
0.0
 11
454.9999999999672
 21
202.00000000000091
 31
0.0
  0
LINE
  5
D8
  8
NOTE
  6
CONTINUOUS
 62
     4
 10
434.99999999995521
 20
222.0000000000382
 30
0.0
 11
474.99999999995538
 21
222.0000000000382
 31
0.0
  0
LINE
  5
D9
  8
NOTE
  6
CONTINUOUS
 62
     4
 10
454.99999999995521
 20
222.0000000000382
 30
0.0
 11
874.59702814583738
 21
-296.30688652071098
 31
0.0
  0
LINE
  5
DA
  8
NOTE
  6
CONTINUOUS
 62
     4
 10
487.8566076909155
 20
199.18677271210291
 30
0.0
 11
454.99999999995362
 21
222.0000000000359
 31
0.0
  0
LINE
  5
DB
  8
NOTE
  6
CONTINUOUS
 62
     4
 10
454.99999999995362
 20
222.0000000000359
 30
0.0
 11
472.04804331813313
 21
185.81486134741959
 31
0.0
  0
LINE
  5
DC
  8
NOTE
  6
CONTINUOUS
 62
     4
 10
465.9999999999672
 20
242.00000000000091
 30
0.0
 11
465.9999999999672
 21
202.00000000000091
 31
0.0
  0
LINE
  5
DD
  8
NOTE
  6
CONTINUOUS
 62
     4
 10
445.99999999994452
 20
222.00000000002001
 30
0.0
 11
485.99999999994452
 21
222.00000000002001
 31
0.0
  0
LINE
  5
DE
  8
NOTE
  6
CONTINUOUS
 62
     4
 10
465.99999999994452
 20
222.00000000002001
 30
0.0
 11
893.32207110493471
 21
-13.393341081257629
 31
0.0
  0
LINE
  5
DF
  8
NOTE
  6
CONTINUOUS
 62
     4
 10
504.84350133898619
 20
212.45105178711361
 30
0.0
 11
465.99999999994691
 21
222.00000000001771
 31
0.0
  0
LINE
  5
E0
  8
NOTE
  6
CONTINUOUS
 62
     4
 10
465.99999999994691
 20
222.00000000001771
 30
0.0
 11
494.86498499841173
 21
194.3086172009221
 31
0.0
  0
LINE
  5
E1
  8
DETAIL
  6
CONTINUOUS
 62
     5
 10
417.049225933917
 20
57.994040849845582
 30
0.0
 11
388.0
 21
57.994040849845582
 31
0.0
  0
LINE
  5
E2
  8
DETAIL
  6
CONTINUOUS
 62
     5
 10
417.04922593392649
 20
98.005959150154496
 30
0.0
 11
417.04922593393201
 21
57.994040849845582
 31
0.0
  0
CIRCLE
  5
E3
  8
ARRANGE
  6
CONTINUOUS
 62
     1
 10
-0.0000000000009095
 20
0.0000000000004547
 30
0.0
 40
40.0
  0
POINT
  5
E4
  8
ARRANGE
  6
CONTINUOUS
 62
     1
 10
-0.0000000000009095
 20
0.0000000000004547
 30
0.0
  0
LINE
  5
E5
  8
SIZE
  6
CONTINUOUS
 62
    30
 10
-407.99999999999932
 20
344.00000000000023
 30
0.0
 11
-866.5593020833652
 21
344.00000000000023
 31
0.0
  0
LINE
  5
E6
  8
SIZE
  6
CONTINUOUS
 62
    30
 10
-430.0
 20
53.999999999999993
 30
0.0
 11
-866.5593020833652
 21
54.000000000000107
 31
0.0
  0
LINE
  5
E7
  8
SIZE
  6
CONTINUOUS
 62
    30
 10
-846.55930208336508
 20
344.00000000000023
 30
0.0
 11
-846.55930208336531
 21
54.000000000000107
 31
0.0
  0
CIRCLE
  5
E8
  8
SIZE
  6
CONTINUOUS
 62
    30
 10
-846.55930208336508
 20
344.00000000000023
 30
0.0
 40
7.5
  0
CIRCLE
  5
E9
  8
SIZE
  6
CONTINUOUS
 62
    30
 10
-846.55930208336531
 20
54.000000000000107
 30
0.0
 40
7.5
  0
TEXT
  5
EA
  8
SIZE
  6
CONTINUOUS
 62
    30
 10
-866.5593020833652
 20
129.5714285714285
 30
0.0
 40
60.0
  1
290
 50
90.0
 41
0.9
 72
     1
 11
-866.5593020833652
 21
199.0
 31
0.0
  0
POINT
  5
EB
  8
DEFPOINTS
  6
CONTINUOUS
 62
     7
 10
-388.0
 20
344.0
 30
0.0
  0
POINT
  5
EC
  8
DEFPOINTS
  6
CONTINUOUS
 62
     7
 10
-410.0
 20
52.3999999999998
 30
0.0
  0
POINT
  5
ED
  8
DEFPOINTS
  6
CONTINUOUS
 62
     7
 10
-846.55930208336531
 20
54.000000000000107
 30
0.0
  0
LINE
  5
EE
  8
SIZE
  6
CONTINUOUS
 62
    30
 10
-455.12961151585478
 20
-20.000000000100719
 30
0.0
 11
-984.98684518341122
 21
-20.00000000010057
 31
0.0
  0
LINE
  5
EF
  8
SIZE
  6
CONTINUOUS
 62
    30
 10
-560.0
 20
-0.0000000000000512
 30
0.0
 11
-984.98684518341122
 21
0.0000000000000692
 31
0.0
  0
LINE
  5
F0
  8
SIZE
  6
CONTINUOUS
 62
    30
 10
-964.98684518341122
 20
0.0000000000000635
 30
0.0
 11
-964.98684518341122
 21
30.00000000000006
 31
0.0
  0
LINE
  5
F1
  8
SIZE
  6
CONTINUOUS
 62
    30
 10
-964.98684518341122
 20
-20.00000000010057
 30
0.0
 11
-964.98684518341122
 21
-207.4285714286726
 31
0.0
  0
LINE
  5
F2
  8
SIZE
  6
CONTINUOUS
 62
    30
 10
-964.98684518341122
 20
0.0000000000000635
 30
0.0
 11
-964.98684518341122
 21
-20.00000000010057
 31
0.0
  0
CIRCLE
  5
F3
  8
SIZE
  6
CONTINUOUS
 62
    30
 10
-964.98684518341122
 20
0.0000000000000635
 30
0.0
 40
7.5
  0
CIRCLE
  5
F4
  8
SIZE
  6
CONTINUOUS
 62
    30
 10
-964.98684518341122
 20
-20.00000000010057
 30
0.0
 40
7.5
  0
TEXT
  5
F5
  8
SIZE
  6
CONTINUOUS
 62
    30
 10
-984.98684518341099
 20
-187.4285714286728
 30
0.0
 40
60.0
  1
20
 50
90.0
 41
0.9
 72
     1
 11
-984.98684518341099
 21
-143.7142857143871
 31
0.0
  0
POINT
  5
F6
  8
DEFPOINTS
  6
CONTINUOUS
 62
     7
 10
-435.12961151585478
 20
-20.000000000100719
 30
0.0
  0
POINT
  5
F7
  8
DEFPOINTS
  6
CONTINUOUS
 62
     7
 10
-540.0
 20
-0.0000000000000568
 30
0.0
  0
POINT
  5
F8
  8
DEFPOINTS
  6
CONTINUOUS
 62
     7
 10
-964.98684518341122
 20
0.0000000000000635
 30
0.0
  0
LINE
  5
F9
  8
SIZE
  6
CONTINUOUS
 62
    30
 10
-560.0
 20
-0.0000000000000512
 30
0.0
 11
-984.98684518341122
 21
0.0000000000000692
 31
0.0
  0
LINE
  5
FA
  8
SIZE
  6
CONTINUOUS
 62
    30
 10
-532.00813561108544
 20
349.99999999999932
 30
0.0
 11
-984.98684518341122
 21
349.99999999999949
 31
0.0
  0
LINE
  5
FB
  8
SIZE
  6
CONTINUOUS
 62
    30
 10
-964.98684518341145
 20
0.0000000000000635
 30
0.0
 11
-964.98684518341122
 21
349.99999999999949
 31
0.0
  0
CIRCLE
  5
FC
  8
SIZE
  6
CONTINUOUS
 62
    30
 10
-964.98684518341145
 20
0.0000000000000635
 30
0.0
 40
7.5
  0
CIRCLE
  5
FD
  8
SIZE
  6
CONTINUOUS
 62
    30
 10
-964.98684518341122
 20
349.99999999999949
 30
0.0
 40
7.5
  0
TEXT
  5
FE
  8
SIZE
  6
CONTINUOUS
 62
    30
 10
-984.98684518341099
 20
40.257142857142441
 30
0.0
 40
60.0
  1
350以上
 50
90.0
 41
0.9
 72
     1
 11
-984.98684518341099
 21
174.9999999999996
 31
0.0
  0
POINT
  5
FF
  8
DEFPOINTS
  6
CONTINUOUS
 62
     7
 10
-540.0
 20
-0.0000000000000568
 30
0.0
  0
POINT
  5
100
  8
DEFPOINTS
  6
CONTINUOUS
 62
     7
 10
-512.00813561108544
 20
349.99999999999932
 30
0.0
  0
POINT
  5
101
  8
DEFPOINTS
  6
CONTINUOUS
 62
     7
 10
-964.98684518341122
 20
349.99999999999949
 30
0.0
  0
LINE
  5
102
  8
SIZE
  6
CONTINUOUS
 62
    30
 10
408.0
 20
344.0
 30
0.0
 11
776.26866989008136
 21
344.0
 31
0.0
  0
LINE
  5
103
  8
SIZE
  6
CONTINUOUS
 62
    30
 10
493.19981392951922
 20
284.0
 30
0.0
 11
776.26866989008136
 21
283.99999999999989
 31
0.0
  0
LINE
  5
104
  8
SIZE
  6
CONTINUOUS
 62
    30
 10
756.26866989008181
 20
283.99999999999989
 30
0.0
 11
756.26866989008181
 21
344.00000000000011
 31
0.0
  0
LINE
  5
105
  8
SIZE
  6
CONTINUOUS
 62
    30
 10
756.26866989008181
 20
344.00000000000011
 30
0.0
 11
756.26866989008181
 21
501.42857142857139
 31
0.0
  0
CIRCLE
  5
106
  8
SIZE
  6
CONTINUOUS
 62
    30
 10
756.26866989008181
 20
283.99999999999989
 30
0.0
 40
7.5
  0
CIRCLE
  5
107
  8
SIZE
  6
CONTINUOUS
 62
    30
 10
756.26866989008181
 20
344.00000000000011
 30
0.0
 40
7.5
  0
TEXT
  5
108
  8
SIZE
  6
CONTINUOUS
 62
    30
 10
736.26866989008113
 20
394.00000000000011
 30
0.0
 40
60.0
  1
60
 50
90.0
 41
0.9
 72
     1
 11
736.26866989008113
 21
437.71428571428578
 31
0.0
  0
POINT
  5
109
  8
DEFPOINTS
  6
CONTINUOUS
 62
     7
 10
388.0
 20
344.00000000000023
 30
0.0
  0
POINT
  5
10A
  8
DEFPOINTS
  6
CONTINUOUS
 62
     7
 10
473.19981392951922
 20
284.0
 30
0.0
  0
POINT
  5
10B
  8
DEFPOINTS
  6
CONTINUOUS
 62
     7
 10
756.26866989008181
 20
283.99999999999989
 30
0.0
  0
LINE
  5
10C
  8
SIZE
  6
CONTINUOUS
 62
    30
 10
408.0
 20
344.0
 30
0.0
 11
899.70685826277042
 21
344.0
 31
0.0
  0
LINE
  5
10D
  8
SIZE
  6
CONTINUOUS
 62
    30
 10
505.99999999994452
 20
222.00000000002001
 30
0.0
 11
899.70685826277042
 21
222.00000000001981
 31
0.0
  0
LINE
  5
10E
  8
SIZE
  6
CONTINUOUS
 62
    30
 10
879.70685826277054
 20
222.00000000001981
 30
0.0
 11
879.70685826277088
 21
344.00000000000011
 31
0.0
  0
LINE
  5
10F
  8
SIZE
  6
CONTINUOUS
 62
    30
 10
879.70685826277088
 20
344.00000000000011
 30
0.0
 11
879.70685826277088
 21
542.57142857142867
 31
0.0
  0
CIRCLE
  5
110
  8
SIZE
  6
CONTINUOUS
 62
    30
 10
879.70685826277054
 20
222.00000000001981
 30
0.0
 40
7.5
  0
CIRCLE
  5
111
  8
SIZE
  6
CONTINUOUS
 62
    30
 10
879.70685826277088
 20
344.00000000000011
 30
0.0
 40
7.5
  0
TEXT
  5
112
  8
SIZE
  6
CONTINUOUS
 62
    30
 10
859.70685826277065
 20
394.00000000000023
 30
0.0
 40
60.0
  1
122
 50
90.0
 41
0.9
 72
     1
 11
859.70685826277065
 21
458.2857142857145
 31
0.0
  0
POINT
  5
113
  8
DEFPOINTS
  6
CONTINUOUS
 62
     7
 10
388.0
 20
344.00000000000023
 30
0.0
  0
POINT
  5
114
  8
DEFPOINTS
  6
CONTINUOUS
 62
     7
 10
485.99999999994452
 20
222.00000000002001
 30
0.0
  0
POINT
  5
115
  8
DEFPOINTS
  6
CONTINUOUS
 62
     7
 10
879.70685826277054
 20
222.00000000001981
 30
0.0
  0
LINE
  5
116
  8
SIZE
  6
CONTINUOUS
 62
    30
 10
408.0
 20
344.0
 30
0.0
 11
1030.482132372673
 21
344.0
 31
0.0
  0
LINE
  5
117
  8
SIZE
  6
CONTINUOUS
 62
    30
 10
452.0
 20
153.9999999999998
 30
0.0
 11
1030.482132372673
 21
153.9999999999998
 31
0.0
  0
LINE
  5
118
  8
SIZE
  6
CONTINUOUS
 62
    30
 10
1010.482132372674
 20
344.0
 30
0.0
 11
1010.482132372673
 21
153.9999999999998
 31
0.0
  0
CIRCLE
  5
119
  8
SIZE
  6
CONTINUOUS
 62
    30
 10
1010.482132372674
 20
344.0
 30
0.0
 40
7.5
  0
CIRCLE
  5
11A
  8
SIZE
  6
CONTINUOUS
 62
    30
 10
1010.482132372673
 20
153.9999999999998
 30
0.0
 40
7.5
  0
TEXT
  5
11B
  8
SIZE
  6
CONTINUOUS
 62
    30
 10
990.48213237267362
 20
189.23335524413
 30
0.0
 40
60.0
  1
190
 50
90.0
 41
0.9
 72
     1
 11
990.48213237267362
 21
253.5190695298443
 31
0.0
  0
POINT
  5
11C
  8
DEFPOINTS
  6
CONTINUOUS
 62
     7
 10
388.0
 20
344.00000000000023
 30
0.0
  0
POINT
  5
11D
  8
DEFPOINTS
  6
CONTINUOUS
 62
     7
 10
432.0
 20
154.0
 30
0.0
  0
POINT
  5
11E
  8
DEFPOINTS
  6
CONTINUOUS
 62
     7
 10
1010.482132372673
 20
153.9999999999998
 30
0.0
  0
LINE
  5
11F
  8
SIZE
  6
CONTINUOUS
 62
    30
 10
408.0
 20
344.0
 30
0.0
 11
1162.69451968404
 21
344.0
 31
0.0
  0
LINE
  5
120
  8
SIZE
  6
CONTINUOUS
 62
    30
 10
464.74978475720809
 20
78.00000000000081
 30
0.0
 11
1162.69451968404
 21
78.000000000000597
 31
0.0
  0
LINE
  5
121
  8
SIZE
  6
CONTINUOUS
 62
    30
 10
1142.69451968404
 20
344.0
 30
0.0
 11
1142.69451968404
 21
78.000000000000597
 31
0.0
  0
CIRCLE
  5
122
  8
SIZE
  6
CONTINUOUS
 62
    30
 10
1142.69451968404
 20
344.0
 30
0.0
 40
7.5
  0
CIRCLE
  5
123
  8
SIZE
  6
CONTINUOUS
 62
    30
 10
1142.69451968404
 20
78.000000000000597
 30
0.0
 40
7.5
  0
TEXT
  5
124
  8
SIZE
  6
CONTINUOUS
 62
    30
 10
1122.69451968404
 20
155.26756112869549
 30
0.0
 40
60.0
  1
266
 50
90.0
 41
0.9
 72
     1
 11
1122.69451968404
 21
223.41041827155269
 31
0.0
  0
POINT
  5
125
  8
DEFPOINTS
  6
CONTINUOUS
 62
     7
 10
388.0
 20
344.00000000000023
 30
0.0
  0
POINT
  5
126
  8
DEFPOINTS
  6
CONTINUOUS
 62
     7
 10
444.74978475720809
 20
78.00000000000081
 30
0.0
  0
POINT
  5
127
  8
DEFPOINTS
  6
CONTINUOUS
 62
     7
 10
1142.69451968404
 20
78.000000000000597
 30
0.0
  0
LINE
  5
128
  8
SIZE
  6
CONTINUOUS
 62
    30
 10
525.45055792864684
 20
45.000000000000632
 30
0.0
 11
850.69970931477474
 21
45.000000000000519
 31
0.0
  0
LINE
  5
129
  8
SIZE
  6
CONTINUOUS
 62
    30
 10
640.02979575077165
 20
0.0000000000000512
 30
0.0
 11
850.69970931477474
 21
-0.0000000000000085
 31
0.0
  0
LINE
  5
12A
  8
SIZE
  6
CONTINUOUS
 62
    30
 10
830.69970931477485
 20
45.000000000000533
 30
0.0
 11
830.69970931477485
 21
-0.0000000000000028
 31
0.0
  0
LINE
  5
12B
  8
SIZE
  6
CONTINUOUS
 62
    30
 10
830.69970931477485
 20
-0.0000000000000028
 30
0.0
 11
830.69970931477485
 21
-157.4285714285719
 31
0.0
  0
CIRCLE
  5
12C
  8
SIZE
  6
CONTINUOUS
 62
    30
 10
830.69970931477485
 20
45.000000000000533
 30
0.0
 40
7.5
  0
CIRCLE
  5
12D
  8
SIZE
  6
CONTINUOUS
 62
    30
 10
830.69970931477485
 20
-0.0000000000000028
 30
0.0
 40
7.5
  0
TEXT
  5
12E
  8
SIZE
  6
CONTINUOUS
 62
    30
 10
810.69970931477474
 20
-137.4285714285717
 30
0.0
 40
60.0
  1
45
 50
90.0
 41
0.9
 72
     1
 11
810.69970931477474
 21
-93.714285714286063
 31
0.0
  0
POINT
  5
12F
  8
DEFPOINTS
  6
CONTINUOUS
 62
     7
 10
505.45055792864679
 20
45.000000000000632
 30
0.0
  0
POINT
  5
130
  8
DEFPOINTS
  6
CONTINUOUS
 62
     7
 10
620.02979575077188
 20
0.0000000000000568
 30
0.0
  0
POINT
  5
131
  8
DEFPOINTS
  6
CONTINUOUS
 62
     7
 10
830.69970931477485
 20
-0.0000000000000028
 30
0.0
  0
LINE
  5
132
  8
SIZE
  6
CONTINUOUS
 62
    30
 10
388.0
 20
362.39999999999998
 30
0.0
 11
388.0
 21
709.04987445349093
 31
0.0
  0
LINE
  5
133
  8
SIZE
  6
CONTINUOUS
 62
    30
 10
0.0000000000000012
 20
413.09688653459881
 30
0.0
 11
0.0000000000000193
 21
709.04987445349093
 31
0.0
  0
LINE
  5
134
  8
SIZE
  6
CONTINUOUS
 62
    30
 10
388.0
 20
689.04987445349093
 30
0.0
 11
0.0000000000000181
 21
689.04987445349093
 31
0.0
  0
CIRCLE
  5
135
  8
SIZE
  6
CONTINUOUS
 62
    30
 10
388.0
 20
689.04987445349093
 30
0.0
 40
7.5
  0
CIRCLE
  5
136
  8
SIZE
  6
CONTINUOUS
 62
    30
 10
0.0000000000000181
 20
689.04987445349093
 30
0.0
 40
7.5
  0
TEXT
  5
137
  8
SIZE
  6
CONTINUOUS
 62
    30
 10
45.841849467358351
 20
709.04987445349093
 30
0.0
 40
60.0
  1
388
 41
0.9
 72
     1
 11
115.2704208959298
 21
709.04987445349093
 31
0.0
  0
POINT
  5
138
  8
DEFPOINTS
  6
CONTINUOUS
 62
     7
 10
388.0
 20
344.00000000000023
 30
0.0
  0
POINT
  5
139
  8
DEFPOINTS
  6
CONTINUOUS
 62
     7
 10
0.0
 20
393.09688653459892
 30
0.0
  0
POINT
  5
13A
  8
DEFPOINTS
  6
CONTINUOUS
 62
     7
 10
0.0000000000000181
 20
689.04987445349093
 30
0.0
  0
LINE
  5
13B
  8
SIZE
  6
CONTINUOUS
 62
    30
 10
388.0
 20
362.39999999999998
 30
0.0
 11
388.0
 21
555.72493722674517
 31
0.0
  0
LINE
  5
13C
  8
SIZE
  6
CONTINUOUS
 62
    30
 10
448.0
 20
327.59981392952039
 30
0.0
 11
448.0
 21
555.72493722674517
 31
0.0
  0
LINE
  5
13D
  8
SIZE
  6
CONTINUOUS
 62
    30
 10
388.0
 20
535.72493722674506
 30
0.0
 11
448.0
 21
535.72493722674506
 31
0.0
  0
LINE
  5
13E
  8
SIZE
  6
CONTINUOUS
 62
    30
 10
448.0
 20
535.72493722674506
 30
0.0
 11
674.85714285714289
 21
535.72493722674506
 31
0.0
  0
CIRCLE
  5
13F
  8
SIZE
  6
CONTINUOUS
 62
    30
 10
388.0
 20
535.72493722674506
 30
0.0
 40
7.5
  0
CIRCLE
  5
140
  8
SIZE
  6
CONTINUOUS
 62
    30
 10
448.0
 20
535.72493722674506
 30
0.0
 40
7.5
  0
TEXT
  5
141
  8
SIZE
  6
CONTINUOUS
 62
    30
 10
498.0
 20
571.43922294103095
 30
0.0
 40
60.0
  1
(60)
 41
0.9
 72
     1
 11
576.42857142857144
 21
571.43922294103095
 31
0.0
  0
POINT
  5
142
  8
DEFPOINTS
  6
CONTINUOUS
 62
     7
 10
388.0
 20
344.00000000000023
 30
0.0
  0
POINT
  5
143
  8
DEFPOINTS
  6
CONTINUOUS
 62
     7
 10
448.0
 20
307.59981392952039
 30
0.0
  0
POINT
  5
144
  8
DEFPOINTS
  6
CONTINUOUS
 62
     7
 10
448.0
 20
535.72493722674506
 30
0.0
  0
LINE
  5
145
  8
SIZE
  6
CONTINUOUS
 62
    30
 10
465.9999999999672
 20
260.40000000000089
 30
0.0
 11
465.9999999999672
 21
868.01834249779336
 31
0.0
  0
LINE
  5
146
  8
SIZE
  6
CONTINUOUS
 62
    30
 10
388.0
 20
362.39999999999998
 30
0.0
 11
388.0
 21
868.01834249779336
 31
0.0
  0
LINE
  5
147
  8
SIZE
  6
CONTINUOUS
 62
    30
 10
388.0
 20
848.01834249779324
 30
0.0
 11
465.9999999999672
 21
848.01834249779324
 31
0.0
  0
LINE
  5
148
  8
SIZE
  6
CONTINUOUS
 62
    30
 10
465.9999999999672
 20
848.01834249779324
 30
0.0
 11
692.85714285711015
 21
848.01834249779324
 31
0.0
  0
CIRCLE
  5
149
  8
SIZE
  6
CONTINUOUS
 62
    30
 10
388.0
 20
848.01834249779324
 30
0.0
 40
7.5
  0
CIRCLE
  5
14A
  8
SIZE
  6
CONTINUOUS
 62
    30
 10
465.9999999999672
 20
848.01834249779324
 30
0.0
 40
7.5
  0
TEXT
  5
14B
  8
SIZE
  6
CONTINUOUS
 62
    30
 10
515.99999999996714
 20
883.73262821207925
 30
0.0
 40
60.0
  1
(78)
 41
0.9
 72
     1
 11
594.4285714285387
 21
883.73262821207925
 31
0.0
  0
POINT
  5
14C
  8
DEFPOINTS
  6
CONTINUOUS
 62
     7
 10
465.9999999999672
 20
242.00000000000111
 30
0.0
  0
POINT
  5
14D
  8
DEFPOINTS
  6
CONTINUOUS
 62
     7
 10
388.0
 20
344.00000000000023
 30
0.0
  0
POINT
  5
14E
  8
DEFPOINTS
  6
CONTINUOUS
 62
     7
 10
388.0
 20
848.01834249779324
 30
0.0
  0
LINE
  5
14F
  8
SIZE
  6
CONTINUOUS
 62
    30
 10
-540.0
 20
-23.048391685526369
 30
0.0
 11
-540.0
 21
-400.72561964915218
 31
0.0
  0
LINE
  5
150
  8
SIZE
  6
CONTINUOUS
 62
    30
 10
-520.0
 20
-19.99999999999994
 30
0.0
 11
-520.0
 21
-400.72561964915218
 31
0.0
  0
LINE
  5
151
  8
SIZE
  6
CONTINUOUS
 62
    30
 10
-520.0
 20
-380.72561964915241
 30
0.0
 11
-490.0
 21
-380.72561964915241
 31
0.0
  0
LINE
  5
152
  8
SIZE
  6
CONTINUOUS
 62
    30
 10
-540.0
 20
-380.72561964915241
 30
0.0
 11
-727.42857142857133
 21
-380.72561964915241
 31
0.0
  0
LINE
  5
153
  8
SIZE
  6
CONTINUOUS
 62
    30
 10
-520.0
 20
-380.72561964915241
 30
0.0
 11
-540.0
 21
-380.72561964915241
 31
0.0
  0
CIRCLE
  5
154
  8
SIZE
  6
CONTINUOUS
 62
    30
 10
-520.0
 20
-380.72561964915241
 30
0.0
 40
7.5
  0
CIRCLE
  5
155
  8
SIZE
  6
CONTINUOUS
 62
    30
 10
-540.0
 20
-380.72561964915241
 30
0.0
 40
7.5
  0
TEXT
  5
156
  8
SIZE
  6
CONTINUOUS
 62
    30
 10
-707.42857142857133
 20
-360.72561964915229
 30
0.0
 40
60.0
  1
20
 41
0.9
 72
     1
 11
-663.71428571428567
 21
-360.72561964915229
 31
0.0
  0
POINT
  5
157
  8
DEFPOINTS
  6
CONTINUOUS
 62
     7
 10
-540.0
 20
-3.0483916855263802
 30
0.0
  0
POINT
  5
158
  8
DEFPOINTS
  6
CONTINUOUS
 62
     7
 10
-520.0
 20
0.0000000000000568
 30
0.0
  0
POINT
  5
159
  8
DEFPOINTS
  6
CONTINUOUS
 62
     7
 10
-520.0
 20
-380.72561964915241
 30
0.0
  0
LINE
  5
15A
  8
SIZE
  6
CONTINUOUS
 62
    30
 10
-520.0
 20
-20.0
 30
0.0
 11
-520.0
 21
-400.72561964915218
 31
0.0
  0
LINE
  5
15B
  8
SIZE
  6
CONTINUOUS
 62
    30
 10
520.0
 20
-19.99999999999994
 30
0.0
 11
520.0
 21
-400.72561964915218
 31
0.0
  0
LINE
  5
15C
  8
SIZE
  6
CONTINUOUS
 62
    30
 10
-520.0
 20
-380.72561964915241
 30
0.0
 11
520.0
 21
-380.72561964915241
 31
0.0
  0
CIRCLE
  5
15D
  8
SIZE
  6
CONTINUOUS
 62
    30
 10
-520.0
 20
-380.72561964915241
 30
0.0
 40
7.5
  0
CIRCLE
  5
15E
  8
SIZE
  6
CONTINUOUS
 62
    30
 10
520.0
 20
-380.72561964915241
 30
0.0
 40
7.5
  0
TEXT
  5
15F
  8
SIZE
  6
CONTINUOUS
 62
    30
 10
-319.11428571428559
 20
-362.01133393486663
 30
0.0
 40
60.0
  1
1040(天井開口寸法)
 41
0.9
 72
     1
 11
0.0
 21
-362.01133393486663
 31
0.0
  0
POINT
  5
160
  8
DEFPOINTS
  6
CONTINUOUS
 62
     7
 10
-520.0
 20
0.0
 30
0.0
  0
POINT
  5
161
  8
DEFPOINTS
  6
CONTINUOUS
 62
     7
 10
520.0
 20
0.0000000000000568
 30
0.0
  0
POINT
  5
162
  8
DEFPOINTS
  6
CONTINUOUS
 62
     7
 10
520.0
 20
-380.72561964915241
 30
0.0
  0
LINE
  5
163
  8
SIZE
  6
CONTINUOUS
 62
    30
 10
520.0
 20
-20.000000000000171
 30
0.0
 11
520.0
 21
-400.72561964915218
 31
0.0
  0
LINE
  5
164
  8
SIZE
  6
CONTINUOUS
 62
    30
 10
540.0
 20
-19.99999999999994
 30
0.0
 11
540.0
 21
-400.72561964915218
 31
0.0
  0
LINE
  5
165
  8
SIZE
  6
CONTINUOUS
 62
    30
 10
520.0
 20
-380.72561964915241
 30
0.0
 11
490.0
 21
-380.72561964915241
 31
0.0
  0
LINE
  5
166
  8
SIZE
  6
CONTINUOUS
 62
    30
 10
540.0
 20
-380.72561964915241
 30
0.0
 11
570.0
 21
-380.72561964915241
 31
0.0
  0
LINE
  5
167
  8
SIZE
  6
CONTINUOUS
 62
    30
 10
735.73650878431829
 20
-380.72561964915241
 30
0.0
 11
540.0
 21
-380.72561964915241
 31
0.0
  0
TEXT
  5
168
  8
SIZE
  6
CONTINUOUS
 62
    30
 10
628.30793735574707
 20
-360.72561964915229
 30
0.0
 40
60.0
  1
20
 41
0.9
 72
     1
 11
672.02222307003285
 21
-360.72561964915229
 31
0.0
  0
LINE
  5
169
  8
SIZE
  6
CONTINUOUS
 62
    30
 10
520.0
 20
-380.72561964915241
 30
0.0
 11
540.0
 21
-380.72561964915241
 31
0.0
  0
LINE
  5
16A
  8
SIZE
  6
CONTINUOUS
 62
    30
 10
520.0
 20
-380.72561964915241
 30
0.0
 11
540.0
 21
-380.72561964915241
 31
0.0
  0
CIRCLE
  5
16B
  8
SIZE
  6
CONTINUOUS
 62
    30
 10
520.0
 20
-380.72561964915241
 30
0.0
 40
7.5
  0
CIRCLE
  5
16C
  8
SIZE
  6
CONTINUOUS
 62
    30
 10
540.0
 20
-380.72561964915241
 30
0.0
 40
7.5
  0
POINT
  5
16D
  8
DEFPOINTS
  6
CONTINUOUS
 62
     7
 10
520.0
 20
-0.0000000000001705
 30
0.0
  0
POINT
  5
16E
  8
DEFPOINTS
  6
CONTINUOUS
 62
     7
 10
540.0
 20
0.0000000000000568
 30
0.0
  0
POINT
  5
16F
  8
DEFPOINTS
  6
CONTINUOUS
 62
     7
 10
540.0
 20
-380.72561964915241
 30
0.0
  0
LINE
  5
170
  8
SIZE
  6
CONTINUOUS
 62
    30
 10
-520.0
 20
-19.999999999999542
 30
0.0
 11
-520.0
 21
-245.7034634049264
 31
0.0
  0
LINE
  5
171
  8
SIZE
  6
CONTINUOUS
 62
    30
 10
-412.0
 20
112.40000000000001
 30
0.0
 11
-412.0
 21
-245.7034634049264
 31
0.0
  0
LINE
  5
172
  8
SIZE
  6
CONTINUOUS
 62
    30
 10
-412.0
 20
-225.70346340492651
 30
0.0
 11
-520.0
 21
-225.70346340492651
 31
0.0
  0
LINE
  5
173
  8
SIZE
  6
CONTINUOUS
 62
    30
 10
-520.0
 20
-225.70346340492651
 30
0.0
 11
-718.57142857142935
 21
-225.70346340492651
 31
0.0
  0
CIRCLE
  5
174
  8
SIZE
  6
CONTINUOUS
 62
    30
 10
-412.0
 20
-225.70346340492651
 30
0.0
 40
7.5
  0
CIRCLE
  5
175
  8
SIZE
  6
CONTINUOUS
 62
    30
 10
-520.0
 20
-225.70346340492651
 30
0.0
 40
7.5
  0
TEXT
  5
176
  8
SIZE
  6
CONTINUOUS
 62
    30
 10
-698.57142857142935
 20
-205.7034634049264
 30
0.0
 40
60.0
  1
108
 41
0.9
 72
     1
 11
-634.28571428571513
 21
-205.7034634049264
 31
0.0
  0
POINT
  5
177
  8
DEFPOINTS
  6
CONTINUOUS
 62
     7
 10
-520.0
 20
0.0000000000004547
 30
0.0
  0
POINT
  5
178
  8
DEFPOINTS
  6
CONTINUOUS
 62
     7
 10
-412.0
 20
134.0000000000002
 30
0.0
  0
POINT
  5
179
  8
DEFPOINTS
  6
CONTINUOUS
 62
     7
 10
-412.0
 20
-225.70346340492651
 30
0.0
  0
LINE
  5
17A
  8
SIZE
  6
CONTINUOUS
 62
    30
 10
-412.0
 20
112.39999999999981
 30
0.0
 11
-412.0
 21
-245.7034634049264
 31
0.0
  0
LINE
  5
17B
  8
SIZE
  6
CONTINUOUS
 62
    30
 10
412.00000000000159
 20
112.4000000000007
 30
0.0
 11
412.00000000000159
 21
-245.7034634049264
 31
0.0
  0
LINE
  5
17C
  8
SIZE
  6
CONTINUOUS
 62
    30
 10
-412.0
 20
-225.70346340492651
 30
0.0
 11
412.00000000000159
 21
-225.70346340492651
 31
0.0
  0
CIRCLE
  5
17D
  8
SIZE
  6
CONTINUOUS
 62
    30
 10
-412.0
 20
-225.70346340492651
 30
0.0
 40
7.5
  0
CIRCLE
  5
17E
  8
SIZE
  6
CONTINUOUS
 62
    30
 10
412.00000000000159
 20
-225.70346340492651
 30
0.0
 40
7.5
  0
TEXT
  5
17F
  8
SIZE
  6
CONTINUOUS
 62
    30
 10
-282.3428571428563
 20
-206.9891776906407
 30
0.0
 40
60.0
  1
824(吊りﾎﾞﾙﾄﾋﾟｯﾁ)
 41
0.9
 72
     1
 11
0.0000000000009095
 21
-206.9891776906407
 31
0.0
  0
POINT
  5
180
  8
DEFPOINTS
  6
CONTINUOUS
 62
     7
 10
-412.0
 20
133.9999999999998
 30
0.0
  0
POINT
  5
181
  8
DEFPOINTS
  6
CONTINUOUS
 62
     7
 10
412.00000000000159
 20
134.0000000000008
 30
0.0
  0
POINT
  5
182
  8
DEFPOINTS
  6
CONTINUOUS
 62
     7
 10
412.00000000000159
 20
-225.70346340492651
 30
0.0
  0
LINE
  5
183
  8
SIZE
  6
CONTINUOUS
 62
    30
 10
411.99999999999801
 20
112.39999999999981
 30
0.0
 11
411.99999999999801
 21
-245.7034634049264
 31
0.0
  0
LINE
  5
184
  8
SIZE
  6
CONTINUOUS
 62
    30
 10
520.0
 20
-19.99999999999994
 30
0.0
 11
520.0
 21
-245.7034634049264
 31
0.0
  0
LINE
  5
185
  8
SIZE
  6
CONTINUOUS
 62
    30
 10
411.99999999999801
 20
-225.70346340492651
 30
0.0
 11
520.0
 21
-225.70346340492651
 31
0.0
  0
LINE
  5
186
  8
SIZE
  6
CONTINUOUS
 62
    30
 10
723.98411218582453
 20
-225.70346340492651
 30
0.0
 11
520.0
 21
-225.70346340492651
 31
0.0
  0
TEXT
  5
187
  8
SIZE
  6
CONTINUOUS
 62
    30
 10
575.41268361439643
 20
-205.7034634049264
 30
0.0
 40
60.0
  1
108
 41
0.9
 72
     1
 11
639.69839790011065
 21
-205.7034634049264
 31
0.0
  0
CIRCLE
  5
188
  8
SIZE
  6
CONTINUOUS
 62
    30
 10
411.99999999999801
 20
-225.70346340492651
 30
0.0
 40
7.5
  0
CIRCLE
  5
189
  8
SIZE
  6
CONTINUOUS
 62
    30
 10
520.0
 20
-225.70346340492651
 30
0.0
 40
7.5
  0
POINT
  5
18A
  8
DEFPOINTS
  6
CONTINUOUS
 62
     7
 10
411.99999999999801
 20
133.9999999999998
 30
0.0
  0
POINT
  5
18B
  8
DEFPOINTS
  6
CONTINUOUS
 62
     7
 10
520.0
 20
0.0000000000000568
 30
0.0
  0
POINT
  5
18C
  8
DEFPOINTS
  6
CONTINUOUS
 62
     7
 10
520.0
 20
-225.70346340492651
 30
0.0
  0
LINE
  5
18D
  8
SIZE
  6
CONTINUOUS
 62
    30
 10
-388.0000000000004
 20
32.3999999999998
 30
0.0
 11
-388.00000000000051
 21
-537.48463534572647
 31
0.0
  0
LINE
  5
18E
  8
SIZE
  6
CONTINUOUS
 62
    30
 10
388.0
 20
32.3999999999998
 30
0.0
 11
387.99999999999989
 21
-537.48463534572647
 31
0.0
  0
LINE
  5
18F
  8
SIZE
  6
CONTINUOUS
 62
    30
 10
-388.00000000000051
 20
-517.4846353457267
 30
0.0
 11
387.99999999999989
 21
-517.4846353457267
 31
0.0
  0
CIRCLE
  5
190
  8
SIZE
  6
CONTINUOUS
 62
    30
 10
-388.00000000000051
 20
-517.4846353457267
 30
0.0
 40
7.5
  0
CIRCLE
  5
191
  8
SIZE
  6
CONTINUOUS
 62
    30
 10
387.99999999999989
 20
-517.4846353457267
 30
0.0
 40
7.5
  0
TEXT
  5
192
  8
SIZE
  6
CONTINUOUS
 62
    30
 10
-68.142857142857437
 20
-497.4846353457267
 30
0.0
 40
60.0
  1
776
 41
0.9
 72
     1
 11
-0.0000000000002842
 21
-497.4846353457267
 31
0.0
  0
POINT
  5
193
  8
DEFPOINTS
  6
CONTINUOUS
 62
     7
 10
-388.0000000000004
 20
54.000000000000028
 30
0.0
  0
POINT
  5
194
  8
DEFPOINTS
  6
CONTINUOUS
 62
     7
 10
388.0
 20
53.999999999999993
 30
0.0
  0
POINT
  5
195
  8
DEFPOINTS
  6
CONTINUOUS
 62
     7
 10
387.99999999999989
 20
-517.4846353457267
 30
0.0
  0
LINE
  5
196
  8
SIZE
  6
CONTINUOUS
 62
    30
 10
388.0
 20
32.3999999999998
 30
0.0
 11
387.99999999999989
 21
-537.48463534572647
 31
0.0
  0
LINE
  5
197
  8
SIZE
  6
CONTINUOUS
 62
    30
 10
540.0
 20
-23.04839168552564
 30
0.0
 11
540.0
 21
-537.48463534572647
 31
0.0
  0
LINE
  5
198
  8
SIZE
  6
CONTINUOUS
 62
    30
 10
387.99999999999989
 20
-517.4846353457267
 30
0.0
 11
540.0
 21
-517.4846353457267
 31
0.0
  0
TEXT
  5
199
  8
SIZE
  6
CONTINUOUS
 62
    30
 10
399.71428571428572
 20
-497.4846353457267
 30
0.0
 40
60.0
  1
152
 41
0.9
 72
     1
 11
464.0
 21
-497.4846353457267
 31
0.0
  0
CIRCLE
  5
19A
  8
SIZE
  6
CONTINUOUS
 62
    30
 10
387.99999999999989
 20
-517.4846353457267
 30
0.0
 40
7.5
  0
CIRCLE
  5
19B
  8
SIZE
  6
CONTINUOUS
 62
    30
 10
540.0
 20
-517.4846353457267
 30
0.0
 40
7.5
  0
POINT
  5
19C
  8
DEFPOINTS
  6
CONTINUOUS
 62
     7
 10
388.0
 20
53.999999999999993
 30
0.0
  0
POINT
  5
19D
  8
DEFPOINTS
  6
CONTINUOUS
 62
     7
 10
540.0
 20
-3.048391685525643
 30
0.0
  0
POINT
  5
19E
  8
DEFPOINTS
  6
CONTINUOUS
 62
     7
 10
540.0
 20
-517.4846353457267
 30
0.0
  0
LINE
  5
19F
  8
SIZE
  6
CONTINUOUS
 62
    30
 10
-388.0
 20
32.3999999999998
 30
0.0
 11
-388.0
 21
-537.48463534572647
 31
0.0
  0
LINE
  5
1A0
  8
SIZE
  6
CONTINUOUS
 62
    30
 10
-540.0
 20
-23.04839168552564
 30
0.0
 11
-540.0
 21
-537.48463534572647
 31
0.0
  0
LINE
  5
1A1
  8
SIZE
  6
CONTINUOUS
 62
    30
 10
-388.0
 20
-517.4846353457267
 30
0.0
 11
-540.0
 21
-517.4846353457267
 31
0.0
  0
TEXT
  5
1A2
  8
SIZE
  6
CONTINUOUS
 62
    30
 10
-528.28571428571422
 20
-497.4846353457267
 30
0.0
 40
60.0
  1
152
 41
0.9
 72
     1
 11
-464.0
 21
-497.4846353457267
 31
0.0
  0
CIRCLE
  5
1A3
  8
SIZE
  6
CONTINUOUS
 62
    30
 10
-388.0
 20
-517.4846353457267
 30
0.0
 40
7.5
  0
CIRCLE
  5
1A4
  8
SIZE
  6
CONTINUOUS
 62
    30
 10
-540.0
 20
-517.4846353457267
 30
0.0
 40
7.5
  0
POINT
  5
1A5
  8
DEFPOINTS
  6
CONTINUOUS
 62
     7
 10
-388.0
 20
54.000000000000028
 30
0.0
  0
POINT
  5
1A6
  8
DEFPOINTS
  6
CONTINUOUS
 62
     7
 10
-540.0
 20
-3.048391685525643
 30
0.0
  0
POINT
  5
1A7
  8
DEFPOINTS
  6
CONTINUOUS
 62
     7
 10
-540.0
 20
-517.4846353457267
 30
0.0
  0
LINE
  5
1A8
  8
SIZE
  6
CONTINUOUS
 62
    30
 10
540.0
 20
-23.04839168552575
 30
0.0
 11
540.0
 21
-677.35903029808992
 31
0.0
  0
LINE
  5
1A9
  8
SIZE
  6
CONTINUOUS
 62
    30
 10
-540.00000000000171
 20
-23.04839168552553
 30
0.0
 11
-540.00000000000171
 21
-677.35903029808992
 31
0.0
  0
LINE
  5
1AA
  8
SIZE
  6
CONTINUOUS
 62
    30
 10
540.0
 20
-657.35903029808992
 30
0.0
 11
-540.00000000000171
 21
-657.35903029808992
 31
0.0
  0
CIRCLE
  5
1AB
  8
SIZE
  6
CONTINUOUS
 62
    30
 10
540.0
 20
-657.35903029808992
 30
0.0
 40
7.5
  0
CIRCLE
  5
1AC
  8
SIZE
  6
CONTINUOUS
 62
    30
 10
-540.00000000000171
 20
-657.35903029808992
 30
0.0
 40
7.5
  0
TEXT
  5
1AD
  8
SIZE
  6
CONTINUOUS
 62
    30
 10
-90.000000000000895
 20
-637.35903029808992
 30
0.0
 40
60.0
  1
1080
 41
0.9
 72
     1
 11
-0.0000000000009095
 21
-637.35903029808992
 31
0.0
  0
POINT
  5
1AE
  8
DEFPOINTS
  6
CONTINUOUS
 62
     7
 10
540.0
 20
-3.0483916855257549
 30
0.0
  0
POINT
  5
1AF
  8
DEFPOINTS
  6
CONTINUOUS
 62
     7
 10
-540.00000000000171
 20
-3.0483916855255302
 30
0.0
  0
POINT
  5
1B0
  8
DEFPOINTS
  6
CONTINUOUS
 62
     7
 10
-540.00000000000171
 20
-657.35903029808992
 30
0.0
  0
LINE
  5
1B2
  8
OUTLINE
  6
CONTINUOUS
 62
     3
 10
-388.0
 20
344.0
 30
0.0
 11
388.0
 21
344.0
 31
0.0
  0
LINE
  5
1B3
  8
OUTLINE
  6
CONTINUOUS
 62
     3
 10
388.0
 20
344.0
 30
0.0
 11
388.0
 21
54.00000000000005
 31
0.0
  0
LINE
  5
1B4
  8
OUTLINE
  6
CONTINUOUS
 62
     3
 10
410.0
 20
54.00000000000005
 30
0.0
 11
-410.0
 21
54.00000000000005
 31
0.0
  0
LINE
  5
1B5
  8
OUTLINE
  6
CONTINUOUS
 62
     3
 10
-388.0
 20
344.0
 30
0.0
 11
-388.0
 21
54.00000000000005
 31
0.0
  0
LINE
  5
1B6
  8
OUTLINE
  6
CONTINUOUS
 62
     3
 10
-505.45055792864679
 20
0.0059591501549221
 30
0.0
 11
-505.45055792864679
 21
45.0
 31
0.0
  0
LINE
  5
1B7
  8
OUTLINE
  6
CONTINUOUS
 62
     3
 10
505.45055792864679
 20
45.000000000000448
 30
0.0
 11
505.45055792864679
 21
0.0059591501549221
 31
0.0
  0
LINE
  5
1B8
  8
OUTLINE
  6
CONTINUOUS
 62
     3
 10
540.0
 20
0.0
 30
0.0
 11
-540.0
 21
0.0
 31
0.0
  0
LINE
  5
1B9
  8
OUTLINE
  6
CONTINUOUS
 62
     3
 10
-540.0
 20
0.0
 30
0.0
 11
-540.00000000000171
 21
-3.0483916855259841
 31
0.0
  0
LINE
  5
1BA
  8
OUTLINE
  6
CONTINUOUS
 62
     3
 10
540.0
 20
0.0
 30
0.0
 11
540.0
 21
-3.0483916855255302
 31
0.0
  0
ARC
  5
1BB
  8
OUTLINE
  6
CONTINUOUS
 62
     3
 10
-435.1296115158766
 20
312.86385562472458
 30
0.0
 40
332.86385562482542
 50
251.63587196019679
 51
270.00000000000028
  0
ARC
  5
1BC
  8
OUTLINE
  6
CONTINUOUS
 62
     3
 10
435.12961151587473
 20
312.8638556247256
 30
0.0
 40
332.86385562482548
 50
270.0
 51
288.36412803980318
  0
LINE
  5
1BD
  8
OUTLINE
  6
CONTINUOUS
 62
     3
 10
435.12961151589661
 20
-20.000000000016371
 30
0.0
 11
-435.12961151585478
 21
-20.000000000073339
 31
0.0
  0
TEXT
  5
1BE
  8
NOTE
  6
CONTINUOUS
 62
     4
 10
763.11220835596339
 20
592.64469571664085
 30
0.0
 40
60.0
  1
D1（VP-25)
 41
0.8
  0
LINE
  5
1BF
  8
NOTE
  6
CONTINUOUS
 62
     4
 10
1177.6271981994839
 20
570.53455471664188
 30
0.0
 11
753.15534135596272
 21
570.53455471664188
 31
0.0
  0
LINE
  5
1C0
  8
NOTE
  6
CONTINUOUS
 62
     4
 10
874.59702814583738
 20
-296.30688652071098
 30
0.0
 11
1197.774461145834
 21
-296.30688652071098
 31
0.0
  0
TEXT
  5
1C1
  8
NOTE
  6
CONTINUOUS
 62
     4
 10
885.6516371458365
 20
-279.05425952071141
 30
0.0
 40
60.0
  1
RL %%C6.35
 41
0.8
  0
TEXT
  5
1C2
  8
NOTE
  6
CONTINUOUS
 62
     4
 10
907.35135510493114
 20
-0.3524510812574135
 30
0.0
 40
60.0
  1
RG %%C12.7
 41
0.8
  0
LINE
  5
1C3
  8
NOTE
  6
CONTINUOUS
 62
     4
 10
893.32207110493471
 20
-13.393341081257629
 30
0.0
 11
1218.257525737994
 21
-13.393341081257629
 31
0.0
  0
LINE
  5
1C4
  8
NOTE
  6
CONTINUOUS
 62
     4
 10
417.04922593393121
 20
77.999999999965482
 30
0.0
 11
621.6308776035313
 21
-585.75992860905706
 31
0.0
  0
LINE
  5
1C5
  8
NOTE
  6
CONTINUOUS
 62
     4
 10
417.04922593392729
 20
77.999999999965482
 30
0.0
 11
419.87517564323662
 21
38.099949553941833
 31
0.0
  0
LINE
  5
1C6
  8
NOTE
  6
CONTINUOUS
 62
     4
 10
439.4465957261171
 20
44.858518173711722
 30
0.0
 11
417.04922593392729
 21
77.999999999965482
 31
0.0
  0
LINE
  5
1C7
  8
NOTE
  6
CONTINUOUS
 62
     4
 10
-604.35892566359144
 20
487.49064333736737
 30
0.0
 11
-1080.7737975658181
 21
487.49064333736737
 31
0.0
  0
TEXT
  5
1C8
  8
NOTE
  6
CONTINUOUS
 62
     4
 10
-1066.689759909475
 20
499.30385140629022
 30
0.0
 40
60.0
  1
AH 4-14×30長穴
 41
0.65
  0
TEXT
  5
1C9
  8
NOTE
  6
CONTINUOUS
 62
     4
 10
-981.35018582781186
 20
409.15718897246211
 30
0.0
 40
60.0
  1
（M10）
 41
0.7
  0
LINE
  5
1CA
  8
NOTE
  6
CONTINUOUS
 62
     4
 10
-411.99999999999699
 20
154.00000000000179
 30
0.0
 11
-604.35892566359144
 21
487.49064333736737
 31
0.0
  0
LINE
  5
1CB
  8
NOTE
  6
CONTINUOUS
 62
     4
 10
-412.00000000000642
 20
153.99999999999329
 30
0.0
 11
-421.5294720220117
 21
192.8482837031888
 31
0.0
  0
LINE
  5
1CC
  8
NOTE
  6
CONTINUOUS
 62
     4
 10
-439.67690690161987
 20
182.87886413304261
 30
0.0
 11
-412.00000000000642
 21
153.99999999999329
 31
0.0
  0
LINE
  5
1CD
  8
NOTE
  6
CONTINUOUS
 62
     4
 10
82.641021079203696
 20
349.99999999999932
 30
0.0
 11
112.6499598044138
 21
380.00893872523119
 31
0.0
  0
LINE
  5
1CE
  8
NOTE
  6
CONTINUOUS
 62
     4
 10
109.2174798708328
 20
349.99999999999932
 30
0.0
 11
139.226418596043
 21
380.00893872523119
 31
0.0
  0
LINE
  5
1CF
  8
NOTE
  6
CONTINUOUS
 62
     4
 10
135.79393866233099
 20
349.99999999999932
 30
0.0
 11
165.8028773875412
 21
380.00893872523119
 31
0.0
  0
LINE
  5
1D0
  8
NOTE
  6
CONTINUOUS
 62
     4
 10
332.715510456137
 20
349.99999999999932
 30
0.0
 11
362.7244491813471
 21
380.00893872523119
 31
0.0
  0
LINE
  5
1D1
  8
NOTE
  6
CONTINUOUS
 62
     4
 10
359.29196924776619
 20
349.99999999999932
 30
0.0
 11
389.30090797297629
 21
380.00893872523119
 31
0.0
  0
LINE
  5
1D2
  8
NOTE
  6
CONTINUOUS
 62
     4
 10
385.86842803926442
 20
349.99999999999932
 30
0.0
 11
415.87736676447429
 21
380.00893872523119
 31
0.0
  0
LINE
  5
1D3
  8
BASIS
  6
DASHDOT
 62
     6
 10
0.0
 20
393.09688653459892
 30
0.0
 11
0.0
 21
-63.579730543542126
 31
0.0
  0
LINE
  5
1D4
  8
DETAIL
  6
CONTINUOUS
 62
     5
 10
505.45055792864679
 20
45.000000000000227
 30
0.0
 11
-505.45055792864679
 21
45.000000000000021
 31
0.0
  0
LINE
  5
1D5
  8
DETAIL
  6
CONTINUOUS
 62
     5
 10
410.0
 20
54.00000000000005
 30
0.0
 11
410.0
 21
45.000000000000448
 31
0.0
  0
LINE
  5
1D6
  8
DETAIL
  6
CONTINUOUS
 62
     5
 10
-410.0
 20
54.00000000000005
 30
0.0
 11
-410.0
 21
45.000000000000448
 31
0.0
  0
LINE
  5
1D7
  8
OUTLINE
  6
CONTINUOUS
 62
     3
 10
410.0
 20
54.00000000000005
 30
0.0
 11
410.0
 21
45.000000000000448
 31
0.0
  0
LINE
  5
1D8
  8
OUTLINE
  6
CONTINUOUS
 62
     3
 10
505.45055792864679
 20
45.000000000000227
 30
0.0
 11
-505.45055792864679
 21
45.000000000000021
 31
0.0
  0
LINE
  5
1D9
  8
OUTLINE
  6
CONTINUOUS
 62
     3
 10
-410.0
 20
54.00000000000005
 30
0.0
 11
-410.0
 21
45.000000000000448
 31
0.0
  0
LINE
  5
1DA
  8
DETAIL
  6
CONTINUOUS
 62
     5
 10
-582.0
 20
216.99998286395021
 30
0.0
 11
-451.60002510718891
 21
216.99998286395021
 31
0.0
  0
LINE
  5
1DB
  8
DETAIL
  6
CONTINUOUS
 62
     5
 10
-582.0
 20
210.99998401919771
 30
0.0
 11
-525.80001082073613
 21
210.99998401919771
 31
0.0
  0
LINE
  5
1DC
  8
DETAIL
  6
CONTINUOUS
 62
     5
 10
-451.60002510718891
 20
322.9999624547163
 30
0.0
 11
-582.0
 21
322.9999624547163
 31
0.0
  0
LINE
  5
1DD
  8
DETAIL
  6
CONTINUOUS
 62
     5
 10
-451.60002510718891
 20
311.99996457271283
 30
0.0
 11
-582.0
 21
311.99996457271283
 31
0.0
  0
LINE
  5
1DE
  8
DETAIL
  6
CONTINUOUS
 62
     5
 10
-582.0
 20
210.99998401919771
 30
0.0
 11
-582.0
 21
322.9999624547163
 31
0.0
  0
LINE
  5
1DF
  8
DETAIL
  6
CONTINUOUS
 62
     5
 10
105.2000174826189
 20
217.9999826714174
 30
0.0
 11
-430.80002911200609
 21
217.9999826714174
 31
0.0
  0
LINE
  5
1E0
  8
DETAIL
  6
CONTINUOUS
 62
     5
 10
104.40001763665531
 20
321.99996264727639
 30
0.0
 11
-430.00002926604242
 21
321.99996264727639
 31
0.0
  0
LINE
  5
1E1
  8
DETAIL
  6
CONTINUOUS
 62
     5
 10
191.00000096268741
 20
332.99996052933972
 30
0.0
 11
-450.20002537673821
 21
332.99996052933972
 31
0.0
  0
LINE
  5
1E2
  8
DETAIL
  6
CONTINUOUS
 62
     5
 10
-450.20002537673821
 20
128.0
 30
0.0
 11
191.00000096268741
 21
128.0
 31
0.0
  0
LINE
  5
1E3
  8
DETAIL
  6
CONTINUOUS
 62
     5
 10
-444.00002657048202
 20
142.99999711190691
 30
0.0
 11
196.0
 21
142.99999711190691
 31
0.0
  0
LINE
  5
1E4
  8
DETAIL
  6
CONTINUOUS
 62
     5
 10
104.20001767514979
 20
185.9999888326868
 30
0.0
 11
-429.8000293045659
 21
200.99154845599699
 31
0.0
  0
LINE
  5
1E5
  8
DETAIL
  6
CONTINUOUS
 62
     5
 10
-415.2000321156392
 20
200.58166697827789
 30
0.0
 11
-415.2000321156392
 21
142.99999711190691
 31
0.0
  0
LINE
  5
1E6
  8
DETAIL
  6
CONTINUOUS
 62
     5
 10
-444.00002657048202
 20
157.99999422381541
 30
0.0
 11
-444.00002657048202
 21
128.0
 31
0.0
  0
LINE
  5
1E7
  8
DETAIL
  6
CONTINUOUS
 62
     5
 10
-455.2000244140508
 20
210.99998401919771
 30
0.0
 11
-455.2000244140508
 21
132.9999990373108
 31
0.0
  0
LINE
  5
1E8
  8
DETAIL
  6
CONTINUOUS
 62
     5
 10
-455.2000244140508
 20
132.9999990373108
 30
0.0
 11
-450.20002537673821
 21
128.0
 31
0.0
  0
LINE
  5
1EA
  8
DETAIL
  6
CONTINUOUS
 62
     5
 10
-429.8000293045659
 20
210.99998401919771
 30
0.0
 11
-451.60002510718891
 21
210.99998401919771
 31
0.0
  0
LINE
  5
1EB
  8
DETAIL
  6
CONTINUOUS
 62
     5
 10
-430.80002911200609
 20
309.99996495774388
 30
0.0
 11
-451.60002510718891
 21
309.99996495774388
 31
0.0
  0
LINE
  5
1EC
  8
DETAIL
  6
CONTINUOUS
 62
     5
 10
-431.00002907351131
 20
162.99999326109901
 30
0.0
 11
-436.00002811079491
 21
157.99999422381541
 31
0.0
  0
LINE
  5
1ED
  8
DETAIL
  6
CONTINUOUS
 62
     5
 10
-449.80002545375828
 20
328.29935810246741
 30
0.0
 11
-419.80003122994248
 21
328.29935810246741
 31
0.0
  0
LINE
  5
1EE
  8
DETAIL
  6
CONTINUOUS
 62
     5
 10
-451.60002510718891
 20
322.9999624547163
 30
0.0
 11
-451.60002510718891
 21
210.99998401919771
 31
0.0
  0
LINE
  5
1EF
  8
DETAIL
  6
CONTINUOUS
 62
     5
 10
-507.80001428645289
 20
210.99998401919771
 30
0.0
 11
-451.60002510718891
 21
210.99998401919771
 31
0.0
  0
LINE
  5
1F0
  8
DETAIL
  6
CONTINUOUS
 62
     5
 10
-506.80001447898388
 20
213.9999834415739
 30
0.0
 11
-526.80001062817598
 21
213.9999834415739
 31
0.0
  0
LINE
  5
1F1
  8
DETAIL
  6
CONTINUOUS
 62
     5
 10
-526.80001062817598
 20
210.99998401919771
 30
0.0
 11
-526.80001062817598
 21
213.9999834415739
 31
0.0
  0
LINE
  5
1F2
  8
DETAIL
  6
CONTINUOUS
 62
     5
 10
-506.80001447898388
 20
210.99998401919771
 30
0.0
 11
-506.80001447898388
 21
213.9999834415739
 31
0.0
  0
LINE
  5
1F3
  8
DETAIL
  6
CONTINUOUS
 62
     5
 10
-507.80001428645289
 20
209.79998425022501
 30
0.0
 11
-510.80001370882928
 21
206.7999848278487
 31
0.0
  0
LINE
  5
1F4
  8
DETAIL
  6
CONTINUOUS
 62
     5
 10
-507.80001428645289
 20
209.79998425022501
 30
0.0
 11
-507.80001428645289
 21
210.99998401919771
 31
0.0
  0
LINE
  5
1F5
  8
DETAIL
  6
CONTINUOUS
 62
     5
 10
-525.80001082073613
 20
209.79998425022501
 30
0.0
 11
-525.80001082073613
 21
210.99998401919771
 31
0.0
  0
LINE
  5
1F6
  8
DETAIL
  6
CONTINUOUS
 62
     5
 10
-522.80001139833246
 20
206.7999848278487
 30
0.0
 11
-525.80001082073613
 21
209.79998425022501
 31
0.0
  0
LINE
  5
1F7
  8
DETAIL
  6
CONTINUOUS
 62
     5
 10
-510.80001370882928
 20
206.7999848278487
 30
0.0
 11
-522.80001139833246
 21
206.7999848278487
 31
0.0
  0
LINE
  5
1F8
  8
DETAIL
  6
CONTINUOUS
 62
     5
 10
-454.800024491069
 20
162.99999326109901
 30
0.0
 11
-449.80002545375828
 21
157.99999422381541
 31
0.0
  0
LINE
  5
1F9
  8
DETAIL
  6
CONTINUOUS
 62
     5
 10
-436.00002811079491
 20
157.99999422381541
 30
0.0
 11
-449.80002545375828
 21
157.99999422381541
 31
0.0
  0
LINE
  5
1FA
  8
DETAIL
  6
CONTINUOUS
 62
     5
 10
-454.800024491069
 20
162.99999326109901
 30
0.0
 11
-454.800024491069
 21
210.99998401919771
 31
0.0
  0
LINE
  5
1FB
  8
DETAIL
  6
CONTINUOUS
 62
     5
 10
-449.80002545375828
 20
328.29935810246741
 30
0.0
 11
-455.2000244140508
 21
326.9017355280057
 31
0.0
  0
LINE
  5
1FC
  8
DETAIL
  6
CONTINUOUS
 62
     5
 10
-455.2000244140508
 20
327.99996149202718
 30
0.0
 11
-455.2000244140508
 21
322.9999624547163
 31
0.0
  0
LINE
  5
1FD
  8
DETAIL
  6
CONTINUOUS
 62
     5
 10
-450.20002537673821
 20
332.99996052933972
 30
0.0
 11
-455.2000244140508
 21
327.99996149202718
 31
0.0
  0
LINE
  5
1FF
  8
DETAIL
  6
CONTINUOUS
 62
     5
 10
-430.80002911200609
 20
217.9999826714174
 30
0.0
 11
-430.80002911200609
 21
321.19996280128538
 31
0.0
  0
LINE
  5
200
  8
DETAIL
  6
CONTINUOUS
 62
     5
 10
-431.00002907351131
 20
165.99999268347531
 30
0.0
 11
-429.8000293045659
 21
165.99999268347531
 31
0.0
  0
LINE
  5
201
  8
DETAIL
  6
CONTINUOUS
 62
     5
 10
-429.8000293045659
 20
165.99999268347531
 30
0.0
 11
-429.8000293045659
 21
201.7777884630014
 31
0.0
  0
LINE
  5
202
  8
DETAIL
  6
CONTINUOUS
 62
     5
 10
-431.00002907351131
 20
162.99999326109901
 30
0.0
 11
-431.00002907351131
 21
210.99998401919771
 31
0.0
  0
LINE
  5
203
  8
DETAIL
  6
CONTINUOUS
 62
     5
 10
-429.8000293045659
 20
201.7777884630014
 30
0.0
 11
-429.8000293045659
 21
217.9999826714174
 31
0.0
  0
LINE
  5
205
  8
DETAIL
  6
CONTINUOUS
 62
     5
 10
-414.80003219265723
 20
327.00526312611322
 30
0.0
 11
-419.80003122994248
 21
328.29935810246741
 31
0.0
  0
LINE
  5
206
  8
DETAIL
  6
CONTINUOUS
 62
     5
 10
-414.80003219265723
 20
327.00526312611322
 30
0.0
 11
-414.80003219265723
 21
321.99996264727639
 31
0.0
  0
ARC
  5
207
  8
DETAIL
  6
CONTINUOUS
 62
     5
 10
-430.00002926604242
 20
321.19996280128538
 30
0.0
 40
0.7999998459683279
 50
90.0
 51
180.0
  0
LINE
  5
208
  8
DETAIL
  6
CONTINUOUS
 62
     5
 10
-281.20005791596662
 20
196.8197410868882
 30
0.0
 11
-281.20005791596662
 21
142.99999711190691
 31
0.0
  0
LINE
  5
209
  8
DETAIL
  6
CONTINUOUS
 62
     5
 10
-269.20006022646328
 20
196.48285220109261
 30
0.0
 11
-269.20006022646328
 21
142.99999711190691
 31
0.0
  0
LINE
  5
20A
  8
DETAIL
  6
CONTINUOUS
 62
     5
 10
126.4000134007819
 20
160.19999380022821
 30
0.0
 11
126.4000134007819
 21
142.99999711190691
 31
0.0
  0
LINE
  5
20B
  8
DETAIL
  6
CONTINUOUS
 62
     5
 10
196.0
 20
327.99996149202718
 30
0.0
 11
196.0
 21
132.9999990373108
 31
0.0
  0
LINE
  5
20C
  8
DETAIL
  6
CONTINUOUS
 62
     5
 10
196.0
 20
132.9999990373108
 30
0.0
 11
191.00000096268741
 21
128.0
 31
0.0
  0
LINE
  5
20D
  8
DETAIL
  6
CONTINUOUS
 62
     5
 10
129.20001286165271
 20
210.5285226233573
 30
0.0
 11
129.20001286165271
 21
327.00526312611322
 31
0.0
  0
LINE
  5
20E
  8
DETAIL
  6
CONTINUOUS
 62
     5
 10
105.2000174826189
 20
217.9999826714174
 30
0.0
 11
105.2000174826189
 21
321.19996280128538
 31
0.0
  0
LINE
  5
20F
  8
DETAIL
  6
CONTINUOUS
 62
     5
 10
152.20000843324851
 20
181.52852820703811
 30
0.0
 11
104.20001767514979
 21
181.52852820703811
 31
0.0
  0
LINE
  5
210
  8
DETAIL
  6
CONTINUOUS
 62
     5
 10
152.20000843324851
 20
210.5285226233573
 30
0.0
 11
104.20001767514979
 21
210.5285226233573
 31
0.0
  0
LINE
  5
211
  8
DETAIL
  6
CONTINUOUS
 62
     5
 10
105.4000174441225
 20
162.99999326109901
 30
0.0
 11
110.400016481406
 21
157.99999422381541
 31
0.0
  0
LINE
  5
212
  8
DETAIL
  6
CONTINUOUS
 62
     5
 10
110.400016481406
 20
157.99999422381541
 30
0.0
 11
124.20001382436919
 21
157.99999422381541
 31
0.0
  0
LINE
  5
213
  8
DETAIL
  6
CONTINUOUS
 62
     5
 10
105.4000174441225
 20
165.99999268347531
 30
0.0
 11
104.20001767514979
 21
165.99999268347531
 31
0.0
  0
LINE
  5
214
  8
DETAIL
  6
CONTINUOUS
 62
     5
 10
105.4000174441225
 20
162.99999326109901
 30
0.0
 11
105.4000174441225
 21
181.52852820703811
 31
0.0
  0
LINE
  5
215
  8
DETAIL
  6
CONTINUOUS
 62
     5
 10
129.20001286165271
 20
162.99999326109901
 30
0.0
 11
129.20001286165271
 21
181.52852820703811
 31
0.0
  0
LINE
  5
216
  8
DETAIL
  6
CONTINUOUS
 62
     5
 10
129.20001286165271
 20
162.99999326109901
 30
0.0
 11
124.20001382436919
 21
157.99999422381541
 31
0.0
  0
LINE
  5
217
  8
DETAIL
  6
CONTINUOUS
 62
     5
 10
104.20001767514979
 20
217.9999826714174
 30
0.0
 11
104.20001767514979
 21
165.99999268347531
 31
0.0
  0
ARC
  5
219
  8
DETAIL
  6
CONTINUOUS
 62
     5
 10
152.20000843324851
 20
196.0285254151986
 30
0.0
 40
14.499997208172051
 50
270.0
 51
90.0
  0
LINE
  5
21A
  8
DETAIL
  6
CONTINUOUS
 62
     5
 10
196.0
 20
317.99996341743281
 30
0.0
 11
129.20001286165271
 21
317.99996341743281
 31
0.0
  0
LINE
  5
21B
  8
DETAIL
  6
CONTINUOUS
 62
     5
 10
124.20001382436919
 20
328.29935810246741
 30
0.0
 11
129.20001286165271
 21
327.00526312611322
 31
0.0
  0
LINE
  5
21C
  8
DETAIL
  6
CONTINUOUS
 62
     5
 10
89.200020563243001
 20
327.00526312611322
 30
0.0
 11
94.200019600553773
 21
328.29935810246741
 31
0.0
  0
LINE
  5
21D
  8
DETAIL
  6
CONTINUOUS
 62
     5
 10
124.20001382436919
 20
328.29935810246741
 30
0.0
 11
94.200019600553773
 21
328.29935810246741
 31
0.0
  0
LINE
  5
21E
  8
DETAIL
  6
CONTINUOUS
 62
     5
 10
89.200020563243001
 20
327.00526312611322
 30
0.0
 11
89.200020563243001
 21
321.99996264727639
 31
0.0
  0
ARC
  5
21F
  8
DETAIL
  6
CONTINUOUS
 62
     5
 10
104.40001763665531
 20
321.19996280128538
 30
0.0
 40
0.799999845967389
 50
0.0
 51
90.0
  0
LINE
  5
220
  8
DETAIL
  6
CONTINUOUS
 62
     5
 10
191.00000096268741
 20
332.99996052933972
 30
0.0
 11
196.0
 21
327.99996149202718
 31
0.0
  0
LINE
  5
221
  8
DETAIL
  6
CONTINUOUS
 62
     5
 10
104.20001767514979
 20
217.19998282545569
 30
0.0
 11
-429.8000293045659
 21
217.19998282545569
 31
0.0
  0
LINE
  5
222
  8
SIZE
  6
CONTINUOUS
 62
    30
 10
388.0
 20
362.39999999999998
 30
0.0
 11
388.0
 21
868.01834249779336
 31
0.0
  0
LINE
  5
223
  8
SIZE
  6
CONTINUOUS
 62
    30
 10
196.0
 20
346.39996149202682
 30
0.0
 11
196.0
 21
868.01834249779336
 31
0.0
  0
LINE
  5
224
  8
SIZE
  6
CONTINUOUS
 62
    30
 10
388.0
 20
848.01834249779324
 30
0.0
 11
196.0
 21
848.01834249779324
 31
0.0
  0
CIRCLE
  5
225
  8
SIZE
  6
CONTINUOUS
 62
    30
 10
388.0
 20
848.01834249779324
 30
0.0
 40
7.5
  0
CIRCLE
  5
226
  8
SIZE
  6
CONTINUOUS
 62
    30
 10
196.0
 20
848.01834249779324
 30
0.0
 40
7.5
  0
TEXT
  5
227
  8
SIZE
  6
CONTINUOUS
 62
    30
 10
227.71428571428569
 20
868.01834249779336
 30
0.0
 40
60.0
  1
192
 41
0.9
 72
     1
 11
292.0
 21
868.01834249779336
 31
0.0
  0
POINT
  5
228
  8
DEFPOINTS
  6
CONTINUOUS
 62
     7
 10
388.0
 20
344.00000000000023
 30
0.0
  0
POINT
  5
229
  8
DEFPOINTS
  6
CONTINUOUS
 62
     7
 10
196.0
 20
327.99996149202718
 30
0.0
  0
POINT
  5
22A
  8
DEFPOINTS
  6
CONTINUOUS
 62
     7
 10
196.0
 20
848.01834249779324
 30
0.0
  0
LINE
  5
22B
  8
SIZE
  6
CONTINUOUS
 62
    30
 10
196.0
 20
346.39996149202682
 30
0.0
 11
196.0
 21
868.01834249779336
 31
0.0
  0
LINE
  5
22C
  8
SIZE
  6
CONTINUOUS
 62
    30
 10
-582.0
 20
341.3999624547161
 30
0.0
 11
-582.0
 21
868.01834249779336
 31
0.0
  0
LINE
  5
22D
  8
SIZE
  6
CONTINUOUS
 62
    30
 10
196.0
 20
848.01834249779324
 30
0.0
 11
-582.0
 21
848.01834249779324
 31
0.0
  0
CIRCLE
  5
22E
  8
SIZE
  6
CONTINUOUS
 62
    30
 10
196.0
 20
848.01834249779324
 30
0.0
 40
7.5
  0
CIRCLE
  5
22F
  8
SIZE
  6
CONTINUOUS
 62
    30
 10
-582.0
 20
848.01834249779324
 30
0.0
 40
7.5
  0
TEXT
  5
230
  8
SIZE
  6
CONTINUOUS
 62
    30
 10
-459.142857142857
 20
883.73262821207891
 30
0.0
 40
60.0
  1
778(加湿器全長)
 41
0.9
 72
     1
 11
-193.0
 21
883.73262821207891
 31
0.0
  0
POINT
  5
231
  8
DEFPOINTS
  6
CONTINUOUS
 62
     7
 10
196.0
 20
327.99996149202718
 30
0.0
  0
POINT
  5
232
  8
DEFPOINTS
  6
CONTINUOUS
 62
     7
 10
-582.0
 20
322.99996245471618
 30
0.0
  0
POINT
  5
233
  8
DEFPOINTS
  6
CONTINUOUS
 62
     7
 10
-582.0
 20
848.01834249779324
 30
0.0
  0
LINE
  5
234
  8
SIZE
  6
CONTINUOUS
 62
    30
 10
-407.99999999999932
 20
344.00000000000023
 30
0.0
 11
-750.8542551297827
 21
344.00000000000023
 31
0.0
  0
LINE
  5
235
  8
SIZE
  6
CONTINUOUS
 62
    30
 10
-470.20002537673832
 20
128.0
 30
0.0
 11
-750.8542551297827
 21
128.00000000000011
 31
0.0
  0
LINE
  5
236
  8
SIZE
  6
CONTINUOUS
 62
    30
 10
-730.8542551297827
 20
344.00000000000023
 30
0.0
 11
-730.8542551297827
 21
128.00000000000011
 31
0.0
  0
CIRCLE
  5
237
  8
SIZE
  6
CONTINUOUS
 62
    30
 10
-730.8542551297827
 20
344.00000000000023
 30
0.0
 40
7.5
  0
CIRCLE
  5
238
  8
SIZE
  6
CONTINUOUS
 62
    30
 10
-730.8542551297827
 20
128.00000000000011
 30
0.0
 40
7.5
  0
TEXT
  5
239
  8
SIZE
  6
CONTINUOUS
 62
    30
 10
-750.8542551297827
 20
173.0000000000002
 30
0.0
 40
60.0
  1
216
 50
90.0
 41
0.9
 72
     1
 11
-750.8542551297827
 21
236.0000000000002
 31
0.0
  0
POINT
  5
23A
  8
DEFPOINTS
  6
CONTINUOUS
 62
     7
 10
-388.0
 20
344.0
 30
0.0
  0
POINT
  5
23B
  8
DEFPOINTS
  6
CONTINUOUS
 62
     7
 10
-450.20002537673821
 20
128.0
 30
0.0
  0
POINT
  5
23C
  8
DEFPOINTS
  6
CONTINUOUS
 62
     7
 10
-730.8542551297827
 20
128.00000000000011
 30
0.0
  0
LINE
  5
23D
  8
NOTE
  6
CONTINUOUS
 62
     4
 10
444.74978475720809
 20
78.000000000000924
 30
0.0
 11
389.34866711062517
 21
78.000000000000924
 31
0.0
  0
LINE
  5
23E
  8
NOTE
  6
CONTINUOUS
 62
     4
 10
417.04922593392939
 20
105.700558823291
 30
0.0
 11
417.04922593392939
 21
50.299441176709081
 31
0.0
  0
LINE
  5
23F
  8
NOTE
  6
CONTINUOUS
 62
     4
 10
473.19981392951922
 20
284.0
 30
0.0
 11
422.80018607048061
 21
284.0
 31
0.0
  0
LINE
  5
240
  8
NOTE
  6
CONTINUOUS
 62
     4
 10
448.0
 20
309.19981392952059
 30
0.0
 11
448.0
 21
258.80018607047782
 31
0.0
  0
TEXT
  5
241
  8
NOTE
  6
CONTINUOUS
 62
     4
 10
-279.9452840853827
 20
461.59021174024218
 30
0.0
 40
60.0
  1
加湿器
 41
0.8
  0
LINE
  5
242
  8
NOTE
  6
CONTINUOUS
 62
     4
 10
-107.75912529498601
 20
445.9307877895946
 30
0.0
 11
-289.90215108538348
 21
445.9307877895946
 31
0.0
  0
LINE
  5
243
  8
SIZE
  6
CONTINUOUS
 62
    30
 10
388.0
 20
362.39999999999998
 30
0.0
 11
388.0
 21
709.04987445349093
 31
0.0
  0
LINE
  5
244
  8
SIZE
  6
CONTINUOUS
 62
    30
 10
454.9999999999672
 20
260.40000000000072
 30
0.0
 11
454.9999999999672
 21
709.04987445349093
 31
0.0
  0
LINE
  5
245
  8
SIZE
  6
CONTINUOUS
 62
    30
 10
388.0
 20
689.04987445349093
 30
0.0
 11
454.9999999999672
 21
689.04987445349093
 31
0.0
  0
LINE
  5
246
  8
SIZE
  6
CONTINUOUS
 62
    30
 10
454.9999999999672
 20
689.04987445349093
 30
0.0
 11
681.85714285711015
 21
689.04987445349093
 31
0.0
  0
CIRCLE
  5
247
  8
SIZE
  6
CONTINUOUS
 62
    30
 10
388.0
 20
689.04987445349093
 30
0.0
 40
7.5
  0
CIRCLE
  5
248
  8
SIZE
  6
CONTINUOUS
 62
    30
 10
454.9999999999672
 20
689.04987445349093
 30
0.0
 40
7.5
  0
TEXT
  5
249
  8
SIZE
  6
CONTINUOUS
 62
    30
 10
504.99999999996697
 20
724.76416016777614
 30
0.0
 40
60.0
  1
(67)
 41
0.9
 72
     1
 11
583.42857142853848
 21
724.76416016777614
 31
0.0
  0
POINT
  5
24A
  8
DEFPOINTS
  6
CONTINUOUS
 62
     7
 10
388.0
 20
344.00000000000023
 30
0.0
  0
POINT
  5
24B
  8
DEFPOINTS
  6
CONTINUOUS
 62
     7
 10
454.9999999999672
 20
242.00000000000091
 30
0.0
  0
POINT
  5
24C
  8
DEFPOINTS
  6
CONTINUOUS
 62
     7
 10
454.9999999999672
 20
689.04987445349093
 30
0.0
  0
LINE
  5
24D
  8
NOTE
  6
CONTINUOUS
 62
     4
 10
1108.4641832644429
 20
-585.75992860905706
 30
0.0
 11
621.6308776035313
 21
-585.75992860905706
 31
0.0
  0
TEXT
  5
24E
  8
NOTE
  6
CONTINUOUS
 62
     4
 10
644.49741860353242
 20
-567.2184466090572
 30
0.0
 40
60.0
  1
D2 ドレン抜き
 41
0.8
  0
TEXT
  5
24F
  8
NOTE
  6
CONTINUOUS
 62
     4
 10
739.25192229997594
 20
-659.89296397976682
 30
0.0
 40
60.0
  1
（自然排水口）
 41
0.8
  0
LINE
  5
250
  8
NOTE
  6
CONTINUOUS
 62
     4
 10
-223.1475546687256
 20
331.39996052933952
 30
0.0
 11
-289.90215108538348
 21
445.9307877895946
 31
0.0
  0
LINE
  5
251
  8
NOTE
  6
CONTINUOUS
 62
     4
 10
-223.147554668727
 20
331.39996052934077
 30
0.0
 11
-233.81027993583481
 21
369.95260341644172
 31
0.0
  0
LINE
  5
252
  8
NOTE
  6
CONTINUOUS
 62
     4
 10
-251.65806724861659
 20
359.4561655772045
 30
0.0
 11
-223.147554668727
 21
331.39996052934077
 31
0.0
  0
CIRCLE
  5
253
  8
FIX
  6
CONTINUOUS
 62
    11
 10
412.00000000004439
 20
153.999999999952
 30
0.0
 40
12.42149793872491
  0
CIRCLE
  5
254
  8
FIX
  6
CONTINUOUS
 62
    11
 10
-411.99999999995242
 20
153.999999999952
 30
0.0
 40
12.42149793872491
  0
LINE
  5
255
  8
DETAIL
  6
CONTINUOUS
 62
     5
 10
-388.0
 20
128.0
 30
0.0
 11
-388.0
 21
54.00000000000005
 31
0.0
  0
LINE
  5
256
  8
OUTLINE
  6
CONTINUOUS
 62
     3
 10
-388.0
 20
332.99996052933972
 30
0.0
 11
-450.20002537673821
 21
332.99996052933972
 31
0.0
  0
LINE
  5
257
  8
OUTLINE
  6
CONTINUOUS
 62
     3
 10
-450.20002537673821
 20
332.99996052933972
 30
0.0
 11
-455.2000244140508
 21
327.99996149202718
 31
0.0
  0
LINE
  5
258
  8
OUTLINE
  6
CONTINUOUS
 62
     3
 10
-455.2000244140508
 20
327.99996149202718
 30
0.0
 11
-455.2000244140508
 21
322.9999624547163
 31
0.0
  0
LINE
  5
259
  8
OUTLINE
  6
CONTINUOUS
 62
     3
 10
-455.2000244140508
 20
322.9999624547163
 30
0.0
 11
-582.0
 21
322.99996245471618
 31
0.0
  0
LINE
  5
25A
  8
OUTLINE
  6
CONTINUOUS
 62
     3
 10
-582.0
 20
322.99996245471618
 30
0.0
 11
-582.0
 21
210.99998401919771
 31
0.0
  0
LINE
  5
25B
  8
OUTLINE
  6
CONTINUOUS
 62
     3
 10
-582.0
 20
210.99998401919771
 30
0.0
 11
-525.80001082073613
 21
210.99998401919771
 31
0.0
  0
LINE
  5
25C
  8
OUTLINE
  6
CONTINUOUS
 62
     3
 10
-525.80001082073613
 20
210.99998401919771
 30
0.0
 11
-525.80001082073613
 21
209.79998425022501
 31
0.0
  0
LINE
  5
25D
  8
OUTLINE
  6
CONTINUOUS
 62
     3
 10
-525.80001082073613
 20
209.79998425022501
 30
0.0
 11
-522.80001139833246
 21
206.7999848278487
 31
0.0
  0
LINE
  5
25E
  8
OUTLINE
  6
CONTINUOUS
 62
     3
 10
-522.80001139833246
 20
206.7999848278487
 30
0.0
 11
-510.80001370882928
 21
206.7999848278487
 31
0.0
  0
LINE
  5
25F
  8
OUTLINE
  6
CONTINUOUS
 62
     3
 10
-510.80001370882928
 20
206.7999848278487
 30
0.0
 11
-507.80001428645289
 21
209.79998425022501
 31
0.0
  0
LINE
  5
260
  8
OUTLINE
  6
CONTINUOUS
 62
     3
 10
-507.80001428645289
 20
209.79998425022501
 30
0.0
 11
-507.80001428645289
 21
210.99998401919771
 31
0.0
  0
LINE
  5
261
  8
OUTLINE
  6
CONTINUOUS
 62
     3
 10
-507.80001428645289
 20
210.99998401919771
 30
0.0
 11
-455.2000244140508
 21
210.99998401919771
 31
0.0
  0
LINE
  5
262
  8
OUTLINE
  6
CONTINUOUS
 62
     3
 10
-455.2000244140508
 20
210.99998401919771
 30
0.0
 11
-455.2000244140508
 21
132.9999990373108
 31
0.0
  0
LINE
  5
263
  8
OUTLINE
  6
CONTINUOUS
 62
     3
 10
-455.2000244140508
 20
132.9999990373108
 30
0.0
 11
-450.20002537673821
 21
128.0
 31
0.0
  0
LINE
  5
264
  8
OUTLINE
  6
CONTINUOUS
 62
     3
 10
-450.20002537673821
 20
128.0
 30
0.0
 11
-388.0000000000004
 21
128.0
 31
0.0
  0
TEXT
  5
26A
  8
ETC
  6
CONTINUOUS
 62
    61
 10
-283.85580953952189
 20
1033.254892362773
 30
0.0
 40
64.0
  1
PLFY-P22_45LM-E2(自然蒸発式/左側組込)_5
 41
0.75
  0
ENDSEC
  0
EOF
