  0
SECTION
  2
HEADER
  9
$ACADVER
  1
AC1009
  9
$INSBASE
 10
0.0
 20
0.0
 30
0.0
  9
$EXTMIN
 10
-1459.680408618344
 20
-820.00593832007155
 30
-0.0000000349181948
  9
$EXTMAX
 10
1644.4833317017001
 20
1001.898499207505
 30
0.0000000814935747
  9
$LIMMIN
 10
-4267.1522210604817
 20
-2696.083210198412
  9
$LIMMAX
 10
7190.7174225864646
 20
5141.155363923066
  9
$ORTHOMODE
 70
     1
  9
$REGENMODE
 70
     1
  9
$FILLMODE
 70
     1
  9
$QTEXTMODE
 70
     0
  9
$MIRRTEXT
 70
     0
  9
$DRAGMODE
 70
     2
  9
$LTSCALE
 40
20.0
  9
$OSMODE
 70
   175
  9
$ATTMODE
 70
     1
  9
$TEXTSIZE
 40
64.0
  9
$TRACEWID
 40
0.05
  9
$TEXTSTYLE
  7
NOTE
  9
$CLAYER
  8
SYMBOLLINE
  9
$CELTYPE
  6
CONTINUOUS
  9
$CECOLOR
 62
     7
  9
$DIMSCALE
 40
1.0
  9
$DIMASZ
 40
30.0
  9
$DIMEXO
 40
20.0
  9
$DIMDLI
 40
80.0
  9
$DIMRND
 40
0.0
  9
$DIMDLE
 40
0.0
  9
$DIMEXE
 40
20.0
  9
$DIMTP
 40
0.0
  9
$DIMTM
 40
0.0
  9
$DIMTXT
 40
60.0
  9
$DIMCEN
 40
0.09
  9
$DIMTSZ
 40
0.0
  9
$DIMTOL
 70
     0
  9
$DIMLIM
 70
     0
  9
$DIMTIH
 70
     0
  9
$DIMTOH
 70
     0
  9
$DIMSE1
 70
     0
  9
$DIMSE2
 70
     0
  9
$DIMTAD
 70
     1
  9
$DIMZIN
 70
     8
  9
$DIMBLK
  1
SMALL
  9
$DIMASO
 70
     1
  9
$DIMSHO
 70
     0
  9
$DIMPOST
  1

  9
$DIMAPOST
  1

  9
$DIMALT
 70
     0
  9
$DIMALTD
 70
     2
  9
$DIMALTF
 40
25.399999999999999
  9
$DIMLFAC
 40
1.0
  9
$DIMTOFL
 70
     1
  9
$DIMTVP
 40
0.0
  9
$DIMTIX
 70
     0
  9
$DIMSOXD
 70
     0
  9
$DIMSAH
 70
     0
  9
$DIMBLK1
  1

  9
$DIMBLK2
  1

  9
$DIMSTYLE
  2
STANDARD
  9
$DIMCLRD
 70
     0
  9
$DIMCLRE
 70
     0
  9
$DIMCLRT
 70
     0
  9
$DIMTFAC
 40
1.0
  9
$DIMGAP
 40
0.09
  9
$LUNITS
 70
     2
  9
$LUPREC
 70
     4
  9
$SKETCHINC
 40
0.1
  9
$FILLETRAD
 40
30.0
  9
$AUNITS
 70
     1
  9
$AUPREC
 70
     3
  9
$MENU
  1
ACAD
  9
$ELEVATION
 40
0.0
  9
$PELEVATION
 40
0.0
  9
$THICKNESS
 40
0.0
  9
$LIMCHECK
 70
     0
  9
$BLIPMODE
 70
     0
  9
$CHAMFERA
 40
0.0
  9
$CHAMFERB
 40
0.0
  9
$SKPOLY
 70
     0
  9
$TDCREATE
 40
2450330.4399309959
  9
$TDUPDATE
 40
2455338.5479454398
  9
$TDINDWG
 40
4.0958937616000002
  9
$TDUSRTIMER
 40
4.0958930440000003
  9
$USRTIMER
 70
     1
  9
$ANGBASE
 50
0.0
  9
$ANGDIR
 70
     0
  9
$PDMODE
 70
     3
  9
$PDSIZE
 40
-2.0
  9
$PLINEWID
 40
0.0
  9
$COORDS
 70
     0
  9
$SPLFRAME
 70
     0
  9
$SPLINETYPE
 70
     6
  9
$SPLINESEGS
 70
     8
  9
$ATTDIA
 70
     0
  9
$ATTREQ
 70
     1
  9
$HANDLING
 70
     1
  9
$HANDSEED
  5
472
  9
$SURFTAB1
 70
     6
  9
$SURFTAB2
 70
     6
  9
$SURFTYPE
 70
     6
  9
$SURFU
 70
     6
  9
$SURFV
 70
     6
  9
$UCSNAME
  2

  9
$UCSORG
 10
0.0
 20
0.0
 30
0.0
  9
$UCSXDIR
 10
1.0
 20
0.0
 30
0.0
  9
$UCSYDIR
 10
0.0
 20
1.0
 30
0.0
  9
$PUCSNAME
  2

  9
$PUCSORG
 10
0.0
 20
0.0
 30
0.0
  9
$PUCSXDIR
 10
1.0
 20
0.0
 30
0.0
  9
$PUCSYDIR
 10
0.0
 20
1.0
 30
0.0
  9
$USERI1
 70
     0
  9
$USERI2
 70
     0
  9
$USERI3
 70
     0
  9
$USERI4
 70
     0
  9
$USERI5
 70
     0
  9
$USERR1
 40
20.0
  9
$USERR2
 40
0.0
  9
$USERR3
 40
0.0
  9
$USERR4
 40
0.0
  9
$USERR5
 40
0.0
  9
$WORLDVIEW
 70
     1
  9
$SHADEDGE
 70
     3
  9
$SHADEDIF
 70
    70
  9
$TILEMODE
 70
     1
  9
$MAXACTVP
 70
    64
  9
$PLIMCHECK
 70
     0
  9
$PEXTMIN
 10
1.0000000000000000E+020
 20
1.0000000000000000E+020
 30
1.0000000000000000E+020
  9
$PEXTMAX
 10
-1.0000000000000000E+020
 20
-1.0000000000000000E+020
 30
-1.0000000000000000E+020
  9
$PLIMMIN
 10
0.0
 20
0.0
  9
$PLIMMAX
 10
12.0
 20
9.0
  9
$UNITMODE
 70
     0
  9
$VISRETAIN
 70
     1
  9
$PLINEGEN
 70
     0
  9
$PSLTSCALE
 70
     1
  0
ENDSEC
  0
SECTION
  2
TABLES
  0
TABLE
  2
VPORT
 70
     1
  0
VPORT
  2
*ACTIVE
 70
     0
 10
0.0
 20
0.0
 11
1.0
 21
1.0
 12
1461.782600762991
 22
1222.536076862327
 13
0.0
 23
0.0
 14
50.0
 24
50.0
 15
100.0
 25
100.0
 16
0.0
 26
0.0
 36
1.0
 17
0.0
 27
0.0
 37
0.0
 40
7896.9888046738661
 41
1.555979643765903
 42
50.0
 43
0.0
 44
0.0
 50
0.0
 51
0.0
 71
     0
 72
  1000
 73
     1
 74
     0
 75
     0
 76
     0
 77
     0
 78
     0
  0
ENDTAB
  0
TABLE
  2
LTYPE
 70
     3
  0
LTYPE
  2
CONTINUOUS
 70
     0
  3
実線
 72
    65
 73
     0
 40
0.0
  0
LTYPE
  2
DASHDOT
 70
     0
  3
____ _ ____ _ ____ _ ____ _ ____ _ ____ _ ____
 72
    65
 73
     4
 40
5.5
 49
4.0
 49
-0.6
 49
0.3
 49
-0.6
  0
ENDTAB
  0
TABLE
  2
LAYER
 70
    12
  0
LAYER
  2
0
 70
     0
 62
     7
  6
CONTINUOUS
  0
LAYER
  2
SYMBOLLINE
 70
     0
 62
    15
  6
CONTINUOUS
  0
LAYER
  2
SIZE
 70
     0
 62
    30
  6
CONTINUOUS
  0
LAYER
  2
OUTLINE
 70
     0
 62
     3
  6
CONTINUOUS
  0
LAYER
  2
DETAIL
 70
     0
 62
     5
  6
CONTINUOUS
  0
LAYER
  2
BASIS
 70
     0
 62
     6
  6
DASHDOT
  0
LAYER
  2
NOTE
 70
     0
 62
     4
  6
CONTINUOUS
  0
LAYER
  2
ARRANGE
 70
     0
 62
     1
  6
CONTINUOUS
  0
LAYER
  2
FIX
 70
     0
 62
    11
  6
CONTINUOUS
  0
LAYER
  2
SERVICESPACE
 70
     0
 62
     2
  6
DASHDOT
  0
LAYER
  2
ETC
 70
     0
 62
    61
  6
CONTINUOUS
  0
LAYER
  2
DEFPOINTS
 70
     0
 62
     7
  6
CONTINUOUS
  0
ENDTAB
  0
TABLE
  2
STYLE
 70
     3
  0
STYLE
  2
STANDARD
 70
     0
 40
0.0
 41
0.9
 50
0.0
 71
     0
 42
64.0
  3
SIMPLEX
  4
BIGFONT
  0
STYLE
  2
ANNOTATIVE
 70
     0
 40
0.0
 41
1.0
 50
0.0
 71
     0
 42
0.2
  3
txt
  4

  0
STYLE
  2
NOTE
 70
     0
 40
0.0
 41
0.7
 50
0.0
 71
     0
 42
64.0
  3
SIMPLEX.shx
  4
BIGFONT.shx
  0
ENDTAB
  0
TABLE
  2
VIEW
 70
     6
  0
VIEW
  2
ALL
 70
     0
 40
9000.0
 10
241.50664699999999
 20
0.0
 41
12483.01
 11
0.0
 21
0.0
 31
1.0
 12
0.0
 22
0.0
 32
0.0
 42
50.0
 43
0.0
 44
0.0
 50
0.0
 71
     0
  0
ENDTAB
  0
TABLE
  2
UCS
 70
     0
  0
ENDTAB
  0
TABLE
  2
APPID
 70
     4
  0
APPID
  2
ACAD
 70
     0
  0
APPID
  2
ACADANNOTATIVE
 70
     0
  0
APPID
  2
ACAD_MLEADERVER
 70
     0
  0
APPID
  2
ACAD_EXEMPT_FROM_CAD_STANDARDS
 70
     0
  0
ENDTAB
  0
TABLE
  2
DIMSTYLE
 70
     3
  0
DIMSTYLE
  2
STANDARD
 70
     0
  3

  4

  5

  6

  7

 40
1.0
 41
0.18
 42
0.0625
 43
0.38
 44
0.18
 45
0.0
 46
0.0
 47
0.0
 48
0.0
140
0.18
141
0.09
142
0.0
143
25.399999999999999
144
1.0
145
0.0
146
1.0
147
0.09
 71
     0
 72
     0
 73
     1
 74
     1
 75
     0
 76
     0
 77
     0
 78
     0
170
     0
171
     2
172
     0
173
     0
174
     0
175
     0
176
     0
177
     0
178
     0
  0
DIMSTYLE
  2
ANNOTATIVE
 70
     0
  3

  4

  5

  6

  7

 40
1.0
 41
0.18
 42
0.0625
 43
0.38
 44
0.18
 45
0.0
 46
0.0
 47
0.0
 48
0.0
140
0.18
141
0.09
142
0.0
143
25.399999999999999
144
1.0
145
0.0
146
1.0
147
0.09
 71
     0
 72
     0
 73
     1
 74
     1
 75
     0
 76
     0
 77
     0
 78
     0
170
     0
171
     2
172
     0
173
     0
174
     0
175
     0
176
     0
177
     0
178
     0
  0
ENDTAB
  0
ENDSEC
  0
SECTION
  2
BLOCKS
  0
BLOCK
  8
0
  2
$MODEL_SPACE
 70
     0
 10
0.0
 20
0.0
 30
0.0
  3
$MODEL_SPACE
  1

  0
ENDBLK
  5
3FF
  8
0
  0
BLOCK
 67
     1
  8
0
  2
$PAPER_SPACE
 70
     0
 10
0.0
 20
0.0
 30
0.0
  3
$PAPER_SPACE
  1

  0
ENDBLK
  5
3FB
 67
     1
  8
0
  0
BLOCK
  8
0
  2
_SMALL
 70
     0
 10
0.0
 20
0.0
 30
0.0
  3
_SMALL
  1

  0
CIRCLE
  5
8B
  8
0
  6
CONTINUOUS
 62
     7
 10
0.0
 20
0.0
 30
0.0
 40
0.25
  0
ENDBLK
  5
8C
  8
0
  0
ENDSEC
  0
SECTION
  2
ENTITIES
  0
LINE
  5
8D
  8
SERVICESPACE
  6
DASHDOT
 62
     2
 10
335.0
 20
520.0
 30
0.0
 11
-335.0
 21
520.0
 31
0.0
  0
LINE
  5
8E
  8
SERVICESPACE
  6
DASHDOT
 62
     2
 10
335.0
 20
-520.0
 30
0.0
 11
-335.0
 21
-520.0
 31
0.0
  0
LINE
  5
8F
  8
SERVICESPACE
  6
DASHDOT
 62
     2
 10
335.0
 20
-520.0
 30
0.0
 11
-335.0
 21
-520.0
 31
0.0
  0
LINE
  5
90
  8
SERVICESPACE
  6
DASHDOT
 62
     2
 10
335.0
 20
-520.0
 30
0.0
 11
335.0
 21
520.0
 31
0.0
  0
LINE
  5
91
  8
SERVICESPACE
  6
DASHDOT
 62
     2
 10
-335.0
 20
-520.0
 30
0.0
 11
-335.0
 21
520.0
 31
0.0
  0
LINE
  5
92
  8
SERVICESPACE
  6
DASHDOT
 62
     2
 10
-1317.0
 20
512.0000000000008
 30
0.0
 11
-867.0
 21
512.0000000000008
 31
0.0
  0
LINE
  5
93
  8
SERVICESPACE
  6
DASHDOT
 62
     2
 10
-867.0
 20
512.0000000000008
 30
0.0
 11
-867.0
 21
62.000000000000881
 31
0.0
  0
LINE
  5
94
  8
SERVICESPACE
  6
DASHDOT
 62
     2
 10
-867.0
 20
62.000000000000881
 30
0.0
 11
-1317.0
 21
62.000000000000881
 31
0.0
  0
LINE
  5
95
  8
SERVICESPACE
  6
DASHDOT
 62
     2
 10
-1317.0
 20
62.000000000000881
 30
0.0
 11
-1317.0
 21
512.0000000000008
 31
0.0
  0
LINE
  5
96
  8
SERVICESPACE
  6
DASHDOT
 62
     2
 10
-1317.0
 20
512.0000000000008
 30
0.0
 11
-867.0
 21
62.000000000000881
 31
0.0
  0
LINE
  5
97
  8
SERVICESPACE
  6
DASHDOT
 62
     2
 10
-1317.0
 20
62.000000000000881
 30
0.0
 11
-867.0
 21
512.0000000000008
 31
0.0
  0
LINE
  5
9E
  8
SERVICESPACE
  6
DASHDOT
 62
     2
 10
-967.0
 20
582.00000000000125
 30
0.0
 11
-317.0
 21
582.00000000000125
 31
0.0
  0
LINE
  5
9F
  8
SERVICESPACE
  6
DASHDOT
 62
     2
 10
-317.0
 20
582.00000000000125
 30
0.0
 11
-317.0
 21
-540.0
 31
0.0
  0
LINE
  5
A0
  8
SERVICESPACE
  6
DASHDOT
 62
     2
 10
-317.0
 20
-540.0
 30
0.0
 11
-967.0
 21
-540.0
 31
0.0
  0
LINE
  5
A1
  8
SERVICESPACE
  6
DASHDOT
 62
     2
 10
-967.0
 20
-540.0
 30
0.0
 11
-967.0
 21
62.000000000000881
 31
0.0
  0
LINE
  5
A2
  8
SERVICESPACE
  6
DASHDOT
 62
     2
 10
-967.0
 20
512.0000000000008
 30
0.0
 11
-967.0
 21
582.00000000000125
 31
0.0
  0
LINE
  5
A8
  8
BASIS
  6
DASHDOT
 62
     6
 10
540.98436666236012
 20
0.0
 30
0.0
 11
-540.98436666236012
 21
0.0
 31
0.0
  0
LINE
  5
A9
  8
BASIS
  6
DASHDOT
 62
     6
 10
0.0
 20
572.64644409585514
 30
0.0
 11
0.0
 21
-572.64644409585514
 31
0.0
  0
LINE
  5
AA
  8
NOTE
  6
CONTINUOUS
 62
     4
 10
170.99999999999631
 20
-445.99999999999909
 30
0.0
 11
170.99999999999631
 21
-485.99999999999909
 31
0.0
  0
LINE
  5
AB
  8
NOTE
  6
CONTINUOUS
 62
     4
 10
150.99999999998181
 20
-465.99999999996521
 30
0.0
 11
190.99999999998181
 21
-465.99999999996521
 31
0.0
  0
LINE
  5
AC
  8
NOTE
  6
CONTINUOUS
 62
     4
 10
100.9999999999981
 20
-434.99999999999801
 30
0.0
 11
100.9999999999981
 21
-474.99999999999818
 31
0.0
  0
LINE
  5
AD
  8
NOTE
  6
CONTINUOUS
 62
     4
 10
80.999999999998181
 20
-455.00000000033651
 30
0.0
 11
120.9999999999981
 21
-455.00000000033651
 31
0.0
  0
LINE
  5
AE
  8
DETAIL
  6
CONTINUOUS
 62
     5
 10
339.0
 20
540.0
 30
0.0
 11
-339.0
 21
540.0
 31
0.0
  0
ARC
  5
AF
  8
DETAIL
  6
CONTINUOUS
 62
     5
 10
-339.0
 20
524.0
 30
0.0
 40
16.0
 50
90.0
 51
180.0
  0
ARC
  5
B0
  8
DETAIL
  6
CONTINUOUS
 62
     5
 10
339.0
 20
524.0
 30
0.0
 40
16.0
 50
0.0
 51
90.0
  0
LINE
  5
B1
  8
DETAIL
  6
CONTINUOUS
 62
     5
 10
339.0
 20
-540.0
 30
0.0
 11
-339.0
 21
-540.0
 31
0.0
  0
ARC
  5
B2
  8
DETAIL
  6
CONTINUOUS
 62
     5
 10
-339.0
 20
-524.0
 30
0.0
 40
16.0
 50
180.0
 51
270.0
  0
ARC
  5
B3
  8
DETAIL
  6
CONTINUOUS
 62
     5
 10
339.0
 20
-524.0
 30
0.0
 40
16.0
 50
270.0
 51
0.0
  0
LINE
  5
B4
  8
SIZE
  6
CONTINUOUS
 62
    30
 10
-335.0
 20
540.0
 30
0.0
 11
-335.0
 21
717.99654371822555
 31
0.0
  0
LINE
  5
B5
  8
SIZE
  6
CONTINUOUS
 62
    30
 10
334.99999999999989
 20
540.0
 30
0.0
 11
334.99999999999989
 21
717.99654371822555
 31
0.0
  0
LINE
  5
B6
  8
SIZE
  6
CONTINUOUS
 62
    30
 10
-335.0
 20
697.99654371822555
 30
0.0
 11
334.99999999999989
 21
697.99654371822555
 31
0.0
  0
CIRCLE
  5
B7
  8
SIZE
  6
CONTINUOUS
 62
    30
 10
-335.0
 20
697.99654371822555
 30
0.0
 40
7.5
  0
CIRCLE
  5
B8
  8
SIZE
  6
CONTINUOUS
 62
    30
 10
334.99999999999989
 20
697.99654371822555
 30
0.0
 40
7.5
  0
TEXT
  5
B9
  8
SIZE
  6
CONTINUOUS
 62
    30
 10
-298.54285714285709
 20
716.71082943251133
 30
0.0
 40
60.0
  1
670(天井開口寸法)
 41
0.9
 72
     1
 11
-0.0000000000000568
 21
716.71082943251133
 31
0.0
  0
POINT
  5
BA
  8
DEFPOINTS
  6
CONTINUOUS
 62
     7
 10
-335.0
 20
520.0
 30
0.0
  0
POINT
  5
BB
  8
DEFPOINTS
  6
CONTINUOUS
 62
     7
 10
334.99999999999989
 20
520.0
 30
0.0
  0
POINT
  5
BC
  8
DEFPOINTS
  6
CONTINUOUS
 62
     7
 10
334.99999999999989
 20
697.99654371822555
 30
0.0
  0
LINE
  5
BD
  8
SIZE
  6
CONTINUOUS
 62
    30
 10
-355.0
 20
544.0
 30
0.0
 11
-355.0
 21
855.08636506309995
 31
0.0
  0
LINE
  5
BE
  8
SIZE
  6
CONTINUOUS
 62
    30
 10
354.99999999999977
 20
544.0
 30
0.0
 11
354.99999999999977
 21
855.08636506309995
 31
0.0
  0
LINE
  5
BF
  8
SIZE
  6
CONTINUOUS
 62
    30
 10
-355.0
 20
835.08636506309983
 30
0.0
 11
354.99999999999977
 21
835.08636506309983
 31
0.0
  0
CIRCLE
  5
C0
  8
SIZE
  6
CONTINUOUS
 62
    30
 10
-355.0
 20
835.08636506309983
 30
0.0
 40
7.5
  0
CIRCLE
  5
C1
  8
SIZE
  6
CONTINUOUS
 62
    30
 10
354.99999999999977
 20
835.08636506309983
 30
0.0
 40
7.5
  0
TEXT
  5
C2
  8
SIZE
  6
CONTINUOUS
 62
    30
 10
-64.285714285714334
 20
855.08636506309995
 30
0.0
 40
60.0
  1
710
 41
0.9
 72
     1
 11
-0.0000000000000568
 21
855.08636506309995
 31
0.0
  0
POINT
  5
C3
  8
DEFPOINTS
  6
CONTINUOUS
 62
     7
 10
-355.0
 20
524.0
 30
0.0
  0
POINT
  5
C4
  8
DEFPOINTS
  6
CONTINUOUS
 62
     7
 10
354.99999999999977
 20
524.0
 30
0.0
  0
POINT
  5
C5
  8
DEFPOINTS
  6
CONTINUOUS
 62
     7
 10
354.99999999999977
 20
835.08636506309983
 30
0.0
  0
LINE
  5
C6
  8
SIZE
  6
CONTINUOUS
 62
    30
 10
60.999999999998181
 20
-455.00000000033651
 30
0.0
 11
-610.10428095061025
 21
-455.00000000033612
 31
0.0
  0
LINE
  5
C7
  8
SIZE
  6
CONTINUOUS
 62
    30
 10
-359.0
 20
-540.0
 30
0.0
 11
-610.10428095061025
 21
-540.0
 31
0.0
  0
LINE
  5
C8
  8
SIZE
  6
CONTINUOUS
 62
    30
 10
-590.10428095061025
 20
-540.0
 30
0.0
 11
-590.10428095061025
 21
-455.00000000033612
 31
0.0
  0
LINE
  5
C9
  8
SIZE
  6
CONTINUOUS
 62
    30
 10
-590.10428095061025
 20
-455.00000000033612
 30
0.0
 11
-590.10428095061013
 21
-228.1428571431934
 31
0.0
  0
CIRCLE
  5
CA
  8
SIZE
  6
CONTINUOUS
 62
    30
 10
-590.10428095061025
 20
-540.0
 30
0.0
 40
7.5
  0
CIRCLE
  5
CB
  8
SIZE
  6
CONTINUOUS
 62
    30
 10
-590.10428095061025
 20
-455.00000000033612
 30
0.0
 40
7.5
  0
TEXT
  5
CC
  8
SIZE
  6
CONTINUOUS
 62
    30
 10
-625.8185666648958
 20
-405.00000000033629
 30
0.0
 40
60.0
  1
(85)
 50
90.0
 41
0.9
 72
     1
 11
-625.8185666648958
 21
-326.5714285717649
 31
0.0
  0
POINT
  5
CD
  8
DEFPOINTS
  6
CONTINUOUS
 62
     7
 10
80.999999999998181
 20
-455.00000000033651
 30
0.0
  0
POINT
  5
CE
  8
DEFPOINTS
  6
CONTINUOUS
 62
     7
 10
-339.0
 20
-540.0
 30
0.0
  0
POINT
  5
CF
  8
DEFPOINTS
  6
CONTINUOUS
 62
     7
 10
-590.10428095061025
 20
-540.0
 30
0.0
  0
LINE
  5
D0
  8
SIZE
  6
CONTINUOUS
 62
    30
 10
210.9999999999817
 20
-465.99999999996521
 30
0.0
 11
743.10280182092606
 21
-465.99999999996561
 31
0.0
  0
LINE
  5
D1
  8
SIZE
  6
CONTINUOUS
 62
    30
 10
358.99999999999977
 20
-540.0
 30
0.0
 11
743.10280182092606
 21
-540.0
 31
0.0
  0
LINE
  5
D2
  8
SIZE
  6
CONTINUOUS
 62
    30
 10
723.10280182092595
 20
-540.0
 30
0.0
 11
723.10280182092595
 21
-465.99999999996561
 31
0.0
  0
LINE
  5
D3
  8
SIZE
  6
CONTINUOUS
 62
    30
 10
723.10280182092595
 20
-465.99999999996561
 30
0.0
 11
723.1028018209264
 21
-239.14285714282249
 31
0.0
  0
CIRCLE
  5
D4
  8
SIZE
  6
CONTINUOUS
 62
    30
 10
723.10280182092595
 20
-540.0
 30
0.0
 40
7.5
  0
CIRCLE
  5
D5
  8
SIZE
  6
CONTINUOUS
 62
    30
 10
723.10280182092595
 20
-465.99999999996561
 30
0.0
 40
7.5
  0
TEXT
  5
D6
  8
SIZE
  6
CONTINUOUS
 62
    30
 10
687.38851610664074
 20
-415.99999999996533
 30
0.0
 40
60.0
  1
(74)
 50
90.0
 41
0.9
 72
     1
 11
687.38851610664074
 21
-337.57142857139388
 31
0.0
  0
POINT
  5
D7
  8
DEFPOINTS
  6
CONTINUOUS
 62
     7
 10
190.9999999999817
 20
-465.99999999996521
 30
0.0
  0
POINT
  5
D8
  8
DEFPOINTS
  6
CONTINUOUS
 62
     7
 10
338.99999999999989
 20
-540.0
 30
0.0
  0
POINT
  5
D9
  8
DEFPOINTS
  6
CONTINUOUS
 62
     7
 10
723.10280182092595
 20
-540.0
 30
0.0
  0
LINE
  5
DC
  8
SIZE
  6
CONTINUOUS
 62
    30
 10
970.39044597611394
 20
519.99999999999955
 30
0.0
 11
970.39044597611394
 21
489.99999999999949
 31
0.0
  0
LINE
  5
DD
  8
SIZE
  6
CONTINUOUS
 62
    30
 10
970.39044597611394
 20
539.99999999999955
 30
0.0
 11
970.39044597611394
 21
727.42857142857133
 31
0.0
  0
LINE
  5
DE
  8
SIZE
  6
CONTINUOUS
 62
    30
 10
970.39044597611394
 20
519.99999999999955
 30
0.0
 11
970.39044597611394
 21
539.99999999999955
 31
0.0
  0
CIRCLE
  5
DF
  8
SIZE
  6
CONTINUOUS
 62
    30
 10
970.39044597611394
 20
519.99999999999955
 30
0.0
 40
7.5
  0
CIRCLE
  5
E0
  8
SIZE
  6
CONTINUOUS
 62
    30
 10
970.39044597611394
 20
539.99999999999955
 30
0.0
 40
7.5
  0
TEXT
  5
E1
  8
SIZE
  6
CONTINUOUS
 62
    30
 10
950.39044597611371
 20
620.0
 30
0.0
 40
60.0
  1
20
 50
90.0
 41
0.9
 72
     1
 11
950.39044597611371
 21
663.71428571428567
 31
0.0
  0
POINT
  5
E2
  8
DEFPOINTS
  6
CONTINUOUS
 62
     7
 10
338.99999999999989
 20
540.0
 30
0.0
  0
POINT
  5
E3
  8
DEFPOINTS
  6
CONTINUOUS
 62
     7
 10
334.99999999999989
 20
520.0
 30
0.0
  0
POINT
  5
E4
  8
DEFPOINTS
  6
CONTINUOUS
 62
     7
 10
970.39044597611394
 20
519.99999999999955
 30
0.0
  0
LINE
  5
E5
  8
SIZE
  6
CONTINUOUS
 62
    30
 10
354.99999999999977
 20
520.0
 30
0.0
 11
996.01902330427765
 21
519.99999999999955
 31
0.0
  0
LINE
  5
E7
  8
SIZE
  6
CONTINUOUS
 62
    30
 10
970.39044597611485
 20
519.99999999999955
 30
0.0
 11
970.39044597611394
 21
-520.00000000000034
 31
0.0
  0
CIRCLE
  5
E8
  8
SIZE
  6
CONTINUOUS
 62
    30
 10
970.39044597611485
 20
519.99999999999955
 30
0.0
 40
7.5
  0
CIRCLE
  5
E9
  8
SIZE
  6
CONTINUOUS
 62
    30
 10
970.39044597611394
 20
-520.00000000000034
 30
0.0
 40
7.5
  0
TEXT
  5
EA
  8
SIZE
  6
CONTINUOUS
 62
    30
 10
951.67616026182861
 20
-333.51428571428568
 30
0.0
 40
60.0
  1
1040（天井開口寸法)
 50
90.0
 41
0.9
 72
     1
 11
951.67616026182861
 21
-0.0000000000000927
 31
0.0
  0
POINT
  5
EB
  8
DEFPOINTS
  6
CONTINUOUS
 62
     7
 10
334.99999999999989
 20
520.0
 30
0.0
  0
POINT
  5
EC
  8
DEFPOINTS
  6
CONTINUOUS
 62
     7
 10
334.99999999999989
 20
-520.0
 30
0.0
  0
POINT
  5
ED
  8
DEFPOINTS
  6
CONTINUOUS
 62
     7
 10
970.39044597611394
 20
-520.00000000000034
 30
0.0
  0
LINE
  5
EE
  8
SIZE
  6
CONTINUOUS
 62
    30
 10
359.0
 20
540.0
 30
0.0
 11
1113.9056921119229
 21
539.99999999999955
 31
0.0
  0
LINE
  5
F0
  8
SIZE
  6
CONTINUOUS
 62
    30
 10
1086.699436024642
 20
539.99999999999955
 30
0.0
 11
1086.699436024642
 21
-540.00000000000125
 31
0.0
  0
CIRCLE
  5
F1
  8
SIZE
  6
CONTINUOUS
 62
    30
 10
1086.699436024642
 20
539.99999999999955
 30
0.0
 40
7.5
  0
CIRCLE
  5
F2
  8
SIZE
  6
CONTINUOUS
 62
    30
 10
1086.699436024642
 20
-540.00000000000125
 30
0.0
 40
7.5
  0
TEXT
  5
F3
  8
SIZE
  6
CONTINUOUS
 62
    30
 10
1066.699436024642
 20
-90.000000000000554
 30
0.0
 40
60.0
  1
1080
 50
90.0
 41
0.9
 72
     1
 11
1066.699436024642
 21
-0.0000000000005544
 31
0.0
  0
POINT
  5
F4
  8
DEFPOINTS
  6
CONTINUOUS
 62
     7
 10
339.0
 20
540.0
 30
0.0
  0
POINT
  5
F5
  8
DEFPOINTS
  6
CONTINUOUS
 62
     7
 10
338.99999999999972
 20
-540.0000000000008
 30
0.0
  0
POINT
  5
F6
  8
DEFPOINTS
  6
CONTINUOUS
 62
     7
 10
1086.699436024642
 20
-540.00000000000125
 30
0.0
  0
LINE
  5
F7
  8
NOTE
  6
CONTINUOUS
 62
     4
 10
170.99999999998181
 20
-465.99999999996521
 30
0.0
 11
536.37951530769885
 21
-700.82377998560321
 31
0.0
  0
LINE
  5
F8
  8
NOTE
  6
CONTINUOUS
 62
     4
 10
208.98824788575621
 20
-478.52569482369188
 30
0.0
 11
170.99999999997181
 21
-465.9999999999763
 31
0.0
  0
LINE
  5
F9
  8
NOTE
  6
CONTINUOUS
 62
     4
 10
170.99999999997181
 20
-465.9999999999763
 30
0.0
 11
197.6359404445414
 21
-495.84169427025881
 31
0.0
  0
LINE
  5
FA
  8
NOTE
  6
CONTINUOUS
 62
     4
 10
101.0000000001473
 20
-455.00000000005542
 30
0.0
 11
541.21668535451863
 21
-819.59147894721502
 31
0.0
  0
LINE
  5
FB
  8
NOTE
  6
CONTINUOUS
 62
     4
 10
137.53388787189351
 20
-471.2872663502767
 30
0.0
 11
100.9999999993874
 21
-454.99999999990712
 31
0.0
  0
LINE
  5
FC
  8
NOTE
  6
CONTINUOUS
 62
     4
 10
100.9999999993874
 20
-454.99999999990712
 30
0.0
 11
124.4956419208756
 21
-487.37213077600973
 31
0.0
  0
LINE
  5
FD
  8
NOTE
  6
CONTINUOUS
 62
     4
 10
541.21668535451863
 20
-819.59147894721502
 30
0.0
 11
858.31471476480499
 21
-819.59147894721502
 31
0.0
  0
TEXT
  5
FE
  8
NOTE
  6
CONTINUOUS
 62
     4
 10
552.27129435451752
 20
-802.3388519472154
 30
0.0
 40
60.0
  1
RL %%C6.35
 41
0.8
  0
TEXT
  5
FF
  8
NOTE
  6
CONTINUOUS
 62
     4
 10
550.40879930769552
 20
-687.78288998560322
 30
0.0
 40
60.0
  1
RG %%C12.7
 41
0.8
  0
LINE
  5
100
  8
NOTE
  6
CONTINUOUS
 62
     4
 10
536.37951530769885
 20
-700.82377998560321
 30
0.0
 11
859.13012797659019
 21
-700.82377998560321
 31
0.0
  0
LINE
  5
102
  8
SIZE
  6
CONTINUOUS
 62
    30
 10
170.99999999999631
 20
-505.99999999999881
 30
0.0
 11
170.99999999999619
 21
-795.58572781823295
 31
0.0
  0
LINE
  5
103
  8
SIZE
  6
CONTINUOUS
 62
    30
 10
355.0
 20
-544.0
 30
0.0
 11
355.0
 21
-795.58572781823295
 31
0.0
  0
LINE
  5
104
  8
SIZE
  6
CONTINUOUS
 62
    30
 10
170.99999999999619
 20
-775.58572781823307
 30
0.0
 11
355.0
 21
-775.58572781823307
 31
0.0
  0
CIRCLE
  5
105
  8
SIZE
  6
CONTINUOUS
 62
    30
 10
170.99999999999619
 20
-775.58572781823307
 30
0.0
 40
7.5
  0
CIRCLE
  5
106
  8
SIZE
  6
CONTINUOUS
 62
    30
 10
355.0
 20
-775.58572781823307
 30
0.0
 40
7.5
  0
TEXT
  5
107
  8
SIZE
  6
CONTINUOUS
 62
    30
 10
197.42857142856951
 20
-755.58572781823295
 30
0.0
 40
60.0
  1
184
 41
0.9
 72
     1
 11
262.99999999999812
 21
-755.58572781823295
 31
0.0
  0
POINT
  5
108
  8
DEFPOINTS
  6
CONTINUOUS
 62
     7
 10
170.99999999999631
 20
-485.99999999999909
 30
0.0
  0
POINT
  5
109
  8
DEFPOINTS
  6
CONTINUOUS
 62
     7
 10
355.0
 20
-524.0
 30
0.0
  0
POINT
  5
10A
  8
DEFPOINTS
  6
CONTINUOUS
 62
     7
 10
355.0
 20
-775.58572781823307
 30
0.0
  0
LINE
  5
10B
  8
SIZE
  6
CONTINUOUS
 62
    30
 10
170.99999999999631
 20
-505.99999999999881
 30
0.0
 11
170.99999999999619
 21
-795.58572781823295
 31
0.0
  0
LINE
  5
10C
  8
SIZE
  6
CONTINUOUS
 62
    30
 10
100.9999999999981
 20
-494.99999999999801
 30
0.0
 11
100.9999999999981
 21
-795.58572781823295
 31
0.0
  0
LINE
  5
10D
  8
SIZE
  6
CONTINUOUS
 62
    30
 10
170.99999999999619
 20
-775.58572781823307
 30
0.0
 11
100.9999999999981
 21
-775.58572781823307
 31
0.0
  0
LINE
  5
10E
  8
SIZE
  6
CONTINUOUS
 62
    30
 10
100.9999999999981
 20
-775.58572781823307
 30
0.0
 11
-56.428571428573342
 21
-775.58572781823307
 31
0.0
  0
CIRCLE
  5
10F
  8
SIZE
  6
CONTINUOUS
 62
    30
 10
170.99999999999619
 20
-775.58572781823307
 30
0.0
 40
7.5
  0
CIRCLE
  5
110
  8
SIZE
  6
CONTINUOUS
 62
    30
 10
100.9999999999981
 20
-775.58572781823307
 30
0.0
 40
7.5
  0
TEXT
  5
111
  8
SIZE
  6
CONTINUOUS
 62
    30
 10
-36.428571428573314
 20
-755.58572781823295
 30
0.0
 40
60.0
  1
70
 41
0.9
 72
     1
 11
7.2857142857123849
 21
-755.58572781823295
 31
0.0
  0
POINT
  5
112
  8
DEFPOINTS
  6
CONTINUOUS
 62
     7
 10
170.99999999999631
 20
-485.99999999999909
 30
0.0
  0
POINT
  5
113
  8
DEFPOINTS
  6
CONTINUOUS
 62
     7
 10
100.9999999999981
 20
-474.99999999999818
 30
0.0
  0
POINT
  5
114
  8
DEFPOINTS
  6
CONTINUOUS
 62
     7
 10
100.9999999999981
 20
-775.58572781823307
 30
0.0
  0
LINE
  5
115
  8
DETAIL
  6
CONTINUOUS
 62
     5
 10
-427.00011893479677
 20
451.60002510719079
 30
0.0
 11
-427.00011893479677
 21
582.00000000000125
 31
0.0
  0
LINE
  5
116
  8
DETAIL
  6
CONTINUOUS
 62
     5
 10
-490.79996653655138
 20
582.00000000000125
 30
0.0
 11
-490.79996653655138
 21
451.60002510719079
 31
0.0
  0
LINE
  5
117
  8
DETAIL
  6
CONTINUOUS
 62
     5
 10
-490.79996653655138
 20
582.00000000000125
 30
0.0
 11
-427.00011893479677
 21
582.00000000000125
 31
0.0
  0
LINE
  5
118
  8
DETAIL
  6
CONTINUOUS
 62
     5
 10
-514.99999999999955
 20
-94.40001956205829
 30
0.0
 11
-514.99999999999852
 21
419.2000313454846
 31
0.0
  0
LINE
  5
119
  8
DETAIL
  6
CONTINUOUS
 62
     5
 10
-500.00000288811952
 20
430.00002926604412
 30
0.0
 11
-500.00000288811992
 21
-105.2000174826189
 31
0.0
  0
LINE
  5
11A
  8
DETAIL
  6
CONTINUOUS
 62
     5
 10
-514.99999999999852
 20
419.2000313454846
 30
0.0
 11
-500.00000288811901
 21
430.00002926604412
 31
0.0
  0
LINE
  5
11B
  8
DETAIL
  6
CONTINUOUS
 62
     5
 10
-488.39996699866231
 20
430.00002926604412
 30
0.0
 11
-488.39996699866231
 21
451.60002510719079
 31
0.0
  0
LINE
  5
11C
  8
DETAIL
  6
CONTINUOUS
 62
     5
 10
-489.19996684462598
 20
430.00002926604412
 30
0.0
 11
-489.19996684462598
 21
451.60002510719079
 31
0.0
  0
ARC
  5
11D
  8
DETAIL
  6
CONTINUOUS
 62
     5
 10
-386.99037855556338
 20
435.68752817098152
 30
0.0
 40
5.6874989049329612
 50
220.4174382057511
 51
319.58256179424882
  0
ARC
  5
11E
  8
DETAIL
  6
CONTINUOUS
 62
     5
 10
-361.00962144436562
 20
435.68752817098152
 30
0.0
 40
5.6874989049327924
 50
220.4174382057511
 51
319.58256179424882
  0
ARC
  5
11F
  8
DETAIL
  6
CONTINUOUS
 62
     5
 10
-373.999999999978
 20
449.75002546336322
 30
0.0
 40
19.749996197329342
 50
243.99217611437109
 51
296.00782388562891
  0
LINE
  5
120
  8
DETAIL
  6
CONTINUOUS
 62
     5
 10
-490.79996653655138
 20
451.60002510719079
 30
0.0
 11
-427.00011893479677
 21
451.60002510719079
 31
0.0
  0
LINE
  5
121
  8
DETAIL
  6
CONTINUOUS
 62
     5
 10
-386.99037855556338
 20
442.00002695557657
 30
0.0
 11
-361.00962144436562
 21
442.00002695557657
 31
0.0
  0
LINE
  5
122
  8
DETAIL
  6
CONTINUOUS
 62
     5
 10
-391.32050474078642
 20
440.00002734064032
 30
0.0
 11
-391.32050474078642
 21
432.00002888095321
 31
0.0
  0
LINE
  5
123
  8
DETAIL
  6
CONTINUOUS
 62
     5
 10
-356.67949525917169
 20
432.00002888095321
 30
0.0
 11
-356.67949525917169
 21
440.00002734064032
 31
0.0
  0
LINE
  5
124
  8
DETAIL
  6
CONTINUOUS
 62
     5
 10
-365.3397476295886
 20
432.00002888095321
 30
0.0
 11
-365.3397476295886
 21
440.00002734064032
 31
0.0
  0
LINE
  5
125
  8
DETAIL
  6
CONTINUOUS
 62
     5
 10
-382.66025237036769
 20
440.00002734064032
 30
0.0
 11
-382.66025237036769
 21
432.00002888095321
 31
0.0
  0
ARC
  5
126
  8
DETAIL
  6
CONTINUOUS
 62
     5
 10
-373.999999999978
 20
422.2500307582302
 30
0.0
 40
19.749996197329519
 50
63.992176114371091
 51
116.0078238856288
  0
ARC
  5
127
  8
DETAIL
  6
CONTINUOUS
 62
     5
 10
-361.00962144436562
 20
436.31252805063912
 30
0.0
 40
5.6874989049330411
 50
40.417438205751132
 51
139.58256179424879
  0
ARC
  5
128
  8
DETAIL
  6
CONTINUOUS
 62
     5
 10
-386.99037855556338
 20
436.31252805063912
 30
0.0
 40
5.6874989049328679
 50
40.417438205751132
 51
139.58256179424879
  0
LINE
  5
129
  8
DETAIL
  6
CONTINUOUS
 62
     5
 10
-369.50000086641359
 20
464.00002271975961
 30
0.0
 11
-378.49999913354247
 21
464.00002271975961
 31
0.0
  0
LINE
  5
12A
  8
DETAIL
  6
CONTINUOUS
 62
     5
 10
-378.49999913354247
 20
461.5000232010479
 30
0.0
 11
-378.49999913354247
 21
464.00002271975961
 31
0.0
  0
LINE
  5
12B
  8
DETAIL
  6
CONTINUOUS
 62
     5
 10
-376.99999942241078
 20
465.50002243089131
 30
0.0
 11
-378.49999913354247
 21
464.00002271975961
 31
0.0
  0
LINE
  5
12C
  8
DETAIL
  6
CONTINUOUS
 62
     5
 10
-371.00000057754551
 20
465.50002243089131
 30
0.0
 11
-369.50000086641359
 21
464.00002271975961
 31
0.0
  0
LINE
  5
12D
  8
DETAIL
  6
CONTINUOUS
 62
     5
 10
-369.50000086641359
 20
461.5000232010479
 30
0.0
 11
-369.50000086641359
 21
464.00002271975961
 31
0.0
  0
LINE
  5
12E
  8
DETAIL
  6
CONTINUOUS
 62
     5
 10
-379.55599893023998
 20
461.5000232010479
 30
0.0
 11
-379.55599893023998
 21
453.50002474136068
 31
0.0
  0
LINE
  5
12F
  8
DETAIL
  6
CONTINUOUS
 62
     5
 10
-368.44400106974331
 20
461.5000232010479
 30
0.0
 11
-368.44400106974331
 21
453.50002474136068
 31
0.0
  0
LINE
  5
130
  8
DETAIL
  6
CONTINUOUS
 62
     5
 10
-381.49999855594598
 20
453.50002474136068
 30
0.0
 11
-381.49999855594598
 21
442.00002695557657
 31
0.0
  0
LINE
  5
131
  8
DETAIL
  6
CONTINUOUS
 62
     5
 10
-366.50000144403913
 20
453.50002474136068
 30
0.0
 11
-366.50000144403913
 21
442.00002695557657
 31
0.0
  0
LINE
  5
132
  8
DETAIL
  6
CONTINUOUS
 62
     5
 10
-366.50000144403913
 20
453.50002474136068
 30
0.0
 11
-381.49999855594598
 21
453.50002474136068
 31
0.0
  0
LINE
  5
133
  8
DETAIL
  6
CONTINUOUS
 62
     5
 10
-368.44400106974331
 20
461.5000232010479
 30
0.0
 11
-379.55599893023998
 21
461.5000232010479
 31
0.0
  0
LINE
  5
134
  8
DETAIL
  6
CONTINUOUS
 62
     5
 10
-371.00000057754551
 20
465.50002243089131
 30
0.0
 11
-376.99999942241078
 21
465.50002243089131
 31
0.0
  0
LINE
  5
135
  8
DETAIL
  6
CONTINUOUS
 62
     5
 10
-500.00000288811901
 20
430.00002926604412
 30
0.0
 11
-355.0
 21
430.00002926604412
 31
0.0
  0
LINE
  5
137
  8
DETAIL
  6
CONTINUOUS
 62
     5
 10
-500.00000288811992
 20
-105.20001748261799
 30
0.0
 11
-514.99999999999955
 21
-94.40001956205829
 31
0.0
  0
LINE
  5
138
  8
DETAIL
  6
CONTINUOUS
 62
     5
 10
-445.19997531637159
 20
-137.7000112250889
 30
0.0
 11
-355.0
 21
-137.7000112250889
 31
0.0
  0
LINE
  5
139
  8
DETAIL
  6
CONTINUOUS
 62
     5
 10
-445.19997531637159
 20
-166.7000056414081
 30
0.0
 11
-355.0
 21
-166.7000056414081
 31
0.0
  0
LINE
  5
13A
  8
DETAIL
  6
CONTINUOUS
 62
     5
 10
-500.00000288812032
 20
-105.20001748261799
 30
0.0
 11
-355.0
 21
-105.20001748261799
 31
0.0
  0
ARC
  5
13B
  8
DETAIL
  6
CONTINUOUS
 62
     5
 10
-445.1999753163708
 20
-129.2000128616518
 30
0.0
 40
37.49999277975526
 50
180.0
 51
270.0
  0
ARC
  5
13C
  8
DETAIL
  6
CONTINUOUS
 62
     5
 10
-445.1999753163708
 20
-129.2000128616518
 30
0.0
 40
8.499998363411116
 50
180.0
 51
270.0
  0
LINE
  5
13D
  8
DETAIL
  6
CONTINUOUS
 62
     5
 10
-453.69997367977959
 20
-129.2000128616518
 30
0.0
 11
-453.69997367977959
 21
-105.20001748261799
 31
0.0
  0
LINE
  5
13E
  8
DETAIL
  6
CONTINUOUS
 62
     5
 10
-482.69996809612633
 20
-129.2000128616518
 30
0.0
 11
-482.69996809612633
 21
-105.20001748261799
 31
0.0
  0
LINE
  5
13F
  8
NOTE
  6
CONTINUOUS
 62
     4
 10
-400.49999489769817
 20
465.50002243089131
 30
0.0
 11
-347.50000510228699
 21
465.50002243089131
 31
0.0
  0
LINE
  5
140
  8
NOTE
  6
CONTINUOUS
 62
     4
 10
-373.999999999978
 20
492.00001732858209
 30
0.0
 11
-373.999999999978
 21
439.0000275332003
 31
0.0
  0
LINE
  5
141
  8
DETAIL
  6
CONTINUOUS
 62
     5
 10
-355.0
 20
-524.0
 30
0.0
 11
-355.0
 21
524.0
 31
0.0
  0
LINE
  5
16F
  8
DETAIL
  6
CONTINUOUS
 62
     5
 10
355.0
 20
-524.0
 30
0.0
 11
355.0
 21
524.0
 31
0.0
  0
POINT
  5
176
  8
DEFPOINTS
  6
CONTINUOUS
 62
     7
 10
-515.0
 20
-94.400019562057423
 30
0.0
  0
LINE
  5
179
  8
SIZE
  6
CONTINUOUS
 62
    30
 10
-335.0
 20
540.0
 30
0.0
 11
-335.0
 21
717.99654371822555
 31
0.0
  0
LINE
  5
17A
  8
SIZE
  6
CONTINUOUS
 62
    30
 10
-355.0
 20
544.0
 30
0.0
 11
-355.0
 21
717.99654371822555
 31
0.0
  0
LINE
  5
17B
  8
SIZE
  6
CONTINUOUS
 62
    30
 10
-335.0
 20
697.99654371822555
 30
0.0
 11
-305.0
 21
697.99654371822555
 31
0.0
  0
LINE
  5
17C
  8
SIZE
  6
CONTINUOUS
 62
    30
 10
-355.0
 20
697.99654371822555
 30
0.0
 11
-542.42857142857144
 21
697.99654371822555
 31
0.0
  0
LINE
  5
17D
  8
SIZE
  6
CONTINUOUS
 62
    30
 10
-335.0
 20
697.99654371822555
 30
0.0
 11
-355.0
 21
697.99654371822555
 31
0.0
  0
CIRCLE
  5
17E
  8
SIZE
  6
CONTINUOUS
 62
    30
 10
-335.0
 20
697.99654371822555
 30
0.0
 40
7.5
  0
CIRCLE
  5
17F
  8
SIZE
  6
CONTINUOUS
 62
    30
 10
-355.0
 20
697.99654371822555
 30
0.0
 40
7.5
  0
TEXT
  5
180
  8
SIZE
  6
CONTINUOUS
 62
    30
 10
-522.42857142857133
 20
717.99654371822555
 30
0.0
 40
60.0
  1
20
 41
0.9
 72
     1
 11
-478.71428571428561
 21
717.99654371822555
 31
0.0
  0
POINT
  5
181
  8
DEFPOINTS
  6
CONTINUOUS
 62
     7
 10
-335.0
 20
520.0
 30
0.0
  0
POINT
  5
182
  8
DEFPOINTS
  6
CONTINUOUS
 62
     7
 10
-355.0
 20
524.0
 30
0.0
  0
POINT
  5
183
  8
DEFPOINTS
  6
CONTINUOUS
 62
     7
 10
-355.0
 20
697.99654371822555
 30
0.0
  0
LINE
  5
184
  8
SIZE
  6
CONTINUOUS
 62
    30
 10
334.99999999999989
 20
540.0
 30
0.0
 11
334.99999999999989
 21
717.99654371822555
 31
0.0
  0
LINE
  5
185
  8
SIZE
  6
CONTINUOUS
 62
    30
 10
354.99999999999977
 20
544.0
 30
0.0
 11
354.99999999999977
 21
717.99654371822555
 31
0.0
  0
LINE
  5
186
  8
SIZE
  6
CONTINUOUS
 62
    30
 10
334.99999999999989
 20
697.99654371822555
 30
0.0
 11
304.99999999999989
 21
697.99654371822555
 31
0.0
  0
LINE
  5
187
  8
SIZE
  6
CONTINUOUS
 62
    30
 10
354.99999999999977
 20
697.99654371822555
 30
0.0
 11
542.42857142857122
 21
697.99654371822555
 31
0.0
  0
LINE
  5
188
  8
SIZE
  6
CONTINUOUS
 62
    30
 10
334.99999999999989
 20
697.99654371822555
 30
0.0
 11
354.99999999999977
 21
697.99654371822555
 31
0.0
  0
CIRCLE
  5
189
  8
SIZE
  6
CONTINUOUS
 62
    30
 10
334.99999999999989
 20
697.99654371822555
 30
0.0
 40
7.5
  0
CIRCLE
  5
18A
  8
SIZE
  6
CONTINUOUS
 62
    30
 10
354.99999999999977
 20
697.99654371822555
 30
0.0
 40
7.5
  0
TEXT
  5
18B
  8
SIZE
  6
CONTINUOUS
 62
    30
 10
434.99999999999989
 20
717.99654371822555
 30
0.0
 40
60.0
  1
20
 41
0.9
 72
     1
 11
478.71428571428561
 21
717.99654371822555
 31
0.0
  0
POINT
  5
18C
  8
DEFPOINTS
  6
CONTINUOUS
 62
     7
 10
334.99999999999989
 20
520.0
 30
0.0
  0
POINT
  5
18D
  8
DEFPOINTS
  6
CONTINUOUS
 62
     7
 10
354.99999999999977
 20
524.0
 30
0.0
  0
POINT
  5
18E
  8
DEFPOINTS
  6
CONTINUOUS
 62
     7
 10
354.99999999999977
 20
697.99654371822555
 30
0.0
  0
LINE
  5
191
  8
SIZE
  6
CONTINUOUS
 62
    30
 10
354.99999999999977
 20
-520.0
 30
0.0
 11
996.82339714125919
 21
-520.00000000000034
 31
0.0
  0
LINE
  5
192
  8
SIZE
  6
CONTINUOUS
 62
    30
 10
358.99999999999977
 20
-540.0
 30
0.0
 11
1113.684952042709
 21
-540.00000000000034
 31
0.0
  0
LINE
  5
193
  8
SIZE
  6
CONTINUOUS
 62
    30
 10
970.39044597611394
 20
-520.00000000000034
 30
0.0
 11
970.39044597611394
 21
-490.00000000000023
 31
0.0
  0
LINE
  5
194
  8
SIZE
  6
CONTINUOUS
 62
    30
 10
970.39044597611394
 20
-540.00000000000034
 30
0.0
 11
970.39044597611394
 21
-727.42857142857133
 31
0.0
  0
LINE
  5
195
  8
SIZE
  6
CONTINUOUS
 62
    30
 10
970.39044597611394
 20
-520.00000000000034
 30
0.0
 11
970.39044597611394
 21
-540.00000000000034
 31
0.0
  0
CIRCLE
  5
196
  8
SIZE
  6
CONTINUOUS
 62
    30
 10
970.39044597611394
 20
-520.00000000000034
 30
0.0
 40
7.5
  0
CIRCLE
  5
197
  8
SIZE
  6
CONTINUOUS
 62
    30
 10
970.39044597611394
 20
-540.00000000000034
 30
0.0
 40
7.5
  0
TEXT
  5
198
  8
SIZE
  6
CONTINUOUS
 62
    30
 10
950.39044597611371
 20
-707.42857142857133
 30
0.0
 40
60.0
  1
20
 50
90.0
 41
0.9
 72
     1
 11
950.39044597611371
 21
-663.71428571428567
 31
0.0
  0
POINT
  5
199
  8
DEFPOINTS
  6
CONTINUOUS
 62
     7
 10
334.99999999999989
 20
-520.0
 30
0.0
  0
POINT
  5
19A
  8
DEFPOINTS
  6
CONTINUOUS
 62
     7
 10
338.99999999999989
 20
-540.0
 30
0.0
  0
POINT
  5
19B
  8
DEFPOINTS
  6
CONTINUOUS
 62
     7
 10
970.39044597611394
 20
-540.00000000000034
 30
0.0
  0
TEXT
  5
19F
  8
NOTE
  6
CONTINUOUS
 62
     4
 10
-797.08249716644866
 20
284.73082168688779
 30
0.0
 40
60.0
  1
加湿器
 41
0.8
  0
LINE
  5
1A0
  8
NOTE
  6
CONTINUOUS
 62
     4
 10
-578.50880119243811
 20
269.07139773624112
 30
0.0
 11
-803.83936416644963
 21
269.07139773624112
 31
0.0
  0
LINE
  5
1A1
  8
NOTE
  6
CONTINUOUS
 62
     4
 10
-578.50880119243811
 20
269.07139773624112
 30
0.0
 11
-514.99999999999875
 21
196.79692771640291
 31
0.0
  0
LINE
  5
1A2
  8
NOTE
  6
CONTINUOUS
 62
     4
 10
-514.99999999999875
 20
196.79692771640291
 30
0.0
 11
-548.25904400174375
 21
219.0193485988093
 31
0.0
  0
LINE
  5
1A3
  8
NOTE
  6
CONTINUOUS
 62
     4
 10
-532.69196627279325
 20
232.6716304912824
 30
0.0
 11
-514.99999999999875
 21
196.79692771640291
 31
0.0
  0
LINE
  5
1A4
  8
NOTE
  6
CONTINUOUS
 62
     4
 10
-373.99999999999272
 20
465.50002243089131
 30
0.0
 11
-619.49741327923539
 21
612.07538166278209
 31
0.0
  0
TEXT
  5
1A5
  8
NOTE
  6
CONTINUOUS
 62
     4
 10
-1190.2962439772889
 20
625.11627166280186
 30
0.0
 40
60.0
  1
加湿器給水口 %%C6.35
 41
0.8
  0
LINE
  5
1A6
  8
NOTE
  6
CONTINUOUS
 62
     4
 10
-619.49741327923391
 20
612.07538166278164
 30
0.0
 11
-1195.335988550903
 21
612.07538166280256
 31
0.0
  0
LINE
  5
1A7
  8
NOTE
  6
CONTINUOUS
 62
     4
 10
-373.999999999978
 20
465.5000224308921
 30
0.0
 11
-412.27644408770891
 21
477.11526352971032
 31
0.0
  0
LINE
  5
1A8
  8
NOTE
  6
CONTINUOUS
 62
     4
 10
-401.34075204203418
 20
494.69733819036719
 30
0.0
 11
-373.999999999978
 21
465.5000224308921
 31
0.0
  0
LINE
  5
1AA
  8
SIZE
  6
CONTINUOUS
 62
    30
 10
-1337.0
 20
62.000000000000881
 30
0.0
 11
-1399.6446852511581
 21
62.000000000000938
 31
0.0
  0
LINE
  5
1AB
  8
SIZE
  6
CONTINUOUS
 62
    30
 10
-1337.0
 20
512.0000000000008
 30
0.0
 11
-1399.6446852511581
 21
512.0000000000008
 31
0.0
  0
LINE
  5
1AC
  8
SIZE
  6
CONTINUOUS
 62
    30
 10
-1379.6446852511581
 20
62.000000000000917
 30
0.0
 11
-1379.6446852511581
 21
512.0000000000008
 31
0.0
  0
CIRCLE
  5
1AD
  8
SIZE
  6
CONTINUOUS
 62
    30
 10
-1379.6446852511581
 20
62.000000000000917
 30
0.0
 40
7.5
  0
CIRCLE
  5
1AE
  8
SIZE
  6
CONTINUOUS
 62
    30
 10
-1379.6446852511581
 20
512.0000000000008
 30
0.0
 40
7.5
  0
TEXT
  5
1AF
  8
SIZE
  6
CONTINUOUS
 62
    30
 10
-1399.6446852511581
 20
217.57142857142921
 30
0.0
 40
60.0
  1
450
 50
90.0
 41
0.9
 72
     1
 11
-1399.6446852511581
 21
287.00000000000063
 31
0.0
  0
POINT
  5
1B0
  8
DEFPOINTS
  6
CONTINUOUS
 62
     7
 10
-1317.0
 20
62.000000000000881
 30
0.0
  0
POINT
  5
1B1
  8
DEFPOINTS
  6
CONTINUOUS
 62
     7
 10
-1317.0
 20
512.0000000000008
 30
0.0
  0
POINT
  5
1B2
  8
DEFPOINTS
  6
CONTINUOUS
 62
     7
 10
-1379.6446852511581
 20
512.0000000000008
 30
0.0
  0
LINE
  5
1B3
  8
SIZE
  6
CONTINUOUS
 62
    30
 10
-867.0
 20
42.000000000000881
 30
0.0
 11
-867.0
 21
-91.135304794523066
 31
0.0
  0
LINE
  5
1B4
  8
SIZE
  6
CONTINUOUS
 62
    30
 10
-1317.0
 20
42.000000000000881
 30
0.0
 11
-1317.0
 21
-91.135304794523066
 31
0.0
  0
LINE
  5
1B5
  8
SIZE
  6
CONTINUOUS
 62
    30
 10
-867.0
 20
-71.135304794523108
 30
0.0
 11
-1317.0
 21
-71.135304794523108
 31
0.0
  0
CIRCLE
  5
1B6
  8
SIZE
  6
CONTINUOUS
 62
    30
 10
-867.0
 20
-71.135304794523108
 30
0.0
 40
7.5
  0
CIRCLE
  5
1B7
  8
SIZE
  6
CONTINUOUS
 62
    30
 10
-1317.0
 20
-71.135304794523108
 30
0.0
 40
7.5
  0
TEXT
  5
1B8
  8
SIZE
  6
CONTINUOUS
 62
    30
 10
-1161.4285714285711
 20
-51.135304794523108
 30
0.0
 40
60.0
  1
450
 41
0.9
 72
     1
 11
-1092.0
 21
-51.135304794523108
 31
0.0
  0
POINT
  5
1B9
  8
DEFPOINTS
  6
CONTINUOUS
 62
     7
 10
-867.0
 20
62.000000000000881
 30
0.0
  0
POINT
  5
1BA
  8
DEFPOINTS
  6
CONTINUOUS
 62
     7
 10
-1317.0
 20
62.000000000000881
 30
0.0
  0
POINT
  5
1BB
  8
DEFPOINTS
  6
CONTINUOUS
 62
     7
 10
-1317.0
 20
-71.135304794523108
 30
0.0
  0
TEXT
  5
1BE
  8
NOTE
  6
CONTINUOUS
 62
     4
 10
-794.63055862935005
 20
89.753804995900296
 30
0.0
 40
60.0
  1
サービス
 41
0.8
  0
TEXT
  5
1BF
  8
NOTE
  6
CONTINUOUS
 62
     4
 10
-794.38826384415449
 20
26.010948244573228
 30
0.0
 40
60.0
  1
スペース
 41
0.8
  0
TEXT
  5
1C0
  8
NOTE
  6
CONTINUOUS
 62
     4
 10
-1172.981365759166
 20
133.80431745579421
 30
0.0
 40
60.0
  1
点検口
 41
0.8
  0
LINE
  5
1D3
  8
OUTLINE
  6
CONTINUOUS
 62
     3
 10
339.0
 20
540.0
 30
0.0
 11
-339.0
 21
540.0
 31
0.0
  0
ARC
  5
1D4
  8
OUTLINE
  6
CONTINUOUS
 62
     3
 10
-339.0
 20
524.0
 30
0.0
 40
16.0
 50
90.0
 51
180.0
  0
ARC
  5
1D5
  8
OUTLINE
  6
CONTINUOUS
 62
     3
 10
339.0
 20
524.0
 30
0.0
 40
16.0
 50
0.0
 51
90.0
  0
LINE
  5
1D6
  8
OUTLINE
  6
CONTINUOUS
 62
     3
 10
339.0
 20
-540.0
 30
0.0
 11
-339.0
 21
-540.0
 31
0.0
  0
ARC
  5
1D7
  8
OUTLINE
  6
CONTINUOUS
 62
     3
 10
-339.0
 20
-524.0
 30
0.0
 40
16.0
 50
180.0
 51
270.0
  0
ARC
  5
1D8
  8
OUTLINE
  6
CONTINUOUS
 62
     3
 10
339.0
 20
-524.0
 30
0.0
 40
16.0
 50
270.0
 51
0.0
  0
LINE
  5
1D9
  8
OUTLINE
  6
CONTINUOUS
 62
     3
 10
355.0
 20
-524.0
 30
0.0
 11
355.0
 21
524.0
 31
0.0
  0
LINE
  5
1DA
  8
OUTLINE
  6
CONTINUOUS
 62
     3
 10
-355.0
 20
-524.0
 30
0.0
 11
-355.0
 21
524.0
 31
0.0
  0
LINE
  5
1DB
  8
OUTLINE
  6
CONTINUOUS
 62
     3
 10
-355.0
 20
430.00002926604412
 30
0.0
 11
-488.39996699866231
 21
430.00002926604412
 31
0.0
  0
LINE
  5
1DC
  8
OUTLINE
  6
CONTINUOUS
 62
     3
 10
-488.39996699866231
 20
430.00002926604412
 30
0.0
 11
-488.39996699866231
 21
451.60002510719079
 31
0.0
  0
LINE
  5
1DD
  8
OUTLINE
  6
CONTINUOUS
 62
     3
 10
-488.39996699866231
 20
451.60002510719079
 30
0.0
 11
-427.00011893479677
 21
451.60002510719079
 31
0.0
  0
LINE
  5
1DE
  8
OUTLINE
  6
CONTINUOUS
 62
     3
 10
-427.00011893479677
 20
451.60002510719079
 30
0.0
 11
-427.00011893479677
 21
582.00000000000125
 31
0.0
  0
LINE
  5
1DF
  8
OUTLINE
  6
CONTINUOUS
 62
     3
 10
-427.00011893479677
 20
582.00000000000125
 30
0.0
 11
-490.79996653655138
 21
582.00000000000125
 31
0.0
  0
LINE
  5
1E0
  8
OUTLINE
  6
CONTINUOUS
 62
     3
 10
-490.79996653655138
 20
582.00000000000125
 30
0.0
 11
-490.79996653655138
 21
451.60002510719079
 31
0.0
  0
LINE
  5
1E1
  8
OUTLINE
  6
CONTINUOUS
 62
     3
 10
-490.79996653655138
 20
451.60002510719079
 30
0.0
 11
-489.19996684462598
 21
451.60002510719079
 31
0.0
  0
LINE
  5
1E2
  8
OUTLINE
  6
CONTINUOUS
 62
     3
 10
-489.19996684462598
 20
451.60002510719079
 30
0.0
 11
-489.19996684462598
 21
430.00002926604412
 31
0.0
  0
LINE
  5
1E3
  8
OUTLINE
  6
CONTINUOUS
 62
     3
 10
-489.19996684462598
 20
430.00002926604412
 30
0.0
 11
-500.00000288811901
 21
430.00002926604412
 31
0.0
  0
LINE
  5
1E4
  8
OUTLINE
  6
CONTINUOUS
 62
     3
 10
-500.00000288811901
 20
430.00002926604412
 30
0.0
 11
-514.99999999999852
 21
419.2000313454846
 31
0.0
  0
LINE
  5
1E5
  8
OUTLINE
  6
CONTINUOUS
 62
     3
 10
-514.99999999999852
 20
419.2000313454846
 30
0.0
 11
-514.99999999999955
 21
-94.40001956205829
 31
0.0
  0
LINE
  5
1E6
  8
OUTLINE
  6
CONTINUOUS
 62
     3
 10
-515.0
 20
-94.400019562057423
 30
0.0
 11
-500.00000288812032
 21
-105.20001748261799
 31
0.0
  0
LINE
  5
1FB
  8
OUTLINE
  6
CONTINUOUS
 62
     3
 10
-500.00000288812032
 20
-105.20001748261799
 30
0.0
 11
-355.0
 21
-105.20001748261799
 31
0.0
  0
CIRCLE
  5
203
  8
ARRANGE
  6
CONTINUOUS
 62
     1
 10
0.0
 20
0.0
 30
0.0
 40
40.0
  0
POINT
  5
204
  8
ARRANGE
  6
CONTINUOUS
 62
     1
 10
0.0
 20
0.0
 30
0.0
  0
LINE
  5
205
  8
DETAIL
  6
CONTINUOUS
 62
     5
 10
291.11234180961759
 20
436.19411494227279
 30
0.0
 11
286.53534885056791
 21
436.45701901710709
 31
0.0
  0
LINE
  5
206
  8
DETAIL
  6
CONTINUOUS
 62
     5
 10
295.55026517915212
 20
435.41339068021961
 30
0.0
 11
291.11234180961759
 21
436.19411494227279
 31
0.0
  0
LINE
  5
207
  8
DETAIL
  6
CONTINUOUS
 62
     5
 10
299.71427489629599
 20
434.13856814380961
 30
0.0
 11
295.55026517915212
 21
435.41339068021961
 31
0.0
  0
LINE
  5
208
  8
DETAIL
  6
CONTINUOUS
 62
     5
 10
303.4778496263279
 20
432.408382172747
 30
0.0
 11
299.71427489629599
 21
434.13856814380961
 31
0.0
  0
LINE
  5
209
  8
DETAIL
  6
CONTINUOUS
 62
     5
 10
306.72663504960832
 20
430.27540359493651
 30
0.0
 11
303.4778496263279
 21
432.408382172747
 31
0.0
  0
LINE
  5
20A
  8
DETAIL
  6
CONTINUOUS
 62
     5
 10
309.36191845990282
 20
427.80444188850919
 30
0.0
 11
306.72663504960832
 21
430.27540359493651
 31
0.0
  0
LINE
  5
20B
  8
DETAIL
  6
CONTINUOUS
 62
     5
 10
311.30362810015498
 20
425.07057597842311
 30
0.0
 11
309.36191845990282
 21
427.80444188850919
 31
0.0
  0
LINE
  5
20C
  8
DETAIL
  6
CONTINUOUS
 62
     5
 10
312.49276610243942
 20
422.15687300128951
 30
0.0
 11
311.30362810015498
 21
425.07057597842311
 31
0.0
  0
LINE
  5
20D
  8
DETAIL
  6
CONTINUOUS
 62
     5
 10
312.89320110842158
 20
419.15186435220659
 30
0.0
 11
312.49276610243942
 21
422.15687300128951
 31
0.0
  0
LINE
  5
20E
  8
DETAIL
  6
CONTINUOUS
 62
     5
 10
208.06197516161041
 20
305.63467668310477
 30
0.0
 11
208.06197516161041
 21
-305.63467668310477
 31
0.0
  0
LINE
  5
20F
  8
DETAIL
  6
CONTINUOUS
 62
     5
 10
-208.0622505683404
 20
305.63467668310477
 30
0.0
 11
-208.0622505683404
 21
-305.63467668310477
 31
0.0
  0
LINE
  5
210
  8
DETAIL
  6
CONTINUOUS
 62
     5
 10
180.05363235139509
 20
305.63467668310477
 30
0.0
 11
208.06197516161041
 21
305.63467668310477
 31
0.0
  0
LINE
  5
211
  8
DETAIL
  6
CONTINUOUS
 62
     5
 10
-180.05363235138969
 20
305.63467668310477
 30
0.0
 11
-208.0622505683404
 21
305.63467668310477
 31
0.0
  0
ARC
  5
212
  8
DETAIL
  6
CONTINUOUS
 62
     5
 10
271.68092525520109
 20
424.95359250576172
 30
0.0
 40
11.503426511338949
 50
90.0
 51
180.0
  0
LINE
  5
213
  8
DETAIL
  6
CONTINUOUS
 62
     5
 10
286.5353510853929
 20
436.45701901710709
 30
0.0
 11
271.68092525520291
 21
436.45701901710709
 31
0.0
  0
LINE
  5
214
  8
DETAIL
  6
CONTINUOUS
 62
     5
 10
312.89320110842158
 20
-419.15186435220659
 30
0.0
 11
312.89320110842158
 21
419.15186435220659
 31
0.0
  0
LINE
  5
215
  8
DETAIL
  6
CONTINUOUS
 62
     5
 10
260.17749874386391
 20
424.95359250576251
 30
0.0
 11
260.17749874386209
 21
-424.95359250576172
 31
0.0
  0
LINE
  5
216
  8
DETAIL
  6
CONTINUOUS
 62
     5
 10
245.22146457167759
 20
433.7016714170295
 30
0.0
 11
245.78391327367169
 21
433.33792452030309
 31
0.0
  0
LINE
  5
217
  8
DETAIL
  6
CONTINUOUS
 62
     5
 10
245.78391327367169
 20
433.33792452030309
 30
0.0
 11
246.3141952654095
 21
432.9425455765612
 31
0.0
  0
LINE
  5
218
  8
DETAIL
  6
CONTINUOUS
 62
     5
 10
247.8873981938068
 20
431.36934752772657
 30
0.0
 11
248.2827425729464
 21
430.83912268679859
 31
0.0
  0
LINE
  5
219
  8
DETAIL
  6
CONTINUOUS
 62
     5
 10
248.2827425729464
 20
430.83912268679859
 30
0.0
 11
248.64644628241871
 21
430.27675826542492
 31
0.0
  0
LINE
  5
21A
  8
DETAIL
  6
CONTINUOUS
 62
     5
 10
248.64644628241871
 20
430.27675826542492
 30
0.0
 11
248.9747426870581
 21
429.68576344162449
 31
0.0
  0
LINE
  5
21B
  8
DETAIL
  6
CONTINUOUS
 62
     5
 10
248.9747426870581
 20
429.68576344162449
 30
0.0
 11
249.26421314286381
 21
429.0701014137519
 31
0.0
  0
LINE
  5
21C
  8
DETAIL
  6
CONTINUOUS
 62
     5
 10
249.26421314286381
 20
429.0701014137519
 30
0.0
 11
249.51184386931891
 21
428.43415262457142
 31
0.0
  0
LINE
  5
21D
  8
DETAIL
  6
CONTINUOUS
 62
     5
 10
249.51184386931891
 20
428.43415262457142
 30
0.0
 11
249.715266718631
 21
427.78270057595358
 31
0.0
  0
LINE
  5
21E
  8
DETAIL
  6
CONTINUOUS
 62
     5
 10
249.715266718631
 20
427.78270057595358
 30
0.0
 11
249.87334100251971
 21
427.12095933071032
 31
0.0
  0
LINE
  5
21F
  8
DETAIL
  6
CONTINUOUS
 62
     5
 10
249.87334100251971
 20
427.12095933071032
 30
0.0
 11
249.98568218674879
 21
426.45423207250468
 31
0.0
  0
LINE
  5
220
  8
DETAIL
  6
CONTINUOUS
 62
     5
 10
249.98568218674879
 20
426.45423207250468
 30
0.0
 11
250.05248182597461
 21
425.7877497653335
 31
0.0
  0
LINE
  5
221
  8
DETAIL
  6
CONTINUOUS
 62
     5
 10
250.05248182597461
 20
425.7877497653335
 30
0.0
 11
250.0744893769369
 21
425.1266440720064
 31
0.0
  0
LINE
  5
222
  8
DETAIL
  6
CONTINUOUS
 62
     5
 10
246.3141952654095
 20
432.9425455765612
 30
0.0
 11
246.739292148788
 21
432.58314306328242
 31
0.0
  0
LINE
  5
223
  8
DETAIL
  6
CONTINUOUS
 62
     5
 10
246.739292148788
 20
432.58314306328242
 30
0.0
 11
247.14464269995361
 21
432.19975759853872
 31
0.0
  0
LINE
  5
224
  8
DETAIL
  6
CONTINUOUS
 62
     5
 10
247.14464269995361
 20
432.19975759853872
 30
0.0
 11
247.5280275275145
 21
431.79440690481903
 31
0.0
  0
LINE
  5
225
  8
DETAIL
  6
CONTINUOUS
 62
     5
 10
247.5280275275145
 20
431.79440690481903
 30
0.0
 11
247.8873981938068
 21
431.36934752772657
 31
0.0
  0
LINE
  5
226
  8
DETAIL
  6
CONTINUOUS
 62
     5
 10
240.07151694538689
 20
435.129611515862
 30
0.0
 11
240.73252608705661
 21
435.10761072191042
 31
0.0
  0
LINE
  5
227
  8
DETAIL
  6
CONTINUOUS
 62
     5
 10
240.73252608705661
 20
435.10761072191042
 30
0.0
 11
241.39891464228629
 21
435.04083050767792
 31
0.0
  0
LINE
  5
228
  8
DETAIL
  6
CONTINUOUS
 62
     5
 10
241.39891464228629
 20
435.04083050767792
 30
0.0
 11
242.06557655734281
 21
434.92851612693988
 31
0.0
  0
LINE
  5
229
  8
DETAIL
  6
CONTINUOUS
 62
     5
 10
242.06557655734281
 20
434.92851612693988
 30
0.0
 11
242.72728169752909
 21
434.77047048036729
 31
0.0
  0
LINE
  5
22A
  8
DETAIL
  6
CONTINUOUS
 62
     5
 10
242.72728169752909
 20
434.77047048036729
 30
0.0
 11
243.37872653289011
 21
434.56707249576709
 31
0.0
  0
LINE
  5
22B
  8
DETAIL
  6
CONTINUOUS
 62
     5
 10
243.37872653289011
 20
434.56707249576709
 30
0.0
 11
244.01469552678461
 21
434.31945710339448
 31
0.0
  0
LINE
  5
22C
  8
DETAIL
  6
CONTINUOUS
 62
     5
 10
244.01469552678461
 20
434.31945710339448
 30
0.0
 11
244.63040275703131
 21
434.02998702079998
 31
0.0
  0
LINE
  5
22D
  8
DETAIL
  6
CONTINUOUS
 62
     5
 10
244.63040275703131
 20
434.02998702079998
 30
0.0
 11
245.22146457167759
 21
433.7016714170295
 31
0.0
  0
LINE
  5
22E
  8
DETAIL
  6
CONTINUOUS
 62
     5
 10
-246.31419526550229
 20
432.9425455765612
 30
0.0
 11
-246.73929214888261
 21
432.58314306328242
 31
0.0
  0
LINE
  5
22F
  8
DETAIL
  6
CONTINUOUS
 62
     5
 10
-246.73929214888261
 20
432.58314306328242
 30
0.0
 11
-247.14464270004649
 21
432.19975759853872
 31
0.0
  0
LINE
  5
230
  8
DETAIL
  6
CONTINUOUS
 62
     5
 10
-247.8873981939013
 20
431.36934752772657
 30
0.0
 11
-248.28274257304111
 21
430.83912268679859
 31
0.0
  0
LINE
  5
231
  8
DETAIL
  6
CONTINUOUS
 62
     5
 10
-248.28274257304111
 20
430.83912268679859
 30
0.0
 11
-248.6464462825115
 21
430.27675826542492
 31
0.0
  0
LINE
  5
232
  8
DETAIL
  6
CONTINUOUS
 62
     5
 10
-248.6464462825115
 20
430.27675826542492
 30
0.0
 11
-248.9747426871526
 21
429.68576344162449
 31
0.0
  0
LINE
  5
233
  8
DETAIL
  6
CONTINUOUS
 62
     5
 10
-248.9747426871526
 20
429.68576344162449
 30
0.0
 11
-249.2642131428583
 21
429.0701014137519
 31
0.0
  0
LINE
  5
234
  8
DETAIL
  6
CONTINUOUS
 62
     5
 10
-249.2642131428583
 20
429.0701014137519
 30
0.0
 11
-249.51184386941341
 21
428.43415262457142
 31
0.0
  0
LINE
  5
235
  8
DETAIL
  6
CONTINUOUS
 62
     5
 10
-249.51184386941341
 20
428.43415262457142
 30
0.0
 11
-249.7152667187238
 21
427.78270057595358
 31
0.0
  0
LINE
  5
236
  8
DETAIL
  6
CONTINUOUS
 62
     5
 10
-249.7152667187238
 20
427.78270057595358
 30
0.0
 11
-249.87334100251419
 21
427.12095933071032
 31
0.0
  0
LINE
  5
237
  8
DETAIL
  6
CONTINUOUS
 62
     5
 10
-249.87334100251419
 20
427.12095933071032
 30
0.0
 11
-249.98568218684341
 21
426.45423207250468
 31
0.0
  0
LINE
  5
238
  8
DETAIL
  6
CONTINUOUS
 62
     5
 10
-249.98568218684341
 20
426.45423207250468
 30
0.0
 11
-250.0524818259691
 21
425.7877497653335
 31
0.0
  0
LINE
  5
239
  8
DETAIL
  6
CONTINUOUS
 62
     5
 10
-250.0524818259691
 20
425.7877497653335
 30
0.0
 11
-250.0744893769315
 21
425.1266440720064
 31
0.0
  0
LINE
  5
23A
  8
DETAIL
  6
CONTINUOUS
 62
     5
 10
-247.14464270004649
 20
432.19975759853872
 30
0.0
 11
-247.528027527609
 21
431.79440690481903
 31
0.0
  0
LINE
  5
23B
  8
DETAIL
  6
CONTINUOUS
 62
     5
 10
-247.528027527609
 20
431.79440690481903
 30
0.0
 11
-247.8873981939013
 21
431.36934752772657
 31
0.0
  0
LINE
  5
23C
  8
DETAIL
  6
CONTINUOUS
 62
     5
 10
240.07151694538689
 20
435.129611515862
 30
0.0
 11
-240.07151694548151
 21
435.129611515862
 31
0.0
  0
LINE
  5
23D
  8
DETAIL
  6
CONTINUOUS
 62
     5
 10
-240.07151694548151
 20
435.129611515862
 30
0.0
 11
-240.7325260871512
 21
435.10761072191042
 31
0.0
  0
LINE
  5
23E
  8
DETAIL
  6
CONTINUOUS
 62
     5
 10
-240.7325260871512
 20
435.10761072191042
 30
0.0
 11
-241.3989146423809
 21
435.04083050767792
 31
0.0
  0
LINE
  5
23F
  8
DETAIL
  6
CONTINUOUS
 62
     5
 10
-241.3989146423809
 20
435.04083050767792
 30
0.0
 11
-242.06557655743561
 21
434.92851612693988
 31
0.0
  0
LINE
  5
240
  8
DETAIL
  6
CONTINUOUS
 62
     5
 10
-242.06557655743561
 20
434.92851612693988
 30
0.0
 11
-242.72728169762189
 21
434.77047048036729
 31
0.0
  0
LINE
  5
241
  8
DETAIL
  6
CONTINUOUS
 62
     5
 10
-242.72728169762189
 20
434.77047048036729
 30
0.0
 11
-243.37872653288471
 21
434.56707249576709
 31
0.0
  0
LINE
  5
242
  8
DETAIL
  6
CONTINUOUS
 62
     5
 10
-243.37872653288471
 20
434.56707249576709
 30
0.0
 11
-244.0146955267773
 21
434.31945710339448
 31
0.0
  0
LINE
  5
243
  8
DETAIL
  6
CONTINUOUS
 62
     5
 10
-244.0146955267773
 20
434.31945710339448
 30
0.0
 11
-244.63040275712399
 21
434.02998702079998
 31
0.0
  0
LINE
  5
244
  8
DETAIL
  6
CONTINUOUS
 62
     5
 10
-244.63040275712399
 20
434.02998702079998
 30
0.0
 11
-245.22146457167031
 21
433.7016714170295
 31
0.0
  0
LINE
  5
245
  8
DETAIL
  6
CONTINUOUS
 62
     5
 10
-245.22146457167031
 20
433.7016714170295
 30
0.0
 11
-245.78391327376619
 21
433.33792452030309
 31
0.0
  0
LINE
  5
246
  8
DETAIL
  6
CONTINUOUS
 62
     5
 10
-245.78391327376619
 20
433.33792452030309
 30
0.0
 11
-246.31419526550229
 21
432.9425455765612
 31
0.0
  0
LINE
  5
247
  8
DETAIL
  6
CONTINUOUS
 62
     5
 10
-250.0744893769315
 20
425.1266440720064
 30
0.0
 11
-250.0744893769315
 21
-425.1266440720064
 31
0.0
  0
LINE
  5
248
  8
DETAIL
  6
CONTINUOUS
 62
     5
 10
250.0744893769369
 20
425.1266440720064
 30
0.0
 11
250.0744893769369
 21
0.0
 31
0.0
  0
ARC
  5
249
  8
DETAIL
  6
CONTINUOUS
 62
     5
 10
283.97885401343592
 20
419.12484419575128
 30
0.0
 40
13.003873447600951
 50
16.30169624204602
 51
90.0
  0
LINE
  5
24A
  8
DETAIL
  6
CONTINUOUS
 62
     5
 10
283.97885401343592
 20
432.1287176433525
 30
0.0
 11
270.24975128479298
 21
432.1287176433525
 31
0.0
  0
ARC
  5
24B
  8
DETAIL
  6
CONTINUOUS
 62
     5
 10
270.24975128479298
 20
426.12692989830339
 30
0.0
 40
6.001787745045486
 50
90.0
 51
180.0
  0
LINE
  5
24C
  8
DETAIL
  6
CONTINUOUS
 62
     5
 10
264.24796353974671
 20
426.12692989731647
 30
0.0
 11
264.2479635397475
 21
-426.12692989830339
 31
0.0
  0
LINE
  5
24E
  8
DETAIL
  6
CONTINUOUS
 62
     5
 10
-180.05363235138969
 20
428.72770458783452
 30
0.0
 11
180.05363235139509
 21
428.72770458783452
 31
0.0
  0
LINE
  5
24F
  8
DETAIL
  6
CONTINUOUS
 62
     5
 10
-180.05363235138969
 20
425.22666173654568
 30
0.0
 11
-180.05363235138969
 21
-428.72770458783452
 31
0.0
  0
LINE
  5
250
  8
DETAIL
  6
CONTINUOUS
 62
     5
 10
180.05363235139509
 20
428.72770458783452
 30
0.0
 11
180.05363235139509
 21
-428.72770458783452
 31
0.0
  0
LINE
  5
251
  8
DETAIL
  6
CONTINUOUS
 62
     5
 10
287.45959874179061
 20
431.65421532031161
 30
0.0
 11
287.45989029896009
 21
427.12722785580797
 31
0.0
  0
LINE
  5
252
  8
DETAIL
  6
CONTINUOUS
 62
     5
 10
290.1172716881465
 20
427.0298345617939
 30
0.0
 11
290.80948098927001
 21
426.77003481895719
 31
0.0
  0
LINE
  5
253
  8
DETAIL
  6
CONTINUOUS
 62
     5
 10
289.35036011255022
 20
427.12722785580797
 30
0.0
 11
290.1172716881465
 21
427.0298345617939
 31
0.0
  0
LINE
  5
254
  8
DETAIL
  6
CONTINUOUS
 62
     5
 10
289.35036011255022
 20
427.12722785580797
 30
0.0
 11
270.42398019331807
 21
427.12722785580797
 31
0.0
  0
LINE
  5
255
  8
DETAIL
  6
CONTINUOUS
 62
     5
 10
270.4239704197098
 20
427.12722785580797
 30
0.0
 11
270.42398019331807
 21
-427.12722785580797
 31
0.0
  0
LINE
  5
256
  8
DETAIL
  6
CONTINUOUS
 62
     5
 10
277.49692264218169
 20
432.1287176433525
 30
0.0
 11
277.49692264218169
 21
427.12722785580797
 31
0.0
  0
LINE
  5
257
  8
DETAIL
  6
CONTINUOUS
 62
     5
 10
298.88776751652409
 20
419.16859384177383
 30
0.0
 11
298.88649071510559
 21
-419.18169698002561
 31
0.0
  0
LINE
  5
258
  8
DETAIL
  6
CONTINUOUS
 62
     5
 10
298.83143491150082
 20
419.74670559813592
 30
0.0
 11
298.88649071510559
 21
419.18169698002561
 31
0.0
  0
LINE
  5
259
  8
DETAIL
  6
CONTINUOUS
 62
     5
 10
298.70727460372473
 20
420.24257266244962
 30
0.0
 11
298.83143491150082
 21
419.74670559813592
 31
0.0
  0
LINE
  5
25A
  8
DETAIL
  6
CONTINUOUS
 62
     5
 10
298.52930961871601
 20
420.67521550633683
 30
0.0
 11
298.70727460372473
 21
420.24257266244962
 31
0.0
  0
LINE
  5
25B
  8
DETAIL
  6
CONTINUOUS
 62
     5
 10
291.98966141894562
 20
425.90472372982521
 30
0.0
 11
292.48836289713472
 21
425.3461559893492
 31
0.0
  0
LINE
  5
25C
  8
DETAIL
  6
CONTINUOUS
 62
     5
 10
291.43181428691418
 20
426.38588386449368
 30
0.0
 11
291.98966141894562
 21
425.90472372982521
 31
0.0
  0
LINE
  5
25D
  8
DETAIL
  6
CONTINUOUS
 62
     5
 10
290.80948098927001
 20
426.77003481895719
 30
0.0
 11
291.43181428691418
 21
426.38588386449368
 31
0.0
  0
LINE
  5
25E
  8
DETAIL
  6
CONTINUOUS
 62
     5
 10
292.93304713567522
 20
424.72336497237109
 30
0.0
 11
294.4226579920068
 21
423.99303397718171
 31
0.0
  0
LINE
  5
25F
  8
DETAIL
  6
CONTINUOUS
 62
     5
 10
292.48836289713472
 20
425.3461559893492
 30
0.0
 11
292.93304713567522
 21
424.7233518493648
 31
0.0
  0
LINE
  5
260
  8
DETAIL
  6
CONTINUOUS
 62
     5
 10
294.4226579920068
 20
423.99303397718171
 30
0.0
 11
295.73062413575462
 21
423.2270457333106
 31
0.0
  0
LINE
  5
261
  8
DETAIL
  6
CONTINUOUS
 62
     5
 10
298.31091485714018
 20
421.05029040111532
 30
0.0
 11
298.52930961871601
 21
420.67521550633683
 31
0.0
  0
LINE
  5
262
  8
DETAIL
  6
CONTINUOUS
 62
     5
 10
298.06810648191077
 20
421.36753593434872
 30
0.0
 11
298.31091485714018
 21
421.05029040111532
 31
0.0
  0
LINE
  5
263
  8
DETAIL
  6
CONTINUOUS
 62
     5
 10
297.81720013435
 20
421.6283550716177
 30
0.0
 11
298.06810648191077
 21
421.36753593434872
 31
0.0
  0
LINE
  5
264
  8
DETAIL
  6
CONTINUOUS
 62
     5
 10
296.86027156652921
 20
422.43676360286003
 30
0.0
 11
297.81720013435
 21
421.6283550716177
 31
0.0
  0
LINE
  5
265
  8
DETAIL
  6
CONTINUOUS
 62
     5
 10
295.73062413575462
 20
423.2270457333106
 30
0.0
 11
296.86027156652921
 21
422.43676360286003
 31
0.0
  0
LINE
  5
266
  8
DETAIL
  6
CONTINUOUS
 62
     5
 10
-291.11234180961759
 20
436.19411494227279
 30
0.0
 11
-286.53534885056791
 21
436.45701901710709
 31
0.0
  0
LINE
  5
267
  8
DETAIL
  6
CONTINUOUS
 62
     5
 10
-295.55026517915212
 20
435.41339068021961
 30
0.0
 11
-291.11234180961759
 21
436.19411494227279
 31
0.0
  0
LINE
  5
268
  8
DETAIL
  6
CONTINUOUS
 62
     5
 10
-299.71427489629599
 20
434.13856814380961
 30
0.0
 11
-295.55026517915212
 21
435.41339068021961
 31
0.0
  0
LINE
  5
269
  8
DETAIL
  6
CONTINUOUS
 62
     5
 10
-303.4778496263279
 20
432.408382172747
 30
0.0
 11
-299.71427489629599
 21
434.13856814380961
 31
0.0
  0
LINE
  5
26A
  8
DETAIL
  6
CONTINUOUS
 62
     5
 10
-306.72663504960832
 20
430.27540359493651
 30
0.0
 11
-303.4778496263279
 21
432.408382172747
 31
0.0
  0
LINE
  5
26B
  8
DETAIL
  6
CONTINUOUS
 62
     5
 10
-309.36191845990282
 20
427.80444188850919
 30
0.0
 11
-306.72663504960832
 21
430.27540359493651
 31
0.0
  0
LINE
  5
26C
  8
DETAIL
  6
CONTINUOUS
 62
     5
 10
-311.30362810015498
 20
425.07057597842311
 30
0.0
 11
-309.36191845990282
 21
427.80444188850919
 31
0.0
  0
LINE
  5
26D
  8
DETAIL
  6
CONTINUOUS
 62
     5
 10
-312.49276610243942
 20
422.15687300128951
 30
0.0
 11
-311.30362810015498
 21
425.07057597842311
 31
0.0
  0
LINE
  5
26E
  8
DETAIL
  6
CONTINUOUS
 62
     5
 10
-312.89320110842158
 20
419.15186435220659
 30
0.0
 11
-312.49276610243942
 21
422.15687300128951
 31
0.0
  0
ARC
  5
26F
  8
DETAIL
  6
CONTINUOUS
 62
     5
 10
-271.68092525520109
 20
424.95359250576172
 30
0.0
 40
11.503426511338949
 50
0.0
 51
90.0
  0
LINE
  5
270
  8
DETAIL
  6
CONTINUOUS
 62
     5
 10
-286.5353510853929
 20
436.45701901710709
 30
0.0
 11
-271.68092525520291
 21
436.45701901710709
 31
0.0
  0
LINE
  5
272
  8
DETAIL
  6
CONTINUOUS
 62
     5
 10
-260.17749874386391
 20
424.95359250576251
 30
0.0
 11
-260.17749874386209
 21
-424.95359250576172
 31
0.0
  0
ARC
  5
273
  8
DETAIL
  6
CONTINUOUS
 62
     5
 10
-283.97885401343592
 20
419.12484419575128
 30
0.0
 40
13.003873447600951
 50
90.0
 51
163.69830375795391
  0
LINE
  5
274
  8
DETAIL
  6
CONTINUOUS
 62
     5
 10
-283.97885401343592
 20
432.1287176433525
 30
0.0
 11
-270.24975128479298
 21
432.1287176433525
 31
0.0
  0
ARC
  5
275
  8
DETAIL
  6
CONTINUOUS
 62
     5
 10
-270.24975128479298
 20
426.12692989830339
 30
0.0
 40
6.001787745045486
 50
0.0
 51
90.0
  0
LINE
  5
276
  8
DETAIL
  6
CONTINUOUS
 62
     5
 10
-264.24796353974671
 20
426.12692989731647
 30
0.0
 11
-264.2479635397475
 21
-426.12692989830339
 31
0.0
  0
LINE
  5
277
  8
DETAIL
  6
CONTINUOUS
 62
     5
 10
-287.45959874179061
 20
431.65421532031161
 30
0.0
 11
-287.45989029896009
 21
427.12722785580797
 31
0.0
  0
LINE
  5
278
  8
DETAIL
  6
CONTINUOUS
 62
     5
 10
-290.1172716881465
 20
427.0298345617939
 30
0.0
 11
-290.80948098927001
 21
426.77003481895719
 31
0.0
  0
LINE
  5
279
  8
DETAIL
  6
CONTINUOUS
 62
     5
 10
-289.35036011255022
 20
427.12722785580797
 30
0.0
 11
-290.1172716881465
 21
427.0298345617939
 31
0.0
  0
LINE
  5
27A
  8
DETAIL
  6
CONTINUOUS
 62
     5
 10
-289.35036011255022
 20
427.12722785580797
 30
0.0
 11
-270.42398019331807
 21
427.12722785580797
 31
0.0
  0
LINE
  5
27B
  8
DETAIL
  6
CONTINUOUS
 62
     5
 10
-270.4239704197098
 20
427.12722785580797
 30
0.0
 11
-270.42398019331807
 21
-427.12722785580797
 31
0.0
  0
LINE
  5
27C
  8
DETAIL
  6
CONTINUOUS
 62
     5
 10
-277.49692264218169
 20
432.1287176433525
 30
0.0
 11
-277.49692264218169
 21
427.12722785580797
 31
0.0
  0
LINE
  5
27D
  8
DETAIL
  6
CONTINUOUS
 62
     5
 10
-298.88776751652409
 20
419.16859384177383
 30
0.0
 11
-298.88649071510559
 21
-419.18169698002561
 31
0.0
  0
LINE
  5
27E
  8
DETAIL
  6
CONTINUOUS
 62
     5
 10
-298.83143491150082
 20
419.74670559813592
 30
0.0
 11
-298.88649071510559
 21
419.18169698002561
 31
0.0
  0
LINE
  5
27F
  8
DETAIL
  6
CONTINUOUS
 62
     5
 10
-298.70727460372473
 20
420.24257266244962
 30
0.0
 11
-298.83143491150082
 21
419.74670559813592
 31
0.0
  0
LINE
  5
280
  8
DETAIL
  6
CONTINUOUS
 62
     5
 10
-298.52930961871601
 20
420.67521550633683
 30
0.0
 11
-298.70727460372473
 21
420.24257266244962
 31
0.0
  0
LINE
  5
281
  8
DETAIL
  6
CONTINUOUS
 62
     5
 10
-291.98966141894562
 20
425.90472372982521
 30
0.0
 11
-292.48836289713472
 21
425.3461559893492
 31
0.0
  0
LINE
  5
282
  8
DETAIL
  6
CONTINUOUS
 62
     5
 10
-291.43181428691418
 20
426.38588386449368
 30
0.0
 11
-291.98966141894562
 21
425.90472372982521
 31
0.0
  0
LINE
  5
283
  8
DETAIL
  6
CONTINUOUS
 62
     5
 10
-290.80948098927001
 20
426.77003481895719
 30
0.0
 11
-291.43181428691418
 21
426.38588386449368
 31
0.0
  0
LINE
  5
284
  8
DETAIL
  6
CONTINUOUS
 62
     5
 10
-292.93304713567522
 20
424.72336497237109
 30
0.0
 11
-294.4226579920068
 21
423.99303397718171
 31
0.0
  0
LINE
  5
285
  8
DETAIL
  6
CONTINUOUS
 62
     5
 10
-292.48836289713472
 20
425.3461559893492
 30
0.0
 11
-292.93304713567522
 21
424.7233518493648
 31
0.0
  0
LINE
  5
286
  8
DETAIL
  6
CONTINUOUS
 62
     5
 10
-294.4226579920068
 20
423.99303397718171
 30
0.0
 11
-295.73062413575462
 21
423.2270457333106
 31
0.0
  0
LINE
  5
287
  8
DETAIL
  6
CONTINUOUS
 62
     5
 10
-298.31091485714018
 20
421.05029040111532
 30
0.0
 11
-298.52930961871601
 21
420.67521550633683
 31
0.0
  0
LINE
  5
288
  8
DETAIL
  6
CONTINUOUS
 62
     5
 10
-298.06810648191077
 20
421.36753593434872
 30
0.0
 11
-298.31091485714018
 21
421.05029040111532
 31
0.0
  0
LINE
  5
289
  8
DETAIL
  6
CONTINUOUS
 62
     5
 10
-297.81720013435
 20
421.6283550716177
 30
0.0
 11
-298.06810648191077
 21
421.36753593434872
 31
0.0
  0
LINE
  5
28A
  8
DETAIL
  6
CONTINUOUS
 62
     5
 10
-296.86027156652921
 20
422.43676360286003
 30
0.0
 11
-297.81720013435
 21
421.6283550716177
 31
0.0
  0
LINE
  5
28B
  8
DETAIL
  6
CONTINUOUS
 62
     5
 10
-295.73062413575462
 20
423.2270457333106
 30
0.0
 11
-296.86027156652921
 21
422.43676360286003
 31
0.0
  0
LINE
  5
28C
  8
DETAIL
  6
CONTINUOUS
 62
     5
 10
291.11234180961759
 20
-436.19411494227279
 30
0.0
 11
286.53534885056791
 21
-436.45701901710709
 31
0.0
  0
LINE
  5
28D
  8
DETAIL
  6
CONTINUOUS
 62
     5
 10
295.55026517915212
 20
-435.41339068021961
 30
0.0
 11
291.11234180961759
 21
-436.19411494227279
 31
0.0
  0
LINE
  5
28E
  8
DETAIL
  6
CONTINUOUS
 62
     5
 10
299.71427489629599
 20
-434.13856814380961
 30
0.0
 11
295.55026517915212
 21
-435.41339068021961
 31
0.0
  0
LINE
  5
28F
  8
DETAIL
  6
CONTINUOUS
 62
     5
 10
303.4778496263279
 20
-432.408382172747
 30
0.0
 11
299.71427489629599
 21
-434.13856814380961
 31
0.0
  0
LINE
  5
290
  8
DETAIL
  6
CONTINUOUS
 62
     5
 10
306.72663504960832
 20
-430.27540359493651
 30
0.0
 11
303.4778496263279
 21
-432.408382172747
 31
0.0
  0
LINE
  5
291
  8
DETAIL
  6
CONTINUOUS
 62
     5
 10
309.36191845990282
 20
-427.80444188850919
 30
0.0
 11
306.72663504960832
 21
-430.27540359493651
 31
0.0
  0
LINE
  5
292
  8
DETAIL
  6
CONTINUOUS
 62
     5
 10
311.30362810015498
 20
-425.07057597842311
 30
0.0
 11
309.36191845990282
 21
-427.80444188850919
 31
0.0
  0
LINE
  5
293
  8
DETAIL
  6
CONTINUOUS
 62
     5
 10
312.49276610243942
 20
-422.15687300128951
 30
0.0
 11
311.30362810015498
 21
-425.07057597842311
 31
0.0
  0
LINE
  5
294
  8
DETAIL
  6
CONTINUOUS
 62
     5
 10
312.89320110842158
 20
-419.15186435220659
 30
0.0
 11
312.49276610243942
 21
-422.15687300128951
 31
0.0
  0
LINE
  5
297
  8
DETAIL
  6
CONTINUOUS
 62
     5
 10
180.05363235139509
 20
-305.63467668310477
 30
0.0
 11
208.06197516161041
 21
-305.63467668310477
 31
0.0
  0
LINE
  5
298
  8
DETAIL
  6
CONTINUOUS
 62
     5
 10
-180.05363235138969
 20
-305.63467668310477
 30
0.0
 11
-208.0622505683404
 21
-305.63467668310477
 31
0.0
  0
ARC
  5
299
  8
DETAIL
  6
CONTINUOUS
 62
     5
 10
271.68092525520109
 20
-424.95359250576172
 30
0.0
 40
11.503426511338949
 50
180.0
 51
270.0
  0
LINE
  5
29A
  8
DETAIL
  6
CONTINUOUS
 62
     5
 10
286.5353510853929
 20
-436.45701901710709
 30
0.0
 11
271.68092525520291
 21
-436.45701901710709
 31
0.0
  0
LINE
  5
29D
  8
DETAIL
  6
CONTINUOUS
 62
     5
 10
245.22146457167759
 20
-433.7016714170295
 30
0.0
 11
245.78391327367169
 21
-433.33792452030309
 31
0.0
  0
LINE
  5
29E
  8
DETAIL
  6
CONTINUOUS
 62
     5
 10
245.78391327367169
 20
-433.33792452030309
 30
0.0
 11
246.3141952654095
 21
-432.9425455765612
 31
0.0
  0
LINE
  5
29F
  8
DETAIL
  6
CONTINUOUS
 62
     5
 10
247.8873981938068
 20
-431.36934752772657
 30
0.0
 11
248.2827425729464
 21
-430.83912268679859
 31
0.0
  0
LINE
  5
2A0
  8
DETAIL
  6
CONTINUOUS
 62
     5
 10
248.2827425729464
 20
-430.83912268679859
 30
0.0
 11
248.64644628241871
 21
-430.27675826542492
 31
0.0
  0
LINE
  5
2A1
  8
DETAIL
  6
CONTINUOUS
 62
     5
 10
248.64644628241871
 20
-430.27675826542492
 30
0.0
 11
248.9747426870581
 21
-429.68576344162449
 31
0.0
  0
LINE
  5
2A2
  8
DETAIL
  6
CONTINUOUS
 62
     5
 10
248.9747426870581
 20
-429.68576344162449
 30
0.0
 11
249.26421314286381
 21
-429.0701014137519
 31
0.0
  0
LINE
  5
2A3
  8
DETAIL
  6
CONTINUOUS
 62
     5
 10
249.26421314286381
 20
-429.0701014137519
 30
0.0
 11
249.51184386931891
 21
-428.43415262457142
 31
0.0
  0
LINE
  5
2A4
  8
DETAIL
  6
CONTINUOUS
 62
     5
 10
249.51184386931891
 20
-428.43415262457142
 30
0.0
 11
249.715266718631
 21
-427.78270057595358
 31
0.0
  0
LINE
  5
2A5
  8
DETAIL
  6
CONTINUOUS
 62
     5
 10
249.715266718631
 20
-427.78270057595358
 30
0.0
 11
249.87334100251971
 21
-427.12095933071032
 31
0.0
  0
LINE
  5
2A6
  8
DETAIL
  6
CONTINUOUS
 62
     5
 10
249.87334100251971
 20
-427.12095933071032
 30
0.0
 11
249.98568218674879
 21
-426.45423207250468
 31
0.0
  0
LINE
  5
2A7
  8
DETAIL
  6
CONTINUOUS
 62
     5
 10
249.98568218674879
 20
-426.45423207250468
 30
0.0
 11
250.05248182597461
 21
-425.7877497653335
 31
0.0
  0
LINE
  5
2A8
  8
DETAIL
  6
CONTINUOUS
 62
     5
 10
250.05248182597461
 20
-425.7877497653335
 30
0.0
 11
250.0744893769369
 21
-425.1266440720064
 31
0.0
  0
LINE
  5
2A9
  8
DETAIL
  6
CONTINUOUS
 62
     5
 10
246.3141952654095
 20
-432.9425455765612
 30
0.0
 11
246.739292148788
 21
-432.58314306328242
 31
0.0
  0
LINE
  5
2AA
  8
DETAIL
  6
CONTINUOUS
 62
     5
 10
246.739292148788
 20
-432.58314306328242
 30
0.0
 11
247.14464269995361
 21
-432.19975759853872
 31
0.0
  0
LINE
  5
2AB
  8
DETAIL
  6
CONTINUOUS
 62
     5
 10
247.14464269995361
 20
-432.19975759853872
 30
0.0
 11
247.5280275275145
 21
-431.79440690481903
 31
0.0
  0
LINE
  5
2AC
  8
DETAIL
  6
CONTINUOUS
 62
     5
 10
247.5280275275145
 20
-431.79440690481903
 30
0.0
 11
247.8873981938068
 21
-431.36934752772657
 31
0.0
  0
LINE
  5
2AD
  8
DETAIL
  6
CONTINUOUS
 62
     5
 10
240.07151694538689
 20
-435.129611515862
 30
0.0
 11
240.73252608705661
 21
-435.10761072191042
 31
0.0
  0
LINE
  5
2AE
  8
DETAIL
  6
CONTINUOUS
 62
     5
 10
240.73252608705661
 20
-435.10761072191042
 30
0.0
 11
241.39891464228629
 21
-435.04083050767792
 31
0.0
  0
LINE
  5
2AF
  8
DETAIL
  6
CONTINUOUS
 62
     5
 10
241.39891464228629
 20
-435.04083050767792
 30
0.0
 11
242.06557655734281
 21
-434.92851612693988
 31
0.0
  0
LINE
  5
2B0
  8
DETAIL
  6
CONTINUOUS
 62
     5
 10
242.06557655734281
 20
-434.92851612693988
 30
0.0
 11
242.72728169752909
 21
-434.77047048036729
 31
0.0
  0
LINE
  5
2B1
  8
DETAIL
  6
CONTINUOUS
 62
     5
 10
242.72728169752909
 20
-434.77047048036729
 30
0.0
 11
243.37872653289011
 21
-434.56707249576709
 31
0.0
  0
LINE
  5
2B2
  8
DETAIL
  6
CONTINUOUS
 62
     5
 10
243.37872653289011
 20
-434.56707249576709
 30
0.0
 11
244.01469552678461
 21
-434.31945710339448
 31
0.0
  0
LINE
  5
2B3
  8
DETAIL
  6
CONTINUOUS
 62
     5
 10
244.01469552678461
 20
-434.31945710339448
 30
0.0
 11
244.63040275703131
 21
-434.02998702079998
 31
0.0
  0
LINE
  5
2B4
  8
DETAIL
  6
CONTINUOUS
 62
     5
 10
244.63040275703131
 20
-434.02998702079998
 30
0.0
 11
245.22146457167759
 21
-433.7016714170295
 31
0.0
  0
LINE
  5
2B5
  8
DETAIL
  6
CONTINUOUS
 62
     5
 10
-246.31419526550229
 20
-432.9425455765612
 30
0.0
 11
-246.73929214888261
 21
-432.58314306328242
 31
0.0
  0
LINE
  5
2B6
  8
DETAIL
  6
CONTINUOUS
 62
     5
 10
-246.73929214888261
 20
-432.58314306328242
 30
0.0
 11
-247.14464270004649
 21
-432.19975759853872
 31
0.0
  0
LINE
  5
2B7
  8
DETAIL
  6
CONTINUOUS
 62
     5
 10
-247.8873981939013
 20
-431.36934752772657
 30
0.0
 11
-248.28274257304111
 21
-430.83912268679859
 31
0.0
  0
LINE
  5
2B8
  8
DETAIL
  6
CONTINUOUS
 62
     5
 10
-248.28274257304111
 20
-430.83912268679859
 30
0.0
 11
-248.6464462825115
 21
-430.27675826542492
 31
0.0
  0
LINE
  5
2B9
  8
DETAIL
  6
CONTINUOUS
 62
     5
 10
-248.6464462825115
 20
-430.27675826542492
 30
0.0
 11
-248.9747426871526
 21
-429.68576344162449
 31
0.0
  0
LINE
  5
2BA
  8
DETAIL
  6
CONTINUOUS
 62
     5
 10
-248.9747426871526
 20
-429.68576344162449
 30
0.0
 11
-249.2642131428583
 21
-429.0701014137519
 31
0.0
  0
LINE
  5
2BB
  8
DETAIL
  6
CONTINUOUS
 62
     5
 10
-249.2642131428583
 20
-429.0701014137519
 30
0.0
 11
-249.51184386941341
 21
-428.43415262457142
 31
0.0
  0
LINE
  5
2BC
  8
DETAIL
  6
CONTINUOUS
 62
     5
 10
-249.51184386941341
 20
-428.43415262457142
 30
0.0
 11
-249.7152667187238
 21
-427.78270057595358
 31
0.0
  0
LINE
  5
2BD
  8
DETAIL
  6
CONTINUOUS
 62
     5
 10
-249.7152667187238
 20
-427.78270057595358
 30
0.0
 11
-249.87334100251419
 21
-427.12095933071032
 31
0.0
  0
LINE
  5
2BE
  8
DETAIL
  6
CONTINUOUS
 62
     5
 10
-249.87334100251419
 20
-427.12095933071032
 30
0.0
 11
-249.98568218684341
 21
-426.45423207250468
 31
0.0
  0
LINE
  5
2BF
  8
DETAIL
  6
CONTINUOUS
 62
     5
 10
-249.98568218684341
 20
-426.45423207250468
 30
0.0
 11
-250.0524818259691
 21
-425.7877497653335
 31
0.0
  0
LINE
  5
2C0
  8
DETAIL
  6
CONTINUOUS
 62
     5
 10
-250.0524818259691
 20
-425.7877497653335
 30
0.0
 11
-250.0744893769315
 21
-425.1266440720064
 31
0.0
  0
LINE
  5
2C1
  8
DETAIL
  6
CONTINUOUS
 62
     5
 10
-247.14464270004649
 20
-432.19975759853872
 30
0.0
 11
-247.528027527609
 21
-431.79440690481903
 31
0.0
  0
LINE
  5
2C2
  8
DETAIL
  6
CONTINUOUS
 62
     5
 10
-247.528027527609
 20
-431.79440690481903
 30
0.0
 11
-247.8873981939013
 21
-431.36934752772657
 31
0.0
  0
LINE
  5
2C3
  8
DETAIL
  6
CONTINUOUS
 62
     5
 10
240.07151694538689
 20
-435.129611515862
 30
0.0
 11
-240.07151694548151
 21
-435.129611515862
 31
0.0
  0
LINE
  5
2C4
  8
DETAIL
  6
CONTINUOUS
 62
     5
 10
-240.07151694548151
 20
-435.129611515862
 30
0.0
 11
-240.7325260871512
 21
-435.10761072191042
 31
0.0
  0
LINE
  5
2C5
  8
DETAIL
  6
CONTINUOUS
 62
     5
 10
-240.7325260871512
 20
-435.10761072191042
 30
0.0
 11
-241.3989146423809
 21
-435.04083050767792
 31
0.0
  0
LINE
  5
2C6
  8
DETAIL
  6
CONTINUOUS
 62
     5
 10
-241.3989146423809
 20
-435.04083050767792
 30
0.0
 11
-242.06557655743561
 21
-434.92851612693988
 31
0.0
  0
LINE
  5
2C7
  8
DETAIL
  6
CONTINUOUS
 62
     5
 10
-242.06557655743561
 20
-434.92851612693988
 30
0.0
 11
-242.72728169762189
 21
-434.77047048036729
 31
0.0
  0
LINE
  5
2C8
  8
DETAIL
  6
CONTINUOUS
 62
     5
 10
-242.72728169762189
 20
-434.77047048036729
 30
0.0
 11
-243.37872653288471
 21
-434.56707249576709
 31
0.0
  0
LINE
  5
2C9
  8
DETAIL
  6
CONTINUOUS
 62
     5
 10
-243.37872653288471
 20
-434.56707249576709
 30
0.0
 11
-244.0146955267773
 21
-434.31945710339448
 31
0.0
  0
LINE
  5
2CA
  8
DETAIL
  6
CONTINUOUS
 62
     5
 10
-244.0146955267773
 20
-434.31945710339448
 30
0.0
 11
-244.63040275712399
 21
-434.02998702079998
 31
0.0
  0
LINE
  5
2CB
  8
DETAIL
  6
CONTINUOUS
 62
     5
 10
-244.63040275712399
 20
-434.02998702079998
 30
0.0
 11
-245.22146457167031
 21
-433.7016714170295
 31
0.0
  0
LINE
  5
2CC
  8
DETAIL
  6
CONTINUOUS
 62
     5
 10
-245.22146457167031
 20
-433.7016714170295
 30
0.0
 11
-245.78391327376619
 21
-433.33792452030309
 31
0.0
  0
LINE
  5
2CD
  8
DETAIL
  6
CONTINUOUS
 62
     5
 10
-245.78391327376619
 20
-433.33792452030309
 30
0.0
 11
-246.31419526550229
 21
-432.9425455765612
 31
0.0
  0
LINE
  5
2CF
  8
DETAIL
  6
CONTINUOUS
 62
     5
 10
250.0744893769369
 20
-425.1266440720064
 30
0.0
 11
250.0744893769369
 21
0.0
 31
0.0
  0
ARC
  5
2D0
  8
DETAIL
  6
CONTINUOUS
 62
     5
 10
283.97885401343592
 20
-419.12484419575128
 30
0.0
 40
13.003873447600951
 50
270.0
 51
343.69830375795402
  0
LINE
  5
2D1
  8
DETAIL
  6
CONTINUOUS
 62
     5
 10
283.97885401343592
 20
-432.1287176433525
 30
0.0
 11
270.24975128479298
 21
-432.1287176433525
 31
0.0
  0
ARC
  5
2D2
  8
DETAIL
  6
CONTINUOUS
 62
     5
 10
270.24975128479298
 20
-426.12692989830339
 30
0.0
 40
6.001787745045486
 50
180.0
 51
270.0
  0
LINE
  5
2D5
  8
DETAIL
  6
CONTINUOUS
 62
     5
 10
-180.05363235138969
 20
-428.72770458783452
 30
0.0
 11
180.05363235139509
 21
-428.72770458783452
 31
0.0
  0
LINE
  5
2D8
  8
DETAIL
  6
CONTINUOUS
 62
     5
 10
287.45959874179061
 20
-431.65421532031161
 30
0.0
 11
287.45989029896009
 21
-427.12722785580797
 31
0.0
  0
LINE
  5
2D9
  8
DETAIL
  6
CONTINUOUS
 62
     5
 10
290.1172716881465
 20
-427.0298345617939
 30
0.0
 11
290.80948098927001
 21
-426.77003481895719
 31
0.0
  0
LINE
  5
2DA
  8
DETAIL
  6
CONTINUOUS
 62
     5
 10
289.35036011255022
 20
-427.12722785580797
 30
0.0
 11
290.1172716881465
 21
-427.0298345617939
 31
0.0
  0
LINE
  5
2DB
  8
DETAIL
  6
CONTINUOUS
 62
     5
 10
289.35036011255022
 20
-427.12722785580797
 30
0.0
 11
270.42398019331807
 21
-427.12722785580797
 31
0.0
  0
LINE
  5
2DD
  8
DETAIL
  6
CONTINUOUS
 62
     5
 10
277.49692264218169
 20
-432.1287176433525
 30
0.0
 11
277.49692264218169
 21
-427.12722785580797
 31
0.0
  0
LINE
  5
2DF
  8
DETAIL
  6
CONTINUOUS
 62
     5
 10
298.83143491150082
 20
-419.74670559813592
 30
0.0
 11
298.88649071510559
 21
-419.18169698002561
 31
0.0
  0
LINE
  5
2E0
  8
DETAIL
  6
CONTINUOUS
 62
     5
 10
298.70727460372473
 20
-420.24257266244962
 30
0.0
 11
298.83143491150082
 21
-419.74670559813592
 31
0.0
  0
LINE
  5
2E1
  8
DETAIL
  6
CONTINUOUS
 62
     5
 10
298.52930961871601
 20
-420.67521550633683
 30
0.0
 11
298.70727460372473
 21
-420.24257266244962
 31
0.0
  0
LINE
  5
2E2
  8
DETAIL
  6
CONTINUOUS
 62
     5
 10
291.98966141894562
 20
-425.90472372982521
 30
0.0
 11
292.48836289713472
 21
-425.3461559893492
 31
0.0
  0
LINE
  5
2E3
  8
DETAIL
  6
CONTINUOUS
 62
     5
 10
291.43181428691418
 20
-426.38588386449368
 30
0.0
 11
291.98966141894562
 21
-425.90472372982521
 31
0.0
  0
LINE
  5
2E4
  8
DETAIL
  6
CONTINUOUS
 62
     5
 10
290.80948098927001
 20
-426.77003481895719
 30
0.0
 11
291.43181428691418
 21
-426.38588386449368
 31
0.0
  0
LINE
  5
2E5
  8
DETAIL
  6
CONTINUOUS
 62
     5
 10
292.93304713567522
 20
-424.72336497237109
 30
0.0
 11
294.4226579920068
 21
-423.99303397718171
 31
0.0
  0
LINE
  5
2E6
  8
DETAIL
  6
CONTINUOUS
 62
     5
 10
292.48836289713472
 20
-425.3461559893492
 30
0.0
 11
292.93304713567522
 21
-424.7233518493648
 31
0.0
  0
LINE
  5
2E7
  8
DETAIL
  6
CONTINUOUS
 62
     5
 10
294.4226579920068
 20
-423.99303397718171
 30
0.0
 11
295.73062413575462
 21
-423.2270457333106
 31
0.0
  0
LINE
  5
2E8
  8
DETAIL
  6
CONTINUOUS
 62
     5
 10
298.31091485714018
 20
-421.05029040111532
 30
0.0
 11
298.52930961871601
 21
-420.67521550633683
 31
0.0
  0
LINE
  5
2E9
  8
DETAIL
  6
CONTINUOUS
 62
     5
 10
298.06810648191077
 20
-421.36753593434872
 30
0.0
 11
298.31091485714018
 21
-421.05029040111532
 31
0.0
  0
LINE
  5
2EA
  8
DETAIL
  6
CONTINUOUS
 62
     5
 10
297.81720013435
 20
-421.6283550716177
 30
0.0
 11
298.06810648191077
 21
-421.36753593434872
 31
0.0
  0
LINE
  5
2EB
  8
DETAIL
  6
CONTINUOUS
 62
     5
 10
296.86027156652921
 20
-422.43676360286003
 30
0.0
 11
297.81720013435
 21
-421.6283550716177
 31
0.0
  0
LINE
  5
2EC
  8
DETAIL
  6
CONTINUOUS
 62
     5
 10
295.73062413575462
 20
-423.2270457333106
 30
0.0
 11
296.86027156652921
 21
-422.43676360286003
 31
0.0
  0
LINE
  5
2ED
  8
DETAIL
  6
CONTINUOUS
 62
     5
 10
-291.11234180961759
 20
-436.19411494227279
 30
0.0
 11
-286.53534885056791
 21
-436.45701901710709
 31
0.0
  0
LINE
  5
2EE
  8
DETAIL
  6
CONTINUOUS
 62
     5
 10
-295.55026517915212
 20
-435.41339068021961
 30
0.0
 11
-291.11234180961759
 21
-436.19411494227279
 31
0.0
  0
LINE
  5
2EF
  8
DETAIL
  6
CONTINUOUS
 62
     5
 10
-299.71427489629599
 20
-434.13856814380961
 30
0.0
 11
-295.55026517915212
 21
-435.41339068021961
 31
0.0
  0
LINE
  5
2F0
  8
DETAIL
  6
CONTINUOUS
 62
     5
 10
-303.4778496263279
 20
-432.408382172747
 30
0.0
 11
-299.71427489629599
 21
-434.13856814380961
 31
0.0
  0
LINE
  5
2F1
  8
DETAIL
  6
CONTINUOUS
 62
     5
 10
-306.72663504960832
 20
-430.27540359493651
 30
0.0
 11
-303.4778496263279
 21
-432.408382172747
 31
0.0
  0
LINE
  5
2F2
  8
DETAIL
  6
CONTINUOUS
 62
     5
 10
-309.36191845990282
 20
-427.80444188850919
 30
0.0
 11
-306.72663504960832
 21
-430.27540359493651
 31
0.0
  0
LINE
  5
2F3
  8
DETAIL
  6
CONTINUOUS
 62
     5
 10
-311.30362810015498
 20
-425.07057597842311
 30
0.0
 11
-309.36191845990282
 21
-427.80444188850919
 31
0.0
  0
LINE
  5
2F4
  8
DETAIL
  6
CONTINUOUS
 62
     5
 10
-312.49276610243942
 20
-422.15687300128951
 30
0.0
 11
-311.30362810015498
 21
-425.07057597842311
 31
0.0
  0
LINE
  5
2F5
  8
DETAIL
  6
CONTINUOUS
 62
     5
 10
-312.89320110842158
 20
-419.15186435220659
 30
0.0
 11
-312.49276610243942
 21
-422.15687300128951
 31
0.0
  0
ARC
  5
2F6
  8
DETAIL
  6
CONTINUOUS
 62
     5
 10
-271.68092525520109
 20
-424.95359250576172
 30
0.0
 40
11.503426511338949
 50
270.0
 51
0.0
  0
LINE
  5
2F7
  8
DETAIL
  6
CONTINUOUS
 62
     5
 10
-286.5353510853929
 20
-436.45701901710709
 30
0.0
 11
-271.68092525520291
 21
-436.45701901710709
 31
0.0
  0
LINE
  5
2F8
  8
DETAIL
  6
CONTINUOUS
 62
     5
 10
-312.69298360543053
 20
420.65436867674799
 30
0.0
 11
-312.89320110842158
 21
-419.15186435220659
 31
0.0
  0
ARC
  5
2FA
  8
DETAIL
  6
CONTINUOUS
 62
     5
 10
-283.97885401343592
 20
-419.12484419575128
 30
0.0
 40
13.003873447600951
 50
196.30169624204601
 51
270.0
  0
LINE
  5
2FB
  8
DETAIL
  6
CONTINUOUS
 62
     5
 10
-283.97885401343592
 20
-432.1287176433525
 30
0.0
 11
-270.24975128479298
 21
-432.1287176433525
 31
0.0
  0
ARC
  5
2FC
  8
DETAIL
  6
CONTINUOUS
 62
     5
 10
-270.24975128479298
 20
-426.12692989830339
 30
0.0
 40
6.001787745045486
 50
270.0
 51
0.0
  0
LINE
  5
2FE
  8
DETAIL
  6
CONTINUOUS
 62
     5
 10
-287.45959874179061
 20
-431.65421532031161
 30
0.0
 11
-287.45989029896009
 21
-427.12722785580797
 31
0.0
  0
LINE
  5
2FF
  8
DETAIL
  6
CONTINUOUS
 62
     5
 10
-290.1172716881465
 20
-427.0298345617939
 30
0.0
 11
-290.80948098927001
 21
-426.77003481895719
 31
0.0
  0
LINE
  5
300
  8
DETAIL
  6
CONTINUOUS
 62
     5
 10
-289.35036011255022
 20
-427.12722785580797
 30
0.0
 11
-290.1172716881465
 21
-427.0298345617939
 31
0.0
  0
LINE
  5
301
  8
DETAIL
  6
CONTINUOUS
 62
     5
 10
-289.35036011255022
 20
-427.12722785580797
 30
0.0
 11
-270.42398019331807
 21
-427.12722785580797
 31
0.0
  0
LINE
  5
303
  8
DETAIL
  6
CONTINUOUS
 62
     5
 10
-277.49692264218169
 20
-432.1287176433525
 30
0.0
 11
-277.49692264218169
 21
-427.12722785580797
 31
0.0
  0
LINE
  5
305
  8
DETAIL
  6
CONTINUOUS
 62
     5
 10
-298.83143491150082
 20
-419.74670559813592
 30
0.0
 11
-298.88649071510559
 21
-419.18169698002561
 31
0.0
  0
LINE
  5
306
  8
DETAIL
  6
CONTINUOUS
 62
     5
 10
-298.70727460372473
 20
-420.24257266244962
 30
0.0
 11
-298.83143491150082
 21
-419.74670559813592
 31
0.0
  0
LINE
  5
307
  8
DETAIL
  6
CONTINUOUS
 62
     5
 10
-298.52930961871601
 20
-420.67521550633683
 30
0.0
 11
-298.70727460372473
 21
-420.24257266244962
 31
0.0
  0
LINE
  5
308
  8
DETAIL
  6
CONTINUOUS
 62
     5
 10
-291.98966141894562
 20
-425.90472372982521
 30
0.0
 11
-292.48836289713472
 21
-425.3461559893492
 31
0.0
  0
LINE
  5
309
  8
DETAIL
  6
CONTINUOUS
 62
     5
 10
-291.43181428691418
 20
-426.38588386449368
 30
0.0
 11
-291.98966141894562
 21
-425.90472372982521
 31
0.0
  0
LINE
  5
30A
  8
DETAIL
  6
CONTINUOUS
 62
     5
 10
-290.80948098927001
 20
-426.77003481895719
 30
0.0
 11
-291.43181428691418
 21
-426.38588386449368
 31
0.0
  0
LINE
  5
30B
  8
DETAIL
  6
CONTINUOUS
 62
     5
 10
-292.93304713567522
 20
-424.72336497237109
 30
0.0
 11
-294.4226579920068
 21
-423.99303397718171
 31
0.0
  0
LINE
  5
30C
  8
DETAIL
  6
CONTINUOUS
 62
     5
 10
-292.48836289713472
 20
-425.3461559893492
 30
0.0
 11
-292.93304713567522
 21
-424.7233518493648
 31
0.0
  0
LINE
  5
30D
  8
DETAIL
  6
CONTINUOUS
 62
     5
 10
-294.4226579920068
 20
-423.99303397718171
 30
0.0
 11
-295.73062413575462
 21
-423.2270457333106
 31
0.0
  0
LINE
  5
30E
  8
DETAIL
  6
CONTINUOUS
 62
     5
 10
-298.31091485714018
 20
-421.05029040111532
 30
0.0
 11
-298.52930961871601
 21
-420.67521550633683
 31
0.0
  0
LINE
  5
30F
  8
DETAIL
  6
CONTINUOUS
 62
     5
 10
-298.06810648191077
 20
-421.36753593434872
 30
0.0
 11
-298.31091485714018
 21
-421.05029040111532
 31
0.0
  0
LINE
  5
310
  8
DETAIL
  6
CONTINUOUS
 62
     5
 10
-297.81720013435
 20
-421.6283550716177
 30
0.0
 11
-298.06810648191077
 21
-421.36753593434872
 31
0.0
  0
LINE
  5
311
  8
DETAIL
  6
CONTINUOUS
 62
     5
 10
-296.86027156652921
 20
-422.43676360286003
 30
0.0
 11
-297.81720013435
 21
-421.6283550716177
 31
0.0
  0
LINE
  5
312
  8
DETAIL
  6
CONTINUOUS
 62
     5
 10
-295.73062413575462
 20
-423.2270457333106
 30
0.0
 11
-296.86027156652921
 21
-422.43676360286003
 31
0.0
  0
TEXT
  5
328
  8
ETC
  6
CONTINUOUS
 62
    61
 10
166.04543662477371
 20
925.45355101477639
 30
0.0
 40
64.0
  1
PLFY-P22_45LM-E2(自然蒸発式/左側組込)_6
 41
0.75
  0
ENDSEC
  0
EOF
