  0
SECTION
  2
HEADER
  9
$ACADVER
  1
AC1009
  9
$INSBASE
 10
0.0
 20
0.0
 30
0.0
  9
$EXTMIN
 10
-1418.5946028109749
 20
-1220.023685221855
 30
-0.0000000000112498
  9
$EXTMAX
 10
1633.119172648599
 20
1232.700966029759
 30
0.0000000000002956
  9
$LIMMIN
 10
-4267.1522210604826
 20
-2696.083210198412
  9
$LIMMAX
 10
7190.7174225864646
 20
5141.155363923066
  9
$ORTHOMODE
 70
     1
  9
$REGENMODE
 70
     1
  9
$FILLMODE
 70
     1
  9
$QTEXTMODE
 70
     0
  9
$MIRRTEXT
 70
     0
  9
$DRAGMODE
 70
     2
  9
$LTSCALE
 40
20.0
  9
$OSMODE
 70
   175
  9
$ATTMODE
 70
     1
  9
$TEXTSIZE
 40
64.0
  9
$TRACEWID
 40
0.05
  9
$TEXTSTYLE
  7
NOTE
  9
$CLAYER
  8
SYMBOLLINE
  9
$CELTYPE
  6
CONTINUOUS
  9
$CECOLOR
 62
     7
  9
$DIMSCALE
 40
1.0
  9
$DIMASZ
 40
30.0
  9
$DIMEXO
 40
20.0
  9
$DIMDLI
 40
80.0
  9
$DIMRND
 40
0.0
  9
$DIMDLE
 40
0.0
  9
$DIMEXE
 40
20.0
  9
$DIMTP
 40
0.0
  9
$DIMTM
 40
0.0
  9
$DIMTXT
 40
60.0
  9
$DIMCEN
 40
0.09
  9
$DIMTSZ
 40
0.0
  9
$DIMTOL
 70
     0
  9
$DIMLIM
 70
     0
  9
$DIMTIH
 70
     0
  9
$DIMTOH
 70
     0
  9
$DIMSE1
 70
     0
  9
$DIMSE2
 70
     0
  9
$DIMTAD
 70
     1
  9
$DIMZIN
 70
     8
  9
$DIMBLK
  1
SMALL
  9
$DIMASO
 70
     1
  9
$DIMSHO
 70
     0
  9
$DIMPOST
  1

  9
$DIMAPOST
  1

  9
$DIMALT
 70
     0
  9
$DIMALTD
 70
     2
  9
$DIMALTF
 40
25.399999999999999
  9
$DIMLFAC
 40
1.0
  9
$DIMTOFL
 70
     1
  9
$DIMTVP
 40
0.0
  9
$DIMTIX
 70
     0
  9
$DIMSOXD
 70
     0
  9
$DIMSAH
 70
     0
  9
$DIMBLK1
  1

  9
$DIMBLK2
  1

  9
$DIMSTYLE
  2
STANDARD
  9
$DIMCLRD
 70
     0
  9
$DIMCLRE
 70
     0
  9
$DIMCLRT
 70
     0
  9
$DIMTFAC
 40
1.0
  9
$DIMGAP
 40
0.09
  9
$LUNITS
 70
     2
  9
$LUPREC
 70
     4
  9
$SKETCHINC
 40
0.1
  9
$FILLETRAD
 40
30.0
  9
$AUNITS
 70
     1
  9
$AUPREC
 70
     3
  9
$MENU
  1
ACAD
  9
$ELEVATION
 40
0.0
  9
$PELEVATION
 40
0.0
  9
$THICKNESS
 40
0.0
  9
$LIMCHECK
 70
     0
  9
$BLIPMODE
 70
     0
  9
$CHAMFERA
 40
0.0
  9
$CHAMFERB
 40
0.0
  9
$SKPOLY
 70
     0
  9
$TDCREATE
 40
2450330.4399309959
  9
$TDUPDATE
 40
2455338.6000067359
  9
$TDINDWG
 40
4.1347510763999997
  9
$TDUSRTIMER
 40
4.1347481713000001
  9
$USRTIMER
 70
     1
  9
$ANGBASE
 50
0.0
  9
$ANGDIR
 70
     0
  9
$PDMODE
 70
     3
  9
$PDSIZE
 40
-2.0
  9
$PLINEWID
 40
0.0
  9
$COORDS
 70
     0
  9
$SPLFRAME
 70
     0
  9
$SPLINETYPE
 70
     6
  9
$SPLINESEGS
 70
     8
  9
$ATTDIA
 70
     0
  9
$ATTREQ
 70
     1
  9
$HANDLING
 70
     1
  9
$HANDSEED
  5
6C6
  9
$SURFTAB1
 70
     6
  9
$SURFTAB2
 70
     6
  9
$SURFTYPE
 70
     6
  9
$SURFU
 70
     6
  9
$SURFV
 70
     6
  9
$UCSNAME
  2

  9
$UCSORG
 10
0.0
 20
0.0
 30
0.0
  9
$UCSXDIR
 10
1.0
 20
0.0
 30
0.0
  9
$UCSYDIR
 10
0.0
 20
1.0
 30
0.0
  9
$PUCSNAME
  2

  9
$PUCSORG
 10
0.0
 20
0.0
 30
0.0
  9
$PUCSXDIR
 10
1.0
 20
0.0
 30
0.0
  9
$PUCSYDIR
 10
0.0
 20
1.0
 30
0.0
  9
$USERI1
 70
     0
  9
$USERI2
 70
     0
  9
$USERI3
 70
     0
  9
$USERI4
 70
     0
  9
$USERI5
 70
     0
  9
$USERR1
 40
20.0
  9
$USERR2
 40
0.0
  9
$USERR3
 40
0.0
  9
$USERR4
 40
0.0
  9
$USERR5
 40
0.0
  9
$WORLDVIEW
 70
     1
  9
$SHADEDGE
 70
     3
  9
$SHADEDIF
 70
    70
  9
$TILEMODE
 70
     1
  9
$MAXACTVP
 70
    64
  9
$PLIMCHECK
 70
     0
  9
$PEXTMIN
 10
1.0000000000000000E+020
 20
1.0000000000000000E+020
 30
1.0000000000000000E+020
  9
$PEXTMAX
 10
-1.0000000000000000E+020
 20
-1.0000000000000000E+020
 30
-1.0000000000000000E+020
  9
$PLIMMIN
 10
0.0
 20
0.0
  9
$PLIMMAX
 10
12.0
 20
9.0
  9
$UNITMODE
 70
     0
  9
$VISRETAIN
 70
     1
  9
$PLINEGEN
 70
     0
  9
$PSLTSCALE
 70
     1
  0
ENDSEC
  0
SECTION
  2
TABLES
  0
TABLE
  2
VPORT
 70
     1
  0
VPORT
  2
*ACTIVE
 70
     0
 10
0.0
 20
0.0
 11
1.0
 21
1.0
 12
1461.782600762991
 22
1222.536076862327
 13
0.0
 23
0.0
 14
50.0
 24
50.0
 15
100.0
 25
100.0
 16
0.0
 26
0.0
 36
1.0
 17
0.0
 27
0.0
 37
0.0
 40
7896.9888046738661
 41
1.555979643765903
 42
50.0
 43
0.0
 44
0.0
 50
0.0
 51
0.0
 71
     0
 72
  1000
 73
     1
 74
     0
 75
     0
 76
     0
 77
     0
 78
     0
  0
ENDTAB
  0
TABLE
  2
LTYPE
 70
     3
  0
LTYPE
  2
CONTINUOUS
 70
     0
  3
実線
 72
    65
 73
     0
 40
0.0
  0
LTYPE
  2
DASHDOT
 70
     0
  3
____ _ ____ _ ____ _ ____ _ ____ _ ____ _ ____
 72
    65
 73
     4
 40
5.5
 49
4.0
 49
-0.6
 49
0.3
 49
-0.6
  0
ENDTAB
  0
TABLE
  2
LAYER
 70
    12
  0
LAYER
  2
0
 70
     0
 62
     7
  6
CONTINUOUS
  0
LAYER
  2
SYMBOLLINE
 70
     0
 62
    15
  6
CONTINUOUS
  0
LAYER
  2
SIZE
 70
     0
 62
    30
  6
CONTINUOUS
  0
LAYER
  2
OUTLINE
 70
     0
 62
     3
  6
CONTINUOUS
  0
LAYER
  2
DETAIL
 70
     0
 62
     5
  6
CONTINUOUS
  0
LAYER
  2
BASIS
 70
     0
 62
     6
  6
DASHDOT
  0
LAYER
  2
NOTE
 70
     0
 62
     4
  6
CONTINUOUS
  0
LAYER
  2
ARRANGE
 70
     0
 62
     1
  6
CONTINUOUS
  0
LAYER
  2
FIX
 70
     0
 62
    11
  6
CONTINUOUS
  0
LAYER
  2
SERVICESPACE
 70
     0
 62
     2
  6
DASHDOT
  0
LAYER
  2
ETC
 70
     0
 62
    61
  6
CONTINUOUS
  0
LAYER
  2
DEFPOINTS
 70
     0
 62
     7
  6
CONTINUOUS
  0
ENDTAB
  0
TABLE
  2
STYLE
 70
     3
  0
STYLE
  2
STANDARD
 70
     0
 40
0.0
 41
0.9
 50
0.0
 71
     0
 42
64.0
  3
SIMPLEX
  4
BIGFONT
  0
STYLE
  2
ANNOTATIVE
 70
     0
 40
0.0
 41
1.0
 50
0.0
 71
     0
 42
0.2
  3
txt
  4

  0
STYLE
  2
NOTE
 70
     0
 40
0.0
 41
0.7
 50
0.0
 71
     0
 42
64.0
  3
SIMPLEX.shx
  4
BIGFONT.shx
  0
ENDTAB
  0
TABLE
  2
VIEW
 70
     5
  0
VIEW
  2
ALL
 70
     0
 40
9000.0
 10
241.50664699999999
 20
0.0
 41
12483.01
 11
0.0
 21
0.0
 31
1.0
 12
0.0
 22
0.0
 32
0.0
 42
50.0
 43
0.0
 44
0.0
 50
0.0
 71
     0
  0
ENDTAB
  0
TABLE
  2
UCS
 70
     0
  0
ENDTAB
  0
TABLE
  2
APPID
 70
     4
  0
APPID
  2
ACAD
 70
     0
  0
APPID
  2
ACADANNOTATIVE
 70
     0
  0
APPID
  2
ACAD_MLEADERVER
 70
     0
  0
APPID
  2
ACAD_EXEMPT_FROM_CAD_STANDARDS
 70
     0
  0
ENDTAB
  0
TABLE
  2
DIMSTYLE
 70
     3
  0
DIMSTYLE
  2
STANDARD
 70
     0
  3

  4

  5

  6

  7

 40
1.0
 41
0.18
 42
0.0625
 43
0.38
 44
0.18
 45
0.0
 46
0.0
 47
0.0
 48
0.0
140
0.18
141
0.09
142
0.0
143
25.399999999999999
144
1.0
145
0.0
146
1.0
147
0.09
 71
     0
 72
     0
 73
     1
 74
     1
 75
     0
 76
     0
 77
     0
 78
     0
170
     0
171
     2
172
     0
173
     0
174
     0
175
     0
176
     0
177
     0
178
     0
  0
DIMSTYLE
  2
ANNOTATIVE
 70
     0
  3

  4

  5

  6

  7

 40
1.0
 41
0.18
 42
0.0625
 43
0.38
 44
0.18
 45
0.0
 46
0.0
 47
0.0
 48
0.0
140
0.18
141
0.09
142
0.0
143
25.399999999999999
144
1.0
145
0.0
146
1.0
147
0.09
 71
     0
 72
     0
 73
     1
 74
     1
 75
     0
 76
     0
 77
     0
 78
     0
170
     0
171
     2
172
     0
173
     0
174
     0
175
     0
176
     0
177
     0
178
     0
  0
ENDTAB
  0
ENDSEC
  0
SECTION
  2
BLOCKS
  0
BLOCK
  8
0
  2
$MODEL_SPACE
 70
     0
 10
0.0
 20
0.0
 30
0.0
  3
$MODEL_SPACE
  1

  0
ENDBLK
  5
64A
  8
0
  0
BLOCK
 67
     1
  8
0
  2
$PAPER_SPACE
 70
     0
 10
0.0
 20
0.0
 30
0.0
  3
$PAPER_SPACE
  1

  0
ENDBLK
  5
646
 67
     1
  8
0
  0
BLOCK
  8
0
  2
_SMALL
 70
     0
 10
0.0
 20
0.0
 30
0.0
  3
_SMALL
  1

  0
CIRCLE
  5
8B
  8
0
  6
CONTINUOUS
 62
     7
 10
0.0
 20
0.0
 30
0.0
 40
0.25
  0
ENDBLK
  5
8C
  8
0
  0
BLOCK
  8
0
 62
     7
  2
A$C2F0F52E8
 70
     0
 10
0.0
 20
0.0
 30
0.0
  3
A$C2F0F52E8
  1

  0
TEXT
  5
51B
  8
ETC
  6
CONTINUOUS
 62
    61
 10
-0.0000075060743825
 20
21.333326394107871
 30
0.0
 40
64.0
  1
PLFY-P80_112LM-E2(自然蒸発式/右側組込)_1
 41
0.75
  0
ENDBLK
  5
51D
  8
0
 62
     7
  0
ENDSEC
  0
SECTION
  2
ENTITIES
  0
LINE
  5
8D
  8
DETAIL
  6
CONTINUOUS
 62
     5
 10
109.4208457938748
 20
-433.98883169786552
 30
0.0
 11
109.5025326388167
 21
-433.79368330083162
 31
0.0
  0
LINE
  5
8E
  8
DETAIL
  6
CONTINUOUS
 62
     5
 10
109.17892443695
 20
-434.17648065560172
 30
0.0
 11
109.4208457938748
 21
-433.98883169786552
 31
0.0
  0
LINE
  5
8F
  8
DETAIL
  6
CONTINUOUS
 62
     5
 10
108.7860654649557
 20
-434.34941893384229
 30
0.0
 11
109.17892443695
 21
-434.17648065560172
 31
0.0
  0
LINE
  5
90
  8
DETAIL
  6
CONTINUOUS
 62
     5
 10
108.25736621949891
 20
-434.50100061521471
 30
0.0
 11
108.7860654649557
 21
-434.34941893384229
 31
0.0
  0
LINE
  5
91
  8
DETAIL
  6
CONTINUOUS
 62
     5
 10
107.61314430480689
 20
-434.62540050393449
 30
0.0
 11
108.25736621949891
 21
-434.50100061521471
 31
0.0
  0
LINE
  5
92
  8
DETAIL
  6
CONTINUOUS
 62
     5
 10
106.87815679404591
 20
-434.7178379846859
 30
0.0
 11
107.61314430480689
 21
-434.62540050393449
 31
0.0
  0
LINE
  5
93
  8
DETAIL
  6
CONTINUOUS
 62
     5
 10
106.0806488294001
 20
-434.77476073893371
 30
0.0
 11
106.87815679404591
 21
-434.7178379846859
 31
0.0
  0
LINE
  5
94
  8
DETAIL
  6
CONTINUOUS
 62
     5
 10
105.2512681776988
 20
-434.79398125833433
 30
0.0
 11
106.0806488294001
 21
-434.77476073893371
 31
0.0
  0
LINE
  5
95
  8
DETAIL
  6
CONTINUOUS
 62
     5
 10
104.421887454584
 20
-434.77476090955503
 30
0.0
 11
105.2512681776988
 21
-434.79398125833433
 31
0.0
  0
LINE
  5
96
  8
DETAIL
  6
CONTINUOUS
 62
     5
 10
103.62437927844429
 20
-434.7178383193509
 30
0.0
 11
104.421887454584
 21
-434.77476090955503
 31
0.0
  0
LINE
  5
97
  8
DETAIL
  6
CONTINUOUS
 62
     5
 10
102.88939142423619
 20
-434.6254009897757
 30
0.0
 11
103.62437927844429
 21
-434.7178383193509
 31
0.0
  0
LINE
  5
98
  8
DETAIL
  6
CONTINUOUS
 62
     5
 10
102.245169047339
 20
-434.50100123356879
 30
0.0
 11
102.88939142423619
 21
-434.6254009897757
 31
0.0
  0
LINE
  5
99
  8
DETAIL
  6
CONTINUOUS
 62
     5
 10
101.7164692386832
 20
-434.34941966095249
 30
0.0
 11
102.245169047339
 21
-434.50100123356879
 31
0.0
  0
LINE
  5
9A
  8
DETAIL
  6
CONTINUOUS
 62
     5
 10
101.3236096241415
 20
-434.1764814635257
 30
0.0
 11
101.7164692386832
 21
-434.34941966095249
 31
0.0
  0
LINE
  5
9B
  8
DETAIL
  6
CONTINUOUS
 62
     5
 10
101.0816875700111
 20
-433.98883255556672
 30
0.0
 11
101.3236096241415
 21
-434.1764814635257
 31
0.0
  0
LINE
  5
9C
  8
DETAIL
  6
CONTINUOUS
 62
     5
 10
101.0
 20
-433.7936841753226
 30
0.0
 11
101.0816875700111
 21
-433.98883255556672
 31
0.0
  0
LINE
  5
9D
  8
DETAIL
  6
CONTINUOUS
 62
     5
 10
170.12641822303701
 20
-436.29991568446138
 30
0.0
 11
171.0
 21
-435.8979521216915
 31
0.0
  0
LINE
  5
9E
  8
DETAIL
  6
CONTINUOUS
 62
     5
 10
169.0476065959281
 20
-436.63974440499078
 30
0.0
 11
170.12641822303701
 21
-436.29991568446138
 31
0.0
  0
LINE
  5
9F
  8
DETAIL
  6
CONTINUOUS
 62
     5
 10
167.8012289501001
 20
-436.90557406963887
 30
0.0
 11
169.0476065959281
 21
-436.63974440499078
 31
0.0
  0
LINE
  5
A0
  8
DETAIL
  6
CONTINUOUS
 62
     5
 10
166.4307992377324
 20
-437.08812394444078
 30
0.0
 11
167.8012289501001
 21
-436.90557406963887
 31
0.0
  0
LINE
  5
A1
  8
DETAIL
  6
CONTINUOUS
 62
     5
 10
164.98416235813951
 20
-437.18102078725678
 30
0.0
 11
166.4307992377324
 21
-437.08812394444078
 31
0.0
  0
LINE
  5
A2
  8
DETAIL
  6
CONTINUOUS
 62
     5
 10
163.5118237806746
 20
-437.18102135256078
 30
0.0
 11
164.98416235813951
 21
-437.18102078725678
 31
0.0
  0
LINE
  5
A3
  8
DETAIL
  6
CONTINUOUS
 62
     5
 10
162.06518628094631
 20
-437.08812562056841
 30
0.0
 11
163.5118237806746
 21
-437.18102135256078
 31
0.0
  0
LINE
  5
A4
  8
DETAIL
  6
CONTINUOUS
 62
     5
 10
160.694755349963
 20
-436.90557679810308
 30
0.0
 11
162.06518628094631
 21
-437.08812562056841
 31
0.0
  0
LINE
  5
A5
  8
DETAIL
  6
CONTINUOUS
 62
     5
 10
159.44837592958351
 20
-436.63974809055662
 30
0.0
 11
160.694755349963
 21
-436.90557679810308
 31
0.0
  0
LINE
  5
A6
  8
DETAIL
  6
CONTINUOUS
 62
     5
 10
158.3695620339349
 20
-436.29992019843348
 30
0.0
 11
159.44837592958351
 21
-436.63974809055662
 31
0.0
  0
LINE
  5
A7
  8
DETAIL
  6
CONTINUOUS
 62
     5
 10
157.4959775736497
 20
-435.89795730644647
 30
0.0
 11
158.3695620339349
 21
-436.29992019843348
 31
0.0
  0
LINE
  5
A8
  8
DETAIL
  6
CONTINUOUS
 62
     5
 10
183.6304379660649
 20
-436.29992019843348
 30
0.0
 11
184.50402242634641
 21
-435.89795730644647
 31
0.0
  0
LINE
  5
A9
  8
DETAIL
  6
CONTINUOUS
 62
     5
 10
182.55162407041641
 20
-436.63974809055662
 30
0.0
 11
183.6304379660649
 21
-436.29992019843348
 31
0.0
  0
LINE
  5
AA
  8
DETAIL
  6
CONTINUOUS
 62
     5
 10
181.3052446500331
 20
-436.90557679810308
 30
0.0
 11
182.55162407041641
 21
-436.63974809055662
 31
0.0
  0
LINE
  5
AB
  8
DETAIL
  6
CONTINUOUS
 62
     5
 10
179.93481371905
 20
-437.08812562056841
 30
0.0
 11
181.3052446500331
 21
-436.90557679810308
 31
0.0
  0
LINE
  5
AC
  8
DETAIL
  6
CONTINUOUS
 62
     5
 10
178.48817621932341
 20
-437.18102135256078
 30
0.0
 11
179.93481371905
 21
-437.08812562056841
 31
0.0
  0
LINE
  5
AD
  8
DETAIL
  6
CONTINUOUS
 62
     5
 10
177.0158376418585
 20
-437.18102078725678
 30
0.0
 11
178.48817621932341
 21
-437.18102135256078
 31
0.0
  0
LINE
  5
AE
  8
DETAIL
  6
CONTINUOUS
 62
     5
 10
175.56920076226359
 20
-437.08812394444078
 30
0.0
 11
177.0158376418585
 21
-437.18102078725678
 31
0.0
  0
LINE
  5
AF
  8
DETAIL
  6
CONTINUOUS
 62
     5
 10
174.19877104989791
 20
-436.90557406963887
 30
0.0
 11
175.56920076226359
 21
-437.08812394444078
 31
0.0
  0
LINE
  5
B0
  8
DETAIL
  6
CONTINUOUS
 62
     5
 10
172.9523934040698
 20
-436.63974440499078
 30
0.0
 11
174.19877104989791
 21
-436.90557406963887
 31
0.0
  0
LINE
  5
B1
  8
DETAIL
  6
CONTINUOUS
 62
     5
 10
171.8735817769593
 20
-436.29991568446138
 30
0.0
 11
172.9523934040698
 21
-436.63974440499078
 31
0.0
  0
LINE
  5
B2
  8
DETAIL
  6
CONTINUOUS
 62
     5
 10
171.0
 20
-435.8979521216915
 30
0.0
 11
171.8735817769593
 21
-436.29991568446138
 31
0.0
  0
LINE
  5
B3
  8
DETAIL
  6
CONTINUOUS
 62
     5
 10
148.3927502547667
 20
-397.22432918688662
 30
0.0
 11
148.4504115890667
 21
-397.12266766837951
 31
0.0
  0
LINE
  5
B4
  8
DETAIL
  6
CONTINUOUS
 62
     5
 10
148.2219821446069
 20
-397.32208391022448
 30
0.0
 11
148.3927502547667
 21
-397.22432918688662
 31
0.0
  0
LINE
  5
B5
  8
DETAIL
  6
CONTINUOUS
 62
     5
 10
147.94466978129259
 20
-397.41217517920342
 30
0.0
 11
148.2219821446069
 21
-397.32208391022448
 31
0.0
  0
LINE
  5
B6
  8
DETAIL
  6
CONTINUOUS
 62
     5
 10
147.5714701234283
 20
-397.49114083692251
 30
0.0
 11
147.94466978129259
 21
-397.41217517920342
 31
0.0
  0
LINE
  5
B7
  8
DETAIL
  6
CONTINUOUS
 62
     5
 10
147.11672502456881
 20
-397.55594627740493
 30
0.0
 11
147.5714701234283
 21
-397.49114083692251
 31
0.0
  0
LINE
  5
B8
  8
DETAIL
  6
CONTINUOUS
 62
     5
 10
146.59791008384491
 20
-397.60410106393778
 30
0.0
 11
147.11672502456881
 21
-397.55594627740493
 31
0.0
  0
LINE
  5
B9
  8
DETAIL
  6
CONTINUOUS
 62
     5
 10
146.03496306847211
 20
-397.63375463507867
 30
0.0
 11
146.59791008384491
 21
-397.60410106393778
 31
0.0
  0
LINE
  5
BA
  8
DETAIL
  6
CONTINUOUS
 62
     5
 10
145.44951771654451
 20
-397.64376742071369
 30
0.0
 11
146.03496306847211
 21
-397.63375463507867
 31
0.0
  0
LINE
  5
BB
  8
DETAIL
  6
CONTINUOUS
 62
     5
 10
126.8587092648777
 20
-397.63375463975677
 30
0.0
 11
127.4441544814034
 21
-397.64376742071369
 31
0.0
  0
LINE
  5
BC
  8
DETAIL
  6
CONTINUOUS
 62
     5
 10
126.29576236919451
 20
-397.6041010822878
 30
0.0
 11
126.8587092648777
 21
-397.63375463975677
 31
0.0
  0
LINE
  5
BD
  8
DETAIL
  6
CONTINUOUS
 62
     5
 10
125.77694751774099
 20
-397.55594631738262
 30
0.0
 11
126.29576236919451
 21
-397.6041010822878
 31
0.0
  0
LINE
  5
BE
  8
DETAIL
  6
CONTINUOUS
 62
     5
 10
125.3222024649949
 20
-397.49114090473847
 30
0.0
 11
125.77694751774099
 21
-397.55594631738262
 31
0.0
  0
LINE
  5
BF
  8
DETAIL
  6
CONTINUOUS
 62
     5
 10
124.9490028001472
 20
-397.41217527886289
 30
0.0
 11
125.3222024649949
 21
-397.49114090473847
 31
0.0
  0
LINE
  5
C0
  8
DETAIL
  6
CONTINUOUS
 62
     5
 10
124.6716903703272
 20
-397.32208404310171
 30
0.0
 11
124.9490028001472
 21
-397.41217527886289
 31
0.0
  0
LINE
  5
C1
  8
DETAIL
  6
CONTINUOUS
 62
     5
 10
124.5009221317121
 20
-397.22432935145071
 30
0.0
 11
124.6716903703272
 21
-397.32208404310171
 31
0.0
  0
LINE
  5
C2
  8
DETAIL
  6
CONTINUOUS
 62
     5
 10
124.4432606088812
 20
-397.12266786018409
 30
0.0
 11
124.5009221317121
 21
-397.22432935145071
 31
0.0
  0
LINE
  5
C4
  8
DETAIL
  6
CONTINUOUS
 62
     5
 10
100.9276147938761
 20
-433.97748671012152
 30
0.0
 11
101.0
 21
-433.79368237333802
 31
0.0
  0
LINE
  5
C5
  8
DETAIL
  6
CONTINUOUS
 62
     5
 10
100.7129227196945
 20
-434.15503183856481
 30
0.0
 11
100.9276147938761
 21
-433.97748671012152
 31
0.0
  0
LINE
  5
C6
  8
DETAIL
  6
CONTINUOUS
 62
     5
 10
100.3632348628452
 20
-434.32027166870279
 30
0.0
 11
100.7129227196945
 21
-434.15503183856481
 31
0.0
  0
LINE
  5
C7
  8
DETAIL
  6
CONTINUOUS
 62
     5
 10
99.890459430900606
 20
-434.46757915299662
 30
0.0
 11
100.3632348628452
 21
-434.32027166870279
 31
0.0
  0
LINE
  5
C8
  8
DETAIL
  6
CONTINUOUS
 62
     5
 10
99.310696233638765
 20
-434.59193790879272
 30
0.0
 11
99.890459430900606
 21
-434.46757915299662
 31
0.0
  0
LINE
  5
C9
  8
DETAIL
  6
CONTINUOUS
 62
     5
 10
98.643688423017011
 20
-434.68911304530849
 30
0.0
 11
99.310696233638765
 21
-434.59193790879272
 31
0.0
  0
LINE
  5
CA
  8
DETAIL
  6
CONTINUOUS
 62
     5
 10
97.912150163403567
 20
-434.75579537787962
 30
0.0
 11
98.643688423017011
 21
-434.68911304530849
 31
0.0
  0
LINE
  5
CB
  8
DETAIL
  6
CONTINUOUS
 62
     5
 10
97.140993127512075
 20
-434.78971411830878
 30
0.0
 11
97.912150163403567
 21
-434.75579537787962
 31
0.0
  0
LINE
  5
CC
  8
DETAIL
  6
CONTINUOUS
 62
     5
 10
96.356478158759288
 20
-434.78971420387978
 30
0.0
 11
97.140993127512075
 21
-434.78971411830878
 31
0.0
  0
LINE
  5
CD
  8
DETAIL
  6
CONTINUOUS
 62
     5
 10
95.585320989204774
 20
-434.75579563170271
 30
0.0
 11
96.356478158759288
 21
-434.78971420387978
 31
0.0
  0
LINE
  5
CE
  8
DETAIL
  6
CONTINUOUS
 62
     5
 10
94.853782466812845
 20
-434.68911345873261
 30
0.0
 11
95.585320989204774
 21
-434.75579563170271
 31
0.0
  0
LINE
  5
CF
  8
DETAIL
  6
CONTINUOUS
 62
     5
 10
94.186774273250194
 20
-434.59193846772678
 30
0.0
 11
94.853782466812845
 21
-434.68911345873261
 31
0.0
  0
LINE
  5
D0
  8
DETAIL
  6
CONTINUOUS
 62
     5
 10
93.607010585925281
 20
-434.46757983844049
 30
0.0
 11
94.186774273250194
 21
-434.59193846772678
 31
0.0
  0
LINE
  5
D1
  8
DETAIL
  6
CONTINUOUS
 62
     5
 10
93.134234573481081
 20
-434.32027245728688
 30
0.0
 11
93.607010585925281
 21
-434.46757983844049
 31
0.0
  0
LINE
  5
D2
  8
DETAIL
  6
CONTINUOUS
 62
     5
 10
92.784546065468007
 20
-434.15503270343959
 30
0.0
 11
93.134234573481081
 21
-434.32027245728688
 31
0.0
  0
LINE
  5
D3
  8
DETAIL
  6
CONTINUOUS
 62
     5
 10
92.569853291624852
 20
-433.9774876218371
 30
0.0
 11
92.784546065468007
 21
-434.15503270343959
 31
0.0
  0
LINE
  5
D4
  8
DETAIL
  6
CONTINUOUS
 62
     5
 10
92.497467361181407
 20
-433.79368330083162
 30
0.0
 11
92.569853291624852
 21
-433.9774876218371
 31
0.0
  0
ARC
  5
D6
  8
DETAIL
  6
CONTINUOUS
 62
     5
 10
-25.007448937674781
 20
-500.03337124086778
 30
0.0
 40
3.0008938725233141
 50
180.0
 51
270.0
  0
ARC
  5
D7
  8
DETAIL
  6
CONTINUOUS
 62
     5
 10
-83.024730473140139
 20
-500.03337124086778
 30
0.0
 40
3.0008938725233141
 50
180.0
 51
270.0
  0
ARC
  5
D8
  8
DETAIL
  6
CONTINUOUS
 62
     5
 10
5.001489787558965
 20
-500.03337124086778
 30
0.0
 40
3.0008938725232142
 50
270.0
 51
0.0
  0
ARC
  5
D9
  8
DETAIL
  6
CONTINUOUS
 62
     5
 10
-53.01579174791005
 20
-500.03337124086778
 30
0.0
 40
3.0008938725232142
 50
270.0
 51
0.0
  0
LINE
  5
DA
  8
DETAIL
  6
CONTINUOUS
 62
     5
 10
-25.007448937674781
 20
-503.03426511340513
 30
0.0
 11
5.001489787558965
 21
-503.03426511340513
 31
0.0
  0
LINE
  5
DB
  8
DETAIL
  6
CONTINUOUS
 62
     5
 10
-83.024730473140139
 20
-503.03426511340513
 30
0.0
 11
-53.01579174791005
 21
-503.03426511340513
 31
0.0
  0
LINE
  5
DE
  8
DETAIL
  6
CONTINUOUS
 62
     5
 10
-28.008342810198879
 20
-498.03277532586071
 30
0.0
 11
-28.008342810198879
 21
-500.03337124086778
 31
0.0
  0
LINE
  5
DF
  8
DETAIL
  6
CONTINUOUS
 62
     5
 10
-86.025624345666046
 20
-498.03277532586071
 30
0.0
 11
-86.025624345666046
 21
-500.03337124086778
 31
0.0
  0
LINE
  5
E0
  8
DETAIL
  6
CONTINUOUS
 62
     5
 10
8.0023836600794311
 20
-498.03277532586071
 30
0.0
 11
8.0023836600794311
 21
-500.03337124086778
 31
0.0
  0
LINE
  5
E1
  8
DETAIL
  6
CONTINUOUS
 62
     5
 10
-50.014897875387753
 20
-498.03277532586071
 30
0.0
 11
-50.014897875387753
 21
-500.03337124086778
 31
0.0
  0
LINE
  5
E3
  8
DETAIL
  6
CONTINUOUS
 62
     5
 10
292.9928490198181
 20
436.0000000000008
 30
0.0
 11
311.99851021246639
 21
436.0000000000008
 31
0.0
  0
LINE
  5
E4
  8
DETAIL
  6
CONTINUOUS
 62
     5
 10
261.98361233707681
 20
436.0000000000008
 30
0.0
 11
280.98927352972532
 21
436.0000000000008
 31
0.0
  0
LINE
  5
E5
  8
DETAIL
  6
CONTINUOUS
 62
     5
 10
311.99851021246639
 20
436.0000000000008
 30
0.0
 11
311.99851021246639
 21
388.0000000000004
 31
0.0
  0
LINE
  5
E6
  8
DETAIL
  6
CONTINUOUS
 62
     5
 10
261.98361233707681
 20
436.0000000000008
 30
0.0
 11
261.9836123370751
 21
388.0000000000004
 31
0.0
  0
LINE
  5
E7
  8
DETAIL
  6
CONTINUOUS
 62
     5
 10
-280.99821225495538
 20
436.0000000000008
 30
0.0
 11
-261.99255106230697
 21
436.0000000000008
 31
0.0
  0
LINE
  5
E8
  8
DETAIL
  6
CONTINUOUS
 62
     5
 10
-312.0074489376928
 20
436.0000000000008
 30
0.0
 11
-293.00178774504622
 21
436.0000000000008
 31
0.0
  0
LINE
  5
E9
  8
DETAIL
  6
CONTINUOUS
 62
     5
 10
-261.99255106230697
 20
436.0000000000008
 30
0.0
 11
-261.99255106230879
 21
388.0000000000004
 31
0.0
  0
LINE
  5
EA
  8
DETAIL
  6
CONTINUOUS
 62
     5
 10
-312.0074489376928
 20
436.0000000000008
 30
0.0
 11
-312.0074489376928
 21
388.0000000000004
 31
0.0
  0
LINE
  5
EB
  8
SERVICESPACE
  6
DASHDOT
 62
     2
 10
335.0
 20
520.0000000000008
 30
0.0
 11
-335.0
 21
520.0000000000008
 31
0.0
  0
LINE
  5
EC
  8
SERVICESPACE
  6
DASHDOT
 62
     2
 10
335.0
 20
-520.0
 30
0.0
 11
-335.0
 21
-520.0
 31
0.0
  0
LINE
  5
ED
  8
SERVICESPACE
  6
DASHDOT
 62
     2
 10
335.0
 20
-520.0
 30
0.0
 11
-335.0
 21
-520.0
 31
0.0
  0
LINE
  5
EE
  8
DETAIL
  6
CONTINUOUS
 62
     5
 10
-108.0321794108258
 20
-388.0
 30
0.0
 11
-108.0321794108258
 21
-498.03277532586071
 31
0.0
  0
LINE
  5
EF
  8
DETAIL
  6
CONTINUOUS
 62
     5
 10
-108.0321794108258
 20
-498.03277532586071
 30
0.0
 11
30.008938725237378
 21
-498.03277532586071
 31
0.0
  0
LINE
  5
F0
  8
DETAIL
  6
CONTINUOUS
 62
     5
 10
30.008938725241009
 20
-387.99999999999852
 30
0.0
 11
30.008938725235559
 21
-498.03277532585838
 31
0.0
  0
LINE
  5
F1
  8
DETAIL
  6
CONTINUOUS
 62
     5
 10
192.00625710766141
 20
-417.18675052592738
 30
0.0
 11
192.00625710765951
 21
-387.99999999999852
 31
0.0
  0
LINE
  5
F2
  8
DETAIL
  6
CONTINUOUS
 62
     5
 10
149.9937428923366
 20
-417.18675052592738
 30
0.0
 11
149.9937428923366
 21
-387.99999999999852
 31
0.0
  0
LINE
  5
F3
  8
DETAIL
  6
CONTINUOUS
 62
     5
 10
79.993742892336726
 20
-387.99999999999852
 30
0.0
 11
79.993742892336726
 21
-414.78802210818452
 31
0.0
  0
LINE
  5
F4
  8
DETAIL
  6
CONTINUOUS
 62
     5
 10
122.0062571076632
 20
-414.78802210818452
 30
0.0
 11
122.0062571076632
 21
-387.99999999999852
 31
0.0
  0
LINE
  5
F5
  8
DETAIL
  6
CONTINUOUS
 62
     5
 10
164.2479927885615
 20
-437.19270967607758
 30
0.0
 11
177.75200720972111
 21
-437.19270967607758
 31
0.0
  0
LINE
  5
F6
  8
DETAIL
  6
CONTINUOUS
 62
     5
 10
157.4959775736497
 20
-455.198072911221
 30
0.0
 11
184.5040224263501
 21
-455.198072911221
 31
0.0
  0
LINE
  5
F7
  8
DETAIL
  6
CONTINUOUS
 62
     5
 10
159.9967224674146
 20
-461.19986065626631
 30
0.0
 11
182.0032775325852
 21
-461.19986065626631
 31
0.0
  0
LINE
  5
F8
  8
DETAIL
  6
CONTINUOUS
 62
     5
 10
157.4959775736497
 20
-439.1933055911108
 30
0.0
 11
184.5040224263501
 21
-439.1933055911108
 31
0.0
  0
LINE
  5
F9
  8
DETAIL
  6
CONTINUOUS
 62
     5
 10
179.15242835368539
 20
-437.19270967607758
 30
0.0
 11
179.15242835368539
 21
-439.1933055911108
 31
0.0
  0
LINE
  5
FA
  8
DETAIL
  6
CONTINUOUS
 62
     5
 10
162.8475716463108
 20
-437.19270967607758
 30
0.0
 11
162.8475716463108
 21
-439.1933055911108
 31
0.0
  0
LINE
  5
FB
  8
DETAIL
  6
CONTINUOUS
 62
     5
 10
157.4959775736497
 20
-455.198072911221
 30
0.0
 11
159.9967224674146
 21
-461.19986065626631
 31
0.0
  0
LINE
  5
FC
  8
DETAIL
  6
CONTINUOUS
 62
     5
 10
182.0032775325852
 20
-461.19986065626631
 30
0.0
 11
184.5040224263501
 21
-455.198072911221
 31
0.0
  0
ARC
  5
FD
  8
DETAIL
  6
CONTINUOUS
 62
     5
 10
170.9999999999981
 20
-455.15764662513391
 30
0.0
 40
10.842353374865089
 50
213.8678189934995
 51
326.13218100650022
  0
LINE
  5
FE
  8
DETAIL
  6
CONTINUOUS
 62
     5
 10
157.4959775736497
 20
-435.89795730644647
 30
0.0
 11
157.4959775736497
 21
-417.18675052592738
 31
0.0
  0
LINE
  5
FF
  8
DETAIL
  6
CONTINUOUS
 62
     5
 10
157.4959775736497
 20
-455.198072911221
 30
0.0
 11
157.4959775736497
 21
-439.1933055911108
 31
0.0
  0
LINE
  5
100
  8
DETAIL
  6
CONTINUOUS
 62
     5
 10
184.5040224263501
 20
-435.89795730644647
 30
0.0
 11
184.5040224263501
 21
-417.18675052592738
 31
0.0
  0
LINE
  5
101
  8
DETAIL
  6
CONTINUOUS
 62
     5
 10
184.5040224263501
 20
-455.198072911221
 30
0.0
 11
184.5040224263501
 21
-439.1933055911108
 31
0.0
  0
LINE
  5
102
  8
DETAIL
  6
CONTINUOUS
 62
     5
 10
149.9937428923366
 20
-417.18675052592738
 30
0.0
 11
192.00625710766141
 21
-417.18675052592738
 31
0.0
  0
LINE
  5
104
  8
DETAIL
  6
CONTINUOUS
 62
     5
 10
79.993742892336726
 20
-414.78802210818452
 30
0.0
 11
122.0062571076632
 21
-414.78802210818452
 31
0.0
  0
LINE
  5
107
  8
DETAIL
  6
CONTINUOUS
 62
     5
 10
92.497467361181407
 20
-433.79368330083162
 30
0.0
 11
92.497467361181407
 21
-414.78802210818452
 31
0.0
  0
LINE
  5
108
  8
DETAIL
  6
CONTINUOUS
 62
     5
 10
109.50253263881299
 20
-433.79368330083162
 30
0.0
 11
109.50253263881299
 21
-414.78802210818452
 31
0.0
  0
LINE
  5
10A
  8
DETAIL
  6
CONTINUOUS
 62
     5
 10
109.2524581494399
 20
-436.79457717336737
 30
0.0
 11
109.50253263881299
 21
-438.35999803953968
 31
0.0
  0
LINE
  5
10B
  8
DETAIL
  6
CONTINUOUS
 62
     5
 10
92.497467361181407
 20
-438.35999803955281
 30
0.0
 11
92.747541850560069
 21
-436.79457717336737
 31
0.0
  0
LINE
  5
10C
  8
DETAIL
  6
CONTINUOUS
 62
     5
 10
109.50253263881299
 20
-447.7978547059335
 30
0.0
 11
109.50253263881299
 21
-438.35999803954371
 31
0.0
  0
LINE
  5
10D
  8
DETAIL
  6
CONTINUOUS
 62
     5
 10
92.497467361181407
 20
-447.7978547059335
 30
0.0
 11
92.497467361181407
 21
-438.35999803954371
 31
0.0
  0
ARC
  5
10E
  8
DETAIL
  6
CONTINUOUS
 62
     5
 10
101.00000000000171
 20
-451.79904653597328
 30
0.0
 40
3.200953464025404
 50
180.0
 51
0.0
  0
LINE
  5
10F
  8
DETAIL
  6
CONTINUOUS
 62
     5
 10
96.748737341047686
 20
-434.79398125833433
 30
0.0
 11
105.25126997998809
 21
-434.79398125833433
 31
0.0
  0
LINE
  5
110
  8
DETAIL
  6
CONTINUOUS
 62
     5
 10
105.5013408087833
 20
-434.79224913936878
 30
0.0
 11
105.5013408087833
 21
-436.79457717336737
 31
0.0
  0
LINE
  5
111
  8
DETAIL
  6
CONTINUOUS
 62
     5
 10
96.498659191212923
 20
-434.79224913936878
 30
0.0
 11
96.498659191212923
 21
-436.79457717336737
 31
0.0
  0
LINE
  5
112
  8
DETAIL
  6
CONTINUOUS
 62
     5
 10
107.0017877450444
 20
-451.79904653597328
 30
0.0
 11
109.5025326388167
 21
-447.7978547059335
 31
0.0
  0
LINE
  5
113
  8
DETAIL
  6
CONTINUOUS
 62
     5
 10
92.497467361183226
 20
-447.7978547059335
 30
0.0
 11
94.9982122549536
 21
-451.79904653597328
 31
0.0
  0
LINE
  5
114
  8
DETAIL
  6
CONTINUOUS
 62
     5
 10
107.0017877450444
 20
-451.79904653597328
 30
0.0
 11
94.9982122549536
 21
-451.79904653597328
 31
0.0
  0
LINE
  5
115
  8
DETAIL
  6
CONTINUOUS
 62
     5
 10
109.5025326388167
 20
-447.7978547059335
 30
0.0
 11
92.497467361183226
 21
-447.7978547059335
 31
0.0
  0
LINE
  5
116
  8
DETAIL
  6
CONTINUOUS
 62
     5
 10
109.2524581494399
 20
-436.79457717336737
 30
0.0
 11
92.747541850560069
 21
-436.79457717336737
 31
0.0
  0
LINE
  5
117
  8
DETAIL
  6
CONTINUOUS
 62
     5
 10
-197.50521425638539
 20
-448.0
 30
0.0
 11
-197.50521425638539
 21
-388.0
 31
0.0
  0
LINE
  5
118
  8
DETAIL
  6
CONTINUOUS
 62
     5
 10
-162.4947857436145
 20
-448.0
 30
0.0
 11
-162.49478574361609
 21
-388.0
 31
0.0
  0
LINE
  5
119
  8
DETAIL
  6
CONTINUOUS
 62
     5
 10
-162.4947857436145
 20
-448.0
 30
0.0
 11
-197.50521425638539
 21
-448.0
 31
0.0
  0
LINE
  5
11A
  8
DETAIL
  6
CONTINUOUS
 62
     5
 10
-317.00000000000182
 20
410.0000000000008
 30
0.0
 11
-317.0
 21
387.99999999999909
 31
0.0
  0
LINE
  5
11B
  8
DETAIL
  6
CONTINUOUS
 62
     5
 10
317.00000000000358
 20
387.99999999999909
 30
0.0
 11
317.00000000000358
 21
410.0000000000008
 31
0.0
  0
LINE
  5
11C
  8
DETAIL
  6
CONTINUOUS
 62
     5
 10
261.98361233707681
 20
410.0000000000008
 30
0.0
 11
-261.99255106230697
 21
410.0000000000008
 31
0.0
  0
LINE
  5
11D
  8
DETAIL
  6
CONTINUOUS
 62
     5
 10
124.4432606088812
 20
-397.12266766837951
 30
0.0
 11
124.4432606088812
 21
-388.0
 31
0.0
  0
LINE
  5
11E
  8
DETAIL
  6
CONTINUOUS
 62
     5
 10
148.4504115890667
 20
-397.12266766837951
 30
0.0
 11
148.4504115890667
 21
-388.0
 31
0.0
  0
LINE
  5
11F
  8
DETAIL
  6
CONTINUOUS
 62
     5
 10
145.44951771654451
 20
-397.64376742071369
 30
0.0
 11
127.4441544814034
 21
-397.64376742071369
 31
0.0
  0
LINE
  5
120
  8
DETAIL
  6
CONTINUOUS
 62
     5
 10
317.00000000000358
 20
388.0000000000004
 30
0.0
 11
-317.0
 21
388.0000000000004
 31
0.0
  0
LINE
  5
121
  8
BASIS
  6
DASHDOT
 62
     6
 10
540.98436666236012
 20
0.0
 30
0.0
 11
-540.98436666236012
 21
0.0
 31
0.0
  0
LINE
  5
122
  8
BASIS
  6
DASHDOT
 62
     6
 10
0.0
 20
572.64644409585549
 30
0.0
 11
0.0
 21
-572.64644409585469
 31
0.0
  0
CIRCLE
  5
123
  8
ARRANGE
  6
CONTINUOUS
 62
     1
 10
0.0
 20
0.0
 30
0.0
 40
40.0
  0
POINT
  5
124
  8
ARRANGE
  6
CONTINUOUS
 62
     1
 10
0.0
 20
0.0
 30
0.0
  0
LINE
  5
125
  8
DETAIL
  6
CONTINUOUS
 62
     5
 10
-317.00000000000182
 20
410.0000000000008
 30
0.0
 11
-317.0
 21
-410.00000000000682
 31
0.0
  0
LINE
  5
126
  8
DETAIL
  6
CONTINUOUS
 62
     5
 10
317.00000000000358
 20
443.20002672452028
 30
0.0
 11
317.00000000000358
 21
-409.99999999999841
 31
0.0
  0
LINE
  5
127
  8
SERVICESPACE
  6
DASHDOT
 62
     2
 10
335.0
 20
-520.0
 30
0.0
 11
335.0
 21
520.0000000000008
 31
0.0
  0
LINE
  5
128
  8
SERVICESPACE
  6
DASHDOT
 62
     2
 10
-335.0
 20
-520.0
 30
0.0
 11
-335.0
 21
520.0000000000008
 31
0.0
  0
LINE
  5
129
  8
NOTE
  6
CONTINUOUS
 62
     4
 10
-287.0
 20
392.0000000000004
 30
0.0
 11
-287.0
 21
432.00000000000023
 31
0.0
  0
LINE
  5
12A
  8
NOTE
  6
CONTINUOUS
 62
     4
 10
-307.0
 20
412.00000000000011
 30
0.0
 11
-267.0
 21
412.00000000000011
 31
0.0
  0
LINE
  5
12B
  8
NOTE
  6
CONTINUOUS
 62
     4
 10
-287.00000000000182
 20
392.0000000000004
 30
0.0
 11
-287.00000000000182
 21
432.00000000000023
 31
0.0
  0
LINE
  5
12C
  8
NOTE
  6
CONTINUOUS
 62
     4
 10
-307.00000000000182
 20
412.00000000000011
 30
0.0
 11
-267.00000000000182
 21
412.00000000000011
 31
0.0
  0
LINE
  5
12D
  8
NOTE
  6
CONTINUOUS
 62
     4
 10
266.9910612720285
 20
412.00000000000011
 30
0.0
 11
306.99106127202862
 21
412.00000000000011
 31
0.0
  0
LINE
  5
12E
  8
NOTE
  6
CONTINUOUS
 62
     4
 10
287.0
 20
392.00000000000091
 30
0.0
 11
287.0
 21
432.0000000000008
 31
0.0
  0
LINE
  5
12F
  8
NOTE
  6
CONTINUOUS
 62
     4
 10
266.9910612720268
 20
412.00000000000011
 30
0.0
 11
306.99106127202668
 21
412.00000000000011
 31
0.0
  0
LINE
  5
130
  8
DETAIL
  6
CONTINUOUS
 62
     5
 10
292.9928490198181
 20
-436.00000000000261
 30
0.0
 11
311.99851021246639
 21
-436.00000000000261
 31
0.0
  0
LINE
  5
131
  8
DETAIL
  6
CONTINUOUS
 62
     5
 10
261.98361233707681
 20
-436.00000000000261
 30
0.0
 11
280.98927352972532
 21
-436.00000000000261
 31
0.0
  0
LINE
  5
132
  8
DETAIL
  6
CONTINUOUS
 62
     5
 10
311.99851021246639
 20
-436.00000000000261
 30
0.0
 11
311.99851021246639
 21
-388.0
 31
0.0
  0
LINE
  5
133
  8
DETAIL
  6
CONTINUOUS
 62
     5
 10
261.98361233707681
 20
-436.00000000000261
 30
0.0
 11
261.9836123370751
 21
-388.0
 31
0.0
  0
LINE
  5
134
  8
DETAIL
  6
CONTINUOUS
 62
     5
 10
-280.99821225495538
 20
-436.00000000000261
 30
0.0
 11
-261.99255106230697
 21
-436.00000000000261
 31
0.0
  0
LINE
  5
135
  8
DETAIL
  6
CONTINUOUS
 62
     5
 10
-312.0074489376928
 20
-436.00000000000261
 30
0.0
 11
-293.00178774504622
 21
-436.00000000000261
 31
0.0
  0
LINE
  5
136
  8
DETAIL
  6
CONTINUOUS
 62
     5
 10
-280.99821225495538
 20
-419.0
 30
0.0
 11
-279.00208570255558
 21
-419.0
 31
0.0
  0
LINE
  5
137
  8
DETAIL
  6
CONTINUOUS
 62
     5
 10
-294.99791429744738
 20
-419.0
 30
0.0
 11
-293.00178774504622
 21
-419.0
 31
0.0
  0
LINE
  5
138
  8
DETAIL
  6
CONTINUOUS
 62
     5
 10
-294.99791429744738
 20
-405.0
 30
0.0
 11
-279.00208570255558
 21
-405.0
 31
0.0
  0
ARC
  5
139
  8
DETAIL
  6
CONTINUOUS
 62
     5
 10
-279.00208570255558
 20
-412.0
 30
0.0
 40
7.0
 50
270.0
 51
90.000000000000057
  0
ARC
  5
13A
  8
DETAIL
  6
CONTINUOUS
 62
     5
 10
-294.99791429744738
 20
-412.0000000000008
 30
0.0
 40
7.0
 50
90.000000000000057
 51
270.0
  0
LINE
  5
13B
  8
DETAIL
  6
CONTINUOUS
 62
     5
 10
-280.99821225495538
 20
-436.00000000000261
 30
0.0
 11
-280.99821225495538
 21
-419.0
 31
0.0
  0
LINE
  5
13C
  8
DETAIL
  6
CONTINUOUS
 62
     5
 10
-293.00178774504622
 20
-436.00000000000261
 30
0.0
 11
-293.00178774504622
 21
-419.0
 31
0.0
  0
LINE
  5
13D
  8
DETAIL
  6
CONTINUOUS
 62
     5
 10
-261.99255106230697
 20
-436.00000000000261
 30
0.0
 11
-261.99255106230879
 21
-388.0
 31
0.0
  0
LINE
  5
13E
  8
DETAIL
  6
CONTINUOUS
 62
     5
 10
-312.0074489376928
 20
-436.00000000000261
 30
0.0
 11
-312.0074489376928
 21
-388.0
 31
0.0
  0
LINE
  5
13F
  8
DETAIL
  6
CONTINUOUS
 62
     5
 10
-317.0
 20
-409.99999999999841
 30
0.0
 11
-317.0
 21
-388.0
 31
0.0
  0
LINE
  5
140
  8
DETAIL
  6
CONTINUOUS
 62
     5
 10
317.00000000000358
 20
-388.0
 30
0.0
 11
317.00000000000358
 21
-409.99999999999841
 31
0.0
  0
LINE
  5
141
  8
DETAIL
  6
CONTINUOUS
 62
     5
 10
261.98361233707681
 20
-409.99999999999841
 30
0.0
 11
192.00625710766141
 21
-410.0
 31
0.0
  0
LINE
  5
142
  8
DETAIL
  6
CONTINUOUS
 62
     5
 10
-272.29388177005637
 20
-409.99999999999841
 30
0.0
 11
-301.7061182299467
 21
-409.99999999999841
 31
0.0
  0
LINE
  5
143
  8
DETAIL
  6
CONTINUOUS
 62
     5
 10
317.00000000000352
 20
-388.0
 30
0.0
 11
-317.0
 21
-388.0
 31
0.0
  0
LINE
  5
144
  8
NOTE
  6
CONTINUOUS
 62
     4
 10
-287.0
 20
-391.99999999999852
 30
0.0
 11
-287.0
 21
-431.99999999999852
 31
0.0
  0
LINE
  5
145
  8
NOTE
  6
CONTINUOUS
 62
     4
 10
-307.0
 20
-411.99999999999852
 30
0.0
 11
-267.0
 21
-411.99999999999852
 31
0.0
  0
LINE
  5
146
  8
NOTE
  6
CONTINUOUS
 62
     4
 10
-287.00000000000182
 20
-391.99999999999852
 30
0.0
 11
-287.00000000000182
 21
-432.0
 31
0.0
  0
LINE
  5
147
  8
NOTE
  6
CONTINUOUS
 62
     4
 10
-307.00000000000182
 20
-412.0
 30
0.0
 11
-267.00000000000182
 21
-412.0
 31
0.0
  0
LINE
  5
148
  8
NOTE
  6
CONTINUOUS
 62
     4
 10
287.00000000000182
 20
-391.99999999999773
 30
0.0
 11
287.00000000000182
 21
-431.99999999999773
 31
0.0
  0
LINE
  5
149
  8
NOTE
  6
CONTINUOUS
 62
     4
 10
266.9910612720285
 20
-411.99999999999852
 30
0.0
 11
306.99106127202862
 21
-411.99999999999852
 31
0.0
  0
LINE
  5
14A
  8
NOTE
  6
CONTINUOUS
 62
     4
 10
287.0
 20
-391.99999999999852
 30
0.0
 11
287.0
 21
-431.99999999999852
 31
0.0
  0
LINE
  5
14B
  8
NOTE
  6
CONTINUOUS
 62
     4
 10
266.9910612720268
 20
-412.0
 30
0.0
 11
306.99106127202668
 21
-412.0
 31
0.0
  0
LINE
  5
14C
  8
DETAIL
  6
CONTINUOUS
 62
     5
 10
-197.50521425638539
 20
-409.99999999999841
 30
0.0
 11
-261.99255106230697
 21
-410.0
 31
0.0
  0
LINE
  5
14D
  8
DETAIL
  6
CONTINUOUS
 62
     5
 10
-108.0321794108258
 20
-409.99999999999841
 30
0.0
 11
-162.49478574361541
 21
-409.99999999999841
 31
0.0
  0
LINE
  5
14E
  8
NOTE
  6
CONTINUOUS
 62
     4
 10
170.99999999999631
 20
-445.99999999999829
 30
0.0
 11
170.99999999999631
 21
-485.99999999999841
 31
0.0
  0
LINE
  5
14F
  8
NOTE
  6
CONTINUOUS
 62
     4
 10
150.99999999998181
 20
-465.9999999999651
 30
0.0
 11
190.99999999998181
 21
-465.9999999999651
 31
0.0
  0
LINE
  5
150
  8
NOTE
  6
CONTINUOUS
 62
     4
 10
100.999999999998
 20
-434.99999999999773
 30
0.0
 11
100.999999999998
 21
-474.99999999999773
 31
0.0
  0
LINE
  5
151
  8
NOTE
  6
CONTINUOUS
 62
     4
 10
80.999999999998181
 20
-455.00000000033589
 30
0.0
 11
120.9999999999981
 21
-455.00000000033589
 31
0.0
  0
LINE
  5
152
  8
DETAIL
  6
CONTINUOUS
 62
     5
 10
79.993742892336726
 20
-409.99999999999841
 30
0.0
 11
30.00893872524011
 21
-409.99999999999841
 31
0.0
  0
LINE
  5
153
  8
DETAIL
  6
CONTINUOUS
 62
     5
 10
149.9937428923385
 20
-410.0
 30
0.0
 11
122.0062571076632
 21
-409.99999999999841
 31
0.0
  0
LINE
  5
154
  8
OUTLINE
  6
CONTINUOUS
 62
     3
 10
339.0
 20
540.00000000000045
 30
0.0
 11
-339.0
 21
540.00000000000045
 31
0.0
  0
LINE
  5
155
  8
DETAIL
  6
CONTINUOUS
 62
     5
 10
339.0
 20
540.00000000000045
 30
0.0
 11
-339.0
 21
540.00000000000045
 31
0.0
  0
ARC
  5
156
  8
OUTLINE
  6
CONTINUOUS
 62
     3
 10
-339.0
 20
524.0000000000008
 30
0.0
 40
16.0
 50
90.0
 51
180.0
  0
ARC
  5
157
  8
DETAIL
  6
CONTINUOUS
 62
     5
 10
-339.0
 20
524.0000000000008
 30
0.0
 40
16.0
 50
90.0
 51
180.0
  0
ARC
  5
158
  8
OUTLINE
  6
CONTINUOUS
 62
     3
 10
339.0
 20
524.0000000000008
 30
0.0
 40
16.0
 50
0.0
 51
90.0
  0
ARC
  5
159
  8
DETAIL
  6
CONTINUOUS
 62
     5
 10
339.0
 20
524.0000000000008
 30
0.0
 40
16.0
 50
0.0
 51
90.0
  0
LINE
  5
15A
  8
OUTLINE
  6
CONTINUOUS
 62
     3
 10
339.0
 20
-540.0
 30
0.0
 11
-339.0
 21
-540.0
 31
0.0
  0
LINE
  5
15B
  8
DETAIL
  6
CONTINUOUS
 62
     5
 10
339.0
 20
-540.0
 30
0.0
 11
-339.0
 21
-540.0
 31
0.0
  0
ARC
  5
15C
  8
OUTLINE
  6
CONTINUOUS
 62
     3
 10
-339.0
 20
-524.0
 30
0.0
 40
16.0
 50
180.0
 51
270.0
  0
ARC
  5
15D
  8
DETAIL
  6
CONTINUOUS
 62
     5
 10
-339.0
 20
-524.0
 30
0.0
 40
16.0
 50
180.0
 51
270.0
  0
ARC
  5
15E
  8
OUTLINE
  6
CONTINUOUS
 62
     3
 10
339.0
 20
-524.0
 30
0.0
 40
16.0
 50
270.0
 51
0.0
  0
ARC
  5
15F
  8
DETAIL
  6
CONTINUOUS
 62
     5
 10
339.0
 20
-524.0
 30
0.0
 40
16.0
 50
270.0
 51
0.0
  0
LINE
  5
160
  8
DETAIL
  6
CONTINUOUS
 62
     5
 10
355.0
 20
-524.0
 30
0.0
 11
355.0
 21
-166.70000564140761
 31
0.0
  0
LINE
  5
161
  8
OUTLINE
  6
CONTINUOUS
 62
     3
 10
355.0
 20
-524.0
 30
0.0
 11
355.0
 21
524.0000000000008
 31
0.0
  0
LINE
  5
162
  8
DETAIL
  6
CONTINUOUS
 62
     5
 10
-355.0
 20
-524.0
 30
0.0
 11
-355.0
 21
-166.70000564140761
 31
0.0
  0
LINE
  5
163
  8
OUTLINE
  6
CONTINUOUS
 62
     3
 10
-355.0
 20
-524.0
 30
0.0
 11
-355.0
 21
524.0000000000008
 31
0.0
  0
LINE
  5
164
  8
SIZE
  6
CONTINUOUS
 62
    30
 10
-335.0
 20
540.0000000000008
 30
0.0
 11
-335.0
 21
742.45587858226304
 31
0.0
  0
LINE
  5
165
  8
SIZE
  6
CONTINUOUS
 62
    30
 10
-287.00000000000182
 20
452.0000000000004
 30
0.0
 11
-287.00000000000182
 21
742.45587858226304
 31
0.0
  0
LINE
  5
166
  8
SIZE
  6
CONTINUOUS
 62
    30
 10
-287.00000000000182
 20
722.45587858226304
 30
0.0
 11
-335.0
 21
722.45587858226304
 31
0.0
  0
LINE
  5
167
  8
SIZE
  6
CONTINUOUS
 62
    30
 10
-335.0
 20
722.45587858226304
 30
0.0
 11
-492.42857142857139
 21
722.45587858226304
 31
0.0
  0
CIRCLE
  5
168
  8
SIZE
  6
CONTINUOUS
 62
    30
 10
-287.00000000000182
 20
722.45587858226304
 30
0.0
 40
7.5
  0
CIRCLE
  5
169
  8
SIZE
  6
CONTINUOUS
 62
    30
 10
-335.0
 20
722.45587858226304
 30
0.0
 40
7.5
  0
TEXT
  5
16A
  8
SIZE
  6
CONTINUOUS
 62
    30
 10
-472.42857142857139
 20
742.45587858226304
 30
0.0
 40
60.0
  1
48
 41
0.9
 72
     1
 11
-428.71428571428561
 21
742.45587858226304
 31
0.0
  0
POINT
  5
16B
  8
DEFPOINTS
  6
CONTINUOUS
 62
     7
 10
-335.0
 20
520.0000000000008
 30
0.0
  0
POINT
  5
16C
  8
DEFPOINTS
  6
CONTINUOUS
 62
     7
 10
-287.00000000000182
 20
432.00000000000023
 30
0.0
  0
POINT
  5
16D
  8
DEFPOINTS
  6
CONTINUOUS
 62
     7
 10
-287.00000000000182
 20
722.45587858226304
 30
0.0
  0
LINE
  5
16E
  8
SIZE
  6
CONTINUOUS
 62
    30
 10
-335.0
 20
540.0000000000008
 30
0.0
 11
-335.0
 21
891.58761015269135
 31
0.0
  0
LINE
  5
16F
  8
SIZE
  6
CONTINUOUS
 62
    30
 10
334.99999999999972
 20
540.0000000000008
 30
0.0
 11
334.99999999999972
 21
891.58761015269135
 31
0.0
  0
LINE
  5
170
  8
SIZE
  6
CONTINUOUS
 62
    30
 10
-335.0
 20
871.58761015269135
 30
0.0
 11
334.99999999999972
 21
871.58761015269135
 31
0.0
  0
CIRCLE
  5
171
  8
SIZE
  6
CONTINUOUS
 62
    30
 10
-335.0
 20
871.58761015269135
 30
0.0
 40
7.5
  0
CIRCLE
  5
172
  8
SIZE
  6
CONTINUOUS
 62
    30
 10
334.99999999999972
 20
871.58761015269135
 30
0.0
 40
7.5
  0
TEXT
  5
173
  8
SIZE
  6
CONTINUOUS
 62
    30
 10
-298.54285714285709
 20
890.30189586697725
 30
0.0
 40
60.0
  1
670(天井開口寸法)
 41
0.9
 72
     1
 11
-0.0000000000000568
 21
890.30189586697725
 31
0.0
  0
POINT
  5
174
  8
DEFPOINTS
  6
CONTINUOUS
 62
     7
 10
-335.0
 20
520.0000000000008
 30
0.0
  0
POINT
  5
175
  8
DEFPOINTS
  6
CONTINUOUS
 62
     7
 10
334.99999999999972
 20
520.0000000000008
 30
0.0
  0
POINT
  5
176
  8
DEFPOINTS
  6
CONTINUOUS
 62
     7
 10
334.99999999999972
 20
871.58761015269135
 30
0.0
  0
LINE
  5
177
  8
SIZE
  6
CONTINUOUS
 62
    30
 10
-355.0
 20
544.0000000000008
 30
0.0
 11
-354.99999999999977
 21
1021.6604302293121
 31
0.0
  0
LINE
  5
178
  8
SIZE
  6
CONTINUOUS
 62
    30
 10
354.99999999999977
 20
544.0000000000008
 30
0.0
 11
354.99999999999977
 21
1021.6604302293121
 31
0.0
  0
LINE
  5
179
  8
SIZE
  6
CONTINUOUS
 62
    30
 10
-354.99999999999977
 20
1001.6604302293121
 30
0.0
 11
354.99999999999977
 21
1001.6604302293121
 31
0.0
  0
CIRCLE
  5
17A
  8
SIZE
  6
CONTINUOUS
 62
    30
 10
-354.99999999999977
 20
1001.6604302293121
 30
0.0
 40
7.5
  0
CIRCLE
  5
17B
  8
SIZE
  6
CONTINUOUS
 62
    30
 10
354.99999999999977
 20
1001.6604302293121
 30
0.0
 40
7.5
  0
TEXT
  5
17C
  8
SIZE
  6
CONTINUOUS
 62
    30
 10
-64.285714285714306
 20
1021.6604302293121
 30
0.0
 40
60.0
  1
710
 41
0.9
 72
     1
 11
-0.0000000000000284
 21
1021.6604302293121
 31
0.0
  0
POINT
  5
17D
  8
DEFPOINTS
  6
CONTINUOUS
 62
     7
 10
-355.0
 20
524.0000000000008
 30
0.0
  0
POINT
  5
17E
  8
DEFPOINTS
  6
CONTINUOUS
 62
     7
 10
354.99999999999977
 20
524.0000000000008
 30
0.0
  0
POINT
  5
17F
  8
DEFPOINTS
  6
CONTINUOUS
 62
     7
 10
354.99999999999977
 20
1001.6604302293121
 30
0.0
  0
LINE
  5
181
  8
SIZE
  6
CONTINUOUS
 62
    30
 10
-227.70055882352389
 20
-448.0
 30
0.0
 11
-700.99854445873609
 21
-447.99999999999949
 31
0.0
  0
LINE
  5
182
  8
SIZE
  6
CONTINUOUS
 62
    30
 10
-680.99854445873586
 20
-387.99999999999989
 30
0.0
 11
-680.99854445873586
 21
-447.99999999999949
 31
0.0
  0
LINE
  5
183
  8
SIZE
  6
CONTINUOUS
 62
    30
 10
-680.99854445873586
 20
-447.99999999999949
 30
0.0
 11
-680.99854445873586
 21
-716.87547158059886
 31
0.0
  0
CIRCLE
  5
184
  8
SIZE
  6
CONTINUOUS
 62
    30
 10
-680.99854445873586
 20
-387.99999999999989
 30
0.0
 40
7.5
  0
CIRCLE
  5
185
  8
SIZE
  6
CONTINUOUS
 62
    30
 10
-680.99854445873586
 20
-447.99999999999949
 30
0.0
 40
7.5
  0
TEXT
  5
186
  8
SIZE
  6
CONTINUOUS
 62
    30
 10
-716.71283017302164
 20
-701.43851749524754
 30
0.0
 40
60.0
  1
(60)
 50
90.0
 41
0.9
 72
     1
 11
-716.71283017302164
 21
-623.00994606667598
 31
0.0
  0
POINT
  5
187
  8
DEFPOINTS
  6
CONTINUOUS
 62
     7
 10
-317.0
 20
-388.0
 30
0.0
  0
POINT
  5
188
  8
DEFPOINTS
  6
CONTINUOUS
 62
     7
 10
-207.70055882352381
 20
-448.0
 30
0.0
  0
POINT
  5
189
  8
DEFPOINTS
  6
CONTINUOUS
 62
     7
 10
-680.99854445873586
 20
-447.99999999999949
 30
0.0
  0
LINE
  5
18A
  8
SIZE
  6
CONTINUOUS
 62
    30
 10
140.99999999999801
 20
-455.00000000033589
 30
0.0
 11
697.93599899079652
 21
-455.000000000336
 31
0.0
  0
LINE
  5
18B
  8
SIZE
  6
CONTINUOUS
 62
    30
 10
337.00000000000352
 20
-388.0
 30
0.0
 11
697.93599899079652
 21
-388.00000000000011
 31
0.0
  0
LINE
  5
18C
  8
SIZE
  6
CONTINUOUS
 62
    30
 10
677.93599899079652
 20
-455.000000000336
 30
0.0
 11
677.93599899079652
 21
-388.00000000000011
 31
0.0
  0
LINE
  5
18D
  8
SIZE
  6
CONTINUOUS
 62
    30
 10
677.93599899079652
 20
-388.00000000000011
 30
0.0
 11
677.93599899079663
 21
-161.14285714285609
 31
0.0
  0
CIRCLE
  5
18E
  8
SIZE
  6
CONTINUOUS
 62
    30
 10
677.93599899079652
 20
-455.000000000336
 30
0.0
 40
7.5
  0
CIRCLE
  5
18F
  8
SIZE
  6
CONTINUOUS
 62
    30
 10
677.93599899079652
 20
-388.00000000000011
 30
0.0
 40
7.5
  0
TEXT
  5
190
  8
SIZE
  6
CONTINUOUS
 62
    30
 10
642.22171327651085
 20
-371.17047709646431
 30
0.0
 40
60.0
  1
(67)
 50
90.0
 41
0.9
 72
     1
 11
642.22171327651085
 21
-292.74190566789292
 31
0.0
  0
POINT
  5
191
  8
DEFPOINTS
  6
CONTINUOUS
 62
     7
 10
120.9999999999981
 20
-455.00000000033589
 30
0.0
  0
POINT
  5
192
  8
DEFPOINTS
  6
CONTINUOUS
 62
     7
 10
317.00000000000352
 20
-388.0
 30
0.0
  0
POINT
  5
193
  8
DEFPOINTS
  6
CONTINUOUS
 62
     7
 10
677.93599899079652
 20
-388.00000000000011
 30
0.0
  0
LINE
  5
194
  8
SIZE
  6
CONTINUOUS
 62
    30
 10
210.99999999998161
 20
-465.9999999999651
 30
0.0
 11
861.10066881611419
 21
-465.99999999996561
 31
0.0
  0
LINE
  5
195
  8
SIZE
  6
CONTINUOUS
 62
    30
 10
337.00000000000352
 20
-388.0
 30
0.0
 11
861.10066881611419
 21
-388.00000000000011
 31
0.0
  0
LINE
  5
196
  8
SIZE
  6
CONTINUOUS
 62
    30
 10
841.10066881611419
 20
-465.99999999996561
 30
0.0
 11
841.10066881611419
 21
-388.00000000000011
 31
0.0
  0
LINE
  5
197
  8
SIZE
  6
CONTINUOUS
 62
    30
 10
841.10066881611419
 20
-388.00000000000011
 30
0.0
 11
841.10066881611419
 21
-161.14285714285731
 31
0.0
  0
CIRCLE
  5
198
  8
SIZE
  6
CONTINUOUS
 62
    30
 10
841.10066881611419
 20
-465.99999999996561
 30
0.0
 40
7.5
  0
CIRCLE
  5
199
  8
SIZE
  6
CONTINUOUS
 62
    30
 10
841.10066881611419
 20
-388.00000000000011
 30
0.0
 40
7.5
  0
TEXT
  5
19A
  8
SIZE
  6
CONTINUOUS
 62
    30
 10
805.38638310182864
 20
-366.02154078607418
 30
0.0
 40
60.0
  1
(78)
 50
90.0
 41
0.9
 72
     1
 11
805.38638310182864
 21
-287.5929693575028
 31
0.0
  0
POINT
  5
19B
  8
DEFPOINTS
  6
CONTINUOUS
 62
     7
 10
190.99999999998161
 20
-465.9999999999651
 30
0.0
  0
POINT
  5
19C
  8
DEFPOINTS
  6
CONTINUOUS
 62
     7
 10
317.00000000000352
 20
-388.0
 30
0.0
  0
POINT
  5
19D
  8
DEFPOINTS
  6
CONTINUOUS
 62
     7
 10
841.10066881611419
 20
-388.00000000000011
 30
0.0
  0
LINE
  5
1A0
  8
SIZE
  6
CONTINUOUS
 62
    30
 10
-907.20606207500475
 20
412.0000000000008
 30
0.0
 11
-907.20606207500475
 21
520.00000000000159
 31
0.0
  0
LINE
  5
1A1
  8
SIZE
  6
CONTINUOUS
 62
    30
 10
-907.20606207500475
 20
520.00000000000159
 30
0.0
 11
-907.20606207500475
 21
718.57142857143003
 31
0.0
  0
CIRCLE
  5
1A2
  8
SIZE
  6
CONTINUOUS
 62
    30
 10
-907.20606207500475
 20
412.0000000000008
 30
0.0
 40
7.5
  0
CIRCLE
  5
1A3
  8
SIZE
  6
CONTINUOUS
 62
    30
 10
-907.20606207500475
 20
520.00000000000159
 30
0.0
 40
7.5
  0
TEXT
  5
1A4
  8
SIZE
  6
CONTINUOUS
 62
    30
 10
-926.95440021279126
 20
570.00000000000171
 30
0.0
 40
60.0
  1
108
 50
90.0
 41
0.9
 72
     1
 11
-926.95440021279126
 21
634.28571428571604
 31
0.0
  0
POINT
  5
1A5
  8
DEFPOINTS
  6
CONTINUOUS
 62
     7
 10
334.99999999999972
 20
520.0000000000008
 30
0.0
  0
POINT
  5
1A6
  8
DEFPOINTS
  6
CONTINUOUS
 62
     7
 10
306.99106127202668
 20
412.00000000000011
 30
0.0
  0
POINT
  5
1A7
  8
DEFPOINTS
  6
CONTINUOUS
 62
     7
 10
-907.20606207500475
 20
412.0000000000008
 30
0.0
 50
179.99999999999989
  0
LINE
  5
1A8
  8
SIZE
  6
CONTINUOUS
 62
    30
 10
-331.7278047914433
 20
412.00000000000011
 30
0.0
 11
-936.68090464702243
 21
412.0000000000008
 31
0.0
  0
LINE
  5
1AA
  8
SIZE
  6
CONTINUOUS
 62
    30
 10
-907.20606207500475
 20
412.0000000000008
 30
0.0
 11
-907.20606207500475
 21
-411.99999999999909
 31
0.0
  0
CIRCLE
  5
1AB
  8
SIZE
  6
CONTINUOUS
 62
    30
 10
-907.20606207500475
 20
412.0000000000008
 30
0.0
 40
7.5
  0
CIRCLE
  5
1AC
  8
SIZE
  6
CONTINUOUS
 62
    30
 10
-907.20606207500475
 20
-411.99999999999909
 30
0.0
 40
7.5
  0
TEXT
  5
1AD
  8
SIZE
  6
CONTINUOUS
 62
    30
 10
-936.33096149635435
 20
-282.34285714285602
 30
0.0
 40
60.0
  1
824(吊りﾎﾞﾙﾄﾋﾟｯﾁ)
 50
90.0
 41
0.9
 72
     1
 11
-936.33096149635435
 21
0.0000000000011937
 31
0.0
  0
POINT
  5
1AE
  8
DEFPOINTS
  6
CONTINUOUS
 62
     7
 10
306.99106127202668
 20
412.00000000000011
 30
0.0
  0
POINT
  5
1AF
  8
DEFPOINTS
  6
CONTINUOUS
 62
     7
 10
306.99106127202668
 20
-412.0
 30
0.0
  0
POINT
  5
1B0
  8
DEFPOINTS
  6
CONTINUOUS
 62
     7
 10
-907.20606207500475
 20
-411.99999999999909
 30
0.0
 50
179.99999999999989
  0
LINE
  5
1B1
  8
SIZE
  6
CONTINUOUS
 62
    30
 10
-331.72780479144598
 20
-411.99999999999852
 30
0.0
 11
-932.88798714266875
 21
-411.99999999999773
 31
0.0
  0
LINE
  5
1B3
  8
SIZE
  6
CONTINUOUS
 62
    30
 10
-907.20606207500475
 20
-411.99999999999773
 30
0.0
 11
-907.20606207500475
 21
-519.9999999999992
 31
0.0
  0
LINE
  5
1B4
  8
SIZE
  6
CONTINUOUS
 62
    30
 10
-907.20606207500475
 20
-743.42447096281296
 30
0.0
 11
-907.20606207500475
 21
-519.9999999999992
 31
0.0
  0
TEXT
  5
1B5
  8
SIZE
  6
CONTINUOUS
 62
    30
 10
-917.5778389292243
 20
-723.42447096281285
 30
0.0
 40
60.0
  1
108
 50
90.0
 41
0.9
 72
     1
 11
-917.5778389292243
 21
-659.1387566770984
 31
0.0
  0
CIRCLE
  5
1B6
  8
SIZE
  6
CONTINUOUS
 62
    30
 10
-907.20606207500475
 20
-411.99999999999773
 30
0.0
 40
7.5
  0
CIRCLE
  5
1B7
  8
SIZE
  6
CONTINUOUS
 62
    30
 10
-907.20606207500475
 20
-519.9999999999992
 30
0.0
 40
7.5
  0
POINT
  5
1B8
  8
DEFPOINTS
  6
CONTINUOUS
 62
     7
 10
306.99106127202862
 20
-411.99999999999852
 30
0.0
  0
POINT
  5
1B9
  8
DEFPOINTS
  6
CONTINUOUS
 62
     7
 10
334.99999999999972
 20
-520.0
 30
0.0
  0
POINT
  5
1BA
  8
DEFPOINTS
  6
CONTINUOUS
 62
     7
 10
-907.20606207500475
 20
-519.9999999999992
 30
0.0
 50
179.99999999999989
  0
LINE
  5
1BD
  8
SIZE
  6
CONTINUOUS
 62
    30
 10
-1050.3973527132091
 20
520.00000000000171
 30
0.0
 11
-1050.3973527132091
 21
490.00000000000142
 31
0.0
  0
LINE
  5
1BE
  8
SIZE
  6
CONTINUOUS
 62
    30
 10
-1050.3973527132091
 20
540.00000000000125
 30
0.0
 11
-1050.3973527132091
 21
727.42857142857247
 31
0.0
  0
LINE
  5
1BF
  8
SIZE
  6
CONTINUOUS
 62
    30
 10
-1050.3973527132091
 20
520.00000000000171
 30
0.0
 11
-1050.3973527132091
 21
540.00000000000125
 31
0.0
  0
CIRCLE
  5
1C0
  8
SIZE
  6
CONTINUOUS
 62
    30
 10
-1050.3973527132091
 20
520.00000000000171
 30
0.0
 40
7.5
  0
CIRCLE
  5
1C1
  8
SIZE
  6
CONTINUOUS
 62
    30
 10
-1050.3973527132091
 20
540.00000000000125
 30
0.0
 40
7.5
  0
TEXT
  5
1C2
  8
SIZE
  6
CONTINUOUS
 62
    30
 10
-1072.291100108032
 20
620.00000000000159
 30
0.0
 40
60.0
  1
20
 50
90.0
 41
0.9
 72
     1
 11
-1072.291100108032
 21
663.71428571428714
 31
0.0
  0
POINT
  5
1C3
  8
DEFPOINTS
  6
CONTINUOUS
 62
     7
 10
338.99999999999972
 20
540.00000000000045
 30
0.0
  0
POINT
  5
1C4
  8
DEFPOINTS
  6
CONTINUOUS
 62
     7
 10
334.99999999999972
 20
520.0000000000008
 30
0.0
  0
POINT
  5
1C5
  8
DEFPOINTS
  6
CONTINUOUS
 62
     7
 10
-1050.3973527132091
 20
520.00000000000171
 30
0.0
 50
179.99999999999989
  0
LINE
  5
1C6
  8
SIZE
  6
CONTINUOUS
 62
    30
 10
-359.73674351941639
 20
520.0000000000008
 30
0.0
 11
-1074.879978339693
 21
520.00000000000171
 31
0.0
  0
LINE
  5
1C8
  8
SIZE
  6
CONTINUOUS
 62
    30
 10
-1050.3973527132091
 20
520.00000000000171
 30
0.0
 11
-1050.39735271321
 21
-519.9999999999992
 31
0.0
  0
CIRCLE
  5
1C9
  8
SIZE
  6
CONTINUOUS
 62
    30
 10
-1050.3973527132091
 20
520.00000000000171
 30
0.0
 40
7.5
  0
CIRCLE
  5
1CA
  8
SIZE
  6
CONTINUOUS
 62
    30
 10
-1050.39735271321
 20
-519.9999999999992
 30
0.0
 40
7.5
  0
TEXT
  5
1CB
  8
SIZE
  6
CONTINUOUS
 62
    30
 10
-1081.667661391594
 20
-333.51428571428409
 30
0.0
 40
60.0
  1
1040（天井開口寸法)
 50
90.0
 41
0.9
 72
     1
 11
-1081.667661391594
 21
0.0000000000015348
 31
0.0
  0
POINT
  5
1CC
  8
DEFPOINTS
  6
CONTINUOUS
 62
     7
 10
334.99999999999972
 20
520.0000000000008
 30
0.0
  0
POINT
  5
1CD
  8
DEFPOINTS
  6
CONTINUOUS
 62
     7
 10
334.99999999999972
 20
-520.0
 30
0.0
  0
POINT
  5
1CE
  8
DEFPOINTS
  6
CONTINUOUS
 62
     7
 10
-1050.39735271321
 20
-519.9999999999992
 30
0.0
 50
179.99999999999989
  0
LINE
  5
1D0
  8
SIZE
  6
CONTINUOUS
 62
    30
 10
-336.73525373188249
 20
388.00000000000051
 30
0.0
 11
-1214.211130521978
 21
388.00000000000119
 31
0.0
  0
LINE
  5
1D1
  8
SIZE
  6
CONTINUOUS
 62
    30
 10
-1187.6729632940469
 20
540.00000000000125
 30
0.0
 11
-1187.672963294046
 21
388.00000000000119
 31
0.0
  0
CIRCLE
  5
1D2
  8
SIZE
  6
CONTINUOUS
 62
    30
 10
-1187.6729632940469
 20
540.00000000000125
 30
0.0
 40
7.5
  0
CIRCLE
  5
1D3
  8
SIZE
  6
CONTINUOUS
 62
    30
 10
-1187.672963294046
 20
388.00000000000119
 30
0.0
 40
7.5
  0
TEXT
  5
1D4
  8
SIZE
  6
CONTINUOUS
 62
    30
 10
-1203.5629295786059
 20
399.7142857142872
 30
0.0
 40
60.0
  1
152
 50
90.0
 41
0.9
 72
     1
 11
-1203.5629295786059
 21
464.00000000000142
 31
0.0
  0
POINT
  5
1D5
  8
DEFPOINTS
  6
CONTINUOUS
 62
     7
 10
338.99999999999972
 20
540.00000000000045
 30
0.0
  0
POINT
  5
1D6
  8
DEFPOINTS
  6
CONTINUOUS
 62
     7
 10
311.99851021246639
 20
388.0000000000004
 30
0.0
  0
POINT
  5
1D7
  8
DEFPOINTS
  6
CONTINUOUS
 62
     7
 10
-1187.672963294046
 20
388.00000000000119
 30
0.0
 50
179.99999999999989
  0
LINE
  5
1D8
  8
SIZE
  6
CONTINUOUS
 62
    30
 10
-341.73674351941997
 20
387.99999999999909
 30
0.0
 11
-1214.2111305219771
 21
387.99999999999977
 31
0.0
  0
LINE
  5
1D9
  8
SIZE
  6
CONTINUOUS
 62
    30
 10
-341.736743519421
 20
-387.99999999999989
 30
0.0
 11
-1212.0892706476679
 21
-387.99999999999909
 31
0.0
  0
LINE
  5
1DA
  8
SIZE
  6
CONTINUOUS
 62
    30
 10
-1187.672963294046
 20
387.99999999999977
 30
0.0
 11
-1187.6729632940469
 21
-387.99999999999909
 31
0.0
  0
CIRCLE
  5
1DB
  8
SIZE
  6
CONTINUOUS
 62
    30
 10
-1187.672963294046
 20
387.99999999999977
 30
0.0
 40
7.5
  0
CIRCLE
  5
1DC
  8
SIZE
  6
CONTINUOUS
 62
    30
 10
-1187.6729632940469
 20
-387.99999999999909
 30
0.0
 40
7.5
  0
TEXT
  5
1DD
  8
SIZE
  6
CONTINUOUS
 62
    30
 10
-1203.5629295786059
 20
-68.142857142856485
 30
0.0
 40
60.0
  1
776
 50
90.0
 41
0.9
 72
     1
 11
-1203.5629295786059
 21
0.0000000000006679
 31
0.0
  0
POINT
  5
1DE
  8
DEFPOINTS
  6
CONTINUOUS
 62
     7
 10
317.00000000000358
 20
387.99999999999909
 30
0.0
  0
POINT
  5
1DF
  8
DEFPOINTS
  6
CONTINUOUS
 62
     7
 10
317.00000000000352
 20
-388.0
 30
0.0
  0
POINT
  5
1E0
  8
DEFPOINTS
  6
CONTINUOUS
 62
     7
 10
-1187.6729632940469
 20
-387.99999999999909
 30
0.0
 50
179.99999999999989
  0
LINE
  5
1E1
  8
SIZE
  6
CONTINUOUS
 62
    30
 10
-341.736743519421
 20
-387.99999999999989
 30
0.0
 11
-1212.08927064767
 21
-387.99999999999909
 31
0.0
  0
LINE
  5
1E3
  8
SIZE
  6
CONTINUOUS
 62
    30
 10
-1187.6729632940469
 20
-387.99999999999909
 30
0.0
 11
-1187.6729632940469
 21
-539.9999999999992
 31
0.0
  0
TEXT
  5
1E4
  8
SIZE
  6
CONTINUOUS
 62
    30
 10
-1205.9070841491589
 20
-528.28571428571286
 30
0.0
 40
60.0
  1
152
 50
90.0
 41
0.9
 72
     1
 11
-1205.9070841491589
 21
-463.99999999999858
 31
0.0
  0
CIRCLE
  5
1E5
  8
SIZE
  6
CONTINUOUS
 62
    30
 10
-1187.6729632940469
 20
-387.99999999999909
 30
0.0
 40
7.5
  0
CIRCLE
  5
1E6
  8
SIZE
  6
CONTINUOUS
 62
    30
 10
-1187.6729632940469
 20
-539.9999999999992
 30
0.0
 40
7.5
  0
POINT
  5
1E7
  8
DEFPOINTS
  6
CONTINUOUS
 62
     7
 10
317.00000000000352
 20
-388.0
 30
0.0
  0
POINT
  5
1E8
  8
DEFPOINTS
  6
CONTINUOUS
 62
     7
 10
338.99999999999972
 20
-540.0
 30
0.0
  0
POINT
  5
1E9
  8
DEFPOINTS
  6
CONTINUOUS
 62
     7
 10
-1187.6729632940469
 20
-539.9999999999992
 30
0.0
 50
179.99999999999989
  0
LINE
  5
1EA
  8
SIZE
  6
CONTINUOUS
 62
    30
 10
-363.73674351941639
 20
540.00000000000045
 30
0.0
 11
-1360.1952779696951
 21
540.00000000000125
 31
0.0
  0
LINE
  5
1EC
  8
SIZE
  6
CONTINUOUS
 62
    30
 10
-1335.666008970386
 20
540.00000000000125
 30
0.0
 11
-1335.6660089703871
 21
-539.99999999999955
 31
0.0
  0
CIRCLE
  5
1ED
  8
SIZE
  6
CONTINUOUS
 62
    30
 10
-1335.666008970386
 20
540.00000000000125
 30
0.0
 40
7.5
  0
CIRCLE
  5
1EE
  8
SIZE
  6
CONTINUOUS
 62
    30
 10
-1335.6660089703871
 20
-539.99999999999955
 30
0.0
 40
7.5
  0
TEXT
  5
1EF
  8
SIZE
  6
CONTINUOUS
 62
    30
 10
-1358.2761622580911
 20
-89.999999999998906
 30
0.0
 40
60.0
  1
1080
 50
90.0
 41
0.9
 72
     1
 11
-1358.2761622580911
 21
0.00000000000108
 31
0.0
  0
POINT
  5
1F0
  8
DEFPOINTS
  6
CONTINUOUS
 62
     7
 10
339.0
 20
540.00000000000045
 30
0.0
  0
POINT
  5
1F1
  8
DEFPOINTS
  6
CONTINUOUS
 62
     7
 10
338.99999999999972
 20
-540.0000000000008
 30
0.0
  0
POINT
  5
1F2
  8
DEFPOINTS
  6
CONTINUOUS
 62
     7
 10
-1335.6660089703871
 20
-539.99999999999955
 30
0.0
 50
179.99999999999989
  0
LINE
  5
1F3
  8
SIZE
  6
CONTINUOUS
 62
    30
 10
317.00000000000352
 20
-429.99999999999829
 30
0.0
 11
317.00000000000341
 21
-936.34872755276444
 31
0.0
  0
LINE
  5
1F4
  8
SIZE
  6
CONTINUOUS
 62
    30
 10
-180.00000000021981
 20
-495.70055882329092
 30
0.0
 11
-180.00000000021981
 21
-936.34872755276444
 31
0.0
  0
LINE
  5
1F5
  8
SIZE
  6
CONTINUOUS
 62
    30
 10
317.00000000000341
 20
-916.34872755276501
 30
0.0
 11
-180.00000000021981
 21
-916.34872755276501
 31
0.0
  0
CIRCLE
  5
1F6
  8
SIZE
  6
CONTINUOUS
 62
    30
 10
317.00000000000341
 20
-916.34872755276501
 30
0.0
 40
7.5
  0
CIRCLE
  5
1F7
  8
SIZE
  6
CONTINUOUS
 62
    30
 10
-180.00000000021981
 20
-916.34872755276501
 30
0.0
 40
7.5
  0
TEXT
  5
1F8
  8
SIZE
  6
CONTINUOUS
 62
    30
 10
-0.9285714286796178
 20
-896.34872755276444
 30
0.0
 40
60.0
  1
497
 41
0.9
 72
     1
 11
68.499999999891813
 21
-896.34872755276444
 31
0.0
  0
POINT
  5
1F9
  8
DEFPOINTS
  6
CONTINUOUS
 62
     7
 10
317.00000000000352
 20
-409.99999999999841
 30
0.0
  0
POINT
  5
1FA
  8
DEFPOINTS
  6
CONTINUOUS
 62
     7
 10
-180.00000000021981
 20
-475.70055882329081
 30
0.0
  0
POINT
  5
1FB
  8
DEFPOINTS
  6
CONTINUOUS
 62
     7
 10
-180.00000000021981
 20
-916.34872755276501
 30
0.0
  0
LINE
  5
1FF
  8
NOTE
  6
CONTINUOUS
 62
     4
 10
170.99999999998181
 20
-465.9999999999651
 30
0.0
 11
536.37951530769885
 21
-700.82377998560276
 31
0.0
  0
LINE
  5
200
  8
NOTE
  6
CONTINUOUS
 62
     4
 10
208.9882478857561
 20
-478.52569482369188
 30
0.0
 11
170.99999999997181
 21
-465.9999999999759
 31
0.0
  0
LINE
  5
201
  8
NOTE
  6
CONTINUOUS
 62
     4
 10
170.99999999997181
 20
-465.9999999999759
 30
0.0
 11
197.6359404445414
 21
-495.84169427025768
 31
0.0
  0
LINE
  5
202
  8
NOTE
  6
CONTINUOUS
 62
     4
 10
101.0000000001473
 20
-455.00000000005463
 30
0.0
 11
541.21668535451863
 21
-819.59147894721423
 31
0.0
  0
LINE
  5
203
  8
NOTE
  6
CONTINUOUS
 62
     4
 10
137.53388787189351
 20
-471.2872663502767
 30
0.0
 11
100.9999999993874
 21
-454.99999999990769
 31
0.0
  0
LINE
  5
204
  8
NOTE
  6
CONTINUOUS
 62
     4
 10
100.9999999993874
 20
-454.99999999990769
 30
0.0
 11
124.4956419208754
 21
-487.37213077600882
 31
0.0
  0
LINE
  5
205
  8
NOTE
  6
CONTINUOUS
 62
     4
 10
-179.9999999999126
 20
-447.99999999979758
 30
0.0
 11
-338.9720690199901
 21
-965.9115512311206
 31
0.0
  0
LINE
  5
206
  8
NOTE
  6
CONTINUOUS
 62
     4
 10
-181.0308961354535
 20
-487.9867135607596
 30
0.0
 11
-179.99999999989171
 21
-447.99999999979758
 31
0.0
  0
LINE
  5
207
  8
NOTE
  6
CONTINUOUS
 62
     4
 10
-179.99999999989171
 20
-447.99999999979758
 30
0.0
 11
-200.88613937399251
 21
-482.11406194400558
 31
0.0
  0
TEXT
  5
208
  8
NOTE
  6
CONTINUOUS
 62
     4
 10
-739.96178752198273
 20
-943.80141023112185
 30
0.0
 40
60.0
  1
D1（VP-25)
 41
0.8
  0
LINE
  5
209
  8
NOTE
  6
CONTINUOUS
 62
     4
 10
-338.9720690199901
 20
-965.9115512311206
 30
0.0
 11
-749.91865452198363
 21
-965.91155123112151
 31
0.0
  0
LINE
  5
20A
  8
NOTE
  6
CONTINUOUS
 62
     4
 10
541.21668535451863
 20
-819.59147894721423
 30
0.0
 11
858.31471476480499
 21
-819.59147894721423
 31
0.0
  0
TEXT
  5
20B
  8
NOTE
  6
CONTINUOUS
 62
     4
 10
552.27129435451752
 20
-802.33885194721449
 30
0.0
 40
60.0
  1
RL %%C6.35
 41
0.8
  0
TEXT
  5
20C
  8
NOTE
  6
CONTINUOUS
 62
     4
 10
550.40879930769552
 20
-687.78288998560254
 30
0.0
 40
60.0
  1
RG %%C12.7
 41
0.8
  0
LINE
  5
20D
  8
NOTE
  6
CONTINUOUS
 62
     4
 10
536.37951530769885
 20
-700.82377998560276
 30
0.0
 11
859.13012797659019
 21
-700.82377998560276
 31
0.0
  0
LINE
  5
20F
  8
NOTE
  6
CONTINUOUS
 62
     4
 10
-152.2994411769408
 20
-448.0
 30
0.0
 11
-207.70055882352381
 21
-448.0
 31
0.0
  0
LINE
  5
210
  8
NOTE
  6
CONTINUOUS
 62
     4
 10
-180.00000000021959
 20
-420.29944117670891
 30
0.0
 11
-180.00000000021959
 21
-475.70055882329081
 31
0.0
  0
LINE
  5
211
  8
SIZE
  6
CONTINUOUS
 62
    30
 10
170.99999999999631
 20
-505.99999999999841
 30
0.0
 11
170.99999999999619
 21
-795.58572781823295
 31
0.0
  0
LINE
  5
212
  8
SIZE
  6
CONTINUOUS
 62
    30
 10
317.00000000000352
 20
-429.99999999999829
 30
0.0
 11
317.00000000000352
 21
-795.58572781823295
 31
0.0
  0
LINE
  5
213
  8
SIZE
  6
CONTINUOUS
 62
    30
 10
170.99999999999619
 20
-775.58572781823307
 30
0.0
 11
317.00000000000352
 21
-775.58572781823307
 31
0.0
  0
CIRCLE
  5
214
  8
SIZE
  6
CONTINUOUS
 62
    30
 10
170.99999999999619
 20
-775.58572781823307
 30
0.0
 40
7.5
  0
CIRCLE
  5
215
  8
SIZE
  6
CONTINUOUS
 62
    30
 10
317.00000000000352
 20
-775.58572781823307
 30
0.0
 40
7.5
  0
TEXT
  5
216
  8
SIZE
  6
CONTINUOUS
 62
    30
 10
180.99999999999989
 20
-755.58572781823295
 30
0.0
 40
60.0
  1
146
 41
0.9
 72
     1
 11
243.99999999999989
 21
-755.58572781823295
 31
0.0
  0
POINT
  5
217
  8
DEFPOINTS
  6
CONTINUOUS
 62
     7
 10
170.99999999999631
 20
-485.99999999999841
 30
0.0
  0
POINT
  5
218
  8
DEFPOINTS
  6
CONTINUOUS
 62
     7
 10
317.00000000000352
 20
-409.99999999999841
 30
0.0
  0
POINT
  5
219
  8
DEFPOINTS
  6
CONTINUOUS
 62
     7
 10
317.00000000000352
 20
-775.58572781823307
 30
0.0
  0
LINE
  5
21A
  8
SIZE
  6
CONTINUOUS
 62
    30
 10
170.99999999999631
 20
-505.99999999999841
 30
0.0
 11
170.99999999999619
 21
-795.58572781823295
 31
0.0
  0
LINE
  5
21B
  8
SIZE
  6
CONTINUOUS
 62
    30
 10
100.999999999998
 20
-494.99999999999773
 30
0.0
 11
100.999999999998
 21
-795.58572781823295
 31
0.0
  0
LINE
  5
21C
  8
SIZE
  6
CONTINUOUS
 62
    30
 10
170.99999999999619
 20
-775.58572781823307
 30
0.0
 11
100.999999999998
 21
-775.58572781823307
 31
0.0
  0
LINE
  5
21D
  8
SIZE
  6
CONTINUOUS
 62
    30
 10
100.999999999998
 20
-775.58572781823307
 30
0.0
 11
-56.428571428573363
 21
-775.58572781823307
 31
0.0
  0
CIRCLE
  5
21E
  8
SIZE
  6
CONTINUOUS
 62
    30
 10
170.99999999999619
 20
-775.58572781823307
 30
0.0
 40
7.5
  0
CIRCLE
  5
21F
  8
SIZE
  6
CONTINUOUS
 62
    30
 10
100.999999999998
 20
-775.58572781823307
 30
0.0
 40
7.5
  0
TEXT
  5
220
  8
SIZE
  6
CONTINUOUS
 62
    30
 10
-36.428571428573342
 20
-755.58572781823295
 30
0.0
 40
60.0
  1
70
 41
0.9
 72
     1
 11
7.2857142857123582
 21
-755.58572781823295
 31
0.0
  0
POINT
  5
221
  8
DEFPOINTS
  6
CONTINUOUS
 62
     7
 10
170.99999999999631
 20
-485.99999999999841
 30
0.0
  0
POINT
  5
222
  8
DEFPOINTS
  6
CONTINUOUS
 62
     7
 10
100.999999999998
 20
-474.99999999999773
 30
0.0
  0
POINT
  5
223
  8
DEFPOINTS
  6
CONTINUOUS
 62
     7
 10
100.999999999998
 20
-775.58572781823307
 30
0.0
  0
CIRCLE
  5
224
  8
FIX
  6
CONTINUOUS
 62
    11
 10
-287.00000000000182
 20
-412.0
 30
0.0
 40
12.42149793872491
  0
CIRCLE
  5
225
  8
FIX
  6
CONTINUOUS
 62
    11
 10
286.99106127202668
 20
-412.0
 30
0.0
 40
12.42149793872491
  0
LINE
  5
260
  8
DETAIL
  6
CONTINUOUS
 62
     5
 10
292.99284901707131
 20
-419.0
 30
0.0
 11
294.98897556947111
 21
-419.0
 31
0.0
  0
LINE
  5
261
  8
DETAIL
  6
CONTINUOUS
 62
     5
 10
278.9931469745793
 20
-419.0
 30
0.0
 11
280.98927352698041
 21
-419.0
 31
0.0
  0
LINE
  5
262
  8
DETAIL
  6
CONTINUOUS
 62
     5
 10
278.9931469745793
 20
-405.0
 30
0.0
 11
294.98897556947111
 21
-405.0
 31
0.0
  0
ARC
  5
263
  8
DETAIL
  6
CONTINUOUS
 62
     5
 10
294.98897556947111
 20
-412.0
 30
0.0
 40
7.0
 50
270.0
 51
90.0
  0
ARC
  5
264
  8
DETAIL
  6
CONTINUOUS
 62
     5
 10
278.9931469745793
 20
-412.0000000000008
 30
0.0
 40
7.0
 50
90.0
 51
270.0
  0
LINE
  5
265
  8
DETAIL
  6
CONTINUOUS
 62
     5
 10
292.99284901707131
 20
-436.00000000000261
 30
0.0
 11
292.99284901707131
 21
-419.0
 31
0.0
  0
LINE
  5
266
  8
DETAIL
  6
CONTINUOUS
 62
     5
 10
280.98927352698041
 20
-436.00000000000261
 30
0.0
 11
280.98927352698041
 21
-419.0
 31
0.0
  0
LINE
  5
267
  8
DETAIL
  6
CONTINUOUS
 62
     5
 10
317.00000000000358
 20
-409.99999999999841
 30
0.0
 11
311.99851021246639
 21
-409.99999999999841
 31
0.0
  0
LINE
  5
268
  8
DETAIL
  6
CONTINUOUS
 62
     5
 10
-280.99821225495538
 20
419.0000000000008
 30
0.0
 11
-279.00208570255558
 21
419.0000000000008
 31
0.0
  0
LINE
  5
269
  8
DETAIL
  6
CONTINUOUS
 62
     5
 10
-294.99791429744738
 20
419.0000000000008
 30
0.0
 11
-293.00178774504622
 21
419.0000000000008
 31
0.0
  0
LINE
  5
26A
  8
DETAIL
  6
CONTINUOUS
 62
     5
 10
-294.99791429744738
 20
405.0000000000004
 30
0.0
 11
-279.00208570255558
 21
405.0000000000004
 31
0.0
  0
ARC
  5
26B
  8
DETAIL
  6
CONTINUOUS
 62
     5
 10
-279.00208570255558
 20
412.00000000000011
 30
0.0
 40
7.0
 50
270.0
 51
90.000000000000057
  0
ARC
  5
26C
  8
DETAIL
  6
CONTINUOUS
 62
     5
 10
-294.99791429744738
 20
412.0000000000008
 30
0.0
 40
7.0
 50
90.000000000000057
 51
270.0
  0
LINE
  5
26D
  8
DETAIL
  6
CONTINUOUS
 62
     5
 10
-280.99821225495538
 20
436.00000000000358
 30
0.0
 11
-280.99821225495538
 21
419.0000000000008
 31
0.0
  0
LINE
  5
26E
  8
DETAIL
  6
CONTINUOUS
 62
     5
 10
-293.00178774504622
 20
436.00000000000358
 30
0.0
 11
-293.00178774504622
 21
419.0000000000008
 31
0.0
  0
LINE
  5
26F
  8
DETAIL
  6
CONTINUOUS
 62
     5
 10
-272.29388177005592
 20
410.0000000000008
 30
0.0
 11
-301.7061182299467
 21
410.0000000000008
 31
0.0
  0
CIRCLE
  5
270
  8
FIX
  6
CONTINUOUS
 62
    11
 10
-287.00000000000182
 20
412.00000000000011
 30
0.0
 40
12.42149793872491
  0
CIRCLE
  5
271
  8
FIX
  6
CONTINUOUS
 62
    11
 10
286.99106127202668
 20
412.00000000000011
 30
0.0
 40
12.42149793872491
  0
LINE
  5
272
  8
DETAIL
  6
CONTINUOUS
 62
     5
 10
292.99284901707131
 20
419.0000000000008
 30
0.0
 11
294.98897556947111
 21
419.0000000000008
 31
0.0
  0
LINE
  5
273
  8
DETAIL
  6
CONTINUOUS
 62
     5
 10
278.9931469745793
 20
419.0000000000008
 30
0.0
 11
280.98927352698041
 21
419.0000000000008
 31
0.0
  0
LINE
  5
274
  8
DETAIL
  6
CONTINUOUS
 62
     5
 10
278.9931469745793
 20
405.0000000000004
 30
0.0
 11
294.98897556947111
 21
405.0000000000004
 31
0.0
  0
ARC
  5
275
  8
DETAIL
  6
CONTINUOUS
 62
     5
 10
294.98897556947111
 20
412.00000000000011
 30
0.0
 40
7.0
 50
270.0
 51
90.000000000000057
  0
ARC
  5
276
  8
DETAIL
  6
CONTINUOUS
 62
     5
 10
278.9931469745793
 20
412.0000000000008
 30
0.0
 40
7.0
 50
90.000000000000057
 51
270.0
  0
LINE
  5
277
  8
DETAIL
  6
CONTINUOUS
 62
     5
 10
292.99284901707131
 20
436.00000000000358
 30
0.0
 11
292.99284901707131
 21
419.0000000000008
 31
0.0
  0
LINE
  5
278
  8
DETAIL
  6
CONTINUOUS
 62
     5
 10
280.98927352698041
 20
436.00000000000358
 30
0.0
 11
280.98927352698041
 21
419.0000000000008
 31
0.0
  0
LINE
  5
279
  8
DETAIL
  6
CONTINUOUS
 62
     5
 10
317.00000000000358
 20
410.0000000000008
 30
0.0
 11
311.99851021246639
 21
410.0000000000008
 31
0.0
  0
LINE
  5
28A
  8
DETAIL
  6
CONTINUOUS
 62
     5
 10
-355.0
 20
-524.0
 30
0.0
 11
-355.0
 21
524.0000000000008
 31
0.0
  0
LINE
  5
28C
  8
DETAIL
  6
CONTINUOUS
 62
     5
 10
427.00011893479677
 20
451.60002510719079
 30
0.0
 11
427.00011893479677
 21
582.00000000000205
 31
0.0
  0
LINE
  5
28D
  8
DETAIL
  6
CONTINUOUS
 62
     5
 10
490.79996653655138
 20
582.00000000000205
 30
0.0
 11
490.79996653655138
 21
451.60002510719079
 31
0.0
  0
LINE
  5
28E
  8
DETAIL
  6
CONTINUOUS
 62
     5
 10
490.79996653655138
 20
582.00000000000205
 30
0.0
 11
427.00011893479677
 21
582.00000000000205
 31
0.0
  0
LINE
  5
28F
  8
DETAIL
  6
CONTINUOUS
 62
     5
 10
514.99999999999943
 20
-94.400019562057423
 30
0.0
 11
514.99999999999852
 21
419.2000313454846
 31
0.0
  0
LINE
  5
290
  8
DETAIL
  6
CONTINUOUS
 62
     5
 10
500.00000288811879
 20
430.00002926604401
 30
0.0
 11
500.00000288811958
 21
-105.2000174826175
 31
0.0
  0
LINE
  5
291
  8
DETAIL
  6
CONTINUOUS
 62
     5
 10
514.99999999999852
 20
419.2000313454846
 30
0.0
 11
500.00000288811879
 21
430.00002926604401
 31
0.0
  0
LINE
  5
292
  8
DETAIL
  6
CONTINUOUS
 62
     5
 10
317.0
 20
443.20002672452028
 30
0.0
 11
328.1999978435415
 21
443.20002672452028
 31
0.0
  0
LINE
  5
293
  8
DETAIL
  6
CONTINUOUS
 62
     5
 10
488.39996699866231
 20
430.00002926604401
 30
0.0
 11
488.39996699866231
 21
451.60002510719079
 31
0.0
  0
LINE
  5
294
  8
DETAIL
  6
CONTINUOUS
 62
     5
 10
489.19996684462598
 20
430.00002926604401
 30
0.0
 11
489.19996684462598
 21
451.60002510719079
 31
0.0
  0
LINE
  5
295
  8
DETAIL
  6
CONTINUOUS
 62
     5
 10
342.68888244817919
 20
420.20003115295458
 30
0.0
 11
342.68888244817919
 21
450.20002537676879
 31
0.0
  0
ARC
  5
296
  8
DETAIL
  6
CONTINUOUS
 62
     5
 10
386.99037855556332
 20
435.68752817098232
 30
0.0
 40
5.6874989049329612
 50
220.417438205742
 51
319.58256179425808
  0
ARC
  5
297
  8
DETAIL
  6
CONTINUOUS
 62
     5
 10
361.00962144436562
 20
435.68752817098232
 30
0.0
 40
5.6874989049327924
 50
220.417438205742
 51
319.58256179425808
  0
ARC
  5
298
  8
DETAIL
  6
CONTINUOUS
 62
     5
 10
373.999999999978
 20
449.75002546336373
 30
0.0
 40
19.749996197329342
 50
243.9921761143672
 51
296.00782388563277
  0
LINE
  5
299
  8
DETAIL
  6
CONTINUOUS
 62
     5
 10
490.79996653655138
 20
451.60002510719079
 30
0.0
 11
427.00011893479677
 21
451.60002510719079
 31
0.0
  0
LINE
  5
29A
  8
DETAIL
  6
CONTINUOUS
 62
     5
 10
328.1999978435415
 20
455.20002441405279
 30
0.0
 11
337.68888341089581
 21
455.20002441405279
 31
0.0
  0
LINE
  5
29B
  8
DETAIL
  6
CONTINUOUS
 62
     5
 10
337.68888341089581
 20
455.20002441405279
 30
0.0
 11
342.68888244817919
 21
450.20002537676879
 31
0.0
  0
LINE
  5
29C
  8
DETAIL
  6
CONTINUOUS
 62
     5
 10
386.99037855556332
 20
442.0000269555768
 30
0.0
 11
361.00962144436562
 21
442.0000269555768
 31
0.0
  0
LINE
  5
29D
  8
DETAIL
  6
CONTINUOUS
 62
     5
 10
391.3205047407863
 20
440.00002734063997
 30
0.0
 11
391.3205047407863
 21
432.00002888095321
 31
0.0
  0
LINE
  5
29E
  8
DETAIL
  6
CONTINUOUS
 62
     5
 10
356.67949525917157
 20
432.00002888095321
 30
0.0
 11
356.67949525917157
 21
440.00002734063997
 31
0.0
  0
LINE
  5
29F
  8
DETAIL
  6
CONTINUOUS
 62
     5
 10
365.3397476295886
 20
432.00002888095321
 30
0.0
 11
365.3397476295886
 21
440.00002734063997
 31
0.0
  0
LINE
  5
2A0
  8
DETAIL
  6
CONTINUOUS
 62
     5
 10
382.66025237036769
 20
440.00002734063997
 30
0.0
 11
382.66025237036769
 21
432.00002888095321
 31
0.0
  0
ARC
  5
2A1
  8
DETAIL
  6
CONTINUOUS
 62
     5
 10
373.999999999978
 20
422.25003075823008
 30
0.0
 40
19.749996197329509
 50
63.99217611436719
 51
116.0078238856327
  0
ARC
  5
2A2
  8
DETAIL
  6
CONTINUOUS
 62
     5
 10
361.00962144436562
 20
436.31252805063963
 30
0.0
 40
5.6874989049330411
 50
40.417438205742002
 51
139.582561794258
  0
ARC
  5
2A3
  8
DETAIL
  6
CONTINUOUS
 62
     5
 10
386.99037855556332
 20
436.31252805063963
 30
0.0
 40
5.687498904932867
 50
40.417438205742002
 51
139.582561794258
  0
LINE
  5
2A4
  8
DETAIL
  6
CONTINUOUS
 62
     5
 10
369.50000086641359
 20
464.0000227197591
 30
0.0
 11
378.49999913354242
 21
464.0000227197591
 31
0.0
  0
LINE
  5
2A5
  8
DETAIL
  6
CONTINUOUS
 62
     5
 10
378.49999913354242
 20
461.50002320104829
 30
0.0
 11
378.49999913354242
 21
464.0000227197591
 31
0.0
  0
LINE
  5
2A6
  8
DETAIL
  6
CONTINUOUS
 62
     5
 10
376.99999942241078
 20
465.50002243089131
 30
0.0
 11
378.49999913354242
 21
464.0000227197591
 31
0.0
  0
LINE
  5
2A7
  8
DETAIL
  6
CONTINUOUS
 62
     5
 10
371.00000057754539
 20
465.50002243089131
 30
0.0
 11
369.50000086641359
 21
464.0000227197591
 31
0.0
  0
LINE
  5
2A8
  8
DETAIL
  6
CONTINUOUS
 62
     5
 10
369.50000086641359
 20
461.50002320104829
 30
0.0
 11
369.50000086641359
 21
464.0000227197591
 31
0.0
  0
LINE
  5
2A9
  8
DETAIL
  6
CONTINUOUS
 62
     5
 10
379.55599893023998
 20
461.50002320104829
 30
0.0
 11
379.55599893023998
 21
453.5000247413613
 31
0.0
  0
LINE
  5
2AA
  8
DETAIL
  6
CONTINUOUS
 62
     5
 10
368.44400106974331
 20
461.50002320104829
 30
0.0
 11
368.44400106974331
 21
453.5000247413613
 31
0.0
  0
LINE
  5
2AB
  8
DETAIL
  6
CONTINUOUS
 62
     5
 10
381.49999855594598
 20
453.5000247413613
 30
0.0
 11
381.49999855594598
 21
442.0000269555768
 31
0.0
  0
LINE
  5
2AC
  8
DETAIL
  6
CONTINUOUS
 62
     5
 10
366.50000144403913
 20
453.5000247413613
 30
0.0
 11
366.50000144403913
 21
442.0000269555768
 31
0.0
  0
LINE
  5
2AD
  8
DETAIL
  6
CONTINUOUS
 62
     5
 10
366.50000144403913
 20
453.5000247413613
 30
0.0
 11
381.49999855594598
 21
453.5000247413613
 31
0.0
  0
LINE
  5
2AE
  8
DETAIL
  6
CONTINUOUS
 62
     5
 10
368.44400106974331
 20
461.50002320104829
 30
0.0
 11
379.55599893023998
 21
461.50002320104829
 31
0.0
  0
LINE
  5
2AF
  8
DETAIL
  6
CONTINUOUS
 62
     5
 10
371.00000057754539
 20
465.50002243089131
 30
0.0
 11
376.99999942241078
 21
465.50002243089131
 31
0.0
  0
LINE
  5
2B0
  8
DETAIL
  6
CONTINUOUS
 62
     5
 10
500.00000288811879
 20
430.00002926604401
 30
0.0
 11
342.68888244817919
 21
430.00002926604401
 31
0.0
  0
LINE
  5
2B1
  8
DETAIL
  6
CONTINUOUS
 62
     5
 10
337.68888341089581
 20
415.20003211566802
 30
0.0
 11
342.68888244817919
 21
420.20003115295458
 31
0.0
  0
LINE
  5
2B2
  8
DETAIL
  6
CONTINUOUS
 62
     5
 10
337.68888341089581
 20
415.20003211566802
 30
0.0
 11
328.19999784354218
 21
415.20003211566802
 31
0.0
  0
LINE
  5
2B3
  8
DETAIL
  6
CONTINUOUS
 62
     5
 10
386.99037855556332
 20
430.00002926604401
 30
0.0
 11
361.00962144436562
 21
430.00002926604401
 31
0.0
  0
LINE
  5
2B4
  8
DETAIL
  6
CONTINUOUS
 62
     5
 10
500.00000288811958
 20
-105.2000174826166
 30
0.0
 11
514.99999999999943
 21
-94.400019562057423
 31
0.0
  0
LINE
  5
2B6
  8
DETAIL
  6
CONTINUOUS
 62
     5
 10
317.0000000000008
 20
-195.99999999999841
 30
0.0
 11
328.19999784354218
 21
-195.99999999999841
 31
0.0
  0
LINE
  5
2B7
  8
DETAIL
  6
CONTINUOUS
 62
     5
 10
445.19997531637159
 20
-137.70001122508839
 30
0.0
 11
328.19999784354218
 21
-137.70001122508839
 31
0.0
  0
LINE
  5
2B8
  8
DETAIL
  6
CONTINUOUS
 62
     5
 10
445.19997531637159
 20
-166.70000564140761
 30
0.0
 11
328.19999784354218
 21
-166.70000564140761
 31
0.0
  0
LINE
  5
2B9
  8
DETAIL
  6
CONTINUOUS
 62
     5
 10
500.00000288812032
 20
-105.2000174826166
 30
0.0
 11
342.68888244818021
 21
-105.2000174826166
 31
0.0
  0
ARC
  5
2BA
  8
DETAIL
  6
CONTINUOUS
 62
     5
 10
445.1999753163708
 20
-129.2000128616518
 30
0.0
 40
37.49999277975526
 50
270.0
 51
0.000000000000007
  0
ARC
  5
2BB
  8
DETAIL
  6
CONTINUOUS
 62
     5
 10
445.1999753163708
 20
-129.2000128616518
 30
0.0
 40
8.499998363411116
 50
270.0
 51
0.000000000000007
  0
LINE
  5
2BC
  8
DETAIL
  6
CONTINUOUS
 62
     5
 10
453.69997367977959
 20
-129.2000128616518
 30
0.0
 11
453.69997367977959
 21
-105.2000174826166
 31
0.0
  0
LINE
  5
2BD
  8
DETAIL
  6
CONTINUOUS
 62
     5
 10
482.6999680961261
 20
-129.2000128616518
 30
0.0
 11
482.6999680961261
 21
-105.2000174826166
 31
0.0
  0
LINE
  5
2BE
  8
DETAIL
  6
CONTINUOUS
 62
     5
 10
328.19999784354218
 20
-195.99999999999841
 30
0.0
 11
328.19999784354218
 21
455.20002441405279
 31
0.0
  0
LINE
  5
2BF
  8
DETAIL
  6
CONTINUOUS
 62
     5
 10
337.68888341089661
 20
-89.200020563268495
 30
0.0
 11
342.68888244818021
 21
-94.200019600552864
 31
0.0
  0
LINE
  5
2C0
  8
DETAIL
  6
CONTINUOUS
 62
     5
 10
337.68888341089661
 20
-129.2000128616518
 30
0.0
 11
342.68888244818021
 21
-124.2000138243679
 31
0.0
  0
LINE
  5
2C1
  8
DETAIL
  6
CONTINUOUS
 62
     5
 10
337.68888341089661
 20
-89.200020563268495
 30
0.0
 11
328.19999784354218
 21
-89.200020563268495
 31
0.0
  0
LINE
  5
2C2
  8
DETAIL
  6
CONTINUOUS
 62
     5
 10
342.68888244818021
 20
-94.200019600552864
 30
0.0
 11
342.68888244818021
 21
-124.2000138243679
 31
0.0
  0
LINE
  5
2C3
  8
DETAIL
  6
CONTINUOUS
 62
     5
 10
328.19999784354218
 20
-129.2000128616518
 30
0.0
 11
337.68888341089661
 21
-129.2000128616518
 31
0.0
  0
LINE
  5
2C4
  8
NOTE
  6
CONTINUOUS
 62
     4
 10
400.49999489769817
 20
465.50002243089131
 30
0.0
 11
347.50000510228699
 21
465.50002243089131
 31
0.0
  0
LINE
  5
2C5
  8
NOTE
  6
CONTINUOUS
 62
     4
 10
373.999999999978
 20
492.0000173285834
 30
0.0
 11
373.999999999978
 21
439.0000275332003
 31
0.0
  0
LINE
  5
2C6
  8
OUTLINE
  6
CONTINUOUS
 62
     3
 10
355.0
 20
430.00002926604401
 30
0.0
 11
488.39996699866231
 21
430.00002926604401
 31
0.0
  0
LINE
  5
2C7
  8
OUTLINE
  6
CONTINUOUS
 62
     3
 10
488.39996699866231
 20
430.00002926604401
 30
0.0
 11
488.39996699866231
 21
451.60002510719079
 31
0.0
  0
LINE
  5
2C8
  8
OUTLINE
  6
CONTINUOUS
 62
     3
 10
488.39996699866231
 20
451.60002510719079
 30
0.0
 11
427.00011893479677
 21
451.60002510719079
 31
0.0
  0
LINE
  5
2C9
  8
OUTLINE
  6
CONTINUOUS
 62
     3
 10
427.00011893479677
 20
451.60002510719079
 30
0.0
 11
427.00011893479677
 21
582.00000000000205
 31
0.0
  0
LINE
  5
2CA
  8
OUTLINE
  6
CONTINUOUS
 62
     3
 10
427.00011893479677
 20
582.00000000000205
 30
0.0
 11
490.79996653655138
 21
582.00000000000205
 31
0.0
  0
LINE
  5
2CB
  8
OUTLINE
  6
CONTINUOUS
 62
     3
 10
490.79996653655138
 20
582.00000000000205
 30
0.0
 11
490.79996653655138
 21
451.60002510719079
 31
0.0
  0
LINE
  5
2CC
  8
OUTLINE
  6
CONTINUOUS
 62
     3
 10
490.79996653655138
 20
451.60002510719079
 30
0.0
 11
489.19996684462598
 21
451.60002510719079
 31
0.0
  0
LINE
  5
2CD
  8
OUTLINE
  6
CONTINUOUS
 62
     3
 10
489.19996684462598
 20
451.60002510719079
 30
0.0
 11
489.19996684462598
 21
430.00002926604401
 31
0.0
  0
LINE
  5
2CE
  8
OUTLINE
  6
CONTINUOUS
 62
     3
 10
489.19996684462598
 20
430.00002926604401
 30
0.0
 11
500.00000288811879
 21
430.00002926604401
 31
0.0
  0
LINE
  5
2CF
  8
OUTLINE
  6
CONTINUOUS
 62
     3
 10
500.00000288811879
 20
430.00002926604401
 30
0.0
 11
514.99999999999852
 21
419.2000313454846
 31
0.0
  0
LINE
  5
2D0
  8
OUTLINE
  6
CONTINUOUS
 62
     3
 10
514.99999999999852
 20
419.2000313454846
 30
0.0
 11
514.99999999999943
 21
-94.400019562057423
 31
0.0
  0
LINE
  5
2D1
  8
OUTLINE
  6
CONTINUOUS
 62
     3
 10
515.0
 20
-94.400019562057423
 30
0.0
 11
500.00000288812032
 21
-105.2000174826166
 31
0.0
  0
LINE
  5
2D6
  8
DETAIL
  6
CONTINUOUS
 62
     5
 10
355.0
 20
-137.70001122508839
 30
0.0
 11
355.0
 21
-105.2000174826166
 31
0.0
  0
LINE
  5
2D7
  8
DETAIL
  6
CONTINUOUS
 62
     5
 10
355.0
 20
430.00002926604401
 30
0.0
 11
355.0
 21
524.0000000000008
 31
0.0
  0
LINE
  5
2D8
  8
DETAIL
  6
CONTINUOUS
 62
     5
 10
355.0
 20
-137.70001122508839
 30
0.0
 11
355.0
 21
-105.2000174826166
 31
0.0
  0
LINE
  5
2E0
  8
OUTLINE
  6
CONTINUOUS
 62
     3
 10
500.00000288812032
 20
-105.2000174826166
 30
0.0
 11
355.0
 21
-105.2000174826166
 31
0.0
  0
LINE
  5
2E1
  8
SIZE
  6
CONTINUOUS
 62
    30
 10
-287.00000000000182
 20
452.0000000000004
 30
0.0
 11
-287.00000000000182
 21
742.45587858226304
 31
0.0
  0
LINE
  5
2E2
  8
SIZE
  6
CONTINUOUS
 62
    30
 10
286.99999999999972
 20
452.0000000000008
 30
0.0
 11
286.99999999999972
 21
742.45587858226304
 31
0.0
  0
LINE
  5
2E3
  8
SIZE
  6
CONTINUOUS
 62
    30
 10
-287.00000000000182
 20
722.45587858226304
 30
0.0
 11
286.99999999999972
 21
722.45587858226304
 31
0.0
  0
CIRCLE
  5
2E4
  8
SIZE
  6
CONTINUOUS
 62
    30
 10
-287.00000000000182
 20
722.45587858226304
 30
0.0
 40
7.5
  0
CIRCLE
  5
2E5
  8
SIZE
  6
CONTINUOUS
 62
    30
 10
286.99999999999972
 20
722.45587858226304
 30
0.0
 40
7.5
  0
TEXT
  5
2E6
  8
SIZE
  6
CONTINUOUS
 62
    30
 10
-282.34285714285818
 20
758.17016429654905
 30
0.0
 40
60.0
  1
574(吊りﾎﾞﾙﾄﾋﾟｯﾁ)
 41
0.9
 72
     1
 11
-0.0000000000009663
 21
758.17016429654905
 31
0.0
  0
POINT
  5
2E7
  8
DEFPOINTS
  6
CONTINUOUS
 62
     7
 10
-287.00000000000182
 20
432.00000000000023
 30
0.0
  0
POINT
  5
2E8
  8
DEFPOINTS
  6
CONTINUOUS
 62
     7
 10
286.99999999999972
 20
432.0000000000008
 30
0.0
  0
POINT
  5
2E9
  8
DEFPOINTS
  6
CONTINUOUS
 62
     7
 10
286.99999999999972
 20
722.45587858226304
 30
0.0
  0
LINE
  5
2EA
  8
SIZE
  6
CONTINUOUS
 62
    30
 10
286.99999999999972
 20
452.0000000000008
 30
0.0
 11
286.99999999999972
 21
742.45587858226304
 31
0.0
  0
LINE
  5
2EB
  8
SIZE
  6
CONTINUOUS
 62
    30
 10
334.99999999999972
 20
540.0000000000008
 30
0.0
 11
334.99999999999972
 21
742.45587858226304
 31
0.0
  0
LINE
  5
2EC
  8
SIZE
  6
CONTINUOUS
 62
    30
 10
286.99999999999972
 20
722.45587858226304
 30
0.0
 11
334.99999999999972
 21
722.45587858226304
 31
0.0
  0
LINE
  5
2ED
  8
SIZE
  6
CONTINUOUS
 62
    30
 10
334.99999999999972
 20
722.45587858226304
 30
0.0
 11
492.42857142857088
 21
722.45587858226304
 31
0.0
  0
CIRCLE
  5
2EE
  8
SIZE
  6
CONTINUOUS
 62
    30
 10
286.99999999999972
 20
722.45587858226304
 30
0.0
 40
7.5
  0
CIRCLE
  5
2EF
  8
SIZE
  6
CONTINUOUS
 62
    30
 10
334.99999999999972
 20
722.45587858226304
 30
0.0
 40
7.5
  0
TEXT
  5
2F0
  8
SIZE
  6
CONTINUOUS
 62
    30
 10
384.9999999999996
 20
742.45587858226304
 30
0.0
 40
60.0
  1
48
 41
0.9
 72
     1
 11
428.71428571428521
 21
742.45587858226304
 31
0.0
  0
POINT
  5
2F1
  8
DEFPOINTS
  6
CONTINUOUS
 62
     7
 10
286.99999999999972
 20
432.0000000000008
 30
0.0
  0
POINT
  5
2F2
  8
DEFPOINTS
  6
CONTINUOUS
 62
     7
 10
334.99999999999972
 20
520.0000000000008
 30
0.0
  0
POINT
  5
2F3
  8
DEFPOINTS
  6
CONTINUOUS
 62
     7
 10
334.99999999999972
 20
722.45587858226304
 30
0.0
  0
LINE
  5
2F4
  8
SIZE
  6
CONTINUOUS
 62
    30
 10
-317.0
 20
-429.99999999999829
 30
0.0
 11
-317.0
 21
-1219.573608817884
 31
0.0
  0
LINE
  5
2F5
  8
SIZE
  6
CONTINUOUS
 62
    30
 10
317.00000000000352
 20
-429.99999999999829
 30
0.0
 11
317.00000000000341
 21
-1219.573608817884
 31
0.0
  0
LINE
  5
2F6
  8
SIZE
  6
CONTINUOUS
 62
    30
 10
-317.0
 20
-1199.573608817884
 30
0.0
 11
317.00000000000341
 21
-1199.573608817884
 31
0.0
  0
CIRCLE
  5
2F7
  8
SIZE
  6
CONTINUOUS
 62
    30
 10
-317.0
 20
-1199.573608817884
 30
0.0
 40
7.5
  0
CIRCLE
  5
2F8
  8
SIZE
  6
CONTINUOUS
 62
    30
 10
317.00000000000341
 20
-1199.573608817884
 30
0.0
 40
7.5
  0
TEXT
  5
2F9
  8
SIZE
  6
CONTINUOUS
 62
    30
 10
-70.714285714284003
 20
-1179.573608817884
 30
0.0
 40
60.0
  1
634
 41
0.9
 72
     1
 11
0.0000000000017053
 21
-1179.573608817884
 31
0.0
  0
POINT
  5
2FA
  8
DEFPOINTS
  6
CONTINUOUS
 62
     7
 10
-317.0
 20
-409.99999999999841
 30
0.0
  0
POINT
  5
2FB
  8
DEFPOINTS
  6
CONTINUOUS
 62
     7
 10
317.00000000000352
 20
-409.99999999999841
 30
0.0
  0
POINT
  5
2FC
  8
DEFPOINTS
  6
CONTINUOUS
 62
     7
 10
317.00000000000341
 20
-1199.573608817884
 30
0.0
  0
LINE
  5
2FD
  8
SIZE
  6
CONTINUOUS
 62
    30
 10
-317.0
 20
-429.99999999999829
 30
0.0
 11
-317.0
 21
-692.78330287312565
 31
0.0
  0
POINT
  5
303
  8
DEFPOINTS
  6
CONTINUOUS
 62
     7
 10
-317.0
 20
-409.99999999999841
 30
0.0
  0
LINE
  5
307
  8
SIZE
  6
CONTINUOUS
 62
    30
 10
515.0
 20
-114.4000195620556
 30
0.0
 11
514.99999999999955
 21
-1090.8603299503759
 31
0.0
  0
LINE
  5
308
  8
SIZE
  6
CONTINUOUS
 62
    30
 10
-317.0
 20
-1070.860329950375
 30
0.0
 11
514.99999999999955
 21
-1070.860329950375
 31
0.0
  0
CIRCLE
  5
309
  8
SIZE
  6
CONTINUOUS
 62
    30
 10
-317.0
 20
-1070.860329950375
 30
0.0
 40
7.5
  0
CIRCLE
  5
30A
  8
SIZE
  6
CONTINUOUS
 62
    30
 10
514.99999999999955
 20
-1070.860329950375
 30
0.0
 40
7.5
  0
TEXT
  5
30B
  8
SIZE
  6
CONTINUOUS
 62
    30
 10
-104.1428571428572
 20
-1035.1460442360899
 30
0.0
 40
60.0
  1
(832)
 41
0.9
 72
     1
 11
-0.0000000000001137
 21
-1035.1460442360899
 31
0.0
  0
POINT
  5
30D
  8
DEFPOINTS
  6
CONTINUOUS
 62
     7
 10
515.0
 20
-94.40001956205559
 30
0.0
  0
POINT
  5
30E
  8
DEFPOINTS
  6
CONTINUOUS
 62
     7
 10
514.99999999999955
 20
-1070.860329950375
 30
0.0
  0
LINE
  5
30F
  8
SIZE
  6
CONTINUOUS
 62
    30
 10
337.00000000000358
 20
-388.0
 30
0.0
 11
1632.7648376564391
 21
-388.00000000000068
 31
0.0
  0
LINE
  5
310
  8
SIZE
  6
CONTINUOUS
 62
    30
 10
348.1999978435465
 20
-195.99999999999841
 30
0.0
 11
1519.108941382078
 21
-195.9999999999992
 31
0.0
  0
LINE
  5
311
  8
SIZE
  6
CONTINUOUS
 62
    30
 10
1610.2653237893801
 20
-388.00000000000068
 30
0.0
 11
1610.2653237893801
 21
-195.9999999999992
 31
0.0
  0
CIRCLE
  5
312
  8
SIZE
  6
CONTINUOUS
 62
    30
 10
1610.2653237893801
 20
-388.00000000000068
 30
0.0
 40
7.5
  0
CIRCLE
  5
313
  8
SIZE
  6
CONTINUOUS
 62
    30
 10
1610.2653237893801
 20
-195.9999999999992
 30
0.0
 40
7.5
  0
TEXT
  5
314
  8
SIZE
  6
CONTINUOUS
 62
    30
 10
1580.1995233182199
 20
-356.28571428571439
 30
0.0
 40
60.0
  1
192
 50
90.0
 41
0.9
 72
     1
 11
1580.1995233182199
 21
-292.00000000000011
 31
0.0
  0
POINT
  5
315
  8
DEFPOINTS
  6
CONTINUOUS
 62
     7
 10
-317.0
 20
-388.0
 30
0.0
  0
POINT
  5
317
  8
DEFPOINTS
  6
CONTINUOUS
 62
     7
 10
1610.2653237893801
 20
-195.9999999999992
 30
0.0
 50
179.99999999999989
  0
LINE
  5
318
  8
SIZE
  6
CONTINUOUS
 62
    30
 10
348.1999978435465
 20
-195.99999999999841
 30
0.0
 11
1632.7648376564391
 21
-195.9999999999992
 31
0.0
  0
LINE
  5
319
  8
SIZE
  6
CONTINUOUS
 62
    30
 10
510.79996653655598
 20
582.00000000000205
 30
0.0
 11
1632.7934509737529
 21
582.00000000000125
 31
0.0
  0
LINE
  5
31A
  8
SIZE
  6
CONTINUOUS
 62
    30
 10
1610.265323789378
 20
-195.9999999999992
 30
0.0
 11
1610.2653237893801
 21
582.00000000000125
 31
0.0
  0
CIRCLE
  5
31B
  8
SIZE
  6
CONTINUOUS
 62
    30
 10
1610.265323789378
 20
-195.9999999999992
 30
0.0
 40
7.5
  0
CIRCLE
  5
31C
  8
SIZE
  6
CONTINUOUS
 62
    30
 10
1610.2653237893801
 20
582.00000000000125
 30
0.0
 40
7.5
  0
TEXT
  5
31D
  8
SIZE
  6
CONTINUOUS
 62
    30
 10
1571.116733025541
 20
-73.142857142856258
 30
0.0
 40
60.0
  1
778(加湿器全長)
 50
90.0
 41
0.9
 72
     1
 11
1571.116733025541
 21
193.0000000000008
 31
0.0
  0
POINT
  5
320
  8
DEFPOINTS
  6
CONTINUOUS
 62
     7
 10
1610.2653237893801
 20
582.00000000000125
 30
0.0
 50
179.99999999999989
  0
LINE
  5
322
  8
SIZE
  6
CONTINUOUS
 62
    30
 10
-560.98436666236012
 20
0.0000000000000057
 30
0.0
 11
-700.99854445873564
 21
0.0000000000000453
 31
0.0
  0
LINE
  5
323
  8
SIZE
  6
CONTINUOUS
 62
    30
 10
-680.99854445873575
 20
-387.99999999999989
 30
0.0
 11
-680.99854445873564
 21
0.0000000000000397
 31
0.0
  0
CIRCLE
  5
324
  8
SIZE
  6
CONTINUOUS
 62
    30
 10
-680.99854445873575
 20
-387.99999999999989
 30
0.0
 40
7.5
  0
CIRCLE
  5
325
  8
SIZE
  6
CONTINUOUS
 62
    30
 10
-680.99854445873564
 20
0.0000000000000397
 30
0.0
 40
7.5
  0
TEXT
  5
326
  8
SIZE
  6
CONTINUOUS
 62
    30
 10
-700.99854445873564
 20
-282.06783345173238
 30
0.0
 40
60.0
  1
388
 50
90.0
 41
0.9
 72
     1
 11
-700.99854445873564
 21
-212.639262023161
 31
0.0
  0
POINT
  5
327
  8
DEFPOINTS
  6
CONTINUOUS
 62
     7
 10
-317.0
 20
-388.0
 30
0.0
  0
POINT
  5
328
  8
DEFPOINTS
  6
CONTINUOUS
 62
     7
 10
-540.98436666236012
 20
0.0
 30
0.0
  0
POINT
  5
329
  8
DEFPOINTS
  6
CONTINUOUS
 62
     7
 10
-680.99854445873564
 20
0.0000000000000397
 30
0.0
  0
POINT
  5
331
  8
DEFPOINTS
  6
CONTINUOUS
 62
     7
 10
-317.0
 20
443.20002672452028
 30
0.0
  0
LINE
  5
334
  8
SIZE
  6
CONTINUOUS
 62
    30
 10
-335.0
 20
540.0000000000008
 30
0.0
 11
-335.0
 21
891.58761015269135
 31
0.0
  0
LINE
  5
335
  8
SIZE
  6
CONTINUOUS
 62
    30
 10
-355.0
 20
544.0000000000008
 30
0.0
 11
-355.0
 21
891.58761015269135
 31
0.0
  0
LINE
  5
336
  8
SIZE
  6
CONTINUOUS
 62
    30
 10
-335.0
 20
871.58761015269135
 30
0.0
 11
-305.0
 21
871.58761015269135
 31
0.0
  0
LINE
  5
337
  8
SIZE
  6
CONTINUOUS
 62
    30
 10
-355.0
 20
871.58761015269135
 30
0.0
 11
-542.42857142857144
 21
871.58761015269135
 31
0.0
  0
LINE
  5
338
  8
SIZE
  6
CONTINUOUS
 62
    30
 10
-335.0
 20
871.58761015269135
 30
0.0
 11
-355.0
 21
871.58761015269135
 31
0.0
  0
CIRCLE
  5
339
  8
SIZE
  6
CONTINUOUS
 62
    30
 10
-335.0
 20
871.58761015269135
 30
0.0
 40
7.5
  0
CIRCLE
  5
33A
  8
SIZE
  6
CONTINUOUS
 62
    30
 10
-355.0
 20
871.58761015269135
 30
0.0
 40
7.5
  0
TEXT
  5
33B
  8
SIZE
  6
CONTINUOUS
 62
    30
 10
-522.42857142857133
 20
891.58761015269135
 30
0.0
 40
60.0
  1
20
 41
0.9
 72
     1
 11
-478.71428571428561
 21
891.58761015269135
 31
0.0
  0
POINT
  5
33C
  8
DEFPOINTS
  6
CONTINUOUS
 62
     7
 10
-335.0
 20
520.0000000000008
 30
0.0
  0
POINT
  5
33D
  8
DEFPOINTS
  6
CONTINUOUS
 62
     7
 10
-355.0
 20
524.0000000000008
 30
0.0
  0
POINT
  5
33E
  8
DEFPOINTS
  6
CONTINUOUS
 62
     7
 10
-355.0
 20
871.58761015269135
 30
0.0
  0
LINE
  5
33F
  8
SIZE
  6
CONTINUOUS
 62
    30
 10
334.99999999999972
 20
540.0000000000008
 30
0.0
 11
334.99999999999972
 21
891.58761015269135
 31
0.0
  0
LINE
  5
340
  8
SIZE
  6
CONTINUOUS
 62
    30
 10
354.99999999999977
 20
544.0000000000008
 30
0.0
 11
354.99999999999977
 21
891.58761015269135
 31
0.0
  0
LINE
  5
341
  8
SIZE
  6
CONTINUOUS
 62
    30
 10
334.99999999999972
 20
871.58761015269135
 30
0.0
 11
304.99999999999972
 21
871.58761015269135
 31
0.0
  0
LINE
  5
342
  8
SIZE
  6
CONTINUOUS
 62
    30
 10
354.99999999999977
 20
871.58761015269135
 30
0.0
 11
542.42857142857122
 21
871.58761015269135
 31
0.0
  0
LINE
  5
343
  8
SIZE
  6
CONTINUOUS
 62
    30
 10
334.99999999999972
 20
871.58761015269135
 30
0.0
 11
354.99999999999977
 21
871.58761015269135
 31
0.0
  0
CIRCLE
  5
344
  8
SIZE
  6
CONTINUOUS
 62
    30
 10
334.99999999999972
 20
871.58761015269135
 30
0.0
 40
7.5
  0
CIRCLE
  5
345
  8
SIZE
  6
CONTINUOUS
 62
    30
 10
354.99999999999977
 20
871.58761015269135
 30
0.0
 40
7.5
  0
TEXT
  5
346
  8
SIZE
  6
CONTINUOUS
 62
    30
 10
434.99999999999949
 20
891.58761015269135
 30
0.0
 40
60.0
  1
20
 41
0.9
 72
     1
 11
478.71428571428521
 21
891.58761015269135
 31
0.0
  0
POINT
  5
347
  8
DEFPOINTS
  6
CONTINUOUS
 62
     7
 10
334.99999999999972
 20
520.0000000000008
 30
0.0
  0
POINT
  5
348
  8
DEFPOINTS
  6
CONTINUOUS
 62
     7
 10
354.99999999999977
 20
524.0000000000008
 30
0.0
  0
POINT
  5
349
  8
DEFPOINTS
  6
CONTINUOUS
 62
     7
 10
354.99999999999977
 20
871.58761015269135
 30
0.0
  0
TEXT
  5
34A
  8
NOTE
  6
CONTINUOUS
 62
     4
 10
582.68249716644914
 20
284.73082168688961
 30
0.0
 40
60.0
  1
加湿器
 41
0.8
  0
LINE
  5
34B
  8
NOTE
  6
CONTINUOUS
 62
     4
 10
578.50880119243811
 20
269.07139773624112
 30
0.0
 11
803.83936416644963
 21
269.07139773624112
 31
0.0
  0
LINE
  5
34F
  8
SIZE
  6
CONTINUOUS
 62
    30
 10
-359.73674351941742
 20
-520.0
 30
0.0
 11
-1074.9713471597131
 21
-519.9999999999992
 31
0.0
  0
LINE
  5
350
  8
SIZE
  6
CONTINUOUS
 62
    30
 10
-363.73674351941742
 20
-540.0
 30
0.0
 11
-1360.9810897209211
 21
-539.99999999999886
 31
0.0
  0
LINE
  5
351
  8
SIZE
  6
CONTINUOUS
 62
    30
 10
-1050.39735271321
 20
-519.9999999999992
 30
0.0
 11
-1050.39735271321
 21
-489.99999999999881
 31
0.0
  0
LINE
  5
352
  8
SIZE
  6
CONTINUOUS
 62
    30
 10
-1050.39735271321
 20
-539.99999999999886
 30
0.0
 11
-1050.39735271321
 21
-727.42857142856985
 31
0.0
  0
LINE
  5
353
  8
SIZE
  6
CONTINUOUS
 62
    30
 10
-1050.39735271321
 20
-519.9999999999992
 30
0.0
 11
-1050.39735271321
 21
-539.99999999999886
 31
0.0
  0
CIRCLE
  5
354
  8
SIZE
  6
CONTINUOUS
 62
    30
 10
-1050.39735271321
 20
-519.9999999999992
 30
0.0
 40
7.5
  0
CIRCLE
  5
355
  8
SIZE
  6
CONTINUOUS
 62
    30
 10
-1050.39735271321
 20
-539.99999999999886
 30
0.0
 40
7.5
  0
TEXT
  5
356
  8
SIZE
  6
CONTINUOUS
 62
    30
 10
-1067.6028194662499
 20
-707.42857142857019
 30
0.0
 40
60.0
  1
20
 50
90.0
 41
0.9
 72
     1
 11
-1067.6028194662499
 21
-663.71428571428453
 31
0.0
  0
POINT
  5
357
  8
DEFPOINTS
  6
CONTINUOUS
 62
     7
 10
334.99999999999972
 20
-520.0
 30
0.0
  0
POINT
  5
358
  8
DEFPOINTS
  6
CONTINUOUS
 62
     7
 10
338.99999999999972
 20
-540.0
 30
0.0
  0
POINT
  5
359
  8
DEFPOINTS
  6
CONTINUOUS
 62
     7
 10
-1050.39735271321
 20
-539.99999999999886
 30
0.0
 50
179.99999999999989
  0
LINE
  5
35A
  8
NOTE
  6
CONTINUOUS
 62
     4
 10
578.50880119243811
 20
269.07139773624112
 30
0.0
 11
514.99999999999875
 21
196.79692771640291
 31
0.0
  0
LINE
  5
35B
  8
NOTE
  6
CONTINUOUS
 62
     4
 10
514.99999999999875
 20
196.79692771640291
 30
0.0
 11
548.25904400174375
 21
219.01934859880879
 31
0.0
  0
LINE
  5
35C
  8
NOTE
  6
CONTINUOUS
 62
     4
 10
532.69196627279325
 20
232.6716304912832
 30
0.0
 11
514.99999999999875
 21
196.79692771640291
 31
0.0
  0
LINE
  5
362
  8
DETAIL
  6
CONTINUOUS
 62
     5
 10
301.69717950197031
 20
-409.99999999999841
 30
0.0
 11
272.28494304207999
 21
-409.99999999999841
 31
0.0
  0
LINE
  5
363
  8
DETAIL
  6
CONTINUOUS
 62
     5
 10
-312.0074489376928
 20
-409.99999999999841
 30
0.0
 11
-317.0
 21
-409.99999999999841
 31
0.0
  0
LINE
  5
364
  8
DETAIL
  6
CONTINUOUS
 62
     5
 10
301.69717950197082
 20
410.0000000000008
 30
0.0
 11
272.28494304207999
 21
410.0000000000008
 31
0.0
  0
LINE
  5
365
  8
DETAIL
  6
CONTINUOUS
 62
     5
 10
-312.0074489376928
 20
410.0000000000008
 30
0.0
 11
-317.00000000000182
 21
410.0000000000008
 31
0.0
  0
LINE
  5
371
  8
SERVICESPACE
  6
DASHDOT
 62
     2
 10
867.00000000000387
 20
512.0000000000008
 30
0.0
 11
867.00000000000387
 21
62.000000000000881
 31
0.0
  0
LINE
  5
372
  8
SERVICESPACE
  6
DASHDOT
 62
     2
 10
867.00000000000387
 20
62.000000000000881
 30
0.0
 11
1317.000000000003
 21
62.000000000000881
 31
0.0
  0
LINE
  5
373
  8
SERVICESPACE
  6
DASHDOT
 62
     2
 10
1317.000000000003
 20
62.000000000000881
 30
0.0
 11
1317.000000000003
 21
512.0000000000008
 31
0.0
  0
LINE
  5
374
  8
SERVICESPACE
  6
DASHDOT
 62
     2
 10
1317.000000000003
 20
512.0000000000008
 30
0.0
 11
867.00000000000387
 21
512.0000000000008
 31
0.0
  0
LINE
  5
375
  8
SERVICESPACE
  6
DASHDOT
 62
     2
 10
867.00000000000387
 20
512.0000000000008
 30
0.0
 11
1317.000000000003
 21
62.000000000000881
 31
0.0
  0
LINE
  5
376
  8
SERVICESPACE
  6
DASHDOT
 62
     2
 10
867.00000000000387
 20
62.000000000000881
 30
0.0
 11
1317.000000000003
 21
512.0000000000008
 31
0.0
  0
LINE
  5
37C
  8
SERVICESPACE
  6
DASHDOT
 62
     2
 10
317.00000000000358
 20
-540.0
 30
0.0
 11
317.00000000000358
 21
582.00000000000205
 31
0.0
  0
LINE
  5
37D
  8
SERVICESPACE
  6
DASHDOT
 62
     2
 10
317.00000000000358
 20
582.00000000000205
 30
0.0
 11
967.00000000000352
 21
582.00000000000364
 31
0.0
  0
LINE
  5
37E
  8
SERVICESPACE
  6
DASHDOT
 62
     2
 10
967.00000000000352
 20
582.00000000000205
 30
0.0
 11
967.00000000000352
 21
512.0000000000008
 31
0.0
  0
LINE
  5
37F
  8
SERVICESPACE
  6
DASHDOT
 62
     2
 10
967.00000000000352
 20
62.000000000000881
 30
0.0
 11
967.00000000000352
 21
-540.0
 31
0.0
  0
LINE
  5
380
  8
SERVICESPACE
  6
DASHDOT
 62
     2
 10
967.00000000000352
 20
-540.0
 30
0.0
 11
317.00000000000358
 21
-540.0
 31
0.0
  0
TEXT
  5
381
  8
NOTE
  6
CONTINUOUS
 62
     4
 10
1011.018634240836
 20
133.80431745579509
 30
0.0
 40
60.0
  1
点検口
 41
0.8
  0
LINE
  5
394
  8
SIZE
  6
CONTINUOUS
 62
    30
 10
-317.0
 20
-429.99999999999829
 30
0.0
 11
-317.0
 21
-824.77615209012743
 31
0.0
  0
CIRCLE
  5
397
  8
SIZE
  6
CONTINUOUS
 62
    30
 10
-317.0
 20
-804.77615209012754
 30
0.0
 40
7.5
  0
POINT
  5
39A
  8
DEFPOINTS
  6
CONTINUOUS
 62
     7
 10
-317.0
 20
-409.99999999999841
 30
0.0
  0
LINE
  5
39D
  8
SIZE
  6
CONTINUOUS
 62
    30
 10
-317.0
 20
-429.99999999999829
 30
0.0
 11
-317.0
 21
-1219.573608817884
 31
0.0
  0
CIRCLE
  5
3A0
  8
SIZE
  6
CONTINUOUS
 62
    30
 10
-317.0
 20
-1199.573608817884
 30
0.0
 40
7.5
  0
POINT
  5
3A3
  8
DEFPOINTS
  6
CONTINUOUS
 62
     7
 10
-317.0
 20
-409.99999999999841
 30
0.0
  0
TEXT
  5
3AF
  8
NOTE
  6
CONTINUOUS
 62
     4
 10
581.46841272203437
 20
78.902116935712002
 30
0.0
 40
60.0
  1
サービス
 41
0.8
  0
TEXT
  5
3B0
  8
NOTE
  6
CONTINUOUS
 62
     4
 10
581.71070750722981
 20
15.159260184385399
 30
0.0
 40
60.0
  1
スペース
 41
0.8
  0
LINE
  5
3B4
  8
SIZE
  6
CONTINUOUS
 62
    30
 10
987.0
 20
-387.99999999999852
 30
0.0
 11
1449.732003401288
 21
-387.99999999999881
 31
0.0
  0
LINE
  5
3B5
  8
SIZE
  6
CONTINUOUS
 62
    30
 10
1337.0
 20
62.000000000000881
 30
0.0
 11
1449.732003401288
 21
62.000000000000881
 31
0.0
  0
LINE
  5
3B6
  8
SIZE
  6
CONTINUOUS
 62
    30
 10
1429.732003401288
 20
-387.99999999999852
 30
0.0
 11
1429.732003401288
 21
62.000000000000881
 31
0.0
  0
CIRCLE
  5
3B7
  8
SIZE
  6
CONTINUOUS
 62
    30
 10
1429.732003401288
 20
-387.99999999999852
 30
0.0
 40
7.5
  0
CIRCLE
  5
3B8
  8
SIZE
  6
CONTINUOUS
 62
    30
 10
1429.732003401288
 20
62.000000000000881
 30
0.0
 40
7.5
  0
TEXT
  5
3B9
  8
SIZE
  6
CONTINUOUS
 62
    30
 10
1409.732003401288
 20
-341.97142857142723
 30
0.0
 40
60.0
  1
450～550
 50
90.0
 41
0.9
 72
     1
 11
1409.732003401288
 21
-162.99999999999861
 31
0.0
  0
POINT
  5
3BA
  8
DEFPOINTS
  6
CONTINUOUS
 62
     7
 10
967.0
 20
-387.99999999999852
 30
0.0
  0
POINT
  5
3BB
  8
DEFPOINTS
  6
CONTINUOUS
 62
     7
 10
1317.0
 20
62.000000000000881
 30
0.0
  0
POINT
  5
3BC
  8
DEFPOINTS
  6
CONTINUOUS
 62
     7
 10
1429.732003401288
 20
62.000000000000881
 30
0.0
  0
LINE
  5
3BD
  8
SIZE
  6
CONTINUOUS
 62
    30
 10
1337.0
 20
62.000000000000881
 30
0.0
 11
1449.732003401288
 21
62.000000000000881
 31
0.0
  0
LINE
  5
3BE
  8
SIZE
  6
CONTINUOUS
 62
    30
 10
1337.0
 20
512.0000000000008
 30
0.0
 11
1449.732003401288
 21
512.0000000000008
 31
0.0
  0
LINE
  5
3BF
  8
SIZE
  6
CONTINUOUS
 62
    30
 10
1429.732003401288
 20
62.000000000000881
 30
0.0
 11
1429.732003401288
 21
512.0000000000008
 31
0.0
  0
CIRCLE
  5
3C0
  8
SIZE
  6
CONTINUOUS
 62
    30
 10
1429.732003401288
 20
62.000000000000881
 30
0.0
 40
7.5
  0
CIRCLE
  5
3C1
  8
SIZE
  6
CONTINUOUS
 62
    30
 10
1429.732003401288
 20
512.0000000000008
 30
0.0
 40
7.5
  0
TEXT
  5
3C2
  8
SIZE
  6
CONTINUOUS
 62
    30
 10
1409.732003401288
 20
217.57142857142981
 30
0.0
 40
60.0
  1
450
 50
90.0
 41
0.9
 72
     1
 11
1409.732003401288
 21
287.00000000000119
 31
0.0
  0
POINT
  5
3C3
  8
DEFPOINTS
  6
CONTINUOUS
 62
     7
 10
1317.0
 20
62.000000000000881
 30
0.0
  0
POINT
  5
3C4
  8
DEFPOINTS
  6
CONTINUOUS
 62
     7
 10
1317.0
 20
512.0000000000008
 30
0.0
  0
POINT
  5
3C5
  8
DEFPOINTS
  6
CONTINUOUS
 62
     7
 10
1429.732003401288
 20
512.0000000000008
 30
0.0
  0
LINE
  5
3C6
  8
SIZE
  6
CONTINUOUS
 62
    30
 10
316.99999999999989
 20
-429.99999999999829
 30
0.0
 11
316.99999999999972
 21
-936.34872755276444
 31
0.0
  0
LINE
  5
3C7
  8
SIZE
  6
CONTINUOUS
 62
    30
 10
967.0
 20
-560.0
 30
0.0
 11
967.0
 21
-936.34872755276444
 31
0.0
  0
LINE
  5
3C8
  8
SIZE
  6
CONTINUOUS
 62
    30
 10
316.99999999999972
 20
-916.34872755276501
 30
0.0
 11
967.0
 21
-916.34872755276501
 31
0.0
  0
CIRCLE
  5
3C9
  8
SIZE
  6
CONTINUOUS
 62
    30
 10
316.99999999999972
 20
-916.34872755276501
 30
0.0
 40
7.5
  0
CIRCLE
  5
3CA
  8
SIZE
  6
CONTINUOUS
 62
    30
 10
967.0
 20
-916.34872755276501
 30
0.0
 40
7.5
  0
TEXT
  5
3CB
  8
SIZE
  6
CONTINUOUS
 62
    30
 10
572.57142857142844
 20
-896.34872755276444
 30
0.0
 40
60.0
  1
650
 41
0.9
 72
     1
 11
641.99999999999989
 21
-896.34872755276444
 31
0.0
  0
POINT
  5
3CC
  8
DEFPOINTS
  6
CONTINUOUS
 62
     7
 10
316.99999999999989
 20
-409.99999999999841
 30
0.0
  0
POINT
  5
3CD
  8
DEFPOINTS
  6
CONTINUOUS
 62
     7
 10
967.0
 20
-540.0
 30
0.0
  0
POINT
  5
3CE
  8
DEFPOINTS
  6
CONTINUOUS
 62
     7
 10
967.0
 20
-916.34872755276501
 30
0.0
  0
LINE
  5
3CF
  8
SIZE
  6
CONTINUOUS
 62
    30
 10
316.99999999999989
 20
-429.99999999999829
 30
0.0
 11
316.99999999999972
 21
-1219.573608817884
 31
0.0
  0
LINE
  5
3D0
  8
SIZE
  6
CONTINUOUS
 62
    30
 10
867.0
 20
41.999999999998167
 30
0.0
 11
866.99999999999955
 21
-1219.573608817884
 31
0.0
  0
LINE
  5
3D1
  8
SIZE
  6
CONTINUOUS
 62
    30
 10
316.99999999999972
 20
-1199.573608817884
 30
0.0
 11
866.99999999999955
 21
-1199.573608817884
 31
0.0
  0
CIRCLE
  5
3D2
  8
SIZE
  6
CONTINUOUS
 62
    30
 10
316.99999999999972
 20
-1199.573608817884
 30
0.0
 40
7.5
  0
CIRCLE
  5
3D3
  8
SIZE
  6
CONTINUOUS
 62
    30
 10
866.99999999999955
 20
-1199.573608817884
 30
0.0
 40
7.5
  0
TEXT
  5
3D4
  8
SIZE
  6
CONTINUOUS
 62
    30
 10
413.02857142857141
 20
-1179.573608817884
 30
0.0
 40
60.0
  1
450～550
 41
0.9
 72
     1
 11
592.0
 21
-1179.573608817884
 31
0.0
  0
POINT
  5
3D5
  8
DEFPOINTS
  6
CONTINUOUS
 62
     7
 10
316.99999999999989
 20
-409.99999999999841
 30
0.0
  0
POINT
  5
3D6
  8
DEFPOINTS
  6
CONTINUOUS
 62
     7
 10
867.0
 20
61.999999999998181
 30
0.0
  0
POINT
  5
3D7
  8
DEFPOINTS
  6
CONTINUOUS
 62
     7
 10
866.99999999999955
 20
-1199.573608817884
 30
0.0
  0
LINE
  5
3D8
  8
SIZE
  6
CONTINUOUS
 62
    30
 10
867.0
 20
41.999999999998167
 30
0.0
 11
866.99999999999955
 21
-1219.573608817884
 31
0.0
  0
LINE
  5
3D9
  8
SIZE
  6
CONTINUOUS
 62
    30
 10
1317.0
 20
42.00000000000545
 30
0.0
 11
1317.0
 21
-1219.573608817884
 31
0.0
  0
LINE
  5
3DA
  8
SIZE
  6
CONTINUOUS
 62
    30
 10
866.99999999999955
 20
-1199.573608817884
 30
0.0
 11
1317.0
 21
-1199.573608817884
 31
0.0
  0
CIRCLE
  5
3DB
  8
SIZE
  6
CONTINUOUS
 62
    30
 10
866.99999999999955
 20
-1199.573608817884
 30
0.0
 40
7.5
  0
CIRCLE
  5
3DC
  8
SIZE
  6
CONTINUOUS
 62
    30
 10
1317.0
 20
-1199.573608817884
 30
0.0
 40
7.5
  0
TEXT
  5
3DD
  8
SIZE
  6
CONTINUOUS
 62
    30
 10
1022.571428571428
 20
-1179.573608817884
 30
0.0
 40
60.0
  1
450
 41
0.9
 72
     1
 11
1092.0
 21
-1179.573608817884
 31
0.0
  0
POINT
  5
3DE
  8
DEFPOINTS
  6
CONTINUOUS
 62
     7
 10
867.0
 20
61.999999999998181
 30
0.0
  0
POINT
  5
3DF
  8
DEFPOINTS
  6
CONTINUOUS
 62
     7
 10
1317.0
 20
62.000000000005457
 30
0.0
  0
POINT
  5
3E0
  8
DEFPOINTS
  6
CONTINUOUS
 62
     7
 10
1317.0
 20
-1199.573608817884
 30
0.0
  0
TEXT
  5
3E9
  8
ETC
  6
CONTINUOUS
 62
    61
 10
49.221922085940612
 20
1156.005139396857
 30
0.0
 40
64.0
  1
PLFY-P22_45LM-E2(自然蒸発式/右側組込)_1
 41
0.75
  0
LINE
  5
52A
  8
NOTE
  6
CONTINUOUS
 62
     4
 10
373.99999999995453
 20
465.5000224309137
 30
0.0
 11
623.18072893786302
 21
780.44553300592099
 31
0.0
  0
TEXT
  5
52B
  8
NOTE
  6
CONTINUOUS
 62
     4
 10
628.22047351147785
 20
793.48642300591962
 30
0.0
 40
60.0
  1
加湿器給水口 %%C6.35
 41
0.8
  0
LINE
  5
52C
  8
NOTE
  6
CONTINUOUS
 62
     4
 10
1199.019304209532
 20
780.44553300590053
 30
0.0
 11
623.18072893786302
 21
780.44553300592099
 31
0.0
  0
LINE
  5
52D
  8
NOTE
  6
CONTINUOUS
 62
     4
 10
374.00000000007998
 20
465.50002243097077
 30
0.0
 11
387.89664730253708
 21
503.00846403464112
 31
0.0
  0
LINE
  5
52E
  8
NOTE
  6
CONTINUOUS
 62
     4
 10
404.7890702251363
 20
491.03496171932971
 30
0.0
 11
374.00000000007998
 21
465.50002243097077
 31
0.0
  0
LINE
  5
547
  8
NOTE
  6
CONTINUOUS
 62
     4
 10
-1348.6591874035539
 20
864.00013388427362
 30
0.0
 11
-872.2443155013284
 21
864.00013388427362
 31
0.0
  0
TEXT
  5
548
  8
NOTE
  6
CONTINUOUS
 62
     4
 10
-1348.014067443384
 20
875.8133419531963
 30
0.0
 40
60.0
  1
AH 4-14×30長穴
 41
0.65
  0
TEXT
  5
549
  8
NOTE
  6
CONTINUOUS
 62
     4
 10
-1259.619226597463
 20
785.66667951936813
 30
0.0
 40
60.0
  1
（M10）
 41
0.7
  0
LINE
  5
54A
  8
NOTE
  6
CONTINUOUS
 62
     4
 10
-287.00000000000182
 20
412.00000000000023
 30
0.0
 11
-872.2443155013284
 21
864.00013388427362
 31
0.0
  0
LINE
  5
54B
  8
NOTE
  6
CONTINUOUS
 62
     4
 10
-287.0
 20
412.00000000000023
 30
0.0
 11
-323.39822368226521
 21
428.58822807175869
 31
0.0
  0
LINE
  5
54C
  8
NOTE
  6
CONTINUOUS
 62
     4
 10
-310.22767199317963
 20
444.56493856221562
 30
0.0
 11
-287.0
 21
412.00000000000023
 31
0.0
  0
LINE
  5
55E
  8
SIZE
  6
CONTINUOUS
 62
    30
 10
-227.70056446301979
 20
-388.00000495989292
 30
0.0
 11
-700.99855009823193
 21
-388.00000495989258
 31
0.0
  0
LINE
  5
685
  8
SIZE
  6
CONTINUOUS
 62
    30
 10
316.99999999999977
 20
468.14552453728538
 30
0.0
 11
316.99999999999977
 21
620.03525073422077
 31
0.0
  0
LINE
  5
686
  8
SIZE
  6
CONTINUOUS
 62
    30
 10
373.999999999978
 20
498.19672204712327
 30
0.0
 11
373.999999999978
 21
620.03525073422077
 31
0.0
  0
LINE
  5
687
  8
SIZE
  6
CONTINUOUS
 62
    30
 10
316.99999999999977
 20
600.03525073422077
 30
0.0
 11
373.999999999978
 21
600.03525073422077
 31
0.0
  0
LINE
  5
688
  8
SIZE
  6
CONTINUOUS
 62
    30
 10
373.999999999978
 20
600.03525073422077
 30
0.0
 11
531.4285714285495
 21
600.03525073422043
 31
0.0
  0
CIRCLE
  5
689
  8
SIZE
  6
CONTINUOUS
 62
    30
 10
316.99999999999977
 20
600.03525073422077
 30
0.0
 40
7.5
  0
CIRCLE
  5
68A
  8
SIZE
  6
CONTINUOUS
 62
    30
 10
373.999999999978
 20
600.03525073422077
 30
0.0
 40
7.5
  0
TEXT
  5
68B
  8
SIZE
  6
CONTINUOUS
 62
    30
 10
406.54305513035428
 20
610.0643189000366
 30
0.0
 40
60.0
  1
57
 41
0.9
 72
     1
 11
450.25734084464011
 21
610.0643189000366
 31
0.0
  0
POINT
  5
68C
  8
DEFPOINTS
  6
CONTINUOUS
 62
     7
 10
373.999999999978
 20
576.46449183723917
 30
0.0
 50
179.99999999999989
  0
ENDSEC
  0
EOF
