  0
SECTION
  2
HEADER
  9
$ACADVER
  1
AC1009
  9
$INSBASE
 10
0.0
 20
0.0
 30
0.0
  9
$EXTMIN
 10
-1105.9569976129089
 20
-302.1239975957688
 30
-0.0015258207003583
  9
$EXTMAX
 10
1165.466330905288
 20
1181.716936037082
 30
0.0000000349246037
  9
$LIMMIN
 10
-6000.0
 20
-4500.0
  9
$LIMMAX
 10
6000.0
 20
4500.0
  9
$ORTHOMODE
 70
     1
  9
$REGENMODE
 70
     1
  9
$FILLMODE
 70
     1
  9
$QTEXTMODE
 70
     0
  9
$MIRRTEXT
 70
     0
  9
$DRAGMODE
 70
     2
  9
$LTSCALE
 40
20.0
  9
$OSMODE
 70
   431
  9
$ATTMODE
 70
     1
  9
$TEXTSIZE
 40
64.0
  9
$TRACEWID
 40
0.05
  9
$TEXTSTYLE
  7
STANDARD
  9
$CLAYER
  8
SYMBOLLINE
  9
$CELTYPE
  6
CONTINUOUS
  9
$CECOLOR
 62
     7
  9
$DIMSCALE
 40
1.0
  9
$DIMASZ
 40
10.0
  9
$DIMEXO
 40
20.0
  9
$DIMDLI
 40
200.0
  9
$DIMRND
 40
0.0
  9
$DIMDLE
 40
0.0
  9
$DIMEXE
 40
30.0
  9
$DIMTP
 40
0.0
  9
$DIMTM
 40
0.0
  9
$DIMTXT
 40
64.0
  9
$DIMCEN
 40
0.0
  9
$DIMTSZ
 40
0.0
  9
$DIMTOL
 70
     0
  9
$DIMLIM
 70
     0
  9
$DIMTIH
 70
     0
  9
$DIMTOH
 70
     0
  9
$DIMSE1
 70
     0
  9
$DIMSE2
 70
     0
  9
$DIMTAD
 70
     1
  9
$DIMZIN
 70
     8
  9
$DIMBLK
  1

  9
$DIMASO
 70
     1
  9
$DIMSHO
 70
     0
  9
$DIMPOST
  1

  9
$DIMAPOST
  1

  9
$DIMALT
 70
     0
  9
$DIMALTD
 70
     2
  9
$DIMALTF
 40
25.399999999999999
  9
$DIMLFAC
 40
1.0
  9
$DIMTOFL
 70
     1
  9
$DIMTVP
 40
0.0
  9
$DIMTIX
 70
     1
  9
$DIMSOXD
 70
     0
  9
$DIMSAH
 70
     1
  9
$DIMBLK1
  1
DOTBLANK
  9
$DIMBLK2
  1
DOTBLANK
  9
$DIMSTYLE
  2
STANDARD
  9
$DIMCLRD
 70
     0
  9
$DIMCLRE
 70
     0
  9
$DIMCLRT
 70
     0
  9
$DIMTFAC
 40
1.0
  9
$DIMGAP
 40
0.09
  9
$LUNITS
 70
     2
  9
$LUPREC
 70
     4
  9
$SKETCHINC
 40
0.1
  9
$FILLETRAD
 40
20.0
  9
$AUNITS
 70
     1
  9
$AUPREC
 70
     3
  9
$MENU
  1
ACAD
  9
$ELEVATION
 40
0.0
  9
$PELEVATION
 40
0.0
  9
$THICKNESS
 40
0.0
  9
$LIMCHECK
 70
     0
  9
$BLIPMODE
 70
     0
  9
$CHAMFERA
 40
0.0
  9
$CHAMFERB
 40
0.0
  9
$SKPOLY
 70
     0
  9
$TDCREATE
 40
2450330.4399309959
  9
$TDUPDATE
 40
2455875.465979815
  9
$TDINDWG
 40
1.4068176736
  9
$TDUSRTIMER
 40
1.4068174884
  9
$USRTIMER
 70
     1
  9
$ANGBASE
 50
0.0
  9
$ANGDIR
 70
     0
  9
$PDMODE
 70
     3
  9
$PDSIZE
 40
-2.0
  9
$PLINEWID
 40
0.0
  9
$COORDS
 70
     0
  9
$SPLFRAME
 70
     0
  9
$SPLINETYPE
 70
     6
  9
$SPLINESEGS
 70
     8
  9
$ATTDIA
 70
     0
  9
$ATTREQ
 70
     1
  9
$HANDLING
 70
     1
  9
$HANDSEED
  5
32A
  9
$SURFTAB1
 70
     6
  9
$SURFTAB2
 70
     6
  9
$SURFTYPE
 70
     6
  9
$SURFU
 70
     6
  9
$SURFV
 70
     6
  9
$UCSNAME
  2

  9
$UCSORG
 10
0.0
 20
0.0
 30
0.0
  9
$UCSXDIR
 10
1.0
 20
0.0
 30
0.0
  9
$UCSYDIR
 10
0.0
 20
1.0
 30
0.0
  9
$PUCSNAME
  2

  9
$PUCSORG
 10
0.0
 20
0.0
 30
0.0
  9
$PUCSXDIR
 10
1.0
 20
0.0
 30
0.0
  9
$PUCSYDIR
 10
0.0
 20
1.0
 30
0.0
  9
$USERI1
 70
     0
  9
$USERI2
 70
     0
  9
$USERI3
 70
     0
  9
$USERI4
 70
     0
  9
$USERI5
 70
     0
  9
$USERR1
 40
20.0
  9
$USERR2
 40
0.0
  9
$USERR3
 40
0.0
  9
$USERR4
 40
0.0
  9
$USERR5
 40
0.0
  9
$WORLDVIEW
 70
     1
  9
$SHADEDGE
 70
     3
  9
$SHADEDIF
 70
    70
  9
$TILEMODE
 70
     1
  9
$MAXACTVP
 70
    48
  9
$PLIMCHECK
 70
     0
  9
$PEXTMIN
 10
1.0000000000000000E+020
 20
1.0000000000000000E+020
 30
1.0000000000000000E+020
  9
$PEXTMAX
 10
-1.0000000000000000E+020
 20
-1.0000000000000000E+020
 30
-1.0000000000000000E+020
  9
$PLIMMIN
 10
0.0
 20
0.0
  9
$PLIMMAX
 10
12.0
 20
9.0
  9
$UNITMODE
 70
     0
  9
$VISRETAIN
 70
     1
  9
$PLINEGEN
 70
     0
  9
$PSLTSCALE
 70
     1
  0
ENDSEC
  0
SECTION
  2
TABLES
  0
TABLE
  2
VPORT
 70
     1
  0
VPORT
  2
*ACTIVE
 70
     0
 10
0.0
 20
0.0
 11
1.0
 21
1.0
 12
-0.0000000000001137
 22
0.0
 13
0.0
 23
0.0
 14
50.0
 24
50.0
 15
100.0
 25
100.0
 16
0.0
 26
0.0
 36
1.0
 17
0.0
 27
0.0
 37
0.0
 40
9068.6149936467591
 41
1.555979643765903
 42
50.0
 43
0.0
 44
0.0
 50
0.0
 51
0.0
 71
     0
 72
  1000
 73
     1
 74
     0
 75
     0
 76
     0
 77
     0
 78
     0
  0
ENDTAB
  0
TABLE
  2
LTYPE
 70
     3
  0
LTYPE
  2
CONTINUOUS
 70
     0
  3
実線
 72
    65
 73
     0
 40
0.0
  0
LTYPE
  2
DASHDOT
 70
     0
  3
____ _ ____ _ ____ _ ____ _ ____ _ ____ _ ____
 72
    65
 73
     4
 40
5.5
 49
4.0
 49
-0.6
 49
0.3
 49
-0.6
  0
ENDTAB
  0
TABLE
  2
LAYER
 70
    12
  0
LAYER
  2
0
 70
     0
 62
     7
  6
CONTINUOUS
  0
LAYER
  2
SIZE
 70
     0
 62
    30
  6
CONTINUOUS
  0
LAYER
  2
OUTLINE
 70
     0
 62
     3
  6
CONTINUOUS
  0
LAYER
  2
DETAIL
 70
     0
 62
     5
  6
CONTINUOUS
  0
LAYER
  2
BASIS
 70
     0
 62
     6
  6
DASHDOT
  0
LAYER
  2
NOTE
 70
     0
 62
     4
  6
CONTINUOUS
  0
LAYER
  2
ARRANGE
 70
     0
 62
     1
  6
CONTINUOUS
  0
LAYER
  2
FIX
 70
     0
 62
    11
  6
CONTINUOUS
  0
LAYER
  2
SERVICESPACE
 70
     0
 62
     2
  6
DASHDOT
  0
LAYER
  2
ETC
 70
     0
 62
    61
  6
CONTINUOUS
  0
LAYER
  2
SYMBOLLINE
 70
     0
 62
    15
  6
CONTINUOUS
  0
LAYER
  2
DEFPOINTS
 70
     0
 62
     7
  6
CONTINUOUS
  0
ENDTAB
  0
TABLE
  2
STYLE
 70
     2
  0
STYLE
  2
STANDARD
 70
     0
 40
0.0
 41
0.9
 50
0.0
 71
     0
 42
64.0
  3
SIMPLEX
  4
BIGFONT
  0
STYLE
  2
ANNOTATIVE
 70
     0
 40
0.0
 41
1.0
 50
0.0
 71
     0
 42
0.2
  3
txt
  4

  0
ENDTAB
  0
TABLE
  2
VIEW
 70
     8
  0
VIEW
  2
ALL
 70
     0
 40
9000.0
 10
241.50664699999999
 20
0.0
 41
12483.01
 11
0.0
 21
0.0
 31
1.0
 12
0.0
 22
0.0
 32
0.0
 42
50.0
 43
0.0
 44
0.0
 50
0.0
 71
     0
  0
ENDTAB
  0
TABLE
  2
UCS
 70
     0
  0
ENDTAB
  0
TABLE
  2
APPID
 70
     4
  0
APPID
  2
ACAD
 70
     0
  0
APPID
  2
ACADANNOTATIVE
 70
     0
  0
APPID
  2
ACAD_MLEADERVER
 70
     0
  0
APPID
  2
ACAD_EXEMPT_FROM_CAD_STANDARDS
 70
     0
  0
ENDTAB
  0
TABLE
  2
DIMSTYLE
 70
     3
  0
DIMSTYLE
  2
STANDARD
 70
     0
  3

  4

  5

  6

  7

 40
1.0
 41
0.18
 42
0.0625
 43
0.38
 44
0.18
 45
0.0
 46
0.0
 47
0.0
 48
0.0
140
0.18
141
0.09
142
0.0
143
25.399999999999999
144
1.0
145
0.0
146
1.0
147
0.09
 71
     0
 72
     0
 73
     1
 74
     1
 75
     0
 76
     0
 77
     0
 78
     0
170
     0
171
     2
172
     0
173
     0
174
     0
175
     0
176
     0
177
     0
178
     0
  0
DIMSTYLE
  2
ANNOTATIVE
 70
     0
  3

  4

  5

  6

  7

 40
1.0
 41
0.18
 42
0.0625
 43
0.38
 44
0.18
 45
0.0
 46
0.0
 47
0.0
 48
0.0
140
0.18
141
0.09
142
0.0
143
25.399999999999999
144
1.0
145
0.0
146
1.0
147
0.09
 71
     0
 72
     0
 73
     1
 74
     1
 75
     0
 76
     0
 77
     0
 78
     0
170
     0
171
     2
172
     0
173
     0
174
     0
175
     0
176
     0
177
     0
178
     0
  0
ENDTAB
  0
ENDSEC
  0
SECTION
  2
BLOCKS
  0
BLOCK
  8
0
  2
$MODEL_SPACE
 70
     0
 10
0.0
 20
0.0
 30
0.0
  3
$MODEL_SPACE
  1

  0
ENDBLK
  5
2A1
  8
0
  0
BLOCK
 67
     1
  8
0
  2
$PAPER_SPACE
 70
     0
 10
0.0
 20
0.0
 30
0.0
  3
$PAPER_SPACE
  1

  0
ENDBLK
  5
29D
 67
     1
  8
0
  0
BLOCK
  8
0
  2
_DOTBLANK
 70
     0
 10
0.0
 20
0.0
 30
0.0
  3
_DOTBLANK
  1

  0
CIRCLE
  5
30
  8
0
  6
CONTINUOUS
 62
     7
 10
0.0
 20
0.0
 30
0.0
 40
0.5
  0
LINE
  5
31
  8
0
  6
CONTINUOUS
 62
     7
 10
-0.5
 20
0.0
 30
0.0
 11
-1.0
 21
0.0
 31
0.0
  0
ENDBLK
  5
32
  8
0
  0
ENDSEC
  0
SECTION
  2
ENTITIES
  0
TEXT
  5
33
  8
NOTE
  6
CONTINUOUS
 62
     4
 10
526.48483999999996
 20
540.98248599999988
 30
0.0
 40
64.0
  1
D φ32
 41
0.9
  0
LINE
  5
34
  8
NOTE
  6
CONTINUOUS
 62
     4
 10
438.0
 20
72.210874000000004
 30
0.0
 11
610.00412805153076
 21
-98.987102003716643
 31
0.0
  0
LINE
  5
35
  8
DETAIL
  6
CONTINUOUS
 62
     5
 10
388.0
 20
338.0
 30
0.0
 11
-388.0
 21
338.0
 31
0.0
  0
CIRCLE
  5
36
  8
ARRANGE
  6
CONTINUOUS
 62
     1
 10
0.0
 20
0.0
 30
0.0
 40
40.0
  0
LINE
  5
37
  8
DETAIL
  6
CONTINUOUS
 62
     5
 10
-388.0
 20
48.0
 30
0.0
 11
388.0
 21
48.0
 31
0.0
  0
LINE
  5
38
  8
DETAIL
  6
CONTINUOUS
 62
     5
 10
498.0
 20
45.0
 30
0.0
 11
-498.0
 21
45.0
 31
0.0
  0
LINE
  5
39
  8
DETAIL
  6
CONTINUOUS
 62
     5
 10
540.0
 20
0.0
 30
0.0
 11
-540.0
 21
0.0
 31
0.0
  0
POINT
  5
3A
  8
ARRANGE
  6
CONTINUOUS
 62
     1
 10
0.0
 20
0.0
 30
0.0
  0
LINE
  5
3B
  8
DETAIL
  6
CONTINUOUS
 62
     5
 10
-498.0
 20
45.0
 30
0.0
 11
-498.0
 21
0.0
 31
0.0
  0
LINE
  5
3D
  8
DETAIL
  6
CONTINUOUS
 62
     5
 10
-388.0
 20
338.0
 30
0.0
 11
-388.0
 21
45.0
 31
0.0
  0
LINE
  5
3F
  8
NOTE
  6
CONTINUOUS
 62
     4
 10
-392.0
 20
148.0
 30
0.0
 11
-432.0
 21
148.0
 31
0.0
  0
LINE
  5
40
  8
NOTE
  6
CONTINUOUS
 62
     4
 10
-412.0
 20
128.0
 30
0.0
 11
-412.0
 21
168.0
 31
0.0
  0
POLYLINE
  5
41
  8
NOTE
  6
CONTINUOUS
 62
     4
 66
     1
 10
0.0
 20
0.0
 30
0.0
  0
VERTEX
  5
30B
  8
NOTE
  6
CONTINUOUS
 62
     4
 10
-424.78769699999998
 20
185.90085500000001
 30
0.0
  0
VERTEX
  5
30C
  8
NOTE
  6
CONTINUOUS
 62
     4
 10
-412.0
 20
148.0
 30
0.0
  0
VERTEX
  5
30D
  8
NOTE
  6
CONTINUOUS
 62
     4
 10
-442.02489800000012
 20
174.42925500000001
 30
0.0
  0
SEQEND
  5
30E
  8
NOTE
  6
CONTINUOUS
 62
     4
  0
LINE
  5
46
  8
NOTE
  6
CONTINUOUS
 62
     4
 10
-412.0
 20
148.0
 30
0.0
 11
-460.77234699999991
 21
221.33069699999999
 31
0.0
  0
CIRCLE
  5
47
  8
FIX
  6
CONTINUOUS
 62
    11
 10
-412.0
 20
148.0
 30
0.0
 40
12.5
  0
LINE
  5
48
  8
DETAIL
  6
CONTINUOUS
 62
     5
 10
-388.0
 20
148.0
 30
0.0
 11
-438.0
 21
148.0
 31
0.0
  0
LINE
  5
49
  8
DETAIL
  6
CONTINUOUS
 62
     5
 10
-388.0
 20
145.0
 30
0.0
 11
-435.0
 21
145.0
 31
0.0
  0
LINE
  5
4A
  8
DETAIL
  6
CONTINUOUS
 62
     5
 10
-435.0
 20
140.0
 30
0.0
 11
-438.0
 21
140.0
 31
0.0
  0
LINE
  5
4B
  8
DETAIL
  6
CONTINUOUS
 62
     5
 10
-435.0
 20
145.0
 30
0.0
 11
-435.0
 21
140.0
 31
0.0
  0
LINE
  5
4C
  8
DETAIL
  6
CONTINUOUS
 62
     5
 10
-438.0
 20
148.0
 30
0.0
 11
-438.0
 21
140.0
 31
0.0
  0
LINE
  5
4D
  8
DETAIL
  6
CONTINUOUS
 62
     5
 10
498.0
 20
45.0
 30
0.0
 11
498.0
 21
0.0
 31
0.0
  0
LINE
  5
4E
  8
BASIS
  6
DASHDOT
 62
     6
 10
0.0
 20
415.86406599999998
 30
0.0
 11
0.0
 21
-76.418196999999992
 31
0.0
  0
LINE
  5
4F
  8
NOTE
  6
CONTINUOUS
 62
     4
 10
782.28229899999985
 20
514.97355900000002
 30
0.0
 11
514.99489100000005
 21
514.97355900000002
 31
0.0
  0
LINE
  5
52
  8
DETAIL
  6
CONTINUOUS
 62
     5
 10
388.0
 20
338.0
 30
0.0
 11
388.0
 21
45.0
 31
0.0
  0
LINE
  5
53
  8
NOTE
  6
CONTINUOUS
 62
     4
 10
458.0
 20
72.210874000000004
 30
0.0
 11
418.0
 21
72.210874000000004
 31
0.0
  0
LINE
  5
54
  8
DETAIL
  6
CONTINUOUS
 62
     5
 10
388.0
 20
47.210873999999997
 30
0.0
 11
438.0
 21
47.210873999999997
 31
0.0
  0
LINE
  5
55
  8
DETAIL
  6
CONTINUOUS
 62
     5
 10
388.0
 20
97.210874000000004
 30
0.0
 11
438.0
 21
97.210874000000004
 31
0.0
  0
LINE
  5
56
  8
DETAIL
  6
CONTINUOUS
 62
     5
 10
435.0
 20
145.0
 30
0.0
 11
388.0
 21
145.0
 31
0.0
  0
LINE
  5
57
  8
DETAIL
  6
CONTINUOUS
 62
     5
 10
438.0
 20
148.0
 30
0.0
 11
388.0
 21
148.0
 31
0.0
  0
LINE
  5
58
  8
NOTE
  6
CONTINUOUS
 62
     4
 10
432.0
 20
148.0
 30
0.0
 11
392.0
 21
148.0
 31
0.0
  0
LINE
  5
59
  8
NOTE
  6
CONTINUOUS
 62
     4
 10
412.0
 20
128.0
 30
0.0
 11
412.0
 21
168.0
 31
0.0
  0
CIRCLE
  5
60
  8
FIX
  6
CONTINUOUS
 62
    11
 10
412.0
 20
148.0
 30
0.0
 40
12.5
  0
LINE
  5
61
  8
NOTE
  6
CONTINUOUS
 62
     4
 10
438.0
 20
52.210873999999997
 30
0.0
 11
438.0
 21
92.210874000000004
 31
0.0
  0
POLYLINE
  5
62
  8
NOTE
  6
CONTINUOUS
 62
     4
 66
     1
 10
0.0
 20
0.0
 30
0.0
  0
VERTEX
  5
30F
  8
NOTE
  6
CONTINUOUS
 62
     4
 10
456.44381742979238
 20
36.716852570411753
 30
0.0
  0
VERTEX
  5
310
  8
NOTE
  6
CONTINUOUS
 62
     4
 10
438.0
 20
72.210874000000004
 30
0.0
  0
VERTEX
  5
311
  8
NOTE
  6
CONTINUOUS
 62
     4
 10
471.71982561423317
 20
50.694058702913892
 30
0.0
  0
SEQEND
  5
312
  8
NOTE
  6
CONTINUOUS
 62
     4
  0
LINE
  5
67
  8
DETAIL
  6
CONTINUOUS
 62
     5
 10
488.0
 20
227.971373
 30
0.0
 11
488.0
 21
185.221025
 31
0.0
  0
LINE
  5
68
  8
DETAIL
  6
CONTINUOUS
 62
     5
 10
438.0
 20
97.210874000000004
 30
0.0
 11
438.0
 21
47.210873999999997
 31
0.0
  0
LINE
  5
69
  8
DETAIL
  6
CONTINUOUS
 62
     5
 10
438.0
 20
140.0
 30
0.0
 11
435.0
 21
140.0
 31
0.0
  0
LINE
  5
6A
  8
DETAIL
  6
CONTINUOUS
 62
     5
 10
435.0
 20
145.0
 30
0.0
 11
435.0
 21
140.0
 31
0.0
  0
LINE
  5
6B
  8
DETAIL
  6
CONTINUOUS
 62
     5
 10
438.0
 20
148.0
 30
0.0
 11
438.0
 21
140.0
 31
0.0
  0
LINE
  5
6C
  8
NOTE
  6
CONTINUOUS
 62
     4
 10
432.0
 20
278.0
 30
0.0
 11
392.0
 21
278.0
 31
0.0
  0
LINE
  5
6D
  8
NOTE
  6
CONTINUOUS
 62
     4
 10
412.0
 20
262.0
 30
0.0
 11
412.0
 21
294.0
 31
0.0
  0
POLYLINE
  5
6E
  8
NOTE
  6
CONTINUOUS
 62
     4
 66
     1
 10
0.0
 20
0.0
 30
0.0
  0
VERTEX
  5
313
  8
NOTE
  6
CONTINUOUS
 62
     4
 10
434.241533
 20
311.24626699999999
 30
0.0
  0
VERTEX
  5
314
  8
NOTE
  6
CONTINUOUS
 62
     4
 10
412.0
 20
278.0
 30
0.0
  0
VERTEX
  5
315
  8
NOTE
  6
CONTINUOUS
 62
     4
 10
414.63859899999989
 20
317.91287699999998
 30
0.0
  0
SEQEND
  5
316
  8
NOTE
  6
CONTINUOUS
 62
     4
  0
LINE
  5
73
  8
NOTE
  6
CONTINUOUS
 62
     4
 10
412.0
 20
278.0
 30
0.0
 11
514.99489100000005
 21
514.97355900000002
 31
0.0
  0
LINE
  5
74
  8
DETAIL
  6
CONTINUOUS
 62
     5
 10
412.0
 20
294.0
 30
0.0
 11
412.0
 21
262.0
 31
0.0
  0
LINE
  5
75
  8
DETAIL
  6
CONTINUOUS
 62
     5
 10
412.0
 20
262.0
 30
0.0
 11
388.0
 21
262.0
 31
0.0
  0
LINE
  5
76
  8
DETAIL
  6
CONTINUOUS
 62
     5
 10
412.0
 20
294.0
 30
0.0
 11
388.0
 21
294.0
 31
0.0
  0
TEXT
  5
77
  8
NOTE
  6
CONTINUOUS
 62
     4
 10
646.14750605153074
 20
-75.651227003716656
 30
0.0
 40
64.0
  1
D抜き
 41
0.9
  0
LINE
  5
78
  8
NOTE
  6
CONTINUOUS
 62
     4
 10
610.00412805153076
 20
-98.987102003716643
 30
0.0
 11
838.46237805153078
 21
-98.987102003716643
 31
0.0
  0
TEXT
  5
7A
  8
ETC
  6
CONTINUOUS
 62
    61
 10
-27.133221990501632
 20
1117.0864717043039
 30
0.0
 40
64.0
  1
PLFY-P22_45LM-E2_5
 41
0.9
  0
ARC
  5
7C
  8
DETAIL
  6
CONTINUOUS
 62
     5
 10
-451.9076619999999
 20
173.91395
 30
0.0
 40
194.952102
 50
243.13649500000011
 51
264.08442400000001
  0
LINE
  5
7D
  8
DETAIL
  6
CONTINUOUS
 62
     5
 10
-471.9999998474533
 20
-20.00000007590916
 30
0.0
 11
472.0
 21
-20.0
 31
0.0
  0
ARC
  5
7E
  8
DETAIL
  6
CONTINUOUS
 62
     5
 10
451.9076619999999
 20
173.91395
 30
0.0
 40
194.952102
 50
275.91557599999999
 51
296.86350499999992
  0
LINE
  5
7F
  8
DETAIL
  6
CONTINUOUS
 62
     5
 10
388.0
 20
72.0
 30
0.0
 11
-388.0
 21
72.0
 31
0.0
  0
LINE
  5
80
  8
DETAIL
  6
CONTINUOUS
 62
     5
 10
388.0
 20
227.971373
 30
0.0
 11
488.0
 21
227.971373
 31
0.0
  0
LINE
  5
81
  8
DETAIL
  6
CONTINUOUS
 62
     5
 10
488.0
 20
185.221025
 30
0.0
 11
388.0
 21
162.971373
 31
0.0
  0
LINE
  5
83
  8
NOTE
  6
CONTINUOUS
 62
     4
 10
187.0
 20
304.0
 30
0.0
 11
147.0
 21
304.0
 31
0.0
  0
LINE
  5
84
  8
NOTE
  6
CONTINUOUS
 62
     4
 10
167.0
 20
284.0
 30
0.0
 11
167.0
 21
324.0
 31
0.0
  0
LINE
  5
85
  8
NOTE
  6
CONTINUOUS
 62
     4
 10
187.0
 20
145.0
 30
0.0
 11
147.0
 21
145.0
 31
0.0
  0
LINE
  5
86
  8
NOTE
  6
CONTINUOUS
 62
     4
 10
167.0
 20
125.0
 30
0.0
 11
167.0
 21
165.0
 31
0.0
  0
LINE
  5
87
  8
NOTE
  6
CONTINUOUS
 62
     4
 10
-30.5
 20
304.0
 30
0.0
 11
-70.5
 21
304.0
 31
0.0
  0
LINE
  5
88
  8
NOTE
  6
CONTINUOUS
 62
     4
 10
-50.5
 20
284.0
 30
0.0
 11
-50.5
 21
324.0
 31
0.0
  0
LINE
  5
89
  8
NOTE
  6
CONTINUOUS
 62
     4
 10
-30.5
 20
145.0
 30
0.0
 11
-70.5
 21
145.0
 31
0.0
  0
LINE
  5
8A
  8
NOTE
  6
CONTINUOUS
 62
     4
 10
-50.5
 20
125.0
 30
0.0
 11
-50.5
 21
165.0
 31
0.0
  0
LINE
  5
8B
  8
NOTE
  6
CONTINUOUS
 62
     4
 10
-248.0
 20
304.0
 30
0.0
 11
-288.0
 21
304.0
 31
0.0
  0
LINE
  5
8C
  8
NOTE
  6
CONTINUOUS
 62
     4
 10
-268.0
 20
284.0
 30
0.0
 11
-268.0
 21
324.0
 31
0.0
  0
LINE
  5
8D
  8
NOTE
  6
CONTINUOUS
 62
     4
 10
-248.0
 20
145.0
 30
0.0
 11
-288.0
 21
145.0
 31
0.0
  0
LINE
  5
8E
  8
NOTE
  6
CONTINUOUS
 62
     4
 10
-268.0
 20
125.0
 30
0.0
 11
-268.0
 21
165.0
 31
0.0
  0
LINE
  5
8F
  8
DETAIL
  6
CONTINUOUS
 62
     5
 10
167.0
 20
286.0
 30
0.0
 11
-268.0
 21
286.0
 31
0.0
  0
LINE
  5
90
  8
DETAIL
  6
CONTINUOUS
 62
     5
 10
167.0
 20
176.0
 30
0.0
 11
-268.0
 21
176.0
 31
0.0
  0
CIRCLE
  5
91
  8
DETAIL
  6
CONTINUOUS
 62
     5
 10
167.0
 20
304.0
 30
0.0
 40
1.45
  0
CIRCLE
  5
92
  8
DETAIL
  6
CONTINUOUS
 62
     5
 10
-50.5
 20
304.0
 30
0.0
 40
1.45
  0
CIRCLE
  5
93
  8
DETAIL
  6
CONTINUOUS
 62
     5
 10
-268.0
 20
304.0
 30
0.0
 40
1.45
  0
CIRCLE
  5
94
  8
DETAIL
  6
CONTINUOUS
 62
     5
 10
-268.0
 20
145.0
 30
0.0
 40
1.45
  0
CIRCLE
  5
95
  8
DETAIL
  6
CONTINUOUS
 62
     5
 10
-50.5
 20
145.0
 30
0.0
 40
1.45
  0
CIRCLE
  5
96
  8
DETAIL
  6
CONTINUOUS
 62
     5
 10
167.0
 20
145.0
 30
0.0
 40
1.45
  0
POLYLINE
  5
97
  8
NOTE
  6
CONTINUOUS
 62
     4
 66
     1
 10
0.0
 20
0.0
 30
0.0
  0
VERTEX
  5
317
  8
NOTE
  6
CONTINUOUS
 62
     4
 10
-295.80080099999998
 20
332.759615
 30
0.0
  0
VERTEX
  5
318
  8
NOTE
  6
CONTINUOUS
 62
     4
 10
-268.0
 20
304.0
 30
0.0
  0
VERTEX
  5
319
  8
NOTE
  6
CONTINUOUS
 62
     4
 10
-306.456007
 20
315.00615800000003
 30
0.0
  0
SEQEND
  5
31A
  8
NOTE
  6
CONTINUOUS
 62
     4
  0
LINE
  5
9C
  8
NOTE
  6
CONTINUOUS
 62
     4
 10
-268.0
 20
304.0
 30
0.0
 11
-579.43318899999986
 21
499.56117499999999
 31
0.0
  0
TEXT
  5
9D
  8
NOTE
  6
CONTINUOUS
 62
     4
 10
-1095.945802
 20
516.9855980000001
 30
0.0
 40
64.0
  1
6-%%C2.9取付穴
 41
0.9
  0
LINE
  5
9E
  8
NOTE
  6
CONTINUOUS
 62
     4
 10
-579.43318899999986
 20
499.56117499999999
 30
0.0
 11
-1105.14922
 21
499.56117499999999
 31
0.0
  0
LINE
  5
9F
  8
NOTE
  6
CONTINUOUS
 62
     4
 10
-485.16081099999991
 20
-153.072731
 30
0.0
 11
-67.521536999999995
 21
202.171606
 31
0.0
  0
TEXT
  5
A0
  8
NOTE
  6
CONTINUOUS
 62
     4
 10
-379.82350000000002
 20
-143.44975299999999
 30
0.0
 40
55.0
  1
分ﾀﾞｸﾄ接続口､別売加湿器接続口
 41
0.9
  0
LINE
  5
A1
  8
NOTE
  6
CONTINUOUS
 62
     4
 10
477.36591900000002
 20
-153.072731
 30
0.0
 11
-485.16081099999991
 21
-153.072731
 31
0.0
  0
CIRCLE
  5
A2
  8
NOTE
  6
CONTINUOUS
 62
     4
 10
-67.521536999999995
 20
202.171606
 30
0.0
 40
5.0
  0
LINE
  5
A3
  8
NOTE
  6
CONTINUOUS
 62
     4
 10
-64.684623999999985
 20
198.05433400000001
 30
0.0
 11
-63.404265000000002
 21
199.33469400000001
 31
0.0
  0
LINE
  5
A4
  8
NOTE
  6
CONTINUOUS
 62
     4
 10
-65.141141000000005
 20
197.77459400000001
 30
0.0
 11
-63.124524000000001
 21
199.791211
 31
0.0
  0
LINE
  5
A5
  8
NOTE
  6
CONTINUOUS
 62
     4
 10
-65.489257999999992
 20
197.60325399999999
 30
0.0
 11
-62.953184
 21
200.13932800000001
 31
0.0
  0
LINE
  5
A6
  8
NOTE
  6
CONTINUOUS
 62
     4
 10
-65.787284999999997
 20
197.48200399999999
 30
0.0
 11
-62.831933999999997
 21
200.437354
 31
0.0
  0
LINE
  5
A7
  8
NOTE
  6
CONTINUOUS
 62
     4
 10
-66.054350999999997
 20
197.39171400000001
 30
0.0
 11
-62.741644999999998
 21
200.704421
 31
0.0
  0
LINE
  5
A8
  8
NOTE
  6
CONTINUOUS
 62
     4
 10
-66.299631999999974
 20
197.32320999999999
 30
0.0
 11
-62.673139999999997
 21
200.949702
 31
0.0
  0
LINE
  5
A9
  8
NOTE
  6
CONTINUOUS
 62
     4
 10
-66.528385
 20
197.27123399999999
 30
0.0
 11
-62.621164
 21
201.17845399999999
 31
0.0
  0
LINE
  5
AA
  8
NOTE
  6
CONTINUOUS
 62
     4
 10
-66.743956000000011
 20
197.23244
 30
0.0
 11
-62.582369999999997
 21
201.394026
 31
0.0
  0
LINE
  5
AB
  8
NOTE
  6
CONTINUOUS
 62
     4
 10
-66.948635999999993
 20
197.20453599999999
 30
0.0
 11
-62.554467000000002
 21
201.59870599999999
 31
0.0
  0
LINE
  5
AC
  8
NOTE
  6
CONTINUOUS
 62
     4
 10
-67.144074000000003
 20
197.18587400000001
 30
0.0
 11
-62.535805000000003
 21
201.79414399999999
 31
0.0
  0
LINE
  5
AD
  8
NOTE
  6
CONTINUOUS
 62
     4
 10
-67.331506999999988
 20
197.175219
 30
0.0
 11
-62.525148999999999
 21
201.98157599999999
 31
0.0
  0
LINE
  5
AE
  8
NOTE
  6
CONTINUOUS
 62
     4
 10
-67.511887000000002
 20
197.171616
 30
0.0
 11
-62.521545999999987
 21
202.161956
 31
0.0
  0
LINE
  5
AF
  8
NOTE
  6
CONTINUOUS
 62
     4
 10
-67.685968000000003
 20
197.17431099999999
 30
0.0
 11
-62.524241000000004
 21
202.336038
 31
0.0
  0
LINE
  5
B0
  8
NOTE
  6
CONTINUOUS
 62
     4
 10
-67.85436
 20
197.18269599999999
 30
0.0
 11
-62.532626
 21
202.50443000000001
 31
0.0
  0
LINE
  5
B1
  8
NOTE
  6
CONTINUOUS
 62
     4
 10
-68.017561000000001
 20
197.196271
 30
0.0
 11
-62.546201000000003
 21
202.667631
 31
0.0
  0
LINE
  5
B2
  8
NOTE
  6
CONTINUOUS
 62
     4
 10
-68.175987000000006
 20
197.21462199999999
 30
0.0
 11
-62.564551999999999
 21
202.82605699999999
 31
0.0
  0
LINE
  5
B3
  8
NOTE
  6
CONTINUOUS
 62
     4
 10
-68.329987000000003
 20
197.23739800000001
 30
0.0
 11
-62.587328999999997
 21
202.98005699999999
 31
0.0
  0
LINE
  5
B4
  8
NOTE
  6
CONTINUOUS
 62
     4
 10
-68.47985899999999
 20
197.26430400000001
 30
0.0
 11
-62.614233999999989
 21
203.12992800000001
 31
0.0
  0
LINE
  5
B5
  8
NOTE
  6
CONTINUOUS
 62
     4
 10
-68.625855999999999
 20
197.29508300000001
 30
0.0
 11
-62.645012999999999
 21
203.275926
 31
0.0
  0
LINE
  5
B6
  8
NOTE
  6
CONTINUOUS
 62
     4
 10
-68.768198999999996
 20
197.32951700000001
 30
0.0
 11
-62.679447000000003
 21
203.41826900000001
 31
0.0
  0
LINE
  5
B7
  8
NOTE
  6
CONTINUOUS
 62
     4
 10
-68.90707900000001
 20
197.367413
 30
0.0
 11
-62.717343000000007
 21
203.55714900000001
 31
0.0
  0
LINE
  5
B8
  8
NOTE
  6
CONTINUOUS
 62
     4
 10
-69.042663000000005
 20
197.40860599999999
 30
0.0
 11
-62.758535999999999
 21
203.692733
 31
0.0
  0
LINE
  5
B9
  8
NOTE
  6
CONTINUOUS
 62
     4
 10
-69.175097999999991
 20
197.45294799999999
 30
0.0
 11
-62.802877999999993
 21
203.82516699999999
 31
0.0
  0
LINE
  5
BA
  8
NOTE
  6
CONTINUOUS
 62
     4
 10
-69.304512000000003
 20
197.50031100000001
 30
0.0
 11
-62.850241000000011
 21
203.95458099999999
 31
0.0
  0
LINE
  5
BB
  8
NOTE
  6
CONTINUOUS
 62
     4
 10
-69.431018999999992
 20
197.55058099999999
 30
0.0
 11
-62.900511000000002
 21
204.08108799999999
 31
0.0
  0
LINE
  5
BC
  8
NOTE
  6
CONTINUOUS
 62
     4
 10
-69.554719999999989
 20
197.603656
 30
0.0
 11
-62.953586999999999
 21
204.20478900000001
 31
0.0
  0
LINE
  5
BD
  8
NOTE
  6
CONTINUOUS
 62
     4
 10
-69.67570400000001
 20
197.659449
 30
0.0
 11
-63.009379000000003
 21
204.325773
 31
0.0
  0
LINE
  5
BE
  8
NOTE
  6
CONTINUOUS
 62
     4
 10
-69.794049999999984
 20
197.71787900000001
 30
0.0
 11
-63.067809999999987
 21
204.44412
 31
0.0
  0
LINE
  5
BF
  8
NOTE
  6
CONTINUOUS
 62
     4
 10
-69.909828000000005
 20
197.77887799999999
 30
0.0
 11
-63.128807999999992
 21
204.559898
 31
0.0
  0
LINE
  5
C0
  8
NOTE
  6
CONTINUOUS
 62
     4
 10
-70.023099999999999
 20
197.84238199999999
 30
0.0
 11
-63.192312999999999
 21
204.67317
 31
0.0
  0
LINE
  5
C1
  8
NOTE
  6
CONTINUOUS
 62
     4
 10
-70.133921000000001
 20
197.9083389999999
 30
0.0
 11
-63.258268999999991
 21
204.78398999999999
 31
0.0
  0
LINE
  5
C2
  8
NOTE
  6
CONTINUOUS
 62
     4
 10
-70.242337000000006
 20
197.976699
 30
0.0
 11
-63.326628999999997
 21
204.89240699999999
 31
0.0
  0
LINE
  5
C3
  8
NOTE
  6
CONTINUOUS
 62
     4
 10
-70.348391000000007
 20
198.0474219999999
 30
0.0
 11
-63.397351999999998
 21
204.99845999999999
 31
0.0
  0
LINE
  5
C4
  8
NOTE
  6
CONTINUOUS
 62
     4
 10
-70.452117999999999
 20
198.12047200000001
 30
0.0
 11
-63.470402
 21
205.10218800000001
 31
0.0
  0
LINE
  5
C5
  8
NOTE
  6
CONTINUOUS
 62
     4
 10
-70.553549000000004
 20
198.19581700000001
 30
0.0
 11
-63.545746999999999
 21
205.203619
 31
0.0
  0
LINE
  5
C6
  8
NOTE
  6
CONTINUOUS
 62
     4
 10
-70.652709999999999
 20
198.27343300000001
 30
0.0
 11
-63.623362999999991
 21
205.30277899999999
 31
0.0
  0
LINE
  5
C7
  8
NOTE
  6
CONTINUOUS
 62
     4
 10
-70.749620999999991
 20
198.35329899999999
 30
0.0
 11
-63.703229
 21
205.39968999999999
 31
0.0
  0
LINE
  5
C8
  8
NOTE
  6
CONTINUOUS
 62
     4
 10
-70.844297999999995
 20
198.43539799999999
 30
0.0
 11
-63.785328
 21
205.49436800000001
 31
0.0
  0
LINE
  5
C9
  8
NOTE
  6
CONTINUOUS
 62
     4
 10
-70.936755000000005
 20
198.51971800000001
 30
0.0
 11
-63.869649000000003
 21
205.58682400000001
 31
0.0
  0
LINE
  5
CA
  8
NOTE
  6
CONTINUOUS
 62
     4
 10
-71.026996999999994
 20
198.60625300000001
 30
0.0
 11
-63.956182999999989
 21
205.67706699999999
 31
0.0
  0
LINE
  5
CB
  8
NOTE
  6
CONTINUOUS
 62
     4
 10
-71.115029000000007
 20
198.694997
 30
0.0
 11
-64.044927000000001
 21
205.76509899999999
 31
0.0
  0
LINE
  5
CC
  8
NOTE
  6
CONTINUOUS
 62
     4
 10
-71.200850000000003
 20
198.78595300000001
 30
0.0
 11
-64.135882999999993
 21
205.85092
 31
0.0
  0
LINE
  5
CD
  8
NOTE
  6
CONTINUOUS
 62
     4
 10
-71.284456000000006
 20
198.87912399999999
 30
0.0
 11
-64.229054000000005
 21
205.93452500000001
 31
0.0
  0
LINE
  5
CE
  8
NOTE
  6
CONTINUOUS
 62
     4
 10
-71.365836000000002
 20
198.97452000000001
 30
0.0
 11
-64.324449999999999
 21
206.015906
 31
0.0
  0
LINE
  5
CF
  8
NOTE
  6
CONTINUOUS
 62
     4
 10
-71.444979000000004
 20
199.07215400000001
 30
0.0
 11
-64.422084999999996
 21
206.09504799999999
 31
0.0
  0
LINE
  5
D0
  8
NOTE
  6
CONTINUOUS
 62
     4
 10
-71.521865000000005
 20
199.172045
 30
0.0
 11
-64.521974999999998
 21
206.17193499999999
 31
0.0
  0
LINE
  5
D1
  8
NOTE
  6
CONTINUOUS
 62
     4
 10
-71.596474000000001
 20
199.274213
 30
0.0
 11
-64.624143000000004
 21
206.246543
 31
0.0
  0
LINE
  5
D2
  8
NOTE
  6
CONTINUOUS
 62
     4
 10
-71.668777000000006
 20
199.37868700000001
 30
0.0
 11
-64.728617
 21
206.31884600000001
 31
0.0
  0
LINE
  5
D3
  8
NOTE
  6
CONTINUOUS
 62
     4
 10
-71.738742000000002
 20
199.48549800000001
 30
0.0
 11
-64.835428000000007
 21
206.388812
 31
0.0
  0
LINE
  5
D4
  8
NOTE
  6
CONTINUOUS
 62
     4
 10
-71.806331999999983
 20
199.594684
 30
0.0
 11
-64.944614999999985
 21
206.456402
 31
0.0
  0
LINE
  5
D5
  8
NOTE
  6
CONTINUOUS
 62
     4
 10
-71.871504000000002
 20
199.70629
 30
0.0
 11
-65.056219999999996
 21
206.52157299999999
 31
0.0
  0
LINE
  5
D6
  8
NOTE
  6
CONTINUOUS
 62
     4
 10
-71.934207000000001
 20
199.82036299999999
 30
0.0
 11
-65.170293999999998
 21
206.58427599999999
 31
0.0
  0
LINE
  5
D7
  8
NOTE
  6
CONTINUOUS
 62
     4
 10
-71.994383999999997
 20
199.93696199999999
 30
0.0
 11
-65.286893000000006
 21
206.644454
 31
0.0
  0
LINE
  5
D8
  8
NOTE
  6
CONTINUOUS
 62
     4
 10
-72.051971999999992
 20
200.056151
 30
0.0
 11
-65.406081
 21
206.70204200000001
 31
0.0
  0
LINE
  5
D9
  8
NOTE
  6
CONTINUOUS
 62
     4
 10
-72.106898000000001
 20
200.17800199999999
 30
0.0
 11
-65.527931999999993
 21
206.756968
 31
0.0
  0
LINE
  5
DA
  8
NOTE
  6
CONTINUOUS
 62
     4
 10
-72.159080000000003
 20
200.30259699999999
 30
0.0
 11
-65.652527000000006
 21
206.80914899999999
 31
0.0
  0
LINE
  5
DB
  8
NOTE
  6
CONTINUOUS
 62
     4
 10
-72.208423999999994
 20
200.43002999999999
 30
0.0
 11
-65.779960000000003
 21
206.85849300000001
 31
0.0
  0
LINE
  5
DC
  8
NOTE
  6
CONTINUOUS
 62
     4
 10
-72.254825999999994
 20
200.56040400000001
 30
0.0
 11
-65.910333999999992
 21
206.90489600000001
 31
0.0
  0
LINE
  5
DD
  8
NOTE
  6
CONTINUOUS
 62
     4
 10
-72.298168000000004
 20
200.693839
 30
0.0
 11
-66.043768999999998
 21
206.94823700000001
 31
0.0
  0
LINE
  5
DE
  8
NOTE
  6
CONTINUOUS
 62
     4
 10
-72.338314999999994
 20
200.83046899999999
 30
0.0
 11
-66.180398999999994
 21
206.988384
 31
0.0
  0
LINE
  5
DF
  8
NOTE
  6
CONTINUOUS
 62
     4
 10
-72.375113999999996
 20
200.97044600000001
 30
0.0
 11
-66.320375999999996
 21
207.025184
 31
0.0
  0
LINE
  5
E0
  8
NOTE
  6
CONTINUOUS
 62
     4
 10
-72.408392000000006
 20
201.113945
 30
0.0
 11
-66.463875000000002
 21
207.05846099999999
 31
0.0
  0
LINE
  5
E1
  8
NOTE
  6
CONTINUOUS
 62
     4
 10
-72.437947999999992
 20
201.261166
 30
0.0
 11
-66.611095999999989
 21
207.08801700000001
 31
0.0
  0
LINE
  5
E2
  8
NOTE
  6
CONTINUOUS
 62
     4
 10
-72.463552000000007
 20
201.412339
 30
0.0
 11
-66.762268999999989
 21
207.11362099999999
 31
0.0
  0
LINE
  5
E3
  8
NOTE
  6
CONTINUOUS
 62
     4
 10
-72.484936000000005
 20
201.56773100000001
 30
0.0
 11
-66.917660999999995
 21
207.135006
 31
0.0
  0
LINE
  5
E4
  8
NOTE
  6
CONTINUOUS
 62
     4
 10
-72.501788000000005
 20
201.727655
 30
0.0
 11
-67.077585999999997
 21
207.151858
 31
0.0
  0
LINE
  5
E5
  8
NOTE
  6
CONTINUOUS
 62
     4
 10
-72.513739000000001
 20
201.892481
 30
0.0
 11
-67.242411000000004
 21
207.16380899999999
 31
0.0
  0
LINE
  5
E6
  8
NOTE
  6
CONTINUOUS
 62
     4
 10
-72.520348999999996
 20
202.062648
 30
0.0
 11
-67.412577999999996
 21
207.17041900000001
 31
0.0
  0
LINE
  5
E7
  8
NOTE
  6
CONTINUOUS
 62
     4
 10
-72.521086999999994
 20
202.238687
 30
0.0
 11
-67.588616999999999
 21
207.171156
 31
0.0
  0
LINE
  5
E8
  8
NOTE
  6
CONTINUOUS
 62
     4
 10
-72.515299999999996
 20
202.42124999999999
 30
0.0
 11
-67.771180000000001
 21
207.16537
 31
0.0
  0
LINE
  5
E9
  8
NOTE
  6
CONTINUOUS
 62
     4
 10
-72.502178999999984
 20
202.61114799999999
 30
0.0
 11
-67.961078000000001
 21
207.15224900000001
 31
0.0
  0
LINE
  5
EA
  8
NOTE
  6
CONTINUOUS
 62
     4
 10
-72.480689999999996
 20
202.809414
 30
0.0
 11
-68.15934399999999
 21
207.13076000000001
 31
0.0
  0
LINE
  5
EB
  8
NOTE
  6
CONTINUOUS
 62
     4
 10
-72.449481000000006
 20
203.01740000000001
 30
0.0
 11
-68.36733000000001
 21
207.09954999999999
 31
0.0
  0
LINE
  5
EC
  8
NOTE
  6
CONTINUOUS
 62
     4
 10
-72.406727000000004
 20
203.23693
 30
0.0
 11
-68.586860999999985
 21
207.05679699999999
 31
0.0
  0
LINE
  5
ED
  8
NOTE
  6
CONTINUOUS
 62
     4
 10
-72.349857
 20
203.47057699999999
 30
0.0
 11
-68.82050799999999
 21
206.99992599999999
 31
0.0
  0
LINE
  5
EE
  8
NOTE
  6
CONTINUOUS
 62
     4
 10
-72.275032999999993
 20
203.72217800000001
 30
0.0
 11
-69.072108
 21
206.92510300000001
 31
0.0
  0
LINE
  5
EF
  8
NOTE
  6
CONTINUOUS
 62
     4
 10
-72.176052999999996
 20
203.99793399999999
 30
0.0
 11
-69.347864000000001
 21
206.826123
 31
0.0
  0
LINE
  5
F0
  8
NOTE
  6
CONTINUOUS
 62
     4
 10
-72.041573
 20
204.309191
 30
0.0
 11
-69.659120999999999
 21
206.691643
 31
0.0
  0
LINE
  5
F1
  8
NOTE
  6
CONTINUOUS
 62
     4
 10
-71.845792000000003
 20
204.681749
 30
0.0
 11
-70.031678999999997
 21
206.49586199999999
 31
0.0
  0
LINE
  5
F2
  8
NOTE
  6
CONTINUOUS
 62
     4
 10
-71.486316000000002
 20
205.21800099999999
 30
0.0
 11
-70.567931000000002
 21
206.13638599999999
 31
0.0
  0
LINE
  5
F4
  8
OUTLINE
  6
CONTINUOUS
 62
     3
 10
388.0
 20
338.0
 30
0.0
 11
-388.0
 21
338.0
 31
0.0
  0
LINE
  5
F5
  8
OUTLINE
  6
CONTINUOUS
 62
     3
 10
498.0
 20
45.0
 30
0.0
 11
-498.0
 21
45.0
 31
0.0
  0
LINE
  5
F6
  8
OUTLINE
  6
CONTINUOUS
 62
     3
 10
540.0
 20
0.0
 30
0.0
 11
-540.0
 21
0.0
 31
0.0
  0
LINE
  5
F7
  8
OUTLINE
  6
CONTINUOUS
 62
     3
 10
-498.0
 20
45.0
 30
0.0
 11
-498.0
 21
0.0
 31
0.0
  0
LINE
  5
F8
  8
OUTLINE
  6
CONTINUOUS
 62
     3
 10
-388.0
 20
338.0
 30
0.0
 11
-388.0
 21
45.0
 31
0.0
  0
LINE
  5
FE
  8
OUTLINE
  6
CONTINUOUS
 62
     3
 10
498.0
 20
45.0
 30
0.0
 11
498.0
 21
0.0
 31
0.0
  0
LINE
  5
FF
  8
OUTLINE
  6
CONTINUOUS
 62
     3
 10
388.0
 20
338.0
 30
0.0
 11
388.0
 21
45.0
 31
0.0
  0
ARC
  5
10B
  8
OUTLINE
  6
CONTINUOUS
 62
     3
 10
-451.9076619999999
 20
173.91395
 30
0.0
 40
194.952102
 50
243.13649500000011
 51
264.08442400000001
  0
LINE
  5
10C
  8
OUTLINE
  6
CONTINUOUS
 62
     3
 10
-471.9999998474533
 20
-20.00000007590916
 30
0.0
 11
472.0
 21
-20.0
 31
0.0
  0
ARC
  5
10D
  8
OUTLINE
  6
CONTINUOUS
 62
     3
 10
451.9076619999999
 20
173.91395
 30
0.0
 40
194.952102
 50
275.91557599999999
 51
296.86350499999992
  0
LINE
  5
116
  8
DETAIL
  6
CONTINUOUS
 62
     5
 10
-268.0
 20
286.0
 30
0.0
 11
-268.0
 21
176.0
 31
0.0
  0
LINE
  5
117
  8
DETAIL
  6
CONTINUOUS
 62
     5
 10
167.0
 20
286.0
 30
0.0
 11
167.0
 21
176.0
 31
0.0
  0
LINE
  5
11A
  8
SIZE
  6
CONTINUOUS
 62
    30
 10
-268.0
 20
306.0
 30
0.0
 11
-268.0
 21
707.39229499999999
 31
0.0
  0
LINE
  5
11B
  8
SIZE
  6
CONTINUOUS
 62
    30
 10
167.0
 20
304.0
 30
0.0
 11
167.0
 21
707.39229499999999
 31
0.0
  0
LINE
  5
11C
  8
SIZE
  6
CONTINUOUS
 62
    30
 10
-258.0
 20
677.39229499999999
 30
0.0
 11
157.0
 21
677.39229499999999
 31
0.0
  0
CIRCLE
  5
11D
  8
SIZE
  6
CONTINUOUS
 62
    30
 10
-268.0
 20
677.39229499999999
 30
0.0
 40
5.0
  0
LINE
  5
11E
  8
SIZE
  6
CONTINUOUS
 62
    30
 10
-263.0
 20
677.39229499999999
 30
0.0
 11
-258.0
 21
677.39229499999999
 31
0.0
  0
CIRCLE
  5
11F
  8
SIZE
  6
CONTINUOUS
 62
    30
 10
167.0
 20
677.39229499999999
 30
0.0
 40
5.0
  0
LINE
  5
120
  8
SIZE
  6
CONTINUOUS
 62
    30
 10
162.0
 20
677.39229499999999
 30
0.0
 11
157.0
 21
677.39229499999999
 31
0.0
  0
TEXT
  5
121
  8
SIZE
  6
CONTINUOUS
 62
    30
 10
-133.24850385714279
 20
697.39229499999999
 30
0.0
 40
64.0
  1
435
 41
0.9
 72
     1
 11
-59.191361000000001
 21
697.39229499999999
 31
0.0
  0
LINE
  5
122
  8
SIZE
  6
CONTINUOUS
 62
    30
 10
-70.5
 20
338.0
 30
0.0
 11
-134.156927
 21
338.0
 31
0.0
  0
LINE
  5
123
  8
SIZE
  6
CONTINUOUS
 62
    30
 10
-70.5
 20
286.0
 30
0.0
 11
-134.156927
 21
286.0
 31
0.0
  0
LINE
  5
124
  8
SIZE
  6
CONTINUOUS
 62
    30
 10
-104.156927
 20
276.0
 30
0.0
 11
-104.156927
 21
266.0
 31
0.0
  0
LINE
  5
125
  8
SIZE
  6
CONTINUOUS
 62
    30
 10
-104.156927
 20
348.0
 30
0.0
 11
-104.156927
 21
491.25714299999993
 31
0.0
  0
LINE
  5
126
  8
SIZE
  6
CONTINUOUS
 62
    30
 10
-104.156927
 20
286.0
 30
0.0
 11
-104.156927
 21
338.0
 31
0.0
  0
CIRCLE
  5
127
  8
SIZE
  6
CONTINUOUS
 62
    30
 10
-104.156927
 20
286.0
 30
0.0
 40
5.0
  0
LINE
  5
128
  8
SIZE
  6
CONTINUOUS
 62
    30
 10
-104.156927
 20
281.0
 30
0.0
 11
-104.156927
 21
276.0
 31
0.0
  0
CIRCLE
  5
129
  8
SIZE
  6
CONTINUOUS
 62
    30
 10
-104.156927
 20
338.0
 30
0.0
 40
5.0
  0
LINE
  5
12A
  8
SIZE
  6
CONTINUOUS
 62
    30
 10
-104.156927
 20
343.0
 30
0.0
 11
-104.156927
 21
348.0
 31
0.0
  0
TEXT
  5
12B
  8
SIZE
  6
CONTINUOUS
 62
    30
 10
-124.156927
 20
377.99999957142859
 30
0.0
 40
64.0
  1
52
 50
90.0
 41
0.9
 72
     1
 11
-124.156927
 21
424.62857100000002
 31
0.0
  0
LINE
  5
12C
  8
SIZE
  6
CONTINUOUS
 62
    30
 10
147.0
 20
304.0
 30
0.0
 11
80.005623
 21
304.0
 31
0.0
  0
LINE
  5
12D
  8
SIZE
  6
CONTINUOUS
 62
    30
 10
147.0
 20
338.0
 30
0.0
 11
80.005623
 21
338.0
 31
0.0
  0
LINE
  5
12E
  8
SIZE
  6
CONTINUOUS
 62
    30
 10
110.005623
 20
294.0
 30
0.0
 11
110.005623
 21
284.0
 31
0.0
  0
LINE
  5
12F
  8
SIZE
  6
CONTINUOUS
 62
    30
 10
110.005623
 20
348.0
 30
0.0
 11
110.005623
 21
494.0
 31
0.0
  0
LINE
  5
130
  8
SIZE
  6
CONTINUOUS
 62
    30
 10
110.005623
 20
304.0
 30
0.0
 11
110.005623
 21
338.0
 31
0.0
  0
CIRCLE
  5
131
  8
SIZE
  6
CONTINUOUS
 62
    30
 10
110.005623
 20
304.0
 30
0.0
 40
5.0
  0
LINE
  5
132
  8
SIZE
  6
CONTINUOUS
 62
    30
 10
110.005623
 20
299.0
 30
0.0
 11
110.005623
 21
294.0
 31
0.0
  0
CIRCLE
  5
133
  8
SIZE
  6
CONTINUOUS
 62
    30
 10
110.005623
 20
338.0
 30
0.0
 40
5.0
  0
LINE
  5
134
  8
SIZE
  6
CONTINUOUS
 62
    30
 10
110.005623
 20
343.0
 30
0.0
 11
110.005623
 21
348.0
 31
0.0
  0
TEXT
  5
135
  8
SIZE
  6
CONTINUOUS
 62
    30
 10
90.005623
 20
378.0
 30
0.0
 40
64.0
  1
34
 50
90.0
 41
0.9
 72
     1
 11
90.005623
 21
426.0
 31
0.0
  0
LINE
  5
136
  8
SIZE
  6
CONTINUOUS
 62
    30
 10
-288.0
 20
286.0
 30
0.0
 11
-316.79492299999998
 21
286.0
 31
0.0
  0
LINE
  5
137
  8
SIZE
  6
CONTINUOUS
 62
    30
 10
-288.0
 20
176.0
 30
0.0
 11
-316.79492299999998
 21
176.0
 31
0.0
  0
LINE
  5
138
  8
SIZE
  6
CONTINUOUS
 62
    30
 10
-286.79492299999998
 20
296.0
 30
0.0
 11
-286.79492299999998
 21
306.0
 31
0.0
  0
LINE
  5
139
  8
SIZE
  6
CONTINUOUS
 62
    30
 10
-286.79492299999998
 20
166.0
 30
0.0
 11
-286.79492299999998
 21
156.0
 31
0.0
  0
LINE
  5
13A
  8
SIZE
  6
CONTINUOUS
 62
    30
 10
-286.79492299999998
 20
286.0
 30
0.0
 11
-286.79492299999998
 21
176.0
 31
0.0
  0
CIRCLE
  5
13B
  8
SIZE
  6
CONTINUOUS
 62
    30
 10
-286.79492299999998
 20
286.0
 30
0.0
 40
5.0
  0
LINE
  5
13C
  8
SIZE
  6
CONTINUOUS
 62
    30
 10
-286.79492299999998
 20
291.0
 30
0.0
 11
-286.79492299999998
 21
296.0
 31
0.0
  0
CIRCLE
  5
13D
  8
SIZE
  6
CONTINUOUS
 62
    30
 10
-286.79492299999998
 20
176.0
 30
0.0
 40
5.0
  0
LINE
  5
13E
  8
SIZE
  6
CONTINUOUS
 62
    30
 10
-286.79492299999998
 20
171.0
 30
0.0
 11
-286.79492299999998
 21
166.0
 31
0.0
  0
TEXT
  5
13F
  8
SIZE
  6
CONTINUOUS
 62
    30
 10
-306.79492299999998
 20
167.91428571428571
 30
0.0
 40
64.0
  1
110
 50
90.0
 41
0.9
 72
     1
 11
-306.79492299999998
 21
231.0
 31
0.0
  0
LINE
  5
140
  8
SIZE
  6
CONTINUOUS
 62
    30
 10
-50.5
 20
324.0
 30
0.0
 11
-50.5
 21
598.27527399999985
 31
0.0
  0
LINE
  5
141
  8
SIZE
  6
CONTINUOUS
 62
    30
 10
-268.0
 20
324.0
 30
0.0
 11
-268.0
 21
598.27527399999985
 31
0.0
  0
LINE
  5
142
  8
SIZE
  6
CONTINUOUS
 62
    30
 10
-40.499999999999993
 20
568.27527399999985
 30
0.0
 11
-30.5
 21
568.27527399999985
 31
0.0
  0
LINE
  5
143
  8
SIZE
  6
CONTINUOUS
 62
    30
 10
-278.0
 20
568.27527399999985
 30
0.0
 11
-288.0
 21
568.27527399999985
 31
0.0
  0
LINE
  5
144
  8
SIZE
  6
CONTINUOUS
 62
    30
 10
-50.5
 20
568.27527399999985
 30
0.0
 11
-268.0
 21
568.27527399999985
 31
0.0
  0
CIRCLE
  5
145
  8
SIZE
  6
CONTINUOUS
 62
    30
 10
-50.5
 20
568.27527399999985
 30
0.0
 40
5.0
  0
LINE
  5
146
  8
SIZE
  6
CONTINUOUS
 62
    30
 10
-45.499999999999993
 20
568.27527399999985
 30
0.0
 11
-40.499999999999993
 21
568.27527399999985
 31
0.0
  0
CIRCLE
  5
147
  8
SIZE
  6
CONTINUOUS
 62
    30
 10
-268.0
 20
568.27527399999985
 30
0.0
 40
5.0
  0
LINE
  5
148
  8
SIZE
  6
CONTINUOUS
 62
    30
 10
-273.0
 20
568.27527399999985
 30
0.0
 11
-278.0
 21
568.27527399999985
 31
0.0
  0
TEXT
  5
149
  8
SIZE
  6
CONTINUOUS
 62
    30
 10
-268.96428571428572
 20
588.27527399999985
 30
0.0
 40
64.0
  1
217.5
 41
0.9
 72
     1
 11
-159.25
 21
588.27527399999985
 31
0.0
  0
LINE
  5
14A
  8
SIZE
  6
CONTINUOUS
 62
    30
 10
167.0
 20
324.0
 30
0.0
 11
167.0
 21
597.70862
 31
0.0
  0
LINE
  5
14B
  8
SIZE
  6
CONTINUOUS
 62
    30
 10
-50.5
 20
324.0
 30
0.0
 11
-50.5
 21
597.70862
 31
0.0
  0
LINE
  5
14C
  8
SIZE
  6
CONTINUOUS
 62
    30
 10
177.0
 20
567.70861999999988
 30
0.0
 11
187.0
 21
567.70861999999988
 31
0.0
  0
LINE
  5
14D
  8
SIZE
  6
CONTINUOUS
 62
    30
 10
-60.5
 20
567.70861999999988
 30
0.0
 11
-70.5
 21
567.70861999999988
 31
0.0
  0
LINE
  5
14E
  8
SIZE
  6
CONTINUOUS
 62
    30
 10
167.0
 20
567.70861999999988
 30
0.0
 11
-50.5
 21
567.70861999999988
 31
0.0
  0
CIRCLE
  5
14F
  8
SIZE
  6
CONTINUOUS
 62
    30
 10
167.0
 20
567.70861999999988
 30
0.0
 40
5.0
  0
LINE
  5
150
  8
SIZE
  6
CONTINUOUS
 62
    30
 10
172.0
 20
567.70861999999988
 30
0.0
 11
177.0
 21
567.70861999999988
 31
0.0
  0
CIRCLE
  5
151
  8
SIZE
  6
CONTINUOUS
 62
    30
 10
-50.5
 20
567.70861999999988
 30
0.0
 40
5.0
  0
LINE
  5
152
  8
SIZE
  6
CONTINUOUS
 62
    30
 10
-55.5
 20
567.70861999999988
 30
0.0
 11
-60.5
 21
567.70861999999988
 31
0.0
  0
TEXT
  5
153
  8
SIZE
  6
CONTINUOUS
 62
    30
 10
-51.464285714285687
 20
587.70861999999988
 30
0.0
 40
64.0
  1
217.5
 41
0.9
 72
     1
 11
58.25
 21
587.70861999999988
 31
0.0
  0
LINE
  5
154
  8
SIZE
  6
CONTINUOUS
 62
    30
 10
167.0
 20
324.0
 30
0.0
 11
167.0
 21
596.9123249999999
 31
0.0
  0
LINE
  5
155
  8
SIZE
  6
CONTINUOUS
 62
    30
 10
388.0
 20
358.0
 30
0.0
 11
388.0
 21
596.9123249999999
 31
0.0
  0
LINE
  5
156
  8
SIZE
  6
CONTINUOUS
 62
    30
 10
177.0
 20
566.91232500000001
 30
0.0
 11
378.0
 21
566.91232500000001
 31
0.0
  0
CIRCLE
  5
157
  8
SIZE
  6
CONTINUOUS
 62
    30
 10
167.0
 20
566.91232500000001
 30
0.0
 40
5.0
  0
LINE
  5
158
  8
SIZE
  6
CONTINUOUS
 62
    30
 10
172.0
 20
566.91232500000001
 30
0.0
 11
177.0
 21
566.91232500000001
 31
0.0
  0
CIRCLE
  5
159
  8
SIZE
  6
CONTINUOUS
 62
    30
 10
388.0
 20
566.91232500000001
 30
0.0
 40
5.0
  0
LINE
  5
15A
  8
SIZE
  6
CONTINUOUS
 62
    30
 10
383.0
 20
566.91232500000001
 30
0.0
 11
378.0
 21
566.91232500000001
 31
0.0
  0
TEXT
  5
15B
  8
SIZE
  6
CONTINUOUS
 62
    30
 10
215.78571428571431
 20
586.91232500000001
 30
0.0
 40
64.0
  1
221
 41
0.9
 72
     1
 11
277.5
 21
586.91232500000001
 31
0.0
  0
LINE
  5
15C
  8
SIZE
  6
CONTINUOUS
 62
    30
 10
168.5
 20
304.0
 30
0.0
 11
318.04583400000001
 21
304.0
 31
0.0
  0
LINE
  5
15D
  8
SIZE
  6
CONTINUOUS
 62
    30
 10
168.5
 20
145.0
 30
0.0
 11
318.04583400000001
 21
145.0
 31
0.0
  0
LINE
  5
15E
  8
SIZE
  6
CONTINUOUS
 62
    30
 10
288.04583400000001
 20
314.0
 30
0.0
 11
288.04583400000001
 21
324.0
 31
0.0
  0
LINE
  5
15F
  8
SIZE
  6
CONTINUOUS
 62
    30
 10
288.04583400000001
 20
135.0
 30
0.0
 11
288.04583400000001
 21
125.0
 31
0.0
  0
LINE
  5
160
  8
SIZE
  6
CONTINUOUS
 62
    30
 10
288.04583400000001
 20
304.0
 30
0.0
 11
288.04583400000001
 21
145.0
 31
0.0
  0
CIRCLE
  5
161
  8
SIZE
  6
CONTINUOUS
 62
    30
 10
288.04583400000001
 20
304.0
 30
0.0
 40
5.0
  0
LINE
  5
162
  8
SIZE
  6
CONTINUOUS
 62
    30
 10
288.04583400000001
 20
309.0
 30
0.0
 11
288.04583400000001
 21
314.0
 31
0.0
  0
CIRCLE
  5
163
  8
SIZE
  6
CONTINUOUS
 62
    30
 10
288.04583400000001
 20
145.0
 30
0.0
 40
5.0
  0
LINE
  5
164
  8
SIZE
  6
CONTINUOUS
 62
    30
 10
288.04583400000001
 20
140.0
 30
0.0
 11
288.04583400000001
 21
135.0
 31
0.0
  0
TEXT
  5
165
  8
SIZE
  6
CONTINUOUS
 62
    30
 10
268.04583400000001
 20
157.30000000000001
 30
0.0
 40
64.0
  1
159
 50
90.0
 41
0.9
 72
     1
 11
268.04583400000001
 21
224.5
 31
0.0
  0
LINE
  5
166
  8
SIZE
  6
CONTINUOUS
 62
    30
 10
-560.0
 20
0.0
 30
0.0
 11
-702.51615300000003
 21
0.0
 31
0.0
  0
LINE
  5
167
  8
SIZE
  6
CONTINUOUS
 62
    30
 10
-492.0
 20
-20.0
 30
0.0
 11
-702.51615300000003
 21
-20.0
 31
0.0
  0
LINE
  5
168
  8
SIZE
  6
CONTINUOUS
 62
    30
 10
-672.51615300000003
 20
10.0
 30
0.0
 11
-672.51615300000003
 21
20.0
 31
0.0
  0
LINE
  5
169
  8
SIZE
  6
CONTINUOUS
 62
    30
 10
-672.51615300000003
 20
-30.0
 30
0.0
 11
-672.51615300000003
 21
-140.46373044381471
 31
0.0
  0
LINE
  5
16A
  8
SIZE
  6
CONTINUOUS
 62
    30
 10
-672.51615300000003
 20
0.0
 30
0.0
 11
-672.51615300000003
 21
-20.0
 31
0.0
  0
CIRCLE
  5
16B
  8
SIZE
  6
CONTINUOUS
 62
    30
 10
-672.51615300000003
 20
0.0
 30
0.0
 40
5.0
  0
LINE
  5
16C
  8
SIZE
  6
CONTINUOUS
 62
    30
 10
-672.51615300000003
 20
5.0
 30
0.0
 11
-672.51615300000003
 21
10.0
 31
0.0
  0
CIRCLE
  5
16D
  8
SIZE
  6
CONTINUOUS
 62
    30
 10
-672.51615300000003
 20
-20.0
 30
0.0
 40
5.0
  0
LINE
  5
16E
  8
SIZE
  6
CONTINUOUS
 62
    30
 10
-672.51615300000003
 20
-25.0
 30
0.0
 11
-672.51615300000003
 21
-30.0
 31
0.0
  0
TEXT
  5
16F
  8
SIZE
  6
CONTINUOUS
 62
    30
 10
-692.51615300000003
 20
-128.67760676409489
 30
0.0
 40
64.0
  1
20
 50
90.0
 41
0.9
 72
     1
 11
-692.51615300000003
 21
-82.049035335523513
 31
0.0
  0
LINE
  5
170
  8
SIZE
  6
CONTINUOUS
 62
    30
 10
-518.0
 20
45.0
 30
0.0
 11
-702.51615300000003
 21
45.0
 31
0.0
  0
LINE
  5
171
  8
SIZE
  6
CONTINUOUS
 62
    30
 10
-560.0
 20
0.0
 30
0.0
 11
-702.51615300000003
 21
0.0
 31
0.0
  0
LINE
  5
172
  8
SIZE
  6
CONTINUOUS
 62
    30
 10
-672.51615300000003
 20
55.0
 30
0.0
 11
-672.51615300000003
 21
161.3889821118282
 31
0.0
  0
LINE
  5
173
  8
SIZE
  6
CONTINUOUS
 62
    30
 10
-672.51615300000003
 20
-10.0
 30
0.0
 11
-672.51615300000003
 21
-20.0
 31
0.0
  0
LINE
  5
174
  8
SIZE
  6
CONTINUOUS
 62
    30
 10
-672.51615300000003
 20
45.0
 30
0.0
 11
-672.51615300000003
 21
0.0
 31
0.0
  0
CIRCLE
  5
175
  8
SIZE
  6
CONTINUOUS
 62
    30
 10
-672.51615300000003
 20
45.0
 30
0.0
 40
5.0
  0
LINE
  5
176
  8
SIZE
  6
CONTINUOUS
 62
    30
 10
-672.51615300000003
 20
50.0
 30
0.0
 11
-672.51615300000003
 21
55.0
 31
0.0
  0
CIRCLE
  5
177
  8
SIZE
  6
CONTINUOUS
 62
    30
 10
-672.51615300000003
 20
0.0
 30
0.0
 40
5.0
  0
LINE
  5
178
  8
SIZE
  6
CONTINUOUS
 62
    30
 10
-672.51615300000003
 20
-5.0
 30
0.0
 11
-672.51615300000003
 21
-10.0
 31
0.0
  0
TEXT
  5
179
  8
SIZE
  6
CONTINUOUS
 62
    30
 10
-692.51615300000003
 20
60.561113187786717
 30
0.0
 40
64.0
  1
45
 50
90.0
 41
0.9
 72
     1
 11
-692.51615300000003
 21
107.18968461635809
 31
0.0
  0
LINE
  5
17A
  8
SIZE
  6
CONTINUOUS
 62
    30
 10
408.0
 20
338.0
 30
0.0
 11
1165.4074579999999
 21
338.0
 31
0.0
  0
LINE
  5
17B
  8
SIZE
  6
CONTINUOUS
 62
    30
 10
478.0
 20
72.210874000000004
 30
0.0
 11
1165.4074579999999
 21
72.210874000000004
 31
0.0
  0
LINE
  5
17C
  8
SIZE
  6
CONTINUOUS
 62
    30
 10
1135.4074579999999
 20
328.0
 30
0.0
 11
1135.4074579999999
 21
82.210874000000004
 31
0.0
  0
CIRCLE
  5
17D
  8
SIZE
  6
CONTINUOUS
 62
    30
 10
1135.4074579999999
 20
338.0
 30
0.0
 40
5.0
  0
LINE
  5
17E
  8
SIZE
  6
CONTINUOUS
 62
    30
 10
1135.4074579999999
 20
333.0
 30
0.0
 11
1135.4074579999999
 21
328.0
 31
0.0
  0
CIRCLE
  5
17F
  8
SIZE
  6
CONTINUOUS
 62
    30
 10
1135.4074579999999
 20
72.210874000000004
 30
0.0
 40
5.0
  0
LINE
  5
180
  8
SIZE
  6
CONTINUOUS
 62
    30
 10
1135.4074579999999
 20
77.210874000000004
 30
0.0
 11
1135.4074579999999
 21
82.210874000000004
 31
0.0
  0
TEXT
  5
181
  8
SIZE
  6
CONTINUOUS
 62
    30
 10
1115.4074579999999
 20
132.41972271428571
 30
0.0
 40
64.0
  1
266
 50
90.0
 41
0.9
 72
     1
 11
1115.4074579999999
 21
205.10543699999999
 31
0.0
  0
LINE
  5
182
  8
SIZE
  6
CONTINUOUS
 62
    30
 10
408.0
 20
338.0
 30
0.0
 11
1038.7244109999999
 21
338.0
 31
0.0
  0
LINE
  5
183
  8
SIZE
  6
CONTINUOUS
 62
    30
 10
458.0
 20
148.0
 30
0.0
 11
1038.7244109999999
 21
148.0
 31
0.0
  0
LINE
  5
184
  8
SIZE
  6
CONTINUOUS
 62
    30
 10
1008.724411
 20
328.0
 30
0.0
 11
1008.724411
 21
158.0
 31
0.0
  0
CIRCLE
  5
185
  8
SIZE
  6
CONTINUOUS
 62
    30
 10
1008.724411
 20
338.0
 30
0.0
 40
5.0
  0
LINE
  5
186
  8
SIZE
  6
CONTINUOUS
 62
    30
 10
1008.724411
 20
333.0
 30
0.0
 11
1008.724411
 21
328.0
 31
0.0
  0
CIRCLE
  5
187
  8
SIZE
  6
CONTINUOUS
 62
    30
 10
1008.724411
 20
148.0
 30
0.0
 40
5.0
  0
LINE
  5
188
  8
SIZE
  6
CONTINUOUS
 62
    30
 10
1008.724411
 20
153.0
 30
0.0
 11
1008.724411
 21
158.0
 31
0.0
  0
TEXT
  5
189
  8
SIZE
  6
CONTINUOUS
 62
    30
 10
988.72441099999992
 20
174.42857142857139
 30
0.0
 40
64.0
  1
190
 50
90.0
 41
0.9
 72
     1
 11
988.72441099999992
 21
243.0
 31
0.0
  0
LINE
  5
18A
  8
SIZE
  6
CONTINUOUS
 62
    30
 10
408.0
 20
338.0
 30
0.0
 11
879.46303199999988
 21
338.0
 31
0.0
  0
LINE
  5
18B
  8
SIZE
  6
CONTINUOUS
 62
    30
 10
452.0
 20
278.0
 30
0.0
 11
879.46303199999988
 21
278.0
 31
0.0
  0
LINE
  5
18C
  8
SIZE
  6
CONTINUOUS
 62
    30
 10
849.463032
 20
348.0
 30
0.0
 11
849.463032
 21
453.97456697795491
 31
0.0
  0
LINE
  5
18D
  8
SIZE
  6
CONTINUOUS
 62
    30
 10
849.463032
 20
268.0
 30
0.0
 11
849.463032
 21
258.0
 31
0.0
  0
LINE
  5
18E
  8
SIZE
  6
CONTINUOUS
 62
    30
 10
849.463032
 20
338.0
 30
0.0
 11
849.463032
 21
278.0
 31
0.0
  0
CIRCLE
  5
18F
  8
SIZE
  6
CONTINUOUS
 62
    30
 10
849.463032
 20
338.0
 30
0.0
 40
5.0
  0
LINE
  5
190
  8
SIZE
  6
CONTINUOUS
 62
    30
 10
849.463032
 20
343.0
 30
0.0
 11
849.463032
 21
348.0
 31
0.0
  0
CIRCLE
  5
191
  8
SIZE
  6
CONTINUOUS
 62
    30
 10
849.463032
 20
278.0
 30
0.0
 40
5.0
  0
LINE
  5
192
  8
SIZE
  6
CONTINUOUS
 62
    30
 10
849.463032
 20
273.0
 30
0.0
 11
849.463032
 21
268.0
 31
0.0
  0
TEXT
  5
193
  8
SIZE
  6
CONTINUOUS
 62
    30
 10
829.46303199999988
 20
355.95188469785887
 30
0.0
 40
64.0
  1
60
 50
90.0
 41
0.9
 72
     1
 11
829.46303199999988
 21
402.58045612643031
 31
0.0
  0
LINE
  5
194
  8
SIZE
  6
CONTINUOUS
 62
    30
 10
520.0
 20
-28.759955000000001
 30
0.0
 11
520.0
 21
-301.46994599999999
 31
0.0
  0
LINE
  5
195
  8
SIZE
  6
CONTINUOUS
 62
    30
 10
540.0
 20
-20.0
 30
0.0
 11
540.0
 21
-301.46994599999999
 31
0.0
  0
LINE
  5
196
  8
SIZE
  6
CONTINUOUS
 62
    30
 10
510.0
 20
-271.46994599999999
 30
0.0
 11
500.0
 21
-271.46994599999999
 31
0.0
  0
LINE
  5
197
  8
SIZE
  6
CONTINUOUS
 62
    30
 10
550.0
 20
-271.46994599999999
 30
0.0
 11
671.85833919881395
 21
-271.46994599999999
 31
0.0
  0
LINE
  5
198
  8
SIZE
  6
CONTINUOUS
 62
    30
 10
520.0
 20
-271.46994599999999
 30
0.0
 11
540.0
 21
-271.46994599999999
 31
0.0
  0
CIRCLE
  5
199
  8
SIZE
  6
CONTINUOUS
 62
    30
 10
520.0
 20
-271.46994599999999
 30
0.0
 40
5.0
  0
LINE
  5
19A
  8
SIZE
  6
CONTINUOUS
 62
    30
 10
515.0
 20
-271.46994599999999
 30
0.0
 11
510.0
 21
-271.46994599999999
 31
0.0
  0
CIRCLE
  5
19B
  8
SIZE
  6
CONTINUOUS
 62
    30
 10
540.0
 20
-271.46994599999999
 30
0.0
 40
5.0
  0
LINE
  5
19C
  8
SIZE
  6
CONTINUOUS
 62
    30
 10
545.0
 20
-271.46994599999999
 30
0.0
 11
550.0
 21
-271.46994599999999
 31
0.0
  0
TEXT
  5
19D
  8
SIZE
  6
CONTINUOUS
 62
    30
 10
562.92818292660911
 20
-251.46994599999999
 30
0.0
 40
64.0
  1
20
 41
0.9
 72
     1
 11
609.5567543551806
 21
-251.46994599999999
 31
0.0
  0
LINE
  5
19E
  8
SIZE
  6
CONTINUOUS
 62
    30
 10
-540.0
 20
-20.0
 30
0.0
 11
-540.0
 21
-301.46994599999999
 31
0.0
  0
LINE
  5
19F
  8
SIZE
  6
CONTINUOUS
 62
    30
 10
-520.0
 20
-28.759955000000001
 30
0.0
 11
-520.0
 21
-301.46994599999999
 31
0.0
  0
LINE
  5
1A1
  8
SIZE
  6
CONTINUOUS
 62
    30
 10
-510.0
 20
-271.46994599999999
 30
0.0
 11
-500.0
 21
-271.46994599999999
 31
0.0
  0
LINE
  5
1A2
  8
SIZE
  6
CONTINUOUS
 62
    30
 10
-540.0
 20
-271.46994599999999
 30
0.0
 11
-520.0
 21
-271.46994599999999
 31
0.0
  0
CIRCLE
  5
1A3
  8
SIZE
  6
CONTINUOUS
 62
    30
 10
-540.0
 20
-271.46994599999999
 30
0.0
 40
5.0
  0
LINE
  5
1A4
  8
SIZE
  6
CONTINUOUS
 62
    30
 10
-545.0
 20
-271.46994599999999
 30
0.0
 11
-550.0
 21
-271.46994599999999
 31
0.0
  0
CIRCLE
  5
1A5
  8
SIZE
  6
CONTINUOUS
 62
    30
 10
-520.0
 20
-271.46994599999999
 30
0.0
 40
5.0
  0
LINE
  5
1A6
  8
SIZE
  6
CONTINUOUS
 62
    30
 10
-515.0
 20
-271.46994599999999
 30
0.0
 11
-510.0
 21
-271.46994599999999
 31
0.0
  0
LINE
  5
1A8
  8
SIZE
  6
CONTINUOUS
 62
    30
 10
-520.0
 20
-28.759955000000001
 30
0.0
 11
-520.0
 21
-301.46994599999999
 31
0.0
  0
LINE
  5
1A9
  8
SIZE
  6
CONTINUOUS
 62
    30
 10
520.0
 20
-28.759955000000001
 30
0.0
 11
520.0
 21
-301.46994599999999
 31
0.0
  0
LINE
  5
1AA
  8
SIZE
  6
CONTINUOUS
 62
    30
 10
-510.0
 20
-271.46994599999999
 30
0.0
 11
510.0
 21
-271.46994599999999
 31
0.0
  0
CIRCLE
  5
1AB
  8
SIZE
  6
CONTINUOUS
 62
    30
 10
-520.0
 20
-271.46994599999999
 30
0.0
 40
5.0
  0
LINE
  5
1AC
  8
SIZE
  6
CONTINUOUS
 62
    30
 10
-515.0
 20
-271.46994599999999
 30
0.0
 11
-510.0
 21
-271.46994599999999
 31
0.0
  0
CIRCLE
  5
1AD
  8
SIZE
  6
CONTINUOUS
 62
    30
 10
520.0
 20
-271.46994599999999
 30
0.0
 40
5.0
  0
LINE
  5
1AE
  8
SIZE
  6
CONTINUOUS
 62
    30
 10
515.0
 20
-271.46994599999999
 30
0.0
 11
510.0
 21
-271.46994599999999
 31
0.0
  0
TEXT
  5
1AF
  8
SIZE
  6
CONTINUOUS
 62
    30
 10
-340.38857142857131
 20
-244.70804200000001
 30
0.0
 40
64.0
  1
1040(天井開口寸法)
 41
0.9
 72
     1
 11
0.0
 21
-244.70804200000001
 31
0.0
  0
LINE
  5
1B0
  8
SIZE
  6
CONTINUOUS
 62
    30
 10
-412.0
 20
186.0
 30
0.0
 11
-412.0
 21
910.84831799999995
 31
0.0
  0
LINE
  5
1B1
  8
SIZE
  6
CONTINUOUS
 62
    30
 10
412.0
 20
186.0
 30
0.0
 11
412.0
 21
910.84831799999995
 31
0.0
  0
LINE
  5
1B2
  8
SIZE
  6
CONTINUOUS
 62
    30
 10
-402.0
 20
880.84831799999995
 30
0.0
 11
402.0
 21
880.84831799999995
 31
0.0
  0
CIRCLE
  5
1B3
  8
SIZE
  6
CONTINUOUS
 62
    30
 10
-412.0
 20
880.84831799999995
 30
0.0
 40
5.0
  0
LINE
  5
1B4
  8
SIZE
  6
CONTINUOUS
 62
    30
 10
-407.0
 20
880.84831799999995
 30
0.0
 11
-402.0
 21
880.84831799999995
 31
0.0
  0
CIRCLE
  5
1B5
  8
SIZE
  6
CONTINUOUS
 62
    30
 10
412.0
 20
880.84831799999995
 30
0.0
 40
5.0
  0
LINE
  5
1B6
  8
SIZE
  6
CONTINUOUS
 62
    30
 10
407.0
 20
880.84831799999995
 30
0.0
 11
402.0
 21
880.84831799999995
 31
0.0
  0
TEXT
  5
1B7
  8
SIZE
  6
CONTINUOUS
 62
    30
 10
-311.46002528571432
 20
917.61022299999991
 30
0.0
 40
64.0
  1
824(吊りﾎﾞﾙﾄﾋﾟｯﾁ)
 41
0.9
 72
     1
 11
-10.294311
 21
917.61022299999991
 31
0.0
  0
LINE
  5
1B8
  8
SIZE
  6
CONTINUOUS
 62
    30
 10
-388.0
 20
358.0
 30
0.0
 11
-388.0
 21
815.65942500000006
 31
0.0
  0
LINE
  5
1B9
  8
SIZE
  6
CONTINUOUS
 62
    30
 10
388.0
 20
358.0
 30
0.0
 11
388.0
 21
815.65942500000006
 31
0.0
  0
LINE
  5
1BA
  8
SIZE
  6
CONTINUOUS
 62
    30
 10
-378.0
 20
785.65942500000006
 30
0.0
 11
378.0
 21
785.65942500000006
 31
0.0
  0
CIRCLE
  5
1BB
  8
SIZE
  6
CONTINUOUS
 62
    30
 10
-388.0
 20
785.65942500000006
 30
0.0
 40
5.0
  0
LINE
  5
1BC
  8
SIZE
  6
CONTINUOUS
 62
    30
 10
-383.0
 20
785.65942500000006
 30
0.0
 11
-378.0
 21
785.65942500000006
 31
0.0
  0
CIRCLE
  5
1BD
  8
SIZE
  6
CONTINUOUS
 62
    30
 10
388.0
 20
785.65942500000006
 30
0.0
 40
5.0
  0
LINE
  5
1BE
  8
SIZE
  6
CONTINUOUS
 62
    30
 10
383.0
 20
785.65942500000006
 30
0.0
 11
378.0
 21
785.65942500000006
 31
0.0
  0
TEXT
  5
1BF
  8
SIZE
  6
CONTINUOUS
 62
    30
 10
-114.14594428571429
 20
805.65942499999994
 30
0.0
 40
64.0
  1
776
 41
0.9
 72
     1
 11
-41.460229999999989
 21
805.65942499999994
 31
0.0
  0
LINE
  5
2D4
  8
NOTE
  6
CONTINUOUS
 62
     4
 10
-1045.1272592640571
 20
221.33069699999999
 30
0.0
 11
-460.77234699999991
 21
221.33069699999999
 31
0.0
  0
TEXT
  5
2D5
  8
NOTE
  6
CONTINUOUS
 62
     4
 10
-1033.6949511851619
 20
238.66534237957509
 30
0.0
 40
64.0
  1
AH 4-14×30
 41
0.9
  0
LINE
  5
2DC
  8
SIZE
  6
CONTINUOUS
 62
    30
 10
-671.85833919881395
 20
-271.46994599999999
 30
0.0
 11
-550.0
 21
-271.46994599999999
 31
0.0
  0
TEXT
  5
2DD
  8
SIZE
  6
CONTINUOUS
 62
    30
 10
-658.93015627220484
 20
-251.46994599999999
 30
0.0
 40
64.0
  1
20
 41
0.9
 72
     1
 11
-612.30158484363346
 21
-251.46994599999999
 31
0.0
  0
ENDSEC
  0
EOF
