  0
SECTION
  2
HEADER
  9
$ACADVER
  1
AC1009
  9
$INSBASE
 10
0.0
 20
0.0
 30
0.0
  9
$EXTMIN
 10
-1029.052700648379
 20
-1297.7599850829679
 30
-0.0000000000112498
  9
$EXTMAX
 10
1573.7915266931409
 20
1159.0576342528909
 30
0.0000000000002956
  9
$LIMMIN
 10
-6000.0
 20
-4500.0
  9
$LIMMAX
 10
6000.0
 20
4500.0
  9
$ORTHOMODE
 70
     0
  9
$REGENMODE
 70
     1
  9
$FILLMODE
 70
     1
  9
$QTEXTMODE
 70
     0
  9
$MIRRTEXT
 70
     0
  9
$DRAGMODE
 70
     2
  9
$LTSCALE
 40
20.0
  9
$OSMODE
 70
   959
  9
$ATTMODE
 70
     1
  9
$TEXTSIZE
 40
64.0
  9
$TRACEWID
 40
0.05
  9
$TEXTSTYLE
  7
STANDARD
  9
$CLAYER
  8
SYMBOLLINE
  9
$CELTYPE
  6
CONTINUOUS
  9
$CECOLOR
 62
     7
  9
$DIMSCALE
 40
1.0
  9
$DIMASZ
 40
10.0
  9
$DIMEXO
 40
20.0
  9
$DIMDLI
 40
200.0
  9
$DIMRND
 40
0.0
  9
$DIMDLE
 40
0.0
  9
$DIMEXE
 40
30.0
  9
$DIMTP
 40
0.0
  9
$DIMTM
 40
0.0
  9
$DIMTXT
 40
64.0
  9
$DIMCEN
 40
0.0
  9
$DIMTSZ
 40
0.0
  9
$DIMTOL
 70
     0
  9
$DIMLIM
 70
     0
  9
$DIMTIH
 70
     0
  9
$DIMTOH
 70
     0
  9
$DIMSE1
 70
     0
  9
$DIMSE2
 70
     0
  9
$DIMTAD
 70
     1
  9
$DIMZIN
 70
     8
  9
$DIMBLK
  1

  9
$DIMASO
 70
     1
  9
$DIMSHO
 70
     0
  9
$DIMPOST
  1

  9
$DIMAPOST
  1

  9
$DIMALT
 70
     0
  9
$DIMALTD
 70
     2
  9
$DIMALTF
 40
25.399999999999999
  9
$DIMLFAC
 40
1.0
  9
$DIMTOFL
 70
     1
  9
$DIMTVP
 40
0.0
  9
$DIMTIX
 70
     1
  9
$DIMSOXD
 70
     0
  9
$DIMSAH
 70
     1
  9
$DIMBLK1
  1
DOTBLANK
  9
$DIMBLK2
  1
DOTBLANK
  9
$DIMSTYLE
  2
STANDARD
  9
$DIMCLRD
 70
     0
  9
$DIMCLRE
 70
     0
  9
$DIMCLRT
 70
     0
  9
$DIMTFAC
 40
1.0
  9
$DIMGAP
 40
0.09
  9
$LUNITS
 70
     2
  9
$LUPREC
 70
     4
  9
$SKETCHINC
 40
0.1
  9
$FILLETRAD
 40
20.0
  9
$AUNITS
 70
     1
  9
$AUPREC
 70
     3
  9
$MENU
  1
ACAD
  9
$ELEVATION
 40
0.0
  9
$PELEVATION
 40
0.0
  9
$THICKNESS
 40
0.0
  9
$LIMCHECK
 70
     0
  9
$BLIPMODE
 70
     0
  9
$CHAMFERA
 40
0.0
  9
$CHAMFERB
 40
0.0
  9
$SKPOLY
 70
     0
  9
$TDCREATE
 40
2450330.4399309959
  9
$TDUPDATE
 40
2455586.8127225931
  9
$TDINDWG
 40
1.4561355092999999
  9
$TDUSRTIMER
 40
1.4561342361
  9
$USRTIMER
 70
     1
  9
$ANGBASE
 50
0.0
  9
$ANGDIR
 70
     0
  9
$PDMODE
 70
     3
  9
$PDSIZE
 40
-2.0
  9
$PLINEWID
 40
0.0
  9
$COORDS
 70
     0
  9
$SPLFRAME
 70
     0
  9
$SPLINETYPE
 70
     6
  9
$SPLINESEGS
 70
     8
  9
$ATTDIA
 70
     0
  9
$ATTREQ
 70
     1
  9
$HANDLING
 70
     1
  9
$HANDSEED
  5
883
  9
$SURFTAB1
 70
     6
  9
$SURFTAB2
 70
     6
  9
$SURFTYPE
 70
     6
  9
$SURFU
 70
     6
  9
$SURFV
 70
     6
  9
$UCSNAME
  2

  9
$UCSORG
 10
0.0
 20
0.0
 30
0.0
  9
$UCSXDIR
 10
1.0
 20
0.0
 30
0.0
  9
$UCSYDIR
 10
0.0
 20
1.0
 30
0.0
  9
$PUCSNAME
  2

  9
$PUCSORG
 10
0.0
 20
0.0
 30
0.0
  9
$PUCSXDIR
 10
1.0
 20
0.0
 30
0.0
  9
$PUCSYDIR
 10
0.0
 20
1.0
 30
0.0
  9
$USERI1
 70
     0
  9
$USERI2
 70
     0
  9
$USERI3
 70
     0
  9
$USERI4
 70
     0
  9
$USERI5
 70
     0
  9
$USERR1
 40
20.0
  9
$USERR2
 40
0.0
  9
$USERR3
 40
0.0
  9
$USERR4
 40
0.0
  9
$USERR5
 40
0.0
  9
$WORLDVIEW
 70
     1
  9
$SHADEDGE
 70
     3
  9
$SHADEDIF
 70
    70
  9
$TILEMODE
 70
     1
  9
$MAXACTVP
 70
    48
  9
$PLIMCHECK
 70
     0
  9
$PEXTMIN
 10
1.0000000000000000E+020
 20
1.0000000000000000E+020
 30
1.0000000000000000E+020
  9
$PEXTMAX
 10
-1.0000000000000000E+020
 20
-1.0000000000000000E+020
 30
-1.0000000000000000E+020
  9
$PLIMMIN
 10
0.0
 20
0.0
  9
$PLIMMAX
 10
12.0
 20
9.0
  9
$UNITMODE
 70
     0
  9
$VISRETAIN
 70
     1
  9
$PLINEGEN
 70
     0
  9
$PSLTSCALE
 70
     1
  0
ENDSEC
  0
SECTION
  2
TABLES
  0
TABLE
  2
VPORT
 70
     1
  0
VPORT
  2
*ACTIVE
 70
     0
 10
0.0
 20
0.0
 11
1.0
 21
1.0
 12
0.0
 22
0.0
 13
0.0
 23
0.0
 14
50.0
 24
50.0
 15
100.0
 25
100.0
 16
0.0
 26
0.0
 36
1.0
 17
0.0
 27
0.0
 37
0.0
 40
9068.9655172413786
 41
1.5639386189258311
 42
50.0
 43
0.0
 44
0.0
 50
0.0
 51
0.0
 71
     0
 72
  1000
 73
     1
 74
     0
 75
     0
 76
     0
 77
     0
 78
     0
  0
ENDTAB
  0
TABLE
  2
LTYPE
 70
     3
  0
LTYPE
  2
CONTINUOUS
 70
     0
  3
実線
 72
    65
 73
     0
 40
0.0
  0
LTYPE
  2
DASHDOT
 70
     0
  3
____ _ ____ _ ____ _ ____ _ ____ _ ____ _ ____
 72
    65
 73
     4
 40
5.5
 49
4.0
 49
-0.6
 49
0.3
 49
-0.6
  0
ENDTAB
  0
TABLE
  2
LAYER
 70
    12
  0
LAYER
  2
0
 70
     0
 62
     7
  6
CONTINUOUS
  0
LAYER
  2
SYMBOLLINE
 70
     0
 62
    15
  6
CONTINUOUS
  0
LAYER
  2
SIZE
 70
     0
 62
    30
  6
CONTINUOUS
  0
LAYER
  2
OUTLINE
 70
     0
 62
     3
  6
CONTINUOUS
  0
LAYER
  2
DETAIL
 70
     0
 62
     5
  6
CONTINUOUS
  0
LAYER
  2
BASIS
 70
     0
 62
     6
  6
DASHDOT
  0
LAYER
  2
NOTE
 70
     0
 62
     4
  6
CONTINUOUS
  0
LAYER
  2
ARRANGE
 70
     0
 62
     1
  6
CONTINUOUS
  0
LAYER
  2
FIX
 70
     0
 62
    11
  6
CONTINUOUS
  0
LAYER
  2
SERVICESPACE
 70
     0
 62
     2
  6
DASHDOT
  0
LAYER
  2
ETC
 70
     0
 62
    61
  6
CONTINUOUS
  0
LAYER
  2
DEFPOINTS
 70
     0
 62
     7
  6
CONTINUOUS
  0
ENDTAB
  0
TABLE
  2
STYLE
 70
     2
  0
STYLE
  2
STANDARD
 70
     0
 40
0.0
 41
0.9
 50
0.0
 71
     0
 42
64.0
  3
SIMPLEX
  4
BIGFONT
  0
STYLE
  2
ANNOTATIVE
 70
     0
 40
0.0
 41
1.0
 50
0.0
 71
     0
 42
0.2
  3
txt
  4

  0
ENDTAB
  0
TABLE
  2
VIEW
 70
     6
  0
VIEW
  2
ALL
 70
     0
 40
9000.0
 10
241.50664699999999
 20
0.0
 41
12483.01
 11
0.0
 21
0.0
 31
1.0
 12
0.0
 22
0.0
 32
0.0
 42
50.0
 43
0.0
 44
0.0
 50
0.0
 71
     0
  0
ENDTAB
  0
TABLE
  2
UCS
 70
     0
  0
ENDTAB
  0
TABLE
  2
APPID
 70
     4
  0
APPID
  2
ACAD
 70
     0
  0
APPID
  2
ACADANNOTATIVE
 70
     0
  0
APPID
  2
ACAD_MLEADERVER
 70
     0
  0
APPID
  2
ACAD_EXEMPT_FROM_CAD_STANDARDS
 70
     0
  0
ENDTAB
  0
TABLE
  2
DIMSTYLE
 70
     3
  0
DIMSTYLE
  2
STANDARD
 70
     0
  3

  4

  5

  6

  7

 40
1.0
 41
0.18
 42
0.0625
 43
0.38
 44
0.18
 45
0.0
 46
0.0
 47
0.0
 48
0.0
140
0.18
141
0.09
142
0.0
143
25.399999999999999
144
1.0
145
0.0
146
1.0
147
0.09
 71
     0
 72
     0
 73
     1
 74
     1
 75
     0
 76
     0
 77
     0
 78
     0
170
     0
171
     2
172
     0
173
     0
174
     0
175
     0
176
     0
177
     0
178
     0
  0
DIMSTYLE
  2
ANNOTATIVE
 70
     0
  3

  4

  5

  6

  7

 40
1.0
 41
0.18
 42
0.0625
 43
0.38
 44
0.18
 45
0.0
 46
0.0
 47
0.0
 48
0.0
140
0.18
141
0.09
142
0.0
143
25.399999999999999
144
1.0
145
0.0
146
1.0
147
0.09
 71
     0
 72
     0
 73
     1
 74
     1
 75
     0
 76
     0
 77
     0
 78
     0
170
     0
171
     2
172
     0
173
     0
174
     0
175
     0
176
     0
177
     0
178
     0
  0
ENDTAB
  0
ENDSEC
  0
SECTION
  2
BLOCKS
  0
BLOCK
  8
0
  2
$MODEL_SPACE
 70
     0
 10
0.0
 20
0.0
 30
0.0
  3
$MODEL_SPACE
  1

  0
ENDBLK
  5
7C2
  8
0
  0
BLOCK
 67
     1
  8
0
  2
$PAPER_SPACE
 70
     0
 10
0.0
 20
0.0
 30
0.0
  3
$PAPER_SPACE
  1

  0
ENDBLK
  5
7BE
 67
     1
  8
0
  0
BLOCK
  8
0
  2
_DOTBLANK
 70
     0
 10
0.0
 20
0.0
 30
0.0
  3
_DOTBLANK
  1

  0
CIRCLE
  5
30
  8
0
  6
CONTINUOUS
 62
     7
 10
0.0
 20
0.0
 30
0.0
 40
0.5
  0
LINE
  5
31
  8
0
  6
CONTINUOUS
 62
     7
 10
-0.5
 20
0.0
 30
0.0
 11
-1.0
 21
0.0
 31
0.0
  0
ENDBLK
  5
32
  8
0
  0
BLOCK
  8
0
 62
     7
  2
*D3
 70
     1
 10
0.0
 20
0.0
 30
0.0
  3
*D3
  1

  0
LINE
  5
355
  8
SIZE
  6
CONTINUOUS
 62
     0
 10
337.0
 20
-388.0
 30
0.0
 11
510.21389140230542
 21
-388.00000000000011
 31
0.0
  0
LINE
  5
356
  8
SIZE
  6
CONTINUOUS
 62
     0
 10
197.34999999999999
 20
-466.0
 30
0.0
 11
510.21389140230542
 21
-466.00000000000011
 31
0.0
  0
LINE
  5
357
  8
SIZE
  6
CONTINUOUS
 62
     0
 10
480.21389140230519
 20
-456.0
 30
0.0
 11
480.21389140230519
 21
-398.00000000000011
 31
0.0
  0
LINE
  5
358
  8
SIZE
  6
CONTINUOUS
 62
     0
 10
480.21389140230519
 20
-388.00000000000011
 30
0.0
 11
480.21389140230542
 21
-277.89110515493502
 31
0.0
  0
INSERT
  5
359
  8
SIZE
  6
CONTINUOUS
 62
     0
  2
_DOTBLANK
 10
480.21389140230519
 20
-466.00000000000011
 30
0.0
 41
10.0
 42
10.0
 43
10.0
 50
270.0
  0
INSERT
  5
35A
  8
SIZE
  6
CONTINUOUS
 62
     0
  2
_DOTBLANK
 10
480.21389140230519
 20
-388.00000000000011
 30
0.0
 41
10.0
 42
10.0
 43
10.0
 50
90.0
  0
INSERT
  5
35B
  8
SYMBOLLINE
  6
CONTINUOUS
 62
     7
  2
*U4
 10
0.0
 20
0.0
 30
0.0
  0
POINT
  5
35C
  8
DEFPOINTS
  6
CONTINUOUS
 62
     0
 10
317.0
 20
-388.0
 30
0.0
  0
POINT
  5
35D
  8
DEFPOINTS
  6
CONTINUOUS
 62
     0
 10
177.34999999999999
 20
-466.0
 30
0.0
  0
POINT
  5
35E
  8
DEFPOINTS
  6
CONTINUOUS
 62
     0
 10
480.21389140230519
 20
-466.00000000000011
 30
0.0
  0
ENDBLK
  5
2AA
  8
0
 62
     7
  0
BLOCK
  8
0
 62
     7
  2
*U4
 70
     1
 10
0.0
 20
0.0
 30
0.0
  3
*U4
  1

  0
TEXT
  5
3DE
  8
SIZE
  6
CONTINUOUS
 62
     0
 10
480.1238914023055
 20
-371.2382480120778
 30
0.0
 40
64.0
  1
78
 50
90.0
 41
0.9
  0
ENDBLK
  5
3E0
  8
0
 62
     7
  0
BLOCK
  8
0
 62
     7
  2
*D5
 70
     1
 10
0.0
 20
0.0
 30
0.0
  3
*D5
  1

  0
LINE
  5
34B
  8
SIZE
  6
CONTINUOUS
 62
     0
 10
297.0
 20
-388.0
 30
0.0
 11
40.634723960320031
 21
-387.99999999999989
 31
0.0
  0
LINE
  5
34C
  8
SIZE
  6
CONTINUOUS
 62
     0
 10
84.174999999999983
 20
-455.0
 30
0.0
 11
40.634723960320031
 21
-455.0
 31
0.0
  0
LINE
  5
34D
  8
SIZE
  6
CONTINUOUS
 62
     0
 10
70.634723960320031
 20
-445.0
 30
0.0
 11
70.634723960320045
 21
-398.0
 31
0.0
  0
LINE
  5
34E
  8
SIZE
  6
CONTINUOUS
 62
     0
 10
70.634723960320045
 20
-387.99999999999989
 30
0.0
 11
70.634723960320059
 21
-247.12031431146349
 31
0.0
  0
INSERT
  5
34F
  8
SIZE
  6
CONTINUOUS
 62
     0
  2
_DOTBLANK
 10
70.634723960320031
 20
-455.0
 30
0.0
 41
10.0
 42
10.0
 43
10.0
 50
270.0
  0
INSERT
  5
350
  8
SIZE
  6
CONTINUOUS
 62
     0
  2
_DOTBLANK
 10
70.634723960320045
 20
-387.99999999999989
 30
0.0
 41
10.0
 42
10.0
 43
10.0
 50
90.0
  0
INSERT
  5
351
  8
SYMBOLLINE
  6
CONTINUOUS
 62
     7
  2
*U6
 10
0.0
 20
0.0
 30
0.0
  0
POINT
  5
352
  8
DEFPOINTS
  6
CONTINUOUS
 62
     0
 10
317.0
 20
-388.0
 30
0.0
  0
POINT
  5
353
  8
DEFPOINTS
  6
CONTINUOUS
 62
     0
 10
104.175
 20
-455.0
 30
0.0
  0
POINT
  5
354
  8
DEFPOINTS
  6
CONTINUOUS
 62
     0
 10
70.634723960320031
 20
-455.0
 30
0.0
  0
ENDBLK
  5
2B9
  8
0
 62
     7
  0
BLOCK
  8
0
 62
     7
  2
*U6
 70
     1
 10
0.0
 20
0.0
 30
0.0
  3
*U6
  1

  0
TEXT
  5
3DA
  8
SIZE
  6
CONTINUOUS
 62
     0
 10
70.544723960320084
 20
-340.46745716860642
 30
0.0
 40
64.0
  1
67
 50
90.0
 41
0.9
  0
ENDBLK
  5
3DC
  8
0
 62
     7
  0
BLOCK
  8
0
 62
     7
  2
*D7
 70
     1
 10
0.0
 20
0.0
 30
0.0
  3
*D7
  1

  0
LINE
  5
35F
  8
SIZE
  6
CONTINUOUS
 62
     0
 10
-337.0
 20
-388.0
 30
0.0
 11
-467.06061194503451
 21
-387.99999999999989
 31
0.0
  0
LINE
  5
360
  8
SIZE
  6
CONTINUOUS
 62
     0
 10
-216.0
 20
-448.0
 30
0.0
 11
-467.06061194503451
 21
-447.99999999999989
 31
0.0
  0
LINE
  5
361
  8
SIZE
  6
CONTINUOUS
 62
     0
 10
-437.06061194503462
 20
-437.99999999999989
 30
0.0
 11
-437.06061194503462
 21
-398.0
 31
0.0
  0
LINE
  5
362
  8
SIZE
  6
CONTINUOUS
 62
     0
 10
-437.06061194503462
 20
-387.99999999999989
 30
0.0
 11
-437.06061194503462
 21
-240.2823744654288
 31
0.0
  0
INSERT
  5
363
  8
SIZE
  6
CONTINUOUS
 62
     0
  2
_DOTBLANK
 10
-437.06061194503462
 20
-447.99999999999989
 30
0.0
 41
10.0
 42
10.0
 43
10.0
 50
270.0
  0
INSERT
  5
364
  8
SIZE
  6
CONTINUOUS
 62
     0
  2
_DOTBLANK
 10
-437.06061194503462
 20
-387.99999999999989
 30
0.0
 41
10.0
 42
10.0
 43
10.0
 50
90.0
  0
INSERT
  5
365
  8
SYMBOLLINE
  6
CONTINUOUS
 62
     7
  2
*U8
 10
0.0
 20
0.0
 30
0.0
  0
POINT
  5
366
  8
DEFPOINTS
  6
CONTINUOUS
 62
     0
 10
-317.0
 20
-388.0
 30
0.0
  0
POINT
  5
367
  8
DEFPOINTS
  6
CONTINUOUS
 62
     0
 10
-196.0
 20
-448.0
 30
0.0
  0
POINT
  5
368
  8
DEFPOINTS
  6
CONTINUOUS
 62
     0
 10
-437.06061194503462
 20
-447.99999999999989
 30
0.0
  0
ENDBLK
  5
2D1
  8
0
 62
     7
  0
BLOCK
  8
0
 62
     7
  2
*U8
 70
     1
 10
0.0
 20
0.0
 30
0.0
  3
*U8
  1

  0
TEXT
  5
3E2
  8
SIZE
  6
CONTINUOUS
 62
     0
 10
-437.15061194503471
 20
-333.6295173225717
 30
0.0
 40
64.0
  1
60
 50
90.0
 41
0.9
  0
ENDBLK
  5
3E4
  8
0
 62
     7
  0
BLOCK
  8
0
 62
     7
  2
A$C3B744D9C
 70
     0
 10
0.0
 20
0.0
 30
0.0
  3
A$C3B744D9C
  1

  0
LINE
  5
4B7
  8
DETAIL
  6
CONTINUOUS
 62
     5
 10
633.99998497153115
 20
-0.000000946703949
 30
0.0
 11
-0.0000150284686242
 21
-0.000000946703949
 31
0.0
  0
ENDBLK
  5
4B9
  8
0
 62
     7
  0
ENDSEC
  0
SECTION
  2
ENTITIES
  0
LINE
  5
35
  8
DETAIL
  6
CONTINUOUS
 62
     5
 10
30.0
 20
-488.0
 30
0.0
 11
-100.0
 21
-488.0
 31
0.0
  0
LINE
  5
36
  8
DETAIL
  6
CONTINUOUS
 62
     5
 10
317.0
 20
-388.0
 30
0.0
 11
-317.0
 21
-388.0
 31
0.0
  0
LINE
  5
37
  8
DETAIL
  6
CONTINUOUS
 62
     5
 10
317.0
 20
388.0
 30
0.0
 11
-317.0
 21
388.0
 31
0.0
  0
LINE
  5
38
  8
DETAIL
  6
CONTINUOUS
 62
     5
 10
335.0
 20
-540.0
 30
0.0
 11
-335.0
 21
-540.0
 31
0.0
  0
LINE
  5
39
  8
DETAIL
  6
CONTINUOUS
 62
     5
 10
335.0
 20
540.0
 30
0.0
 11
-335.0
 21
540.0
 31
0.0
  0
LINE
  5
3A
  8
BASIS
  6
DASHDOT
 62
     6
 10
-400.0
 20
0.0
 30
0.0
 11
400.0
 21
0.0
 31
0.0
  0
LINE
  5
3B
  8
DETAIL
  6
CONTINUOUS
 62
     5
 10
-355.0
 20
-520.0
 30
0.0
 11
-355.0
 21
520.0
 31
0.0
  0
LINE
  5
3C
  8
DETAIL
  6
CONTINUOUS
 62
     5
 10
-317.0
 20
-500.0
 30
0.0
 11
-317.0
 21
500.0
 31
0.0
  0
LINE
  5
3D
  8
NOTE
  6
CONTINUOUS
 62
     4
 10
-180.0
 20
-448.0
 30
0.0
 11
-425.37980099999987
 21
-1053.1466796586269
 31
0.0
  0
LINE
  5
40
  8
DETAIL
  6
CONTINUOUS
 62
     5
 10
-100.0
 20
-488.0
 30
0.0
 11
-100.0
 21
-388.0
 31
0.0
  0
LINE
  5
41
  8
DETAIL
  6
CONTINUOUS
 62
     5
 10
-262.0
 20
-437.0
 30
0.0
 11
-282.0
 21
-437.0
 31
0.0
  0
LINE
  5
42
  8
NOTE
  6
CONTINUOUS
 62
     4
 10
-307.0
 20
-412.0
 30
0.0
 11
-267.0
 21
-412.0
 31
0.0
  0
LINE
  5
43
  8
NOTE
  6
CONTINUOUS
 62
     4
 10
-287.0
 20
-432.0
 30
0.0
 11
-287.0
 21
-392.0
 31
0.0
  0
LINE
  5
4A
  8
DETAIL
  6
CONTINUOUS
 62
     5
 10
-292.0
 20
-437.0
 30
0.0
 11
-312.0
 21
-437.0
 31
0.0
  0
ARC
  5
4B
  8
DETAIL
  6
CONTINUOUS
 62
     5
 10
-283.0
 20
-412.0
 30
0.0
 40
8.0
 50
277.18075599999997
 51
90.490927999999997
  0
LINE
  5
4C
  8
DETAIL
  6
CONTINUOUS
 62
     5
 10
-282.0
 20
-437.0
 30
0.0
 11
-282.0
 21
-419.93725399999988
 31
0.0
  0
LINE
  5
4D
  8
DETAIL
  6
CONTINUOUS
 62
     5
 10
-292.0
 20
-437.0
 30
0.0
 11
-292.0
 21
-419.93725399999988
 31
0.0
  0
ARC
  5
4E
  8
DETAIL
  6
CONTINUOUS
 62
     5
 10
-291.0
 20
-412.0
 30
0.0
 40
8.0
 50
90.589170999999993
 51
262.81924400000003
  0
LINE
  5
4F
  8
DETAIL
  6
CONTINUOUS
 62
     5
 10
-291.08226200000001
 20
-404.0
 30
0.0
 11
-283.0
 21
-404.0
 31
0.0
  0
CIRCLE
  5
50
  8
FIX
  6
CONTINUOUS
 62
    11
 10
-287.0
 20
-412.0
 30
0.0
 40
5.0
  0
LINE
  5
51
  8
DETAIL
  6
CONTINUOUS
 62
     5
 10
-312.0
 20
-388.0
 30
0.0
 11
-312.0
 21
-437.0
 31
0.0
  0
LINE
  5
5C
  8
DETAIL
  6
CONTINUOUS
 62
     5
 10
-262.0
 20
-388.0
 30
0.0
 11
-262.0
 21
-437.0
 31
0.0
  0
LINE
  5
5F
  8
DETAIL
  6
CONTINUOUS
 62
     5
 10
-262.0
 20
437.0
 30
0.0
 11
-282.0
 21
437.0
 31
0.0
  0
LINE
  5
60
  8
NOTE
  6
CONTINUOUS
 62
     4
 10
-307.0
 20
412.0
 30
0.0
 11
-267.0
 21
412.0
 31
0.0
  0
LINE
  5
61
  8
NOTE
  6
CONTINUOUS
 62
     4
 10
-287.0
 20
392.0
 30
0.0
 11
-287.0
 21
432.0
 31
0.0
  0
CIRCLE
  5
67
  8
FIX
  6
CONTINUOUS
 62
    11
 10
-287.0
 20
412.0
 30
0.0
 40
5.0
  0
LINE
  5
68
  8
DETAIL
  6
CONTINUOUS
 62
     5
 10
-282.91773799999999
 20
404.0
 30
0.0
 11
-291.0
 21
404.0
 31
0.0
  0
ARC
  5
69
  8
DETAIL
  6
CONTINUOUS
 62
     5
 10
-283.0
 20
412.0
 30
0.0
 40
8.0
 50
270.58917100000002
 51
82.819243999999983
  0
LINE
  5
6A
  8
DETAIL
  6
CONTINUOUS
 62
     5
 10
-282.0
 20
437.0
 30
0.0
 11
-282.0
 21
419.93725399999988
 31
0.0
  0
LINE
  5
6B
  8
DETAIL
  6
CONTINUOUS
 62
     5
 10
-292.0
 20
437.0
 30
0.0
 11
-292.0
 21
419.93725399999988
 31
0.0
  0
ARC
  5
6C
  8
DETAIL
  6
CONTINUOUS
 62
     5
 10
-291.0
 20
412.0
 30
0.0
 40
8.0
 50
97.180756000000002
 51
270.490928
  0
LINE
  5
6D
  8
DETAIL
  6
CONTINUOUS
 62
     5
 10
-292.0
 20
437.0
 30
0.0
 11
-312.0
 21
437.0
 31
0.0
  0
LINE
  5
6E
  8
DETAIL
  6
CONTINUOUS
 62
     5
 10
-312.0
 20
388.0
 30
0.0
 11
-312.0
 21
437.0
 31
0.0
  0
LINE
  5
6F
  8
DETAIL
  6
CONTINUOUS
 62
     5
 10
-262.0
 20
388.0
 30
0.0
 11
-262.0
 21
437.0
 31
0.0
  0
LINE
  5
71
  8
DETAIL
  6
CONTINUOUS
 62
     5
 10
355.0
 20
-520.0
 30
0.0
 11
355.0
 21
520.0
 31
0.0
  0
LINE
  5
72
  8
DETAIL
  6
CONTINUOUS
 62
     5
 10
317.0
 20
-500.0
 30
0.0
 11
317.0
 21
500.0
 31
0.0
  0
LINE
  5
73
  8
BASIS
  6
DASHDOT
 62
     6
 10
0.0
 20
-620.0
 30
0.0
 11
0.0
 21
620.0
 31
0.0
  0
TEXT
  5
75
  8
NOTE
  6
CONTINUOUS
 62
     4
 10
517.64578300000005
 20
-918.71231199999966
 30
0.0
 40
55.0
  1
RL φ6.35
 41
0.9
  0
LINE
  5
76
  8
NOTE
  6
CONTINUOUS
 62
     4
 10
530.94006899999999
 20
-823.54875800000002
 30
0.0
 11
935.77950199999987
 21
-823.54875800000002
 31
0.0
  0
TEXT
  5
77
  8
NOTE
  6
CONTINUOUS
 62
     4
 10
556.60473799999966
 20
-799.66692
 30
0.0
 40
55.0
  1
RG φ12.7
 41
0.9
  0
LINE
  5
78
  8
NOTE
  6
CONTINUOUS
 62
     4
 10
497.65217899999988
 20
-939.05659900000001
 30
0.0
 11
899.71383300000002
 21
-939.05659900000001
 31
0.0
  0
LINE
  5
79
  8
NOTE
  6
CONTINUOUS
 62
     4
 10
101.0
 20
-455.0
 30
0.0
 11
497.65217899999988
 21
-939.05659900000001
 31
0.0
  0
LINE
  5
7A
  8
NOTE
  6
CONTINUOUS
 62
     4
 10
171.0
 20
-466.0
 30
0.0
 11
530.94006899999999
 21
-823.54875800000002
 31
0.0
  0
LINE
  5
7B
  8
DETAIL
  6
CONTINUOUS
 62
     5
 10
30.0
 20
-488.0
 30
0.0
 11
30.0
 21
-388.0
 31
0.0
  0
LINE
  5
7D
  8
NOTE
  6
CONTINUOUS
 62
     4
 10
267.0
 20
-412.0
 30
0.0
 11
307.0
 21
-412.0
 31
0.0
  0
LINE
  5
7E
  8
NOTE
  6
CONTINUOUS
 62
     4
 10
287.0
 20
-432.0
 30
0.0
 11
287.0
 21
-392.0
 31
0.0
  0
LINE
  5
84
  8
DETAIL
  6
CONTINUOUS
 62
     5
 10
282.0
 20
-437.0
 30
0.0
 11
262.0
 21
-437.0
 31
0.0
  0
CIRCLE
  5
85
  8
FIX
  6
CONTINUOUS
 62
    11
 10
287.0
 20
-412.0
 30
0.0
 40
5.0
  0
LINE
  5
86
  8
DETAIL
  6
CONTINUOUS
 62
     5
 10
282.91773799999999
 20
-404.0
 30
0.0
 11
291.0
 21
-404.0
 31
0.0
  0
ARC
  5
87
  8
DETAIL
  6
CONTINUOUS
 62
     5
 10
283.0
 20
-412.0
 30
0.0
 40
8.0
 50
90.589170999999993
 51
262.81924400000003
  0
LINE
  5
88
  8
DETAIL
  6
CONTINUOUS
 62
     5
 10
282.0
 20
-437.0
 30
0.0
 11
282.0
 21
-419.93725399999988
 31
0.0
  0
LINE
  5
89
  8
DETAIL
  6
CONTINUOUS
 62
     5
 10
292.0
 20
-437.0
 30
0.0
 11
292.0
 21
-419.93725399999988
 31
0.0
  0
ARC
  5
8A
  8
DETAIL
  6
CONTINUOUS
 62
     5
 10
291.0
 20
-412.0
 30
0.0
 40
8.0
 50
277.18075599999997
 51
90.490927999999997
  0
LINE
  5
8B
  8
DETAIL
  6
CONTINUOUS
 62
     5
 10
312.0
 20
-437.0
 30
0.0
 11
292.0
 21
-437.0
 31
0.0
  0
LINE
  5
8C
  8
DETAIL
  6
CONTINUOUS
 62
     5
 10
312.0
 20
-388.0
 30
0.0
 11
312.0
 21
-437.0
 31
0.0
  0
LINE
  5
8D
  8
DETAIL
  6
CONTINUOUS
 62
     5
 10
262.0
 20
-388.0
 30
0.0
 11
262.0
 21
-437.0
 31
0.0
  0
LINE
  5
8E
  8
NOTE
  6
CONTINUOUS
 62
     4
 10
442.20453499999991
 20
674.01318200000003
 30
0.0
 11
1134.5123698415989
 21
674.01318200000003
 31
0.0
  0
CIRCLE
  5
8F
  8
ARRANGE
  6
CONTINUOUS
 62
     1
 10
0.0
 20
0.0
 30
0.0
 40
40.0
  0
POINT
  5
90
  8
ARRANGE
  6
CONTINUOUS
 62
     1
 10
0.0
 20
0.0
 30
0.0
  0
LINE
  5
91
  8
NOTE
  6
CONTINUOUS
 62
     4
 10
287.0
 20
412.0
 30
0.0
 11
442.20453499999991
 21
674.01318200000003
 31
0.0
  0
LINE
  5
92
  8
NOTE
  6
CONTINUOUS
 62
     4
 10
267.0
 20
412.0
 30
0.0
 11
307.0
 21
412.0
 31
0.0
  0
LINE
  5
93
  8
NOTE
  6
CONTINUOUS
 62
     4
 10
287.0
 20
392.0
 30
0.0
 11
287.0
 21
432.0
 31
0.0
  0
POLYLINE
  5
94
  8
NOTE
  6
CONTINUOUS
 62
     4
 66
     1
 10
0.0
 20
0.0
 30
0.0
  0
VERTEX
  5
829
  8
NOTE
  6
CONTINUOUS
 62
     4
 10
297.88487199999997
 20
450.49051300000002
 30
0.0
  0
VERTEX
  5
82A
  8
NOTE
  6
CONTINUOUS
 62
     4
 10
287.0
 20
412.0
 30
0.0
  0
VERTEX
  5
82B
  8
NOTE
  6
CONTINUOUS
 62
     4
 10
315.67183199999999
 20
439.89132499999988
 30
0.0
  0
SEQEND
  5
82C
  8
NOTE
  6
CONTINUOUS
 62
     4
  0
LINE
  5
99
  8
DETAIL
  6
CONTINUOUS
 62
     5
 10
282.0
 20
437.0
 30
0.0
 11
262.0
 21
437.0
 31
0.0
  0
ARC
  5
9A
  8
DETAIL
  6
CONTINUOUS
 62
     5
 10
283.0
 20
412.0
 30
0.0
 40
8.0
 50
97.180756000000002
 51
270.490928
  0
LINE
  5
9B
  8
DETAIL
  6
CONTINUOUS
 62
     5
 10
282.0
 20
437.0
 30
0.0
 11
282.0
 21
419.93725399999988
 31
0.0
  0
LINE
  5
9C
  8
DETAIL
  6
CONTINUOUS
 62
     5
 10
292.0
 20
437.0
 30
0.0
 11
292.0
 21
419.93725399999988
 31
0.0
  0
ARC
  5
9D
  8
DETAIL
  6
CONTINUOUS
 62
     5
 10
291.0
 20
412.0
 30
0.0
 40
8.0
 50
270.58917100000002
 51
82.819243999999983
  0
LINE
  5
9E
  8
DETAIL
  6
CONTINUOUS
 62
     5
 10
291.08226200000001
 20
404.0
 30
0.0
 11
283.0
 21
404.0
 31
0.0
  0
CIRCLE
  5
9F
  8
FIX
  6
CONTINUOUS
 62
    11
 10
287.0
 20
412.0
 30
0.0
 40
5.0
  0
LINE
  5
A0
  8
DETAIL
  6
CONTINUOUS
 62
     5
 10
312.0
 20
437.0
 30
0.0
 11
292.0
 21
437.0
 31
0.0
  0
LINE
  5
A1
  8
DETAIL
  6
CONTINUOUS
 62
     5
 10
262.0
 20
388.0
 30
0.0
 11
262.0
 21
437.0
 31
0.0
  0
LINE
  5
A2
  8
DETAIL
  6
CONTINUOUS
 62
     5
 10
312.0
 20
388.0
 30
0.0
 11
312.0
 21
437.0
 31
0.0
  0
TEXT
  5
A4
  8
ETC
  6
CONTINUOUS
 62
    61
 10
629.72119499999985
 20
1095.0481309884599
 30
0.0
 40
64.0
  1
PLFY-P22_45LM-G_1
 41
0.9
  0
LINE
  5
A5
  8
DETAIL
  6
CONTINUOUS
 62
     5
 10
317.0
 20
-500.0
 30
0.0
 11
-317.0
 21
-500.0
 31
0.0
  0
LINE
  5
A6
  8
DETAIL
  6
CONTINUOUS
 62
     5
 10
317.0
 20
500.0
 30
0.0
 11
-317.0
 21
500.0
 31
0.0
  0
ARC
  5
A7
  8
DETAIL
  6
CONTINUOUS
 62
     5
 10
-335.0
 20
520.0
 30
0.0
 40
20.0
 50
90.0
 51
180.0
  0
ARC
  5
A8
  8
DETAIL
  6
CONTINUOUS
 62
     5
 10
-335.0
 20
-520.0
 30
0.0
 40
20.0
 50
180.0
 51
270.0
  0
ARC
  5
A9
  8
DETAIL
  6
CONTINUOUS
 62
     5
 10
335.0
 20
-520.0
 30
0.0
 40
20.0
 50
270.0
 51
0.0
  0
ARC
  5
AA
  8
DETAIL
  6
CONTINUOUS
 62
     5
 10
335.0
 20
520.0
 30
0.0
 40
20.0
 50
0.0
 51
90.0
  0
LINE
  5
AC
  8
NOTE
  6
CONTINUOUS
 62
     4
 10
-423.16528032302159
 20
-1053.1466796586269
 30
0.0
 11
-913.7832800187897
 21
-1053.1466796586269
 31
0.0
  0
LINE
  5
AD
  8
OUTLINE
  6
CONTINUOUS
 62
     3
 10
335.0
 20
-540.0
 30
0.0
 11
-335.0
 21
-540.0
 31
0.0
  0
LINE
  5
AE
  8
OUTLINE
  6
CONTINUOUS
 62
     3
 10
335.0
 20
540.0
 30
0.0
 11
-335.0
 21
540.0
 31
0.0
  0
LINE
  5
AF
  8
OUTLINE
  6
CONTINUOUS
 62
     3
 10
-355.0
 20
-520.0
 30
0.0
 11
-355.0
 21
520.0
 31
0.0
  0
LINE
  5
B0
  8
OUTLINE
  6
CONTINUOUS
 62
     3
 10
355.0
 20
-520.0
 30
0.0
 11
355.0
 21
520.0
 31
0.0
  0
ARC
  5
B1
  8
OUTLINE
  6
CONTINUOUS
 62
     3
 10
-335.0
 20
520.0
 30
0.0
 40
20.0
 50
90.0
 51
180.0
  0
ARC
  5
B2
  8
OUTLINE
  6
CONTINUOUS
 62
     3
 10
-335.0
 20
-520.0
 30
0.0
 40
20.0
 50
180.0
 51
270.0
  0
ARC
  5
B3
  8
OUTLINE
  6
CONTINUOUS
 62
     3
 10
335.0
 20
-520.0
 30
0.0
 40
20.0
 50
270.0
 51
0.0
  0
ARC
  5
B4
  8
OUTLINE
  6
CONTINUOUS
 62
     3
 10
335.0
 20
520.0
 30
0.0
 40
20.0
 50
0.0
 51
90.0
  0
POLYLINE
  5
B7
  8
NOTE
  6
CONTINUOUS
 62
     4
 66
     1
 10
0.0
 20
0.0
 30
0.0
  0
VERTEX
  5
82D
  8
NOTE
  6
CONTINUOUS
 62
     4
 10
135.040885
 20
-476.00519299999991
 30
0.0
  0
VERTEX
  5
82E
  8
NOTE
  6
CONTINUOUS
 62
     4
 10
101.0
 20
-455.0
 30
0.0
  0
VERTEX
  5
82F
  8
NOTE
  6
CONTINUOUS
 62
     4
 10
119.977675
 20
-490.21147300000001
 30
0.0
  0
SEQEND
  5
830
  8
NOTE
  6
CONTINUOUS
 62
     4
  0
POLYLINE
  5
BC
  8
NOTE
  6
CONTINUOUS
 62
     4
 66
     1
 10
0.0
 20
0.0
 30
0.0
  0
VERTEX
  5
831
  8
NOTE
  6
CONTINUOUS
 62
     4
 10
203.19329300000001
 20
-489.74009000000001
 30
0.0
  0
VERTEX
  5
832
  8
NOTE
  6
CONTINUOUS
 62
     4
 10
171.0
 20
-466.0
 30
0.0
  0
VERTEX
  5
833
  8
NOTE
  6
CONTINUOUS
 62
     4
 10
187.010164
 20
-502.65616799999992
 30
0.0
  0
SEQEND
  5
834
  8
NOTE
  6
CONTINUOUS
 62
     4
  0
LINE
  5
CA
  8
SIZE
  6
CONTINUOUS
 62
    30
 10
-355.0
 20
-540.0
 30
0.0
 11
-355.0
 21
-1297.3349909999999
 31
0.0
  0
LINE
  5
CB
  8
SIZE
  6
CONTINUOUS
 62
    30
 10
355.0
 20
-540.0
 30
0.0
 11
355.0
 21
-1297.3349909999999
 31
0.0
  0
LINE
  5
CC
  8
SIZE
  6
CONTINUOUS
 62
    30
 10
-345.0
 20
-1267.3349909999999
 30
0.0
 11
345.0
 21
-1267.3349909999999
 31
0.0
  0
CIRCLE
  5
CD
  8
SIZE
  6
CONTINUOUS
 62
    30
 10
-355.0
 20
-1267.3349909999999
 30
0.0
 40
5.0
  0
LINE
  5
CE
  8
SIZE
  6
CONTINUOUS
 62
    30
 10
-350.0
 20
-1267.3349909999999
 30
0.0
 11
-345.0
 21
-1267.3349909999999
 31
0.0
  0
CIRCLE
  5
CF
  8
SIZE
  6
CONTINUOUS
 62
    30
 10
355.0
 20
-1267.3349909999999
 30
0.0
 40
5.0
  0
LINE
  5
D0
  8
SIZE
  6
CONTINUOUS
 62
    30
 10
350.0
 20
-1267.3349909999999
 30
0.0
 11
345.0
 21
-1267.3349909999999
 31
0.0
  0
TEXT
  5
D1
  8
SIZE
  6
CONTINUOUS
 62
    30
 10
-58.928571428571423
 20
-1258.4310362647341
 30
0.0
 40
55.0
  1
710
 41
0.9
 72
     1
 11
0.0
 21
-1258.4310362647341
 31
0.0
  0
LINE
  5
D2
  8
SIZE
  6
CONTINUOUS
 62
    30
 10
355.0
 20
540.0
 30
0.0
 11
699.58380599999964
 21
540.0
 31
0.0
  0
LINE
  5
D3
  8
SIZE
  6
CONTINUOUS
 62
    30
 10
355.0
 20
-540.0
 30
0.0
 11
699.58380599999964
 21
-540.0
 31
0.0
  0
LINE
  5
D4
  8
SIZE
  6
CONTINUOUS
 62
    30
 10
669.58380599999975
 20
530.0
 30
0.0
 11
669.58380599999975
 21
-530.0
 31
0.0
  0
CIRCLE
  5
D5
  8
SIZE
  6
CONTINUOUS
 62
    30
 10
669.58380599999975
 20
540.0
 30
0.0
 40
5.0
  0
LINE
  5
D6
  8
SIZE
  6
CONTINUOUS
 62
    30
 10
669.58380599999975
 20
535.0
 30
0.0
 11
669.58380599999975
 21
530.0
 31
0.0
  0
CIRCLE
  5
D7
  8
SIZE
  6
CONTINUOUS
 62
    30
 10
669.58380599999975
 20
-540.0
 30
0.0
 40
5.0
  0
LINE
  5
D8
  8
SIZE
  6
CONTINUOUS
 62
    30
 10
669.58380599999975
 20
-535.0
 30
0.0
 11
669.58380599999975
 21
-530.0
 31
0.0
  0
TEXT
  5
D9
  8
SIZE
  6
CONTINUOUS
 62
    30
 10
649.58380599999975
 20
-82.5
 30
0.0
 40
55.0
  1
1080
 50
90.0
 41
0.9
 72
     1
 11
649.58380599999975
 21
0.0
 31
0.0
  0
LINE
  5
DA
  8
SIZE
  6
CONTINUOUS
 62
    30
 10
335.0
 20
560.0
 30
0.0
 11
335.0
 21
1025.583255
 31
0.0
  0
LINE
  5
DB
  8
SIZE
  6
CONTINUOUS
 62
    30
 10
355.0
 20
540.0
 30
0.0
 11
355.0
 21
1025.583255
 31
0.0
  0
LINE
  5
DC
  8
SIZE
  6
CONTINUOUS
 62
    30
 10
325.0
 20
995.58325500000024
 30
0.0
 11
315.0
 21
995.58325500000024
 31
0.0
  0
LINE
  5
DD
  8
SIZE
  6
CONTINUOUS
 62
    30
 10
365.0
 20
995.58325500000024
 30
0.0
 11
460.21459793658141
 21
995.58325500000024
 31
0.0
  0
LINE
  5
DE
  8
SIZE
  6
CONTINUOUS
 62
    30
 10
335.0
 20
995.58325500000024
 30
0.0
 11
355.0
 21
995.58325500000024
 31
0.0
  0
CIRCLE
  5
DF
  8
SIZE
  6
CONTINUOUS
 62
    30
 10
335.0
 20
995.58325500000024
 30
0.0
 40
5.0
  0
LINE
  5
E0
  8
SIZE
  6
CONTINUOUS
 62
    30
 10
330.0
 20
995.58325500000024
 30
0.0
 11
325.0
 21
995.58325500000024
 31
0.0
  0
CIRCLE
  5
E1
  8
SIZE
  6
CONTINUOUS
 62
    30
 10
355.0
 20
995.58325500000024
 30
0.0
 40
5.0
  0
LINE
  5
E2
  8
SIZE
  6
CONTINUOUS
 62
    30
 10
360.0
 20
995.58325500000024
 30
0.0
 11
365.0
 21
995.58325500000024
 31
0.0
  0
TEXT
  5
E3
  8
SIZE
  6
CONTINUOUS
 62
    30
 10
373.54215284353887
 20
1015.583255
 30
0.0
 40
55.0
  1
20
 41
0.9
 72
     1
 11
413.61358141496748
 21
1015.583255
 31
0.0
  0
LINE
  5
E4
  8
SIZE
  6
CONTINUOUS
 62
    30
 10
-355.0
 20
540.0
 30
0.0
 11
-355.0
 21
1025.583255
 31
0.0
  0
LINE
  5
E5
  8
SIZE
  6
CONTINUOUS
 62
    30
 10
-335.0
 20
560.0
 30
0.0
 11
-335.0
 21
1025.583255
 31
0.0
  0
LINE
  5
E6
  8
SIZE
  6
CONTINUOUS
 62
    30
 10
-365.0
 20
995.58325500000024
 30
0.0
 11
-468.69885496089398
 21
995.58325500000024
 31
0.0
  0
LINE
  5
E7
  8
SIZE
  6
CONTINUOUS
 62
    30
 10
-325.0
 20
995.58325500000024
 30
0.0
 11
-315.0
 21
995.58325500000024
 31
0.0
  0
LINE
  5
E8
  8
SIZE
  6
CONTINUOUS
 62
    30
 10
-355.0
 20
995.58325500000024
 30
0.0
 11
-335.0
 21
995.58325500000024
 31
0.0
  0
CIRCLE
  5
E9
  8
SIZE
  6
CONTINUOUS
 62
    30
 10
-355.0
 20
995.58325500000024
 30
0.0
 40
5.0
  0
LINE
  5
EA
  8
SIZE
  6
CONTINUOUS
 62
    30
 10
-360.0
 20
995.58325500000024
 30
0.0
 11
-365.0
 21
995.58325500000024
 31
0.0
  0
CIRCLE
  5
EB
  8
SIZE
  6
CONTINUOUS
 62
    30
 10
-335.0
 20
995.58325500000024
 30
0.0
 40
5.0
  0
LINE
  5
EC
  8
SIZE
  6
CONTINUOUS
 62
    30
 10
-330.0
 20
995.58325500000024
 30
0.0
 11
-325.0
 21
995.58325500000024
 31
0.0
  0
TEXT
  5
ED
  8
SIZE
  6
CONTINUOUS
 62
    30
 10
-460.93202437780559
 20
1015.583255
 30
0.0
 40
55.0
  1
20
 41
0.9
 72
     1
 11
-420.86059580637698
 21
1015.583255
 31
0.0
  0
LINE
  5
EE
  8
SIZE
  6
CONTINUOUS
 62
    30
 10
-375.0
 20
-520.0
 30
0.0
 11
-648.05661299999986
 21
-520.0
 31
0.0
  0
LINE
  5
EF
  8
SIZE
  6
CONTINUOUS
 62
    30
 10
-327.0
 20
-412.0
 30
0.0
 11
-648.05661299999986
 21
-412.0
 31
0.0
  0
LINE
  5
F0
  8
SIZE
  6
CONTINUOUS
 62
    30
 10
-618.05661299999986
 20
-530.0
 30
0.0
 11
-618.05661299999986
 21
-540.0
 31
0.0
  0
LINE
  5
F1
  8
SIZE
  6
CONTINUOUS
 62
    30
 10
-618.05661299999986
 20
-402.0
 30
0.0
 11
-618.05661299999986
 21
-392.0
 31
0.0
  0
LINE
  5
F2
  8
SIZE
  6
CONTINUOUS
 62
    30
 10
-618.05661299999986
 20
-520.0
 30
0.0
 11
-618.05661299999986
 21
-412.0
 31
0.0
  0
CIRCLE
  5
F3
  8
SIZE
  6
CONTINUOUS
 62
    30
 10
-618.05661299999986
 20
-520.0
 30
0.0
 40
5.0
  0
LINE
  5
F4
  8
SIZE
  6
CONTINUOUS
 62
    30
 10
-618.05661299999986
 20
-525.0
 30
0.0
 11
-618.05661299999986
 21
-530.0
 31
0.0
  0
CIRCLE
  5
F5
  8
SIZE
  6
CONTINUOUS
 62
    30
 10
-618.05661299999986
 20
-412.0
 30
0.0
 40
5.0
  0
LINE
  5
F6
  8
SIZE
  6
CONTINUOUS
 62
    30
 10
-618.05661299999986
 20
-407.0
 30
0.0
 11
-618.05661299999986
 21
-402.0
 31
0.0
  0
TEXT
  5
F7
  8
SIZE
  6
CONTINUOUS
 62
    30
 10
-638.05661299999997
 20
-524.92857142857144
 30
0.0
 40
55.0
  1
108
 50
90.0
 41
0.9
 72
     1
 11
-638.05661299999997
 21
-466.0
 31
0.0
  0
LINE
  5
F8
  8
SIZE
  6
CONTINUOUS
 62
    30
 10
-375.0
 20
520.0
 30
0.0
 11
-647.57971999999995
 21
520.0
 31
0.0
  0
LINE
  5
F9
  8
SIZE
  6
CONTINUOUS
 62
    30
 10
-327.0
 20
412.0
 30
0.0
 11
-647.57971999999995
 21
412.0
 31
0.0
  0
LINE
  5
FA
  8
SIZE
  6
CONTINUOUS
 62
    30
 10
-617.57971999999995
 20
530.0
 30
0.0
 11
-617.57971999999995
 21
540.0
 31
0.0
  0
LINE
  5
FB
  8
SIZE
  6
CONTINUOUS
 62
    30
 10
-617.57971999999995
 20
402.0
 30
0.0
 11
-617.57971999999995
 21
392.0
 31
0.0
  0
LINE
  5
FC
  8
SIZE
  6
CONTINUOUS
 62
    30
 10
-617.57971999999995
 20
520.0
 30
0.0
 11
-617.57971999999995
 21
412.0
 31
0.0
  0
CIRCLE
  5
FD
  8
SIZE
  6
CONTINUOUS
 62
    30
 10
-617.57971999999995
 20
520.0
 30
0.0
 40
5.0
  0
LINE
  5
FE
  8
SIZE
  6
CONTINUOUS
 62
    30
 10
-617.57971999999995
 20
525.0
 30
0.0
 11
-617.57971999999995
 21
530.0
 31
0.0
  0
CIRCLE
  5
FF
  8
SIZE
  6
CONTINUOUS
 62
    30
 10
-617.57971999999995
 20
412.0
 30
0.0
 40
5.0
  0
LINE
  5
100
  8
SIZE
  6
CONTINUOUS
 62
    30
 10
-617.57971999999995
 20
407.0
 30
0.0
 11
-617.57971999999995
 21
402.0
 31
0.0
  0
TEXT
  5
101
  8
SIZE
  6
CONTINUOUS
 62
    30
 10
-637.57971999999995
 20
407.0714285714285
 30
0.0
 40
55.0
  1
108
 50
90.0
 41
0.9
 72
     1
 11
-637.57971999999995
 21
466.0
 31
0.0
  0
LINE
  5
102
  8
SIZE
  6
CONTINUOUS
 62
    30
 10
335.0
 20
560.0
 30
0.0
 11
335.0
 21
1025.583255
 31
0.0
  0
LINE
  5
103
  8
SIZE
  6
CONTINUOUS
 62
    30
 10
-335.0
 20
560.0
 30
0.0
 11
-335.0
 21
1025.583255
 31
0.0
  0
LINE
  5
104
  8
SIZE
  6
CONTINUOUS
 62
    30
 10
325.0
 20
995.58325500000024
 30
0.0
 11
-325.0
 21
995.58325500000024
 31
0.0
  0
CIRCLE
  5
105
  8
SIZE
  6
CONTINUOUS
 62
    30
 10
335.0
 20
995.58325500000024
 30
0.0
 40
5.0
  0
LINE
  5
106
  8
SIZE
  6
CONTINUOUS
 62
    30
 10
330.0
 20
995.58325500000024
 30
0.0
 11
325.0
 21
995.58325500000024
 31
0.0
  0
CIRCLE
  5
107
  8
SIZE
  6
CONTINUOUS
 62
    30
 10
-335.0
 20
995.58325500000024
 30
0.0
 40
5.0
  0
LINE
  5
108
  8
SIZE
  6
CONTINUOUS
 62
    30
 10
-330.0
 20
995.58325500000024
 30
0.0
 11
-325.0
 21
995.58325500000024
 31
0.0
  0
TEXT
  5
109
  8
SIZE
  6
CONTINUOUS
 62
    30
 10
-273.6642857142856
 20
1029.9880169999999
 30
0.0
 40
55.0
  1
670(天井開口寸法)
 41
0.9
 72
     1
 11
0.0
 21
1029.9880169999999
 31
0.0
  0
LINE
  5
10A
  8
SIZE
  6
CONTINUOUS
 62
    30
 10
-327.0
 20
412.0
 30
0.0
 11
-648.02815599999985
 21
412.0
 31
0.0
  0
LINE
  5
10B
  8
SIZE
  6
CONTINUOUS
 62
    30
 10
-327.0
 20
-412.0
 30
0.0
 11
-648.02815599999985
 21
-412.0
 31
0.0
  0
LINE
  5
10C
  8
SIZE
  6
CONTINUOUS
 62
    30
 10
-618.02815599999997
 20
402.0
 30
0.0
 11
-618.02815599999997
 21
-402.0
 31
0.0
  0
CIRCLE
  5
10D
  8
SIZE
  6
CONTINUOUS
 62
    30
 10
-618.02815599999997
 20
412.0
 30
0.0
 40
5.0
  0
LINE
  5
10E
  8
SIZE
  6
CONTINUOUS
 62
    30
 10
-618.02815599999997
 20
407.0
 30
0.0
 11
-618.02815599999997
 21
402.0
 31
0.0
  0
CIRCLE
  5
10F
  8
SIZE
  6
CONTINUOUS
 62
    30
 10
-618.02815599999997
 20
-412.0
 30
0.0
 40
5.0
  0
LINE
  5
110
  8
SIZE
  6
CONTINUOUS
 62
    30
 10
-618.02815599999997
 20
-407.0
 30
0.0
 11
-618.02815599999997
 21
-402.0
 31
0.0
  0
TEXT
  5
111
  8
SIZE
  6
CONTINUOUS
 62
    30
 10
-654.79006100000004
 20
-236.58607771428581
 30
0.0
 40
55.0
  1
824(吊りﾎﾞﾙﾄﾋﾟｯﾁ)
 50
90.0
 41
0.9
 72
     1
 11
-654.79006100000004
 21
22.228207999999999
 31
0.0
  0
LINE
  5
112
  8
SIZE
  6
CONTINUOUS
 62
    30
 10
-287.0
 20
452.0
 30
0.0
 11
-287.0
 21
874.38982999999973
 31
0.0
  0
LINE
  5
113
  8
SIZE
  6
CONTINUOUS
 62
    30
 10
-355.0
 20
540.0
 30
0.0
 11
-355.0
 21
874.38982999999973
 31
0.0
  0
LINE
  5
114
  8
SIZE
  6
CONTINUOUS
 62
    30
 10
-297.0
 20
844.38982999999985
 30
0.0
 11
-345.0
 21
844.38982999999985
 31
0.0
  0
LINE
  5
115
  8
SIZE
  6
CONTINUOUS
 62
    30
 10
-355.0
 20
844.38982999999985
 30
0.0
 11
-503.91750100000002
 21
844.38982999999985
 31
0.0
  0
CIRCLE
  5
116
  8
SIZE
  6
CONTINUOUS
 62
    30
 10
-287.0
 20
844.38982999999985
 30
0.0
 40
5.0
  0
LINE
  5
117
  8
SIZE
  6
CONTINUOUS
 62
    30
 10
-292.0
 20
844.38982999999985
 30
0.0
 11
-297.0
 21
844.38982999999985
 31
0.0
  0
CIRCLE
  5
118
  8
SIZE
  6
CONTINUOUS
 62
    30
 10
-355.0
 20
844.38982999999985
 30
0.0
 40
5.0
  0
LINE
  5
119
  8
SIZE
  6
CONTINUOUS
 62
    30
 10
-350.0
 20
844.38982999999985
 30
0.0
 11
-345.0
 21
844.38982999999985
 31
0.0
  0
TEXT
  5
11A
  8
SIZE
  6
CONTINUOUS
 62
    30
 10
-477.36035857142838
 20
864.38982999999985
 30
0.0
 40
55.0
  1
68
 41
0.9
 72
     1
 11
-437.28892999999988
 21
864.38982999999985
 31
0.0
  0
LINE
  5
11B
  8
SIZE
  6
CONTINUOUS
 62
    30
 10
287.0
 20
452.0
 30
0.0
 11
287.0
 21
874.69554299999982
 31
0.0
  0
LINE
  5
11C
  8
SIZE
  6
CONTINUOUS
 62
    30
 10
355.0
 20
540.0
 30
0.0
 11
355.0
 21
874.69554299999982
 31
0.0
  0
LINE
  5
11D
  8
SIZE
  6
CONTINUOUS
 62
    30
 10
297.0
 20
844.69554299999993
 30
0.0
 11
345.0
 21
844.69554299999993
 31
0.0
  0
LINE
  5
11E
  8
SIZE
  6
CONTINUOUS
 62
    30
 10
355.0
 20
844.69554299999993
 30
0.0
 11
538.82383200000004
 21
844.69554299999993
 31
0.0
  0
CIRCLE
  5
11F
  8
SIZE
  6
CONTINUOUS
 62
    30
 10
287.0
 20
844.69554299999993
 30
0.0
 40
5.0
  0
LINE
  5
120
  8
SIZE
  6
CONTINUOUS
 62
    30
 10
292.0
 20
844.69554299999993
 30
0.0
 11
297.0
 21
844.69554299999993
 31
0.0
  0
CIRCLE
  5
121
  8
SIZE
  6
CONTINUOUS
 62
    30
 10
355.0
 20
844.69554299999993
 30
0.0
 40
5.0
  0
LINE
  5
122
  8
SIZE
  6
CONTINUOUS
 62
    30
 10
350.0
 20
844.69554299999993
 30
0.0
 11
345.0
 21
844.69554299999993
 31
0.0
  0
TEXT
  5
123
  8
SIZE
  6
CONTINUOUS
 62
    30
 10
432.1238324285714
 20
864.69554300000004
 30
0.0
 40
55.0
  1
68
 41
0.9
 72
     1
 11
472.19526100000002
 21
864.69554300000004
 31
0.0
  0
LINE
  5
124
  8
SIZE
  6
CONTINUOUS
 62
    30
 10
287.0
 20
452.0
 30
0.0
 11
287.0
 21
874.69554299999982
 31
0.0
  0
LINE
  5
125
  8
SIZE
  6
CONTINUOUS
 62
    30
 10
-287.0
 20
452.0
 30
0.0
 11
-287.0
 21
874.69554299999982
 31
0.0
  0
LINE
  5
126
  8
SIZE
  6
CONTINUOUS
 62
    30
 10
277.0
 20
844.69554299999993
 30
0.0
 11
-277.0
 21
844.69554299999993
 31
0.0
  0
CIRCLE
  5
127
  8
SIZE
  6
CONTINUOUS
 62
    30
 10
287.0
 20
844.69554299999993
 30
0.0
 40
5.0
  0
LINE
  5
128
  8
SIZE
  6
CONTINUOUS
 62
    30
 10
282.0
 20
844.69554299999993
 30
0.0
 11
277.0
 21
844.69554299999993
 31
0.0
  0
CIRCLE
  5
129
  8
SIZE
  6
CONTINUOUS
 62
    30
 10
-287.0
 20
844.69554299999993
 30
0.0
 40
5.0
  0
LINE
  5
12A
  8
SIZE
  6
CONTINUOUS
 62
    30
 10
-282.0
 20
844.69554299999993
 30
0.0
 11
-277.0
 21
844.69554299999993
 31
0.0
  0
TEXT
  5
12B
  8
SIZE
  6
CONTINUOUS
 62
    30
 10
-258.8142857142858
 20
879.10030500000005
 30
0.0
 40
55.0
  1
574(吊りﾎﾞﾙﾄﾋﾟｯﾁ)
 41
0.9
 72
     1
 11
0.0
 21
879.10030500000005
 31
0.0
  0
LINE
  5
12C
  8
SIZE
  6
CONTINUOUS
 62
    30
 10
-375.0
 20
520.0
 30
0.0
 11
-831.63964899999985
 21
520.0
 31
0.0
  0
LINE
  5
12D
  8
SIZE
  6
CONTINUOUS
 62
    30
 10
-375.0
 20
-520.0
 30
0.0
 11
-831.63964899999985
 21
-520.0
 31
0.0
  0
LINE
  5
12E
  8
SIZE
  6
CONTINUOUS
 62
    30
 10
-801.63964899999985
 20
510.0
 30
0.0
 11
-801.63964899999985
 21
-510.0
 31
0.0
  0
CIRCLE
  5
12F
  8
SIZE
  6
CONTINUOUS
 62
    30
 10
-801.63964899999985
 20
520.0
 30
0.0
 40
5.0
  0
LINE
  5
130
  8
SIZE
  6
CONTINUOUS
 62
    30
 10
-801.63964899999985
 20
515.0
 30
0.0
 11
-801.63964899999985
 21
510.0
 31
0.0
  0
CIRCLE
  5
131
  8
SIZE
  6
CONTINUOUS
 62
    30
 10
-801.63964899999985
 20
-520.0
 30
0.0
 40
5.0
  0
LINE
  5
132
  8
SIZE
  6
CONTINUOUS
 62
    30
 10
-801.63964899999985
 20
-515.0
 30
0.0
 11
-801.63964899999985
 21
-510.0
 31
0.0
  0
TEXT
  5
133
  8
SIZE
  6
CONTINUOUS
 62
    30
 10
-838.40155300000004
 20
-292.52142857142837
 30
0.0
 40
55.0
  1
1040(天井開口寸法)
 50
90.0
 41
0.9
 72
     1
 11
-838.40155300000004
 21
0.0
 31
0.0
  0
LINE
  5
134
  8
SIZE
  6
CONTINUOUS
 62
    30
 10
-375.0
 20
-520.0
 30
0.0
 11
-831.63964899999985
 21
-520.0
 31
0.0
  0
LINE
  5
135
  8
SIZE
  6
CONTINUOUS
 62
    30
 10
-355.0
 20
-540.0
 30
0.0
 11
-831.63964899999985
 21
-540.0
 31
0.0
  0
LINE
  5
136
  8
SIZE
  6
CONTINUOUS
 62
    30
 10
-801.63964899999985
 20
-510.0
 30
0.0
 11
-801.63964899999985
 21
-500.0
 31
0.0
  0
LINE
  5
137
  8
SIZE
  6
CONTINUOUS
 62
    30
 10
-801.63964899999985
 20
-550.0
 30
0.0
 11
-801.63964899999985
 21
-640.33143350211321
 31
0.0
  0
LINE
  5
138
  8
SIZE
  6
CONTINUOUS
 62
    30
 10
-801.63964899999985
 20
-520.0
 30
0.0
 11
-801.63964899999985
 21
-540.0
 31
0.0
  0
CIRCLE
  5
139
  8
SIZE
  6
CONTINUOUS
 62
    30
 10
-801.63964899999985
 20
-520.0
 30
0.0
 40
5.0
  0
LINE
  5
13A
  8
SIZE
  6
CONTINUOUS
 62
    30
 10
-801.63964899999985
 20
-515.0
 30
0.0
 11
-801.63964899999985
 21
-510.0
 31
0.0
  0
CIRCLE
  5
13B
  8
SIZE
  6
CONTINUOUS
 62
    30
 10
-801.63964899999985
 20
-540.0
 30
0.0
 40
5.0
  0
LINE
  5
13C
  8
SIZE
  6
CONTINUOUS
 62
    30
 10
-801.63964899999985
 20
-545.0
 30
0.0
 11
-801.63964899999985
 21
-550.0
 31
0.0
  0
TEXT
  5
13D
  8
SIZE
  6
CONTINUOUS
 62
    30
 10
-821.63964899999985
 20
-630.05122354580078
 30
0.0
 40
55.0
  1
20
 50
90.0
 41
0.9
 72
     1
 11
-821.63964899999985
 21
-589.97979497437234
 31
0.0
  0
LINE
  5
13E
  8
SIZE
  6
CONTINUOUS
 62
    30
 10
-355.0
 20
540.0
 30
0.0
 11
-831.63964899999985
 21
540.0
 31
0.0
  0
LINE
  5
13F
  8
SIZE
  6
CONTINUOUS
 62
    30
 10
-375.0
 20
520.0
 30
0.0
 11
-831.63964899999985
 21
520.0
 31
0.0
  0
LINE
  5
140
  8
SIZE
  6
CONTINUOUS
 62
    30
 10
-801.63964899999985
 20
550.0
 30
0.0
 11
-801.63964899999985
 21
638.80633650397056
 31
0.0
  0
LINE
  5
141
  8
SIZE
  6
CONTINUOUS
 62
    30
 10
-801.63964899999985
 20
510.0
 30
0.0
 11
-801.63964899999985
 21
500.0
 31
0.0
  0
LINE
  5
142
  8
SIZE
  6
CONTINUOUS
 62
    30
 10
-801.63964899999985
 20
540.0
 30
0.0
 11
-801.63964899999985
 21
520.0
 31
0.0
  0
CIRCLE
  5
143
  8
SIZE
  6
CONTINUOUS
 62
    30
 10
-801.63964899999985
 20
540.0
 30
0.0
 40
5.0
  0
LINE
  5
144
  8
SIZE
  6
CONTINUOUS
 62
    30
 10
-801.63964899999985
 20
545.0
 30
0.0
 11
-801.63964899999985
 21
550.0
 31
0.0
  0
CIRCLE
  5
145
  8
SIZE
  6
CONTINUOUS
 62
    30
 10
-801.63964899999985
 20
520.0
 30
0.0
 40
5.0
  0
LINE
  5
146
  8
SIZE
  6
CONTINUOUS
 62
    30
 10
-801.63964899999985
 20
515.0
 30
0.0
 11
-801.63964899999985
 21
510.0
 31
0.0
  0
TEXT
  5
147
  8
SIZE
  6
CONTINUOUS
 62
    30
 10
-821.63964899999985
 20
555.21031996365753
 30
0.0
 40
55.0
  1
20
 50
90.0
 41
0.9
 72
     1
 11
-821.63964899999985
 21
595.28174853508608
 31
0.0
  0
LINE
  5
148
  8
SIZE
  6
CONTINUOUS
 62
    30
 10
171.0
 20
-488.0
 30
0.0
 11
171.0
 21
-870.21929
 31
0.0
  0
LINE
  5
149
  8
SIZE
  6
CONTINUOUS
 62
    30
 10
101.0
 20
-483.0
 30
0.0
 11
101.0
 21
-870.21929
 31
0.0
  0
LINE
  5
14A
  8
SIZE
  6
CONTINUOUS
 62
    30
 10
181.0
 20
-840.21928999999989
 30
0.0
 11
191.0
 21
-840.21928999999989
 31
0.0
  0
LINE
  5
14B
  8
SIZE
  6
CONTINUOUS
 62
    30
 10
91.0
 20
-840.21928999999989
 30
0.0
 11
81.0
 21
-840.21928999999989
 31
0.0
  0
LINE
  5
14C
  8
SIZE
  6
CONTINUOUS
 62
    30
 10
171.0
 20
-840.21928999999989
 30
0.0
 11
101.0
 21
-840.21928999999989
 31
0.0
  0
CIRCLE
  5
14D
  8
SIZE
  6
CONTINUOUS
 62
    30
 10
171.0
 20
-840.21928999999989
 30
0.0
 40
5.0
  0
LINE
  5
14E
  8
SIZE
  6
CONTINUOUS
 62
    30
 10
176.0
 20
-840.21928999999989
 30
0.0
 11
181.0
 21
-840.21928999999989
 31
0.0
  0
CIRCLE
  5
14F
  8
SIZE
  6
CONTINUOUS
 62
    30
 10
101.0
 20
-840.21928999999989
 30
0.0
 40
5.0
  0
LINE
  5
150
  8
SIZE
  6
CONTINUOUS
 62
    30
 10
96.0
 20
-840.21928999999989
 30
0.0
 11
91.0
 21
-840.21928999999989
 31
0.0
  0
TEXT
  5
151
  8
SIZE
  6
CONTINUOUS
 62
    30
 10
95.928571428571431
 20
-820.21929
 30
0.0
 40
55.0
  1
70
 41
0.9
 72
     1
 11
136.0
 21
-820.21929
 31
0.0
  0
LINE
  5
152
  8
SIZE
  6
CONTINUOUS
 62
    30
 10
317.0
 20
-520.0
 30
0.0
 11
317.0
 21
-872.01388599999984
 31
0.0
  0
LINE
  5
153
  8
SIZE
  6
CONTINUOUS
 62
    30
 10
171.0
 20
-488.0
 30
0.0
 11
171.0
 21
-872.01388599999984
 31
0.0
  0
LINE
  5
154
  8
SIZE
  6
CONTINUOUS
 62
    30
 10
327.0
 20
-842.01388599999984
 30
0.0
 11
337.0
 21
-842.01388599999984
 31
0.0
  0
LINE
  5
155
  8
SIZE
  6
CONTINUOUS
 62
    30
 10
161.0
 20
-842.01388599999984
 30
0.0
 11
151.0
 21
-842.01388599999984
 31
0.0
  0
LINE
  5
156
  8
SIZE
  6
CONTINUOUS
 62
    30
 10
317.0
 20
-842.01388599999984
 30
0.0
 11
171.0
 21
-842.01388599999984
 31
0.0
  0
CIRCLE
  5
157
  8
SIZE
  6
CONTINUOUS
 62
    30
 10
317.0
 20
-842.01388599999984
 30
0.0
 40
5.0
  0
LINE
  5
158
  8
SIZE
  6
CONTINUOUS
 62
    30
 10
322.0
 20
-842.01388599999984
 30
0.0
 11
327.0
 21
-842.01388599999984
 31
0.0
  0
CIRCLE
  5
159
  8
SIZE
  6
CONTINUOUS
 62
    30
 10
171.0
 20
-842.01388599999984
 30
0.0
 40
5.0
  0
LINE
  5
15A
  8
SIZE
  6
CONTINUOUS
 62
    30
 10
166.0
 20
-842.01388599999984
 30
0.0
 11
161.0
 21
-842.01388599999984
 31
0.0
  0
TEXT
  5
15B
  8
SIZE
  6
CONTINUOUS
 62
    30
 10
186.25
 20
-822.01388599999984
 30
0.0
 40
55.0
  1
146
 41
0.9
 72
     1
 11
244.0
 21
-822.01388599999984
 31
0.0
  0
LINE
  5
15C
  8
SIZE
  6
CONTINUOUS
 62
    30
 10
317.0
 20
-508.0
 30
0.0
 11
317.0
 21
-1009.945102
 31
0.0
  0
LINE
  5
15D
  8
SIZE
  6
CONTINUOUS
 62
    30
 10
-180.0
 20
-475.44269006521051
 30
0.0
 11
-180.0
 21
-1009.945102
 31
0.0
  0
LINE
  5
15E
  8
SIZE
  6
CONTINUOUS
 62
    30
 10
307.0
 20
-979.94510200000013
 30
0.0
 11
-170.0
 21
-979.94510200000013
 31
0.0
  0
CIRCLE
  5
15F
  8
SIZE
  6
CONTINUOUS
 62
    30
 10
317.0
 20
-979.94510200000013
 30
0.0
 40
5.0
  0
LINE
  5
160
  8
SIZE
  6
CONTINUOUS
 62
    30
 10
312.0
 20
-979.94510200000013
 30
0.0
 11
307.0
 21
-979.94510200000013
 31
0.0
  0
CIRCLE
  5
161
  8
SIZE
  6
CONTINUOUS
 62
    30
 10
-180.0
 20
-979.94510200000013
 30
0.0
 40
5.0
  0
LINE
  5
162
  8
SIZE
  6
CONTINUOUS
 62
    30
 10
-175.0
 20
-979.94510200000013
 30
0.0
 11
-170.0
 21
-979.94510200000013
 31
0.0
  0
TEXT
  5
163
  8
SIZE
  6
CONTINUOUS
 62
    30
 10
4.8571428571428612
 20
-959.94510200000002
 30
0.0
 40
55.0
  1
497
 41
0.9
 72
     1
 11
68.5
 21
-959.94510200000002
 31
0.0
  0
LINE
  5
164
  8
SIZE
  6
CONTINUOUS
 62
    30
 10
-317.0
 20
-520.0
 30
0.0
 11
-317.0
 21
-1208.510402491127
 31
0.0
  0
LINE
  5
165
  8
SIZE
  6
CONTINUOUS
 62
    30
 10
317.0
 20
-520.0
 30
0.0
 11
317.0
 21
-1158.1315540000001
 31
0.0
  0
LINE
  5
166
  8
SIZE
  6
CONTINUOUS
 62
    30
 10
-307.0
 20
-1177.098827564336
 30
0.0
 11
307.0
 21
-1177.098827564336
 31
0.0
  0
CIRCLE
  5
167
  8
SIZE
  6
CONTINUOUS
 62
    30
 10
-317.0
 20
-1177.098827564336
 30
0.0
 40
5.0
  0
LINE
  5
168
  8
SIZE
  6
CONTINUOUS
 62
    30
 10
-312.0
 20
-1177.098827564336
 30
0.0
 11
-307.0
 21
-1177.098827564336
 31
0.0
  0
CIRCLE
  5
169
  8
SIZE
  6
CONTINUOUS
 62
    30
 10
317.0
 20
-1177.098827564336
 30
0.0
 40
5.0
  0
LINE
  5
16A
  8
SIZE
  6
CONTINUOUS
 62
    30
 10
312.0
 20
-1177.098827564336
 30
0.0
 11
307.0
 21
-1177.098827564336
 31
0.0
  0
TEXT
  5
16B
  8
SIZE
  6
CONTINUOUS
 62
    30
 10
-64.821428571428569
 20
-1157.098827564336
 30
0.0
 40
55.0
  1
634
 41
0.9
 72
     1
 11
0.0
 21
-1157.098827564336
 31
0.0
  0
LINE
  5
369
  8
SIZE
  6
CONTINUOUS
 62
    30
 10
297.0
 20
-388.0
 30
0.0
 11
40.634723960320031
 21
-387.99999999999989
 31
0.0
  0
LINE
  5
36A
  8
SIZE
  6
CONTINUOUS
 62
    30
 10
84.174999999999983
 20
-455.0
 30
0.0
 11
40.634723960320031
 21
-455.0
 31
0.0
  0
LINE
  5
36B
  8
SIZE
  6
CONTINUOUS
 62
    30
 10
70.634723960320031
 20
-445.0
 30
0.0
 11
70.634723960320045
 21
-398.0
 31
0.0
  0
LINE
  5
36C
  8
SIZE
  6
CONTINUOUS
 62
    30
 10
70.634723960320045
 20
-387.99999999999989
 30
0.0
 11
70.634723960320059
 21
-247.12031431146349
 31
0.0
  0
LINE
  5
372
  8
SIZE
  6
CONTINUOUS
 62
    30
 10
337.0
 20
-388.0
 30
0.0
 11
510.21389140230542
 21
-388.00000000000011
 31
0.0
  0
LINE
  5
373
  8
SIZE
  6
CONTINUOUS
 62
    30
 10
197.34999999999999
 20
-466.0
 30
0.0
 11
510.21389140230542
 21
-466.00000000000011
 31
0.0
  0
LINE
  5
374
  8
SIZE
  6
CONTINUOUS
 62
    30
 10
480.21389140230519
 20
-456.0
 30
0.0
 11
480.21389140230519
 21
-398.00000000000011
 31
0.0
  0
LINE
  5
375
  8
SIZE
  6
CONTINUOUS
 62
    30
 10
480.21389140230519
 20
-388.00000000000011
 30
0.0
 11
480.21389140230542
 21
-277.89110515493502
 31
0.0
  0
LINE
  5
379
  8
SIZE
  6
CONTINUOUS
 62
    30
 10
-337.0
 20
-388.0
 30
0.0
 11
-467.06061194503451
 21
-387.99999999999989
 31
0.0
  0
LINE
  5
37A
  8
SIZE
  6
CONTINUOUS
 62
    30
 10
-216.0
 20
-448.0
 30
0.0
 11
-467.06061194503451
 21
-447.99999999999989
 31
0.0
  0
LINE
  5
37B
  8
SIZE
  6
CONTINUOUS
 62
    30
 10
-437.06061194503462
 20
-437.99999999999989
 30
0.0
 11
-437.06061194503462
 21
-398.0
 31
0.0
  0
LINE
  5
37C
  8
SIZE
  6
CONTINUOUS
 62
    30
 10
-437.06061194503462
 20
-387.99999999999989
 30
0.0
 11
-437.06061194503462
 21
-240.2823744654288
 31
0.0
  0
TEXT
  5
380
  8
SIZE
  6
CONTINUOUS
 62
    30
 10
-449.85656015932182
 20
-345.60575849706692
 30
0.0
 40
55.0
  1
60
 50
90.0
 41
0.9
 72
     1
 11
-449.85656015932182
 21
-305.5343299256383
 31
0.0
  0
CIRCLE
  5
381
  8
SIZE
  6
CONTINUOUS
 62
    30
 10
-437.06061194503462
 20
-387.99999999999989
 30
0.0
 40
5.0
  0
LINE
  5
382
  8
SIZE
  6
CONTINUOUS
 62
    30
 10
-437.06061194503462
 20
-393.0
 30
0.0
 11
-437.06061194503462
 21
-398.0
 31
0.0
  0
CIRCLE
  5
383
  8
SIZE
  6
CONTINUOUS
 62
    30
 10
-437.06061194503462
 20
-447.99999999999989
 30
0.0
 40
5.0
  0
LINE
  5
384
  8
SIZE
  6
CONTINUOUS
 62
    30
 10
-437.06061194503462
 20
-442.99999999999989
 30
0.0
 11
-437.06061194503462
 21
-437.99999999999989
 31
0.0
  0
TEXT
  5
385
  8
SIZE
  6
CONTINUOUS
 62
    30
 10
55.226755343974212
 20
-350.40226804201768
 30
0.0
 40
55.0
  1
67
 50
90.0
 41
0.9
 72
     1
 11
55.226755343974212
 21
-310.33083947058918
 31
0.0
  0
CIRCLE
  5
386
  8
SIZE
  6
CONTINUOUS
 62
    30
 10
70.634723960320045
 20
-387.99999999999989
 30
0.0
 40
5.0
  0
LINE
  5
387
  8
SIZE
  6
CONTINUOUS
 62
    30
 10
70.634723960320045
 20
-393.0
 30
0.0
 11
70.634723960320045
 21
-398.0
 31
0.0
  0
CIRCLE
  5
388
  8
SIZE
  6
CONTINUOUS
 62
    30
 10
70.634723960320031
 20
-455.0
 30
0.0
 40
5.0
  0
LINE
  5
389
  8
SIZE
  6
CONTINUOUS
 62
    30
 10
70.634723960320031
 20
-450.0
 30
0.0
 11
70.634723960320031
 21
-445.0
 31
0.0
  0
CIRCLE
  5
38A
  8
SIZE
  6
CONTINUOUS
 62
    30
 10
480.21389140230519
 20
-388.00000000000011
 30
0.0
 40
5.0
  0
LINE
  5
38B
  8
SIZE
  6
CONTINUOUS
 62
    30
 10
480.21389140230519
 20
-393.00000000000011
 30
0.0
 11
480.21389140230519
 21
-398.00000000000011
 31
0.0
  0
CIRCLE
  5
38C
  8
SIZE
  6
CONTINUOUS
 62
    30
 10
480.21389140230519
 20
-466.00000000000011
 30
0.0
 40
5.0
  0
LINE
  5
38D
  8
SIZE
  6
CONTINUOUS
 62
    30
 10
480.21389140230519
 20
-461.0
 30
0.0
 11
480.21389140230519
 21
-456.0
 31
0.0
  0
TEXT
  5
38E
  8
SIZE
  6
CONTINUOUS
 62
    30
 10
465.09121258934442
 20
-363.92214087038258
 30
0.0
 40
55.0
  1
78
 50
90.0
 41
0.9
 72
     1
 11
465.09121258934442
 21
-323.85071229895402
 31
0.0
  0
TEXT
  5
491
  8
NOTE
  6
CONTINUOUS
 62
     4
 10
447.62299233359221
 20
688.62095254202734
 30
0.0
 40
55.0
  1
AH 4-14×30長穴
 41
0.9
  0
TEXT
  5
49A
  8
NOTE
  6
CONTINUOUS
 62
     4
 10
-883.00970014349139
 20
-1021.7253282028501
 30
0.0
 40
64.0
  1
D VP-25
 41
0.9
  0
LINE
  5
4A9
  8
DETAIL
  6
CONTINUOUS
 62
     5
 10
-335.0
 20
-520.0
 30
0.0
 11
-335.0
 21
520.0
 31
0.0
  0
LINE
  5
4AF
  8
DETAIL
  6
CONTINUOUS
 62
     5
 10
335.0
 20
-520.0
 30
0.0
 11
335.0
 21
520.0
 31
0.0
  0
LINE
  5
4B5
  8
DETAIL
  6
CONTINUOUS
 62
     5
 10
335.0
 20
520.0
 30
0.0
 11
-335.00001502846862
 21
519.99999905329605
 31
0.0
  0
LINE
  5
4BF
  8
DETAIL
  6
CONTINUOUS
 62
     5
 10
335.00001167415758
 20
-519.9999909482832
 30
0.0
 11
-335.0000033543111
 21
-519.99999189498703
 31
0.0
  0
LINE
  5
520
  8
NOTE
  6
CONTINUOUS
 62
     4
 10
-559.48917800000004
 20
-846.67916999999954
 30
0.0
 11
-189.99960599999989
 21
-448.00053399999979
 31
0.0
  0
TEXT
  5
521
  8
NOTE
  6
CONTINUOUS
 62
     4
 10
-1003.515127
 20
-921.406655
 30
0.0
 40
64.0
  1
（自然排水口）
 41
0.9
  0
LINE
  5
522
  8
NOTE
  6
CONTINUOUS
 62
     4
 10
-1028.3542520000001
 20
-846.67916999999954
 30
0.0
 11
-559.48917800000004
 21
-846.67916999999954
 31
0.0
  0
TEXT
  5
523
  8
NOTE
  6
CONTINUOUS
 62
     4
 10
-976.74349099999995
 20
-819.73705399999994
 30
0.0
 40
64.0
  1
D抜き
 41
0.9
  0
LINE
  5
524
  8
SIZE
  6
CONTINUOUS
 62
    30
 10
-190.0
 20
-486.0
 30
0.0
 11
-190.0
 21
-1111.6643345706179
 31
0.0
  0
LINE
  5
525
  8
SIZE
  6
CONTINUOUS
 62
    30
 10
317.0
 20
-408.0
 30
0.0
 11
317.0
 21
-1207.511988070215
 31
0.0
  0
TEXT
  5
526
  8
SIZE
  6
CONTINUOUS
 62
    30
 10
10.57776985714278
 20
-1065.74584792784
 30
0.0
 40
55.0
  1
507
 41
0.9
 72
     1
 11
74.220626999999922
 21
-1065.74584792784
 31
0.0
  0
LINE
  5
527
  8
SIZE
  6
CONTINUOUS
 62
    30
 10
307.0
 20
-1080.7458479278409
 30
0.0
 11
-180.0
 21
-1080.7458479278409
 31
0.0
  0
POINT
  5
528
  8
DEFPOINTS
  6
CONTINUOUS
 62
     7
 10
-190.0
 20
-1080.7458479278409
 30
0.0
  0
LINE
  5
529
  8
SIZE
  6
CONTINUOUS
 62
    30
 10
-185.0
 20
-1080.7458479278409
 30
0.0
 11
-180.0
 21
-1080.7458479278409
 31
0.0
  0
CIRCLE
  5
52A
  8
SIZE
  6
CONTINUOUS
 62
    30
 10
-190.0
 20
-1080.7458479278409
 30
0.0
 40
5.0
  0
LINE
  5
52B
  8
SIZE
  6
CONTINUOUS
 62
    30
 10
312.0
 20
-1080.7458479278409
 30
0.0
 11
307.0
 21
-1080.7458479278409
 31
0.0
  0
CIRCLE
  5
52C
  8
SIZE
  6
CONTINUOUS
 62
    30
 10
317.0
 20
-1080.7458479278409
 30
0.0
 40
5.0
  0
LINE
  5
52D
  8
NOTE
  6
CONTINUOUS
 62
     4
 10
-179.99985599999999
 20
-448.00106899999992
 30
0.0
 11
-184.75677799999991
 21
-482.05575099999987
 31
0.0
  0
LINE
  5
52E
  8
NOTE
  6
CONTINUOUS
 62
     4
 10
-179.99985599999999
 20
-448.00106899999992
 30
0.0
 11
-201.1468129999999
 21
-475.11482699999982
 31
0.0
  0
LINE
  5
52F
  8
NOTE
  6
CONTINUOUS
 62
     4
 10
-190.00002199999989
 20
-448.00095299999998
 30
0.0
 11
-205.984554
 21
-478.44507199999993
 31
0.0
  0
LINE
  5
530
  8
NOTE
  6
CONTINUOUS
 62
     4
 10
-190.00002199999989
 20
-448.00095299999998
 30
0.0
 11
-219.06509299999999
 21
-466.37406700000003
 31
0.0
  0
LINE
  5
531
  8
NOTE
  6
CONTINUOUS
 62
     4
 10
-180.0
 20
-430.0
 30
0.0
 11
-180.0
 21
-466.0
 31
0.0
  0
LINE
  5
532
  8
NOTE
  6
CONTINUOUS
 62
     4
 10
-190.0
 20
-430.0
 30
0.0
 11
-190.0
 21
-466.0
 31
0.0
  0
POINT
  5
533
  8
DEFPOINTS
  6
CONTINUOUS
 62
     7
 10
-190.0
 20
-466.0
 30
0.0
  0
POINT
  5
534
  8
DEFPOINTS
  6
CONTINUOUS
 62
     7
 10
-180.0
 20
-466.0
 30
0.0
  0
POINT
  5
535
  8
DEFPOINTS
  6
CONTINUOUS
 62
     7
 10
-162.6749999999999
 20
-448.0
 30
0.0
  0
LINE
  5
536
  8
NOTE
  6
CONTINUOUS
 62
     4
 10
-162.6749999999999
 20
-448.0
 30
0.0
 11
-197.32499999999999
 21
-448.0
 31
0.0
  0
LINE
  5
537
  8
DETAIL
  6
CONTINUOUS
 62
     5
 10
-197.32499999999999
 20
-448.0
 30
0.0
 11
-197.32499999999999
 21
-388.0
 31
0.0
  0
LINE
  5
538
  8
DETAIL
  6
CONTINUOUS
 62
     5
 10
-162.6749999999999
 20
-448.0
 30
0.0
 11
-162.6749999999999
 21
-388.0
 31
0.0
  0
LINE
  5
539
  8
DETAIL
  6
CONTINUOUS
 62
     5
 10
-162.6749999999999
 20
-448.0
 30
0.0
 11
-197.32499999999999
 21
-448.0
 31
0.0
  0
LINE
  5
53A
  8
NOTE
  6
CONTINUOUS
 62
     4
 10
-172.6749999999999
 20
-448.0
 30
0.0
 11
-207.3250000000001
 21
-448.0
 31
0.0
  0
LINE
  5
53B
  8
DETAIL
  6
CONTINUOUS
 62
     5
 10
-207.3250000000001
 20
-448.0
 30
0.0
 11
-207.3250000000001
 21
-388.0
 31
0.0
  0
LINE
  5
53C
  8
DETAIL
  6
CONTINUOUS
 62
     5
 10
-172.6749999999999
 20
-448.0
 30
0.0
 11
-207.3250000000001
 21
-448.0
 31
0.0
  0
LINE
  5
601
  8
DETAIL
  6
CONTINUOUS
 62
     5
 10
82.191501000000017
 20
-392.39999599999999
 30
0.0
 11
119.774441
 21
-392.39999599999999
 31
0.0
  0
ARC
  5
603
  8
DETAIL
  6
CONTINUOUS
 62
     5
 10
122.92858200000001
 20
-392.39999599999999
 30
0.0
 40
3.9285830000000002
 50
180.0
 51
231.12137800000119
  0
LINE
  5
606
  8
NOTE
  6
CONTINUOUS
 62
     4
 10
101.0
 20
-437.0
 30
0.0
 11
101.0
 21
-473.0
 31
0.0
  0
LINE
  5
607
  8
NOTE
  6
CONTINUOUS
 62
     4
 10
119.0
 20
-455.0
 30
0.0
 11
83.0
 21
-455.0
 31
0.0
  0
LINE
  5
608
  8
DETAIL
  6
CONTINUOUS
 62
     5
 10
82.191501000000017
 20
-392.39999599999999
 30
0.0
 11
82.191501000000017
 21
-388.0
 31
0.0
  0
LINE
  5
609
  8
DETAIL
  6
CONTINUOUS
 62
     5
 10
80.0
 20
-398.67252100000002
 30
0.0
 11
80.0
 21
-418.0
 31
0.0
  0
LINE
  5
60C
  8
DETAIL
  6
CONTINUOUS
 62
     5
 10
122.0
 20
-418.0
 30
0.0
 11
80.0
 21
-418.0
 31
0.0
  0
LINE
  5
60D
  8
DETAIL
  6
CONTINUOUS
 62
     5
 10
92.5
 20
-437.0
 30
0.0
 11
92.5
 21
-418.0
 31
0.0
  0
LINE
  5
60E
  8
DETAIL
  6
CONTINUOUS
 62
     5
 10
109.5
 20
-437.0
 30
0.0
 11
109.5
 21
-418.0
 31
0.0
  0
POLYLINE
  5
610
  8
DETAIL
  6
CONTINUOUS
 62
     5
 66
     1
 10
0.0
 20
0.0
 30
0.0
  0
VERTEX
  5
835
  8
DETAIL
  6
CONTINUOUS
 62
     5
 10
101.0
 20
-437.000001
 30
0.0
  0
VERTEX
  5
836
  8
DETAIL
  6
CONTINUOUS
 62
     5
 10
101.08166300000001
 20
-437.19509099999988
 30
0.0
  0
VERTEX
  5
837
  8
DETAIL
  6
CONTINUOUS
 62
     5
 10
101.32351300000001
 20
-437.38268399999993
 30
0.0
  0
VERTEX
  5
838
  8
DETAIL
  6
CONTINUOUS
 62
     5
 10
101.716256
 20
-437.55557099999987
 30
0.0
  0
VERTEX
  5
839
  8
DETAIL
  6
CONTINUOUS
 62
     5
 10
102.2447979999999
 20
-437.70710700000001
 30
0.0
  0
VERTEX
  5
83A
  8
DETAIL
  6
CONTINUOUS
 62
     5
 10
102.888829
 20
-437.83147000000002
 30
0.0
  0
VERTEX
  5
83B
  8
DETAIL
  6
CONTINUOUS
 62
     5
 10
103.623598
 20
-437.92388
 30
0.0
  0
VERTEX
  5
83C
  8
DETAIL
  6
CONTINUOUS
 62
     5
 10
104.420868
 20
-437.9807849999998
 30
0.0
  0
VERTEX
  5
83D
  8
DETAIL
  6
CONTINUOUS
 62
     5
 10
105.25000199999999
 20
-438.0
 30
0.0
  0
VERTEX
  5
83E
  8
DETAIL
  6
CONTINUOUS
 62
     5
 10
106.07913600000001
 20
-437.9807849999998
 30
0.0
  0
VERTEX
  5
83F
  8
DETAIL
  6
CONTINUOUS
 62
     5
 10
106.8764059999999
 20
-437.923879
 30
0.0
  0
VERTEX
  5
840
  8
DETAIL
  6
CONTINUOUS
 62
     5
 10
107.611175
 20
-437.83146900000003
 30
0.0
  0
VERTEX
  5
841
  8
DETAIL
  6
CONTINUOUS
 62
     5
 10
108.255205
 20
-437.70710700000001
 30
0.0
  0
VERTEX
  5
842
  8
DETAIL
  6
CONTINUOUS
 62
     5
 10
108.78374599999979
 20
-437.55556999999988
 30
0.0
  0
VERTEX
  5
843
  8
DETAIL
  6
CONTINUOUS
 62
     5
 10
109.17648799999991
 20
-437.38268299999987
 30
0.0
  0
VERTEX
  5
844
  8
DETAIL
  6
CONTINUOUS
 62
     5
 10
109.41833699999999
 20
-437.19508999999988
 30
0.0
  0
VERTEX
  5
845
  8
DETAIL
  6
CONTINUOUS
 62
     5
 10
109.5
 20
-437.0
 30
0.0
  0
SEQEND
  5
846
  8
DETAIL
  6
CONTINUOUS
 62
     5
  0
POLYLINE
  5
611
  8
DETAIL
  6
CONTINUOUS
 62
     5
 66
     1
 10
0.0
 20
0.0
 30
0.0
  0
VERTEX
  5
847
  8
DETAIL
  6
CONTINUOUS
 62
     5
 10
92.5
 20
-437.0
 30
0.0
  0
VERTEX
  5
848
  8
DETAIL
  6
CONTINUOUS
 62
     5
 10
92.572363999999993
 20
-437.1837499999998
 30
0.0
  0
VERTEX
  5
849
  8
DETAIL
  6
CONTINUOUS
 62
     5
 10
92.786993000000038
 20
-437.36124199999989
 30
0.0
  0
VERTEX
  5
84A
  8
DETAIL
  6
CONTINUOUS
 62
     5
 10
93.136577999999986
 20
-437.526432
 30
0.0
  0
VERTEX
  5
84B
  8
DETAIL
  6
CONTINUOUS
 62
     5
 10
93.609212999999968
 20
-437.67369600000001
 30
0.0
  0
VERTEX
  5
84C
  8
DETAIL
  6
CONTINUOUS
 62
     5
 10
94.188804000000005
 20
-437.79801699999979
 30
0.0
  0
VERTEX
  5
84D
  8
DETAIL
  6
CONTINUOUS
 62
     5
 10
94.855612999999948
 20
-437.89516299999991
 30
0.0
  0
VERTEX
  5
84E
  8
DETAIL
  6
CONTINUOUS
 62
     5
 10
95.586934000000042
 20
-437.96182599999992
 30
0.0
  0
VERTEX
  5
84F
  8
DETAIL
  6
CONTINUOUS
 62
     5
 10
96.357860999999971
 20
-437.9957339999998
 30
0.0
  0
VERTEX
  5
850
  8
DETAIL
  6
CONTINUOUS
 62
     5
 10
97.142143000000033
 20
-437.9957339999998
 30
0.0
  0
VERTEX
  5
851
  8
DETAIL
  6
CONTINUOUS
 62
     5
 10
97.913069999999962
 20
-437.96182499999998
 30
0.0
  0
VERTEX
  5
852
  8
DETAIL
  6
CONTINUOUS
 62
     5
 10
98.644390000000044
 20
-437.89516299999991
 30
0.0
  0
VERTEX
  5
853
  8
DETAIL
  6
CONTINUOUS
 62
     5
 10
99.311198999999974
 20
-437.79801699999979
 30
0.0
  0
VERTEX
  5
854
  8
DETAIL
  6
CONTINUOUS
 62
     5
 10
99.890790000000024
 20
-437.67369500000001
 30
0.0
  0
VERTEX
  5
855
  8
DETAIL
  6
CONTINUOUS
 62
     5
 10
100.36342500000001
 20
-437.526432
 30
0.0
  0
VERTEX
  5
856
  8
DETAIL
  6
CONTINUOUS
 62
     5
 10
100.7130079999999
 20
-437.36124099999989
 30
0.0
  0
VERTEX
  5
857
  8
DETAIL
  6
CONTINUOUS
 62
     5
 10
100.92763600000001
 20
-437.18374899999992
 30
0.0
  0
VERTEX
  5
858
  8
DETAIL
  6
CONTINUOUS
 62
     5
 10
101.0
 20
-436.999999
 30
0.0
  0
SEQEND
  5
859
  8
DETAIL
  6
CONTINUOUS
 62
     5
  0
LINE
  5
613
  8
DETAIL
  6
CONTINUOUS
 62
     5
 10
109.25
 20
-440.0
 30
0.0
 11
109.5
 21
-441.564955
 31
0.0
  0
LINE
  5
614
  8
DETAIL
  6
CONTINUOUS
 62
     5
 10
92.5
 20
-441.564955
 30
0.0
 11
92.75
 21
-440.0
 31
0.0
  0
LINE
  5
615
  8
DETAIL
  6
CONTINUOUS
 62
     5
 10
109.5
 20
-451.0
 30
0.0
 11
109.5
 21
-441.564955
 31
0.0
  0
LINE
  5
616
  8
DETAIL
  6
CONTINUOUS
 62
     5
 10
92.5
 20
-451.0
 30
0.0
 11
92.5
 21
-441.564955
 31
0.0
  0
LINE
  5
617
  8
DETAIL
  6
CONTINUOUS
 62
     5
 10
96.750004000000004
 20
-438.0
 30
0.0
 11
105.250004
 21
-438.0
 31
0.0
  0
LINE
  5
618
  8
DETAIL
  6
CONTINUOUS
 62
     5
 10
104.175
 20
-437.998268
 30
0.0
 11
104.175
 21
-440.0
 31
0.0
  0
LINE
  5
619
  8
DETAIL
  6
CONTINUOUS
 62
     5
 10
97.825000000000003
 20
-437.998268
 30
0.0
 11
97.825000000000003
 21
-440.0
 31
0.0
  0
LINE
  5
61A
  8
DETAIL
  6
CONTINUOUS
 62
     5
 10
107.0
 20
-455.0
 30
0.0
 11
109.5
 21
-451.0
 31
0.0
  0
LINE
  5
61B
  8
DETAIL
  6
CONTINUOUS
 62
     5
 10
92.5
 20
-451.0
 30
0.0
 11
95.0
 21
-455.0
 31
0.0
  0
LINE
  5
61C
  8
DETAIL
  6
CONTINUOUS
 62
     5
 10
107.0
 20
-455.0
 30
0.0
 11
95.0
 21
-455.0
 31
0.0
  0
LINE
  5
61D
  8
DETAIL
  6
CONTINUOUS
 62
     5
 10
109.5
 20
-451.0
 30
0.0
 11
92.5
 21
-451.0
 31
0.0
  0
LINE
  5
61E
  8
DETAIL
  6
CONTINUOUS
 62
     5
 10
109.25
 20
-440.0
 30
0.0
 11
92.75
 21
-440.0
 31
0.0
  0
ARC
  5
61F
  8
DETAIL
  6
CONTINUOUS
 62
     5
 10
79.071417999999966
 20
-392.39999599999999
 30
0.0
 40
3.9285830000000002
 50
308.87862199999893
 51
0.0
  0
ARC
  5
620
  8
DETAIL
  6
CONTINUOUS
 62
     5
 10
84.128844999999956
 20
-398.67252100000002
 30
0.0
 40
4.1288450000000001
 50
128.8786219999987
 51
180.0
  0
LINE
  5
621
  8
NOTE
  6
CONTINUOUS
 62
     4
 10
171.0
 20
-448.0
 30
0.0
 11
171.0
 21
-484.0
 31
0.0
  0
LINE
  5
622
  8
DETAIL
  6
CONTINUOUS
 62
     5
 10
157.5
 20
-460.0
 30
0.0
 11
160.0
 21
-466.0
 31
0.0
  0
LINE
  5
623
  8
DETAIL
  6
CONTINUOUS
 62
     5
 10
182.0
 20
-466.0
 30
0.0
 11
184.5
 21
-460.0
 31
0.0
  0
LINE
  5
626
  8
NOTE
  6
CONTINUOUS
 62
     4
 10
189.0
 20
-466.0
 30
0.0
 11
153.0
 21
-466.0
 31
0.0
  0
LINE
  5
627
  8
DETAIL
  6
CONTINUOUS
 62
     5
 10
160.0
 20
-466.0
 30
0.0
 11
182.0
 21
-466.0
 31
0.0
  0
LINE
  5
628
  8
DETAIL
  6
CONTINUOUS
 62
     5
 10
119.774472
 20
-388.0
 30
0.0
 11
119.774472
 21
-392.39999599999999
 31
0.0
  0
LINE
  5
62A
  8
DETAIL
  6
CONTINUOUS
 62
     5
 10
152.20853
 20
-397.39999599999999
 30
0.0
 11
189.79147
 21
-397.39999599999999
 31
0.0
  0
LINE
  5
62B
  8
DETAIL
  6
CONTINUOUS
 62
     5
 10
189.79150100000001
 20
-388.0
 30
0.0
 11
189.79150100000001
 21
-397.39999599999999
 31
0.0
  0
LINE
  5
62E
  8
DETAIL
  6
CONTINUOUS
 62
     5
 10
152.20853
 20
-397.39999599999999
 30
0.0
 11
152.20853
 21
-388.0
 31
0.0
  0
LINE
  5
62F
  8
DETAIL
  6
CONTINUOUS
 62
     5
 10
192.0
 20
-422.0
 30
0.0
 11
192.0
 21
-403.67252100000002
 31
0.0
  0
LINE
  5
630
  8
DETAIL
  6
CONTINUOUS
 62
     5
 10
150.0
 20
-422.0
 30
0.0
 11
150.0
 21
-403.67252100000002
 31
0.0
  0
LINE
  5
631
  8
DETAIL
  6
CONTINUOUS
 62
     5
 10
122.0
 20
-418.0
 30
0.0
 11
122.0
 21
-398.67252100000002
 31
0.0
  0
LINE
  5
632
  8
DETAIL
  6
CONTINUOUS
 62
     5
 10
164.25000399999999
 20
-442.0
 30
0.0
 11
177.74999600000001
 21
-442.0
 31
0.0
  0
LINE
  5
633
  8
DETAIL
  6
CONTINUOUS
 62
     5
 10
157.5
 20
-460.0
 30
0.0
 11
184.5
 21
-460.0
 31
0.0
  0
LINE
  5
634
  8
DETAIL
  6
CONTINUOUS
 62
     5
 10
157.5
 20
-444.0
 30
0.0
 11
184.5
 21
-444.0
 31
0.0
  0
LINE
  5
635
  8
DETAIL
  6
CONTINUOUS
 62
     5
 10
177.34999999999999
 20
-442.0
 30
0.0
 11
177.34999999999999
 21
-444.0
 31
0.0
  0
LINE
  5
638
  8
DETAIL
  6
CONTINUOUS
 62
     5
 10
164.65000000000001
 20
-442.0
 30
0.0
 11
164.65000000000001
 21
-444.0
 31
0.0
  0
POLYLINE
  5
639
  8
DETAIL
  6
CONTINUOUS
 62
     5
 66
     1
 10
0.0
 20
0.0
 30
0.0
  0
VERTEX
  5
85A
  8
DETAIL
  6
CONTINUOUS
 62
     5
 10
157.5
 20
-440.70563299999992
 30
0.0
  0
VERTEX
  5
85B
  8
DETAIL
  6
CONTINUOUS
 62
     5
 10
158.373324
 20
-441.10747599999991
 30
0.0
  0
VERTEX
  5
85C
  8
DETAIL
  6
CONTINUOUS
 62
     5
 10
159.45181700000001
 20
-441.44720299999989
 30
0.0
  0
VERTEX
  5
85D
  8
DETAIL
  6
CONTINUOUS
 62
     5
 10
160.69782499999991
 20
-441.71295300000003
 30
0.0
  0
VERTEX
  5
85E
  8
DETAIL
  6
CONTINUOUS
 62
     5
 10
162.067848
 20
-441.89544699999999
 30
0.0
  0
VERTEX
  5
85F
  8
DETAIL
  6
CONTINUOUS
 62
     5
 10
163.51405399999999
 20
-441.988315
 30
0.0
  0
VERTEX
  5
860
  8
DETAIL
  6
CONTINUOUS
 62
     5
 10
164.98595399999999
 20
-441.988315
 30
0.0
  0
VERTEX
  5
861
  8
DETAIL
  6
CONTINUOUS
 62
     5
 10
166.43216000000001
 20
-441.895445
 30
0.0
  0
VERTEX
  5
862
  8
DETAIL
  6
CONTINUOUS
 62
     5
 10
167.80218199999999
 20
-441.71294999999992
 30
0.0
  0
VERTEX
  5
863
  8
DETAIL
  6
CONTINUOUS
 62
     5
 10
169.04818800000001
 20
-441.44719900000001
 30
0.0
  0
VERTEX
  5
864
  8
DETAIL
  6
CONTINUOUS
 62
     5
 10
170.12667799999991
 20
-441.10747199999997
 30
0.0
  0
VERTEX
  5
865
  8
DETAIL
  6
CONTINUOUS
 62
     5
 10
171.0
 20
-440.70562799999988
 30
0.0
  0
SEQEND
  5
866
  8
DETAIL
  6
CONTINUOUS
 62
     5
  0
POLYLINE
  5
63A
  8
DETAIL
  6
CONTINUOUS
 62
     5
 66
     1
 10
0.0
 20
0.0
 30
0.0
  0
VERTEX
  5
867
  8
DETAIL
  6
CONTINUOUS
 62
     5
 10
171.0
 20
-440.70562799999988
 30
0.0
  0
VERTEX
  5
868
  8
DETAIL
  6
CONTINUOUS
 62
     5
 10
171.873322
 20
-441.10747199999997
 30
0.0
  0
VERTEX
  5
869
  8
DETAIL
  6
CONTINUOUS
 62
     5
 10
172.95181199999999
 20
-441.44719900000001
 30
0.0
  0
VERTEX
  5
86A
  8
DETAIL
  6
CONTINUOUS
 62
     5
 10
174.19781800000001
 20
-441.71294999999992
 30
0.0
  0
VERTEX
  5
86B
  8
DETAIL
  6
CONTINUOUS
 62
     5
 10
175.5678399999999
 20
-441.895445
 30
0.0
  0
VERTEX
  5
86C
  8
DETAIL
  6
CONTINUOUS
 62
     5
 10
177.01404600000001
 20
-441.988315
 30
0.0
  0
VERTEX
  5
86D
  8
DETAIL
  6
CONTINUOUS
 62
     5
 10
178.48594600000001
 20
-441.988315
 30
0.0
  0
VERTEX
  5
86E
  8
DETAIL
  6
CONTINUOUS
 62
     5
 10
179.93215199999989
 20
-441.89544699999999
 30
0.0
  0
VERTEX
  5
86F
  8
DETAIL
  6
CONTINUOUS
 62
     5
 10
181.30217500000001
 20
-441.71295300000003
 30
0.0
  0
VERTEX
  5
870
  8
DETAIL
  6
CONTINUOUS
 62
     5
 10
182.54818299999999
 20
-441.44720299999989
 30
0.0
  0
VERTEX
  5
871
  8
DETAIL
  6
CONTINUOUS
 62
     5
 10
183.62667599999989
 20
-441.10747599999991
 30
0.0
  0
VERTEX
  5
872
  8
DETAIL
  6
CONTINUOUS
 62
     5
 10
184.5
 20
-440.70563299999992
 30
0.0
  0
SEQEND
  5
873
  8
DETAIL
  6
CONTINUOUS
 62
     5
  0
LINE
  5
63B
  8
DETAIL
  6
CONTINUOUS
 62
     5
 10
157.5
 20
-440.70563299999992
 30
0.0
 11
157.5
 21
-422.0
 31
0.0
  0
LINE
  5
63C
  8
DETAIL
  6
CONTINUOUS
 62
     5
 10
157.5
 20
-460.0
 30
0.0
 11
157.5
 21
-444.0
 31
0.0
  0
LINE
  5
63D
  8
DETAIL
  6
CONTINUOUS
 62
     5
 10
184.5
 20
-440.70563299999992
 30
0.0
 11
184.5
 21
-422.0
 31
0.0
  0
LINE
  5
63E
  8
DETAIL
  6
CONTINUOUS
 62
     5
 10
184.5
 20
-460.0
 30
0.0
 11
184.5
 21
-444.0
 31
0.0
  0
LINE
  5
63F
  8
DETAIL
  6
CONTINUOUS
 62
     5
 10
150.0
 20
-422.0
 30
0.0
 11
192.0
 21
-422.0
 31
0.0
  0
ARC
  5
640
  8
DETAIL
  6
CONTINUOUS
 62
     5
 10
192.92858200000001
 20
-397.39999599999999
 30
0.0
 40
3.9285830000000002
 50
180.0
 51
231.12137800000119
  0
ARC
  5
641
  8
DETAIL
  6
CONTINUOUS
 62
     5
 10
187.87115499999999
 20
-403.67252100000002
 30
0.0
 40
4.1288450000000001
 50
0.0
 51
51.121378000001137
  0
ARC
  5
642
  8
DETAIL
  6
CONTINUOUS
 62
     5
 10
117.871155
 20
-398.67252100000002
 30
0.0
 40
4.1288450000000001
 50
0.0
 51
51.121378000001137
  0
ARC
  5
643
  8
DETAIL
  6
CONTINUOUS
 62
     5
 10
154.1288449999999
 20
-403.67252100000002
 30
0.0
 40
4.1288450000000001
 50
128.8786219999987
 51
180.0
  0
ARC
  5
644
  8
DETAIL
  6
CONTINUOUS
 62
     5
 10
149.07141799999999
 20
-397.39999599999999
 30
0.0
 40
3.9285830000000002
 50
308.87862199999893
 51
0.0
  0
ENDSEC
  0
EOF
