  0
SECTION
  2
HEADER
  9
$ACADVER
  1
AC1009
  9
$INSBASE
 10
0.0
 20
0.0
 30
0.0
  9
$EXTMIN
 10
-1176.214454
 20
-547.808603
 30
0.0
  9
$EXTMAX
 10
1496.45965
 20
998.699363
 30
0.0
  9
$LIMMIN
 10
-6000.0
 20
-4500.0
  9
$LIMMAX
 10
6000.0
 20
4500.0
  9
$ORTHOMODE
 70
     0
  9
$REGENMODE
 70
     1
  9
$FILLMODE
 70
     1
  9
$QTEXTMODE
 70
     0
  9
$MIRRTEXT
 70
     0
  9
$DRAGMODE
 70
     2
  9
$LTSCALE
 40
20.0
  9
$OSMODE
 70
    37
  9
$ATTMODE
 70
     1
  9
$TEXTSIZE
 40
64.0
  9
$TRACEWID
 40
0.05
  9
$TEXTSTYLE
  7
STANDARD
  9
$CLAYER
  8
0
  9
$CELTYPE
  6
CONTINUOUS
  9
$CECOLOR
 62
     7
  9
$DIMSCALE
 40
1.0
  9
$DIMASZ
 40
10.0
  9
$DIMEXO
 40
20.0
  9
$DIMDLI
 40
200.0
  9
$DIMRND
 40
0.0
  9
$DIMDLE
 40
0.0
  9
$DIMEXE
 40
30.0
  9
$DIMTP
 40
0.0
  9
$DIMTM
 40
0.0
  9
$DIMTXT
 40
64.0
  9
$DIMCEN
 40
0.0
  9
$DIMTSZ
 40
0.0
  9
$DIMTOL
 70
     0
  9
$DIMLIM
 70
     0
  9
$DIMTIH
 70
     0
  9
$DIMTOH
 70
     0
  9
$DIMSE1
 70
     0
  9
$DIMSE2
 70
     0
  9
$DIMTAD
 70
     1
  9
$DIMZIN
 70
     8
  9
$DIMBLK
  1

  9
$DIMASO
 70
     1
  9
$DIMSHO
 70
     0
  9
$DIMPOST
  1

  9
$DIMAPOST
  1

  9
$DIMALT
 70
     0
  9
$DIMALTD
 70
     2
  9
$DIMALTF
 40
25.4
  9
$DIMLFAC
 40
1.0
  9
$DIMTOFL
 70
     1
  9
$DIMTVP
 40
0.0
  9
$DIMTIX
 70
     1
  9
$DIMSOXD
 70
     0
  9
$DIMSAH
 70
     1
  9
$DIMBLK1
  1
_DOTBLANK
  9
$DIMBLK2
  1
_DOTBLANK
  9
$DIMSTYLE
  2
STANDARD
  9
$DIMCLRD
 70
     0
  9
$DIMCLRE
 70
     0
  9
$DIMCLRT
 70
     0
  9
$DIMTFAC
 40
1.0
  9
$DIMGAP
 40
0.09
  9
$LUNITS
 70
     2
  9
$LUPREC
 70
     4
  9
$SKETCHINC
 40
0.1
  9
$FILLETRAD
 40
20.0
  9
$AUNITS
 70
     1
  9
$AUPREC
 70
     3
  9
$MENU
  1
ACAD
  9
$ELEVATION
 40
0.0
  9
$PELEVATION
 40
0.0
  9
$THICKNESS
 40
0.0
  9
$LIMCHECK
 70
     0
  9
$BLIPMODE
 70
     0
  9
$CHAMFERA
 40
0.0
  9
$CHAMFERB
 40
0.0
  9
$SKPOLY
 70
     0
  9
$TDCREATE
 40
2450330.439931
  9
$TDUPDATE
 40
2452418.677428
  9
$TDINDWG
 40
1.338552
  9
$TDUSRTIMER
 40
1.338552
  9
$USRTIMER
 70
     1
  9
$ANGBASE
 50
0.0
  9
$ANGDIR
 70
     0
  9
$PDMODE
 70
     3
  9
$PDSIZE
 40
-2.0
  9
$PLINEWID
 40
0.0
  9
$COORDS
 70
     2
  9
$SPLFRAME
 70
     0
  9
$SPLINETYPE
 70
     6
  9
$SPLINESEGS
 70
     8
  9
$ATTDIA
 70
     0
  9
$ATTREQ
 70
     1
  9
$HANDLING
 70
     1
  9
$HANDSEED
  5
12B
  9
$SURFTAB1
 70
     6
  9
$SURFTAB2
 70
     6
  9
$SURFTYPE
 70
     6
  9
$SURFU
 70
     6
  9
$SURFV
 70
     6
  9
$UCSNAME
  2

  9
$UCSORG
 10
0.0
 20
0.0
 30
0.0
  9
$UCSXDIR
 10
1.0
 20
0.0
 30
0.0
  9
$UCSYDIR
 10
0.0
 20
1.0
 30
0.0
  9
$PUCSNAME
  2

  9
$PUCSORG
 10
0.0
 20
0.0
 30
0.0
  9
$PUCSXDIR
 10
1.0
 20
0.0
 30
0.0
  9
$PUCSYDIR
 10
0.0
 20
1.0
 30
0.0
  9
$USERI1
 70
     0
  9
$USERI2
 70
     0
  9
$USERI3
 70
     0
  9
$USERI4
 70
     0
  9
$USERI5
 70
     0
  9
$USERR1
 40
20.0
  9
$USERR2
 40
0.0
  9
$USERR3
 40
0.0
  9
$USERR4
 40
0.0
  9
$USERR5
 40
0.0
  9
$WORLDVIEW
 70
     1
  9
$SHADEDGE
 70
     3
  9
$SHADEDIF
 70
    70
  9
$TILEMODE
 70
     1
  9
$MAXACTVP
 70
    48
  9
$PLIMCHECK
 70
     0
  9
$PEXTMIN
 10
1.000000E+020
 20
1.000000E+020
 30
1.000000E+020
  9
$PEXTMAX
 10
-1.000000E+020
 20
-1.000000E+020
 30
-1.000000E+020
  9
$PLIMMIN
 10
0.0
 20
0.0
  9
$PLIMMAX
 10
12.0
 20
9.0
  9
$UNITMODE
 70
     0
  9
$VISRETAIN
 70
     1
  9
$PLINEGEN
 70
     0
  9
$PSLTSCALE
 70
     1
  0
ENDSEC
  0
SECTION
  2
TABLES
  0
TABLE
  2
VPORT
 70
     2
  0
VPORT
  2
*ACTIVE
 70
     0
 10
0.0
 20
0.0
 11
1.0
 21
1.0
 12
2045.454545
 22
0.0
 13
0.0
 23
0.0
 14
50.0
 24
50.0
 15
100.0
 25
100.0
 16
0.0
 26
0.0
 36
1.0
 17
0.0
 27
0.0
 37
0.0
 40
9000.0
 41
1.787879
 42
50.0
 43
0.0
 44
0.0
 50
0.0
 51
0.0
 71
     0
 72
  1000
 73
     1
 74
     0
 75
     0
 76
     0
 77
     0
 78
     0
  0
ENDTAB
  0
TABLE
  2
LTYPE
 70
     2
  0
LTYPE
  2
CONTINUOUS
 70
     0
  3
実線
 72
    65
 73
     0
 40
0.0
  0
LTYPE
  2
DASHDOT
 70
     0
  3
____ _ ____ _ ____ _ ____ _ ____ _ ____ _ ____
 72
    65
 73
     4
 40
5.5
 49
4.0
 49
-0.6
 49
0.3
 49
-0.6
  0
ENDTAB
  0
TABLE
  2
LAYER
 70
    12
  0
LAYER
  2
0
 70
     0
 62
     7
  6
CONTINUOUS
  0
LAYER
  2
OUTLINE
 70
     0
 62
     3
  6
CONTINUOUS
  0
LAYER
  2
DETAIL
 70
     0
 62
     5
  6
CONTINUOUS
  0
LAYER
  2
BASIS
 70
     0
 62
     6
  6
DASHDOT
  0
LAYER
  2
SIZE
 70
     0
 62
    30
  6
CONTINUOUS
  0
LAYER
  2
NOTE
 70
     0
 62
     4
  6
CONTINUOUS
  0
LAYER
  2
ARRANGE
 70
     0
 62
     1
  6
CONTINUOUS
  0
LAYER
  2
FIX
 70
     0
 62
    11
  6
CONTINUOUS
  0
LAYER
  2
SERVICESPACE
 70
     0
 62
     2
  6
DASHDOT
  0
LAYER
  2
ETC
 70
     0
 62
    61
  6
CONTINUOUS
  0
LAYER
  2
SYMBOLLINE
 70
     0
 62
    15
  6
CONTINUOUS
  0
LAYER
  2
DEFPOINTS
 70
     0
 62
     7
  6
CONTINUOUS
  0
ENDTAB
  0
TABLE
  2
STYLE
 70
     1
  0
STYLE
  2
STANDARD
 70
     0
 40
0.0
 41
0.9
 50
0.0
 71
     0
 42
64.0
  3
SIMPLEX
  4
BIGFONT
  0
ENDTAB
  0
TABLE
  2
VIEW
 70
     1
  0
VIEW
  2
ALL
 70
     0
 40
9000.0
 10
241.506647
 20
0.0
 41
12483.01
 11
0.0
 21
0.0
 31
1.0
 12
0.0
 22
0.0
 32
0.0
 42
50.0
 43
0.0
 44
0.0
 50
0.0
 71
     0
  0
ENDTAB
  0
TABLE
  2
UCS
 70
     0
  0
ENDTAB
  0
TABLE
  2
APPID
 70
     1
  0
APPID
  2
ACAD
 70
     0
  0
ENDTAB
  0
TABLE
  2
DIMSTYLE
 70
     1
  0
DIMSTYLE
  2
STANDARD
 70
     0
  3

  4

  5

  6

  7

 40
1.0
 41
0.18
 42
0.0625
 43
0.38
 44
0.18
 45
0.0
 46
0.0
 47
0.0
 48
0.0
140
0.18
141
0.09
142
0.0
143
25.4
144
1.0
145
0.0
146
1.0
147
0.09
 71
     0
 72
     0
 73
     1
 74
     1
 75
     0
 76
     0
 77
     0
 78
     0
170
     0
171
     2
172
     0
173
     0
174
     0
175
     0
176
     0
177
     0
178
     0
  0
ENDTAB
  0
ENDSEC
  0
SECTION
  2
BLOCKS
  0
BLOCK
  8
0
  2
$MODEL_SPACE
 70
     0
 10
0.0
 20
0.0
 30
0.0
  3
$MODEL_SPACE
  1

  0
ENDBLK
  5
10F
  8
0
  0
BLOCK
 67
     1
  8
0
  2
$PAPER_SPACE
 70
     0
 10
0.0
 20
0.0
 30
0.0
  3
$PAPER_SPACE
  1

  0
ENDBLK
  5
10C
 67
     1
  8
0
  0
BLOCK
  8
0
  2
_DOTBLANK
 70
     0
 10
0.0
 20
0.0
 30
0.0
  3
_DOTBLANK
  1

  0
CIRCLE
  5
30
  8
0
  6
CONTINUOUS
 62
     7
 10
0.0
 20
0.0
 30
0.0
 40
0.5
  0
LINE
  5
31
  8
0
  6
CONTINUOUS
 62
     7
 10
-0.5
 20
0.0
 30
0.0
 11
-1.0
 21
0.0
 31
0.0
  0
ENDBLK
  5
32
  8
0
  0
ENDSEC
  0
SECTION
  2
ENTITIES
  0
TEXT
  5
33
  8
ETC
  6
CONTINUOUS
 62
    61
 10
412.796144
 20
-547.808603
 30
0.0
 40
64.0
  1
シティマルチ室内機
 41
0.9
  0
TEXT
  5
34
  8
ETC
  6
CONTINUOUS
 62
    61
 10
415.773936
 20
-443.584045
 30
0.0
 40
64.0
  1
PLFY-P22_45LMDH-E_3
 41
0.9
  0
LINE
  5
35
  8
DETAIL
  6
CONTINUOUS
 62
     5
 10
-317.0
 20
338.0
 30
0.0
 11
317.0
 21
338.0
 31
0.0
  0
LINE
  5
36
  8
DETAIL
  6
CONTINUOUS
 62
     5
 10
-355.0
 20
0.0
 30
0.0
 11
355.0
 21
0.0
 31
0.0
  0
LINE
  5
37
  8
DETAIL
  6
CONTINUOUS
 62
     5
 10
-317.0
 20
45.0
 30
0.0
 11
317.0
 21
45.0
 31
0.0
  0
LINE
  5
38
  8
DETAIL
  6
CONTINUOUS
 62
     5
 10
-317.0
 20
48.0
 30
0.0
 11
317.0
 21
48.0
 31
0.0
  0
LINE
  5
39
  8
DETAIL
  6
CONTINUOUS
 62
     5
 10
317.0
 20
0.0
 30
0.0
 11
317.0
 21
338.0
 31
0.0
  0
TEXT
  5
3A
  8
NOTE
  6
CONTINUOUS
 62
     4
 10
376.800766
 20
191.747327
 30
0.0
 40
64.0
  1
AH
 41
0.9
  0
LINE
  5
3B
  8
NOTE
  6
CONTINUOUS
 62
     4
 10
368.397546
 20
182.835742
 30
0.0
 11
487.883778
 21
182.835742
 31
0.0
  0
LINE
  5
3C
  8
DETAIL
  6
CONTINUOUS
 62
     5
 10
312.0
 20
108.0
 30
0.0
 11
262.0
 21
108.0
 31
0.0
  0
LINE
  5
3D
  8
DETAIL
  6
CONTINUOUS
 62
     5
 10
312.0
 20
138.0
 30
0.0
 11
262.0
 21
138.0
 31
0.0
  0
LINE
  5
3E
  8
DETAIL
  6
CONTINUOUS
 62
     5
 10
312.0
 20
148.0
 30
0.0
 11
262.0
 21
148.0
 31
0.0
  0
LINE
  5
3F
  8
NOTE
  6
CONTINUOUS
 62
     4
 10
307.0
 20
148.0
 30
0.0
 11
267.0
 21
148.0
 31
0.0
  0
LINE
  5
40
  8
NOTE
  6
CONTINUOUS
 62
     4
 10
287.0
 20
128.0
 30
0.0
 11
287.0
 21
168.0
 31
0.0
  0
POLYLINE
  5
41
  8
NOTE
  6
CONTINUOUS
 62
     4
 66
     1
 10
0.0
 20
0.0
 30
0.0
  0
VERTEX
  5
42
  8
NOTE
  6
CONTINUOUS
 62
     4
 10
326.503002
 20
154.285922
 30
0.0
  0
VERTEX
  5
43
  8
NOTE
  6
CONTINUOUS
 62
     4
 10
287.0
 20
148.0
 30
0.0
  0
VERTEX
  5
44
  8
NOTE
  6
CONTINUOUS
 62
     4
 10
318.067642
 20
173.195269
 30
0.0
  0
SEQEND
  5
45
  8
NOTE
  6
CONTINUOUS
 62
     4
  0
LINE
  5
46
  8
NOTE
  6
CONTINUOUS
 62
     4
 10
287.0
 20
148.0
 30
0.0
 11
368.397546
 21
182.835742
 31
0.0
  0
LINE
  5
47
  8
DETAIL
  6
CONTINUOUS
 62
     5
 10
312.0
 20
108.0
 30
0.0
 11
312.0
 21
148.0
 31
0.0
  0
CIRCLE
  5
48
  8
FIX
  6
CONTINUOUS
 62
    11
 10
287.0
 20
148.0
 30
0.0
 40
5.0
  0
LINE
  5
49
  8
NOTE
  6
CONTINUOUS
 62
     4
 10
307.0
 20
148.0
 30
0.0
 11
267.0
 21
148.0
 31
0.0
  0
LINE
  5
4A
  8
DETAIL
  6
CONTINUOUS
 62
     5
 10
262.0
 20
108.0
 30
0.0
 11
262.0
 21
148.0
 31
0.0
  0
LINE
  5
4B
  8
SIZE
  6
CONTINUOUS
 62
    30
 10
-323.0
 20
48.0
 30
0.0
 11
-564.517816
 21
48.0
 31
0.0
  0
CIRCLE
  5
4C
  8
ARRANGE
  6
CONTINUOUS
 62
     1
 10
0.0
 20
0.0
 30
0.0
 40
40.0
  0
LINE
  5
4D
  8
DETAIL
  6
CONTINUOUS
 62
     5
 10
-317.0
 20
0.0
 30
0.0
 11
-317.0
 21
338.0
 31
0.0
  0
LINE
  5
4E
  8
BASIS
  6
DASHDOT
 62
     6
 10
0.0
 20
-65.755581
 30
0.0
 11
0.0
 21
414.217275
 31
0.0
  0
POINT
  5
4F
  8
ARRANGE
  6
CONTINUOUS
 62
     1
 10
0.0
 20
0.0
 30
0.0
  0
TEXT
  5
50
  8
NOTE
  6
CONTINUOUS
 62
     4
 10
-529.403608
 20
263.683059
 30
0.0
 40
64.0
  1
AH
 41
0.9
  0
LINE
  5
51
  8
NOTE
  6
CONTINUOUS
 62
     4
 10
-537.806827
 20
254.771474
 30
0.0
 11
-418.320596
 21
254.771474
 31
0.0
  0
LINE
  5
52
  8
NOTE
  6
CONTINUOUS
 62
     4
 10
-267.0
 20
148.0
 30
0.0
 11
-307.0
 21
148.0
 31
0.0
  0
LINE
  5
53
  8
NOTE
  6
CONTINUOUS
 62
     4
 10
-287.0
 20
128.0
 30
0.0
 11
-287.0
 21
168.0
 31
0.0
  0
POLYLINE
  5
54
  8
NOTE
  6
CONTINUOUS
 62
     4
 66
     1
 10
0.0
 20
0.0
 30
0.0
  0
VERTEX
  5
55
  8
NOTE
  6
CONTINUOUS
 62
     4
 10
-310.501231
 20
180.368073
 30
0.0
  0
VERTEX
  5
56
  8
NOTE
  6
CONTINUOUS
 62
     4
 10
-287.0
 20
148.0
 30
0.0
  0
VERTEX
  5
57
  8
NOTE
  6
CONTINUOUS
 62
     4
 10
-323.5367
 20
164.280958
 30
0.0
  0
SEQEND
  5
58
  8
NOTE
  6
CONTINUOUS
 62
     4
  0
LINE
  5
59
  8
NOTE
  6
CONTINUOUS
 62
     4
 10
-287.0
 20
148.0
 30
0.0
 11
-418.320596
 21
254.771474
 31
0.0
  0
LINE
  5
5A
  8
DETAIL
  6
CONTINUOUS
 62
     5
 10
-262.0
 20
138.0
 30
0.0
 11
-312.0
 21
138.0
 31
0.0
  0
LINE
  5
5B
  8
DETAIL
  6
CONTINUOUS
 62
     5
 10
-262.0
 20
108.0
 30
0.0
 11
-312.0
 21
108.0
 31
0.0
  0
LINE
  5
5C
  8
DETAIL
  6
CONTINUOUS
 62
     5
 10
-262.0
 20
148.0
 30
0.0
 11
-312.0
 21
148.0
 31
0.0
  0
LINE
  5
5D
  8
DETAIL
  6
CONTINUOUS
 62
     5
 10
-312.0
 20
108.0
 30
0.0
 11
-312.0
 21
148.0
 31
0.0
  0
LINE
  5
5E
  8
DETAIL
  6
CONTINUOUS
 62
     5
 10
-262.0
 20
108.0
 30
0.0
 11
-262.0
 21
148.0
 31
0.0
  0
CIRCLE
  5
5F
  8
FIX
  6
CONTINUOUS
 62
    11
 10
-287.0
 20
148.0
 30
0.0
 40
5.0
  0
LINE
  5
60
  8
NOTE
  6
CONTINUOUS
 62
     4
 10
-267.0
 20
148.0
 30
0.0
 11
-307.0
 21
148.0
 31
0.0
  0
LINE
  5
61
  8
NOTE
  6
CONTINUOUS
 62
     4
 10
-267.0
 20
148.0
 30
0.0
 11
-307.0
 21
148.0
 31
0.0
  0
LINE
  5
62
  8
SIZE
  6
CONTINUOUS
 62
    30
 10
317.0
 20
358.0
 30
0.0
 11
317.0
 21
811.099449
 31
0.0
  0
LINE
  5
63
  8
SIZE
  6
CONTINUOUS
 62
    30
 10
-317.0
 20
358.0
 30
0.0
 11
-317.0
 21
811.099449
 31
0.0
  0
LINE
  5
64
  8
SIZE
  6
CONTINUOUS
 62
    30
 10
307.0
 20
781.099449
 30
0.0
 11
-307.0
 21
781.099449
 31
0.0
  0
CIRCLE
  5
65
  8
SIZE
  6
CONTINUOUS
 62
    30
 10
317.0
 20
781.099449
 30
0.0
 40
5.0
  0
LINE
  5
66
  8
SIZE
  6
CONTINUOUS
 62
    30
 10
312.0
 20
781.099449
 30
0.0
 11
307.0
 21
781.099449
 31
0.0
  0
CIRCLE
  5
67
  8
SIZE
  6
CONTINUOUS
 62
    30
 10
-317.0
 20
781.099449
 30
0.0
 40
5.0
  0
LINE
  5
68
  8
SIZE
  6
CONTINUOUS
 62
    30
 10
-312.0
 20
781.099449
 30
0.0
 11
-307.0
 21
781.099449
 31
0.0
  0
TEXT
  5
69
  8
SIZE
  6
CONTINUOUS
 62
    30
 10
-75.428571
 20
801.099449
 30
0.0
 40
64.0
  1
634
 41
0.9
 72
     1
 11
0.0
 21
801.099449
 31
0.0
  0
POINT
  5
6A
  8
DEFPOINTS
  6
CONTINUOUS
 62
     7
 10
317.0
 20
338.0
 30
0.0
  0
POINT
  5
6B
  8
DEFPOINTS
  6
CONTINUOUS
 62
     7
 10
-317.0
 20
338.0
 30
0.0
  0
POINT
  5
6C
  8
DEFPOINTS
  6
CONTINUOUS
 62
     7
 10
-317.0
 20
781.099449
 30
0.0
  0
LINE
  5
6D
  8
SIZE
  6
CONTINUOUS
 62
    30
 10
-337.0
 20
338.0
 30
0.0
 11
-983.644177
 21
338.0
 31
0.0
  0
LINE
  5
6E
  8
SIZE
  6
CONTINUOUS
 62
    30
 10
-320.0
 20
148.0
 30
0.0
 11
-983.644177
 21
148.0
 31
0.0
  0
LINE
  5
6F
  8
SIZE
  6
CONTINUOUS
 62
    30
 10
-953.644177
 20
328.0
 30
0.0
 11
-953.644177
 21
158.0
 31
0.0
  0
CIRCLE
  5
70
  8
SIZE
  6
CONTINUOUS
 62
    30
 10
-953.644177
 20
338.0
 30
0.0
 40
5.0
  0
LINE
  5
71
  8
SIZE
  6
CONTINUOUS
 62
    30
 10
-953.644177
 20
333.0
 30
0.0
 11
-953.644177
 21
328.0
 31
0.0
  0
CIRCLE
  5
72
  8
SIZE
  6
CONTINUOUS
 62
    30
 10
-953.644177
 20
148.0
 30
0.0
 40
5.0
  0
LINE
  5
73
  8
SIZE
  6
CONTINUOUS
 62
    30
 10
-953.644177
 20
153.0
 30
0.0
 11
-953.644177
 21
158.0
 31
0.0
  0
TEXT
  5
74
  8
SIZE
  6
CONTINUOUS
 62
    30
 10
-973.644177
 20
174.428571
 30
0.0
 40
64.0
  1
190
 50
90.0
 41
0.9
 72
     1
 11
-973.644177
 21
243.0
 31
0.0
  0
POINT
  5
75
  8
DEFPOINTS
  6
CONTINUOUS
 62
     7
 10
-317.0
 20
338.0
 30
0.0
  0
POINT
  5
76
  8
DEFPOINTS
  6
CONTINUOUS
 62
     7
 10
-300.0
 20
148.0
 30
0.0
  0
POINT
  5
77
  8
DEFPOINTS
  6
CONTINUOUS
 62
     7
 10
-953.644177
 20
148.0
 30
0.0
  0
LINE
  5
78
  8
SIZE
  6
CONTINUOUS
 62
    30
 10
-337.0
 20
338.0
 30
0.0
 11
-1122.214454
 21
338.0
 31
0.0
  0
LINE
  5
79
  8
SIZE
  6
CONTINUOUS
 62
    30
 10
-323.0
 20
48.0
 30
0.0
 11
-1122.214454
 21
48.0
 31
0.0
  0
LINE
  5
7A
  8
SIZE
  6
CONTINUOUS
 62
    30
 10
-1092.214454
 20
328.0
 30
0.0
 11
-1092.214454
 21
58.0
 31
0.0
  0
CIRCLE
  5
7B
  8
SIZE
  6
CONTINUOUS
 62
    30
 10
-1092.214454
 20
338.0
 30
0.0
 40
5.0
  0
LINE
  5
7C
  8
SIZE
  6
CONTINUOUS
 62
    30
 10
-1092.214454
 20
333.0
 30
0.0
 11
-1092.214454
 21
328.0
 31
0.0
  0
CIRCLE
  5
7D
  8
SIZE
  6
CONTINUOUS
 62
    30
 10
-1092.214454
 20
48.0
 30
0.0
 40
5.0
  0
LINE
  5
7E
  8
SIZE
  6
CONTINUOUS
 62
    30
 10
-1092.214454
 20
53.0
 30
0.0
 11
-1092.214454
 21
58.0
 31
0.0
  0
TEXT
  5
7F
  8
SIZE
  6
CONTINUOUS
 62
    30
 10
-1112.214454
 20
118.942857
 30
0.0
 40
64.0
  1
290
 50
90.0
 41
0.9
 72
     1
 11
-1112.214454
 21
193.0
 31
0.0
  0
POINT
  5
80
  8
DEFPOINTS
  6
CONTINUOUS
 62
     7
 10
-317.0
 20
338.0
 30
0.0
  0
POINT
  5
81
  8
DEFPOINTS
  6
CONTINUOUS
 62
     7
 10
-303.0
 20
48.0
 30
0.0
  0
POINT
  5
82
  8
DEFPOINTS
  6
CONTINUOUS
 62
     7
 10
-1092.214454
 20
48.0
 30
0.0
  0
LINE
  5
83
  8
SIZE
  6
CONTINUOUS
 62
    30
 10
-355.0
 20
0.0
 30
0.0
 11
-680.724613
 21
0.0
 31
0.0
  0
LINE
  5
84
  8
SIZE
  6
CONTINUOUS
 62
    30
 10
-307.0
 20
-20.0
 30
0.0
 11
-680.724613
 21
-20.0
 31
0.0
  0
LINE
  5
85
  8
SIZE
  6
CONTINUOUS
 62
    30
 10
-650.724613
 20
10.0
 30
0.0
 11
-650.724613
 21
20.0
 31
0.0
  0
LINE
  5
86
  8
SIZE
  6
CONTINUOUS
 62
    30
 10
-650.724613
 20
-30.0
 30
0.0
 11
-650.724613
 21
-40.0
 31
0.0
  0
LINE
  5
87
  8
SIZE
  6
CONTINUOUS
 62
    30
 10
-650.724613
 20
0.0
 30
0.0
 11
-650.724613
 21
-20.0
 31
0.0
  0
CIRCLE
  5
88
  8
SIZE
  6
CONTINUOUS
 62
    30
 10
-650.724613
 20
0.0
 30
0.0
 40
5.0
  0
LINE
  5
89
  8
SIZE
  6
CONTINUOUS
 62
    30
 10
-650.724613
 20
5.0
 30
0.0
 11
-650.724613
 21
10.0
 31
0.0
  0
CIRCLE
  5
8A
  8
SIZE
  6
CONTINUOUS
 62
    30
 10
-650.724613
 20
-20.0
 30
0.0
 40
5.0
  0
LINE
  5
8B
  8
SIZE
  6
CONTINUOUS
 62
    30
 10
-650.724613
 20
-25.0
 30
0.0
 11
-650.724613
 21
-30.0
 31
0.0
  0
TEXT
  5
8C
  8
SIZE
  6
CONTINUOUS
 62
    30
 10
-670.724613
 20
-56.628571
 30
0.0
 40
64.0
  1
20
 50
90.0
 41
0.9
 72
     1
 11
-670.724613
 21
-10.0
 31
0.0
  0
POINT
  5
8D
  8
DEFPOINTS
  6
CONTINUOUS
 62
     7
 10
-335.0
 20
0.0
 30
0.0
  0
POINT
  5
8E
  8
DEFPOINTS
  6
CONTINUOUS
 62
     7
 10
-287.0
 20
-20.0
 30
0.0
  0
POINT
  5
8F
  8
DEFPOINTS
  6
CONTINUOUS
 62
     7
 10
-650.724613
 20
-20.0
 30
0.0
  0
LINE
  5
90
  8
DETAIL
  6
CONTINUOUS
 62
     5
 10
-287.0
 20
-20.0
 30
0.0
 11
287.0
 21
-20.0
 31
0.0
  0
ARC
  5
91
  8
DETAIL
  6
CONTINUOUS
 62
     5
 10
266.907662
 20
173.91395
 30
0.0
 40
194.952102
 50
275.915576
 51
296.863505
  0
ARC
  5
92
  8
DETAIL
  6
CONTINUOUS
 62
     5
 10
-266.907662
 20
173.91395
 30
0.0
 40
194.952102
 50
243.136495
 51
264.084424
  0
LINE
  5
93
  8
SIZE
  6
CONTINUOUS
 62
    30
 10
337.0
 20
45.0
 30
0.0
 11
585.089829
 21
45.0
 31
0.0
  0
LINE
  5
94
  8
SIZE
  6
CONTINUOUS
 62
    30
 10
375.0
 20
0.0
 30
0.0
 11
585.089829
 21
0.0
 31
0.0
  0
LINE
  5
95
  8
SIZE
  6
CONTINUOUS
 62
    30
 10
555.089829
 20
55.0
 30
0.0
 11
555.089829
 21
65.0
 31
0.0
  0
LINE
  5
96
  8
SIZE
  6
CONTINUOUS
 62
    30
 10
555.089829
 20
-10.0
 30
0.0
 11
555.089829
 21
-20.0
 31
0.0
  0
LINE
  5
97
  8
SIZE
  6
CONTINUOUS
 62
    30
 10
555.089829
 20
45.0
 30
0.0
 11
555.089829
 21
0.0
 31
0.0
  0
CIRCLE
  5
98
  8
SIZE
  6
CONTINUOUS
 62
    30
 10
555.089829
 20
45.0
 30
0.0
 40
5.0
  0
LINE
  5
99
  8
SIZE
  6
CONTINUOUS
 62
    30
 10
555.089829
 20
50.0
 30
0.0
 11
555.089829
 21
55.0
 31
0.0
  0
CIRCLE
  5
9A
  8
SIZE
  6
CONTINUOUS
 62
    30
 10
555.089829
 20
0.0
 30
0.0
 40
5.0
  0
LINE
  5
9B
  8
SIZE
  6
CONTINUOUS
 62
    30
 10
555.089829
 20
-5.0
 30
0.0
 11
555.089829
 21
-10.0
 31
0.0
  0
TEXT
  5
9C
  8
SIZE
  6
CONTINUOUS
 62
    30
 10
535.089829
 20
-24.128571
 30
0.0
 40
64.0
  1
45
 50
90.0
 41
0.9
 72
     1
 11
535.089829
 21
22.5
 31
0.0
  0
POINT
  5
9D
  8
DEFPOINTS
  6
CONTINUOUS
 62
     7
 10
317.0
 20
45.0
 30
0.0
  0
POINT
  5
9E
  8
DEFPOINTS
  6
CONTINUOUS
 62
     7
 10
355.0
 20
0.0
 30
0.0
  0
POINT
  5
9F
  8
DEFPOINTS
  6
CONTINUOUS
 62
     7
 10
555.089829
 20
0.0
 30
0.0
  0
LINE
  5
A0
  8
SIZE
  6
CONTINUOUS
 62
    30
 10
355.0
 20
-20.0
 30
0.0
 11
355.0
 21
-261.566474
 31
0.0
  0
LINE
  5
A1
  8
SIZE
  6
CONTINUOUS
 62
    30
 10
335.0
 20
-40.0
 30
0.0
 11
335.0
 21
-261.566474
 31
0.0
  0
LINE
  5
A2
  8
SIZE
  6
CONTINUOUS
 62
    30
 10
325.0
 20
-231.566474
 30
0.0
 11
315.0
 21
-231.566474
 31
0.0
  0
LINE
  5
A3
  8
SIZE
  6
CONTINUOUS
 62
    30
 10
365.0
 20
-231.566474
 30
0.0
 11
515.112971
 21
-231.566474
 31
0.0
  0
LINE
  5
A4
  8
SIZE
  6
CONTINUOUS
 62
    30
 10
335.0
 20
-231.566474
 30
0.0
 11
355.0
 21
-231.566474
 31
0.0
  0
CIRCLE
  5
A5
  8
SIZE
  6
CONTINUOUS
 62
    30
 10
335.0
 20
-231.566474
 30
0.0
 40
5.0
  0
LINE
  5
A6
  8
SIZE
  6
CONTINUOUS
 62
    30
 10
330.0
 20
-231.566474
 30
0.0
 11
325.0
 21
-231.566474
 31
0.0
  0
CIRCLE
  5
A7
  8
SIZE
  6
CONTINUOUS
 62
    30
 10
355.0
 20
-231.566474
 30
0.0
 40
5.0
  0
LINE
  5
A8
  8
SIZE
  6
CONTINUOUS
 62
    30
 10
360.0
 20
-231.566474
 30
0.0
 11
365.0
 21
-231.566474
 31
0.0
  0
TEXT
  5
A9
  8
SIZE
  6
CONTINUOUS
 62
    30
 10
401.855829
 20
-211.566474
 30
0.0
 40
64.0
  1
20
 41
0.9
 72
     1
 11
448.4844
 21
-211.566474
 31
0.0
  0
POINT
  5
AA
  8
DEFPOINTS
  6
CONTINUOUS
 62
     7
 10
355.0
 20
0.0
 30
0.0
  0
POINT
  5
AB
  8
DEFPOINTS
  6
CONTINUOUS
 62
     7
 10
335.0
 20
-20.0
 30
0.0
  0
POINT
  5
AC
  8
DEFPOINTS
  6
CONTINUOUS
 62
     7
 10
335.0
 20
-231.566474
 30
0.0
  0
LINE
  5
AD
  8
SIZE
  6
CONTINUOUS
 62
    30
 10
-355.0
 20
-20.0
 30
0.0
 11
-355.0
 21
-261.566474
 31
0.0
  0
LINE
  5
AE
  8
SIZE
  6
CONTINUOUS
 62
    30
 10
-335.0
 20
-48.0
 30
0.0
 11
-335.0
 21
-261.566474
 31
0.0
  0
LINE
  5
AF
  8
SIZE
  6
CONTINUOUS
 62
    30
 10
-325.0
 20
-231.566474
 30
0.0
 11
-315.0
 21
-231.566474
 31
0.0
  0
LINE
  5
B0
  8
SIZE
  6
CONTINUOUS
 62
    30
 10
-365.0
 20
-231.566474
 30
0.0
 11
-526.927793
 21
-231.566474
 31
0.0
  0
LINE
  5
B1
  8
SIZE
  6
CONTINUOUS
 62
    30
 10
-335.0
 20
-231.566474
 30
0.0
 11
-355.0
 21
-231.566474
 31
0.0
  0
CIRCLE
  5
B2
  8
SIZE
  6
CONTINUOUS
 62
    30
 10
-335.0
 20
-231.566474
 30
0.0
 40
5.0
  0
LINE
  5
B3
  8
SIZE
  6
CONTINUOUS
 62
    30
 10
-330.0
 20
-231.566474
 30
0.0
 11
-325.0
 21
-231.566474
 31
0.0
  0
CIRCLE
  5
B4
  8
SIZE
  6
CONTINUOUS
 62
    30
 10
-355.0
 20
-231.566474
 30
0.0
 40
5.0
  0
LINE
  5
B5
  8
SIZE
  6
CONTINUOUS
 62
    30
 10
-360.0
 20
-231.566474
 30
0.0
 11
-365.0
 21
-231.566474
 31
0.0
  0
TEXT
  5
B6
  8
SIZE
  6
CONTINUOUS
 62
    30
 10
-506.927792
 20
-211.566474
 30
0.0
 40
64.0
  1
20
 41
0.9
 72
     1
 11
-460.299221
 21
-211.566474
 31
0.0
  0
POINT
  5
B7
  8
DEFPOINTS
  6
CONTINUOUS
 62
     7
 10
-355.0
 20
0.0
 30
0.0
  0
POINT
  5
B8
  8
DEFPOINTS
  6
CONTINUOUS
 62
     7
 10
-335.0
 20
-28.0
 30
0.0
  0
POINT
  5
B9
  8
DEFPOINTS
  6
CONTINUOUS
 62
     7
 10
-335.0
 20
-231.566474
 30
0.0
  0
LINE
  5
BA
  8
SIZE
  6
CONTINUOUS
 62
    30
 10
355.0
 20
20.0
 30
0.0
 11
355.0
 21
927.97224
 31
0.0
  0
LINE
  5
BB
  8
SIZE
  6
CONTINUOUS
 62
    30
 10
287.0
 20
188.0
 30
0.0
 11
287.0
 21
927.97224
 31
0.0
  0
LINE
  5
BC
  8
SIZE
  6
CONTINUOUS
 62
    30
 10
345.0
 20
897.97224
 30
0.0
 11
297.0
 21
897.97224
 31
0.0
  0
CIRCLE
  5
BD
  8
SIZE
  6
CONTINUOUS
 62
    30
 10
355.0
 20
897.97224
 30
0.0
 40
5.0
  0
LINE
  5
BE
  8
SIZE
  6
CONTINUOUS
 62
    30
 10
350.0
 20
897.97224
 30
0.0
 11
345.0
 21
897.97224
 31
0.0
  0
CIRCLE
  5
BF
  8
SIZE
  6
CONTINUOUS
 62
    30
 10
287.0
 20
897.97224
 30
0.0
 40
5.0
  0
LINE
  5
C0
  8
SIZE
  6
CONTINUOUS
 62
    30
 10
292.0
 20
897.97224
 30
0.0
 11
297.0
 21
897.97224
 31
0.0
  0
TEXT
  5
C1
  8
SIZE
  6
CONTINUOUS
 62
    30
 10
274.371429
 20
917.97224
 30
0.0
 40
64.0
  1
68
 41
0.9
 72
     1
 11
321.0
 21
917.97224
 31
0.0
  0
POINT
  5
C2
  8
DEFPOINTS
  6
CONTINUOUS
 62
     7
 10
355.0
 20
0.0
 30
0.0
  0
POINT
  5
C3
  8
DEFPOINTS
  6
CONTINUOUS
 62
     7
 10
287.0
 20
168.0
 30
0.0
  0
POINT
  5
C4
  8
DEFPOINTS
  6
CONTINUOUS
 62
     7
 10
287.0
 20
897.97224
 30
0.0
  0
LINE
  5
C5
  8
SIZE
  6
CONTINUOUS
 62
    30
 10
-287.0
 20
188.0
 30
0.0
 11
-287.0
 21
929.070002
 31
0.0
  0
LINE
  5
C6
  8
SIZE
  6
CONTINUOUS
 62
    30
 10
-355.0
 20
20.0
 30
0.0
 11
-355.0
 21
929.070002
 31
0.0
  0
LINE
  5
C7
  8
SIZE
  6
CONTINUOUS
 62
    30
 10
-297.0
 20
899.070002
 30
0.0
 11
-345.0
 21
899.070002
 31
0.0
  0
CIRCLE
  5
C8
  8
SIZE
  6
CONTINUOUS
 62
    30
 10
-287.0
 20
899.070002
 30
0.0
 40
5.0
  0
LINE
  5
C9
  8
SIZE
  6
CONTINUOUS
 62
    30
 10
-292.0
 20
899.070002
 30
0.0
 11
-297.0
 21
899.070002
 31
0.0
  0
CIRCLE
  5
CA
  8
SIZE
  6
CONTINUOUS
 62
    30
 10
-355.0
 20
899.070002
 30
0.0
 40
5.0
  0
LINE
  5
CB
  8
SIZE
  6
CONTINUOUS
 62
    30
 10
-350.0
 20
899.070002
 30
0.0
 11
-345.0
 21
899.070002
 31
0.0
  0
TEXT
  5
CC
  8
SIZE
  6
CONTINUOUS
 62
    30
 10
-367.628571
 20
919.070002
 30
0.0
 40
64.0
  1
68
 41
0.9
 72
     1
 11
-321.0
 21
919.070002
 31
0.0
  0
POINT
  5
CD
  8
DEFPOINTS
  6
CONTINUOUS
 62
     7
 10
-287.0
 20
168.0
 30
0.0
  0
POINT
  5
CE
  8
DEFPOINTS
  6
CONTINUOUS
 62
     7
 10
-355.0
 20
0.0
 30
0.0
  0
POINT
  5
CF
  8
DEFPOINTS
  6
CONTINUOUS
 62
     7
 10
-355.0
 20
899.070002
 30
0.0
  0
LINE
  5
D0
  8
SIZE
  6
CONTINUOUS
 62
    30
 10
287.0
 20
188.0
 30
0.0
 11
287.0
 21
928.818411
 31
0.0
  0
LINE
  5
D1
  8
SIZE
  6
CONTINUOUS
 62
    30
 10
-287.0
 20
188.0
 30
0.0
 11
-287.0
 21
928.818411
 31
0.0
  0
LINE
  5
D2
  8
SIZE
  6
CONTINUOUS
 62
    30
 10
277.0
 20
898.818411
 30
0.0
 11
-277.0
 21
898.818411
 31
0.0
  0
CIRCLE
  5
D3
  8
SIZE
  6
CONTINUOUS
 62
    30
 10
287.0
 20
898.818411
 30
0.0
 40
5.0
  0
LINE
  5
D4
  8
SIZE
  6
CONTINUOUS
 62
    30
 10
282.0
 20
898.818411
 30
0.0
 11
277.0
 21
898.818411
 31
0.0
  0
CIRCLE
  5
D5
  8
SIZE
  6
CONTINUOUS
 62
    30
 10
-287.0
 20
898.818411
 30
0.0
 40
5.0
  0
LINE
  5
D6
  8
SIZE
  6
CONTINUOUS
 62
    30
 10
-282.0
 20
898.818411
 30
0.0
 11
-277.0
 21
898.818411
 31
0.0
  0
TEXT
  5
D7
  8
SIZE
  6
CONTINUOUS
 62
    30
 10
-258.814286
 20
933.223173
 30
0.0
 40
55.0
  1
574(吊りﾎﾞﾙﾄﾋﾟｯﾁ)
 41
0.9
 72
     1
 11
0.0
 21
933.223173
 31
0.0
  0
POINT
  5
D8
  8
DEFPOINTS
  6
CONTINUOUS
 62
     7
 10
287.0
 20
168.0
 30
0.0
  0
POINT
  5
D9
  8
DEFPOINTS
  6
CONTINUOUS
 62
     7
 10
-287.0
 20
168.0
 30
0.0
  0
POINT
  5
DA
  8
DEFPOINTS
  6
CONTINUOUS
 62
     7
 10
-287.0
 20
898.818411
 30
0.0
  0
LINE
  5
DB
  8
SIZE
  6
CONTINUOUS
 62
    30
 10
335.0
 20
-48.0
 30
0.0
 11
335.0
 21
-262.062406
 31
0.0
  0
LINE
  5
DC
  8
SIZE
  6
CONTINUOUS
 62
    30
 10
-335.0
 20
-68.0
 30
0.0
 11
-335.0
 21
-262.062406
 31
0.0
  0
LINE
  5
DD
  8
SIZE
  6
CONTINUOUS
 62
    30
 10
325.0
 20
-232.062406
 30
0.0
 11
-325.0
 21
-232.062406
 31
0.0
  0
CIRCLE
  5
DE
  8
SIZE
  6
CONTINUOUS
 62
    30
 10
335.0
 20
-232.062406
 30
0.0
 40
5.0
  0
LINE
  5
DF
  8
SIZE
  6
CONTINUOUS
 62
    30
 10
330.0
 20
-232.062406
 30
0.0
 11
325.0
 21
-232.062406
 31
0.0
  0
CIRCLE
  5
E0
  8
SIZE
  6
CONTINUOUS
 62
    30
 10
-335.0
 20
-232.062406
 30
0.0
 40
5.0
  0
LINE
  5
E1
  8
SIZE
  6
CONTINUOUS
 62
    30
 10
-330.0
 20
-232.062406
 30
0.0
 11
-325.0
 21
-232.062406
 31
0.0
  0
TEXT
  5
E2
  8
SIZE
  6
CONTINUOUS
 62
    30
 10
-290.743097
 20
-197.657644
 30
0.0
 40
55.0
  1
670(天井開口寸法)
 41
0.9
 72
     1
 11
-17.078811
 21
-197.657644
 31
0.0
  0
POINT
  5
E3
  8
DEFPOINTS
  6
CONTINUOUS
 62
     7
 10
335.0
 20
-28.0
 30
0.0
  0
POINT
  5
E4
  8
DEFPOINTS
  6
CONTINUOUS
 62
     7
 10
-335.0
 20
-48.0
 30
0.0
  0
POINT
  5
E5
  8
DEFPOINTS
  6
CONTINUOUS
 62
     7
 10
-335.0
 20
-232.062406
 30
0.0
  0
LINE
  5
E6
  8
OUTLINE
  6
CONTINUOUS
 62
     3
 10
-317.0
 20
338.0
 30
0.0
 11
317.0
 21
338.0
 31
0.0
  0
LINE
  5
E7
  8
OUTLINE
  6
CONTINUOUS
 62
     3
 10
-355.0
 20
0.0
 30
0.0
 11
-317.0
 21
0.0
 31
0.0
  0
LINE
  5
E8
  8
OUTLINE
  6
CONTINUOUS
 62
     3
 10
317.0
 20
0.0
 30
0.0
 11
317.0
 21
338.0
 31
0.0
  0
LINE
  5
E9
  8
OUTLINE
  6
CONTINUOUS
 62
     3
 10
-317.0
 20
0.0
 30
0.0
 11
-317.0
 21
338.0
 31
0.0
  0
LINE
  5
EA
  8
OUTLINE
  6
CONTINUOUS
 62
     3
 10
-287.0
 20
-20.0
 30
0.0
 11
287.0
 21
-20.0
 31
0.0
  0
ARC
  5
EB
  8
OUTLINE
  6
CONTINUOUS
 62
     3
 10
266.907662
 20
173.91395
 30
0.0
 40
194.952102
 50
275.915576
 51
296.863505
  0
ARC
  5
EC
  8
OUTLINE
  6
CONTINUOUS
 62
     3
 10
-266.907662
 20
173.91395
 30
0.0
 40
194.952102
 50
243.136495
 51
264.084424
  0
LINE
  5
ED
  8
OUTLINE
  6
CONTINUOUS
 62
     3
 10
317.0
 20
0.0
 30
0.0
 11
355.0
 21
0.0
 31
0.0
  0
ENDSEC
  0
EOF
