  0
SECTION
  2
HEADER
  9
$ACADVER
  1
AC1009
  9
$INSBASE
 10
0.0
 20
0.0
 30
0.0
  9
$EXTMIN
 10
-1406.665018
 20
-511.729956
 30
0.0
  9
$EXTMAX
 10
1526.614964
 20
931.927163
 30
0.0
  9
$LIMMIN
 10
-6000.0
 20
-4500.0
  9
$LIMMAX
 10
6000.0
 20
4500.0
  9
$ORTHOMODE
 70
     0
  9
$REGENMODE
 70
     1
  9
$FILLMODE
 70
     1
  9
$QTEXTMODE
 70
     0
  9
$MIRRTEXT
 70
     0
  9
$DRAGMODE
 70
     2
  9
$LTSCALE
 40
20.0
  9
$OSMODE
 70
    37
  9
$ATTMODE
 70
     1
  9
$TEXTSIZE
 40
64.0
  9
$TRACEWID
 40
0.05
  9
$TEXTSTYLE
  7
STANDARD
  9
$CLAYER
  8
0
  9
$CELTYPE
  6
CONTINUOUS
  9
$CECOLOR
 62
     7
  9
$DIMSCALE
 40
1.0
  9
$DIMASZ
 40
10.0
  9
$DIMEXO
 40
20.0
  9
$DIMDLI
 40
200.0
  9
$DIMRND
 40
0.0
  9
$DIMDLE
 40
0.0
  9
$DIMEXE
 40
30.0
  9
$DIMTP
 40
0.0
  9
$DIMTM
 40
0.0
  9
$DIMTXT
 40
64.0
  9
$DIMCEN
 40
0.0
  9
$DIMTSZ
 40
0.0
  9
$DIMTOL
 70
     0
  9
$DIMLIM
 70
     0
  9
$DIMTIH
 70
     0
  9
$DIMTOH
 70
     0
  9
$DIMSE1
 70
     0
  9
$DIMSE2
 70
     0
  9
$DIMTAD
 70
     1
  9
$DIMZIN
 70
     8
  9
$DIMBLK
  1

  9
$DIMASO
 70
     1
  9
$DIMSHO
 70
     0
  9
$DIMPOST
  1

  9
$DIMAPOST
  1

  9
$DIMALT
 70
     0
  9
$DIMALTD
 70
     2
  9
$DIMALTF
 40
25.4
  9
$DIMLFAC
 40
1.0
  9
$DIMTOFL
 70
     1
  9
$DIMTVP
 40
0.0
  9
$DIMTIX
 70
     1
  9
$DIMSOXD
 70
     0
  9
$DIMSAH
 70
     1
  9
$DIMBLK1
  1
_DOTBLANK
  9
$DIMBLK2
  1
_DOTBLANK
  9
$DIMSTYLE
  2
STANDARD
  9
$DIMCLRD
 70
     0
  9
$DIMCLRE
 70
     0
  9
$DIMCLRT
 70
     0
  9
$DIMTFAC
 40
1.0
  9
$DIMGAP
 40
0.09
  9
$LUNITS
 70
     2
  9
$LUPREC
 70
     4
  9
$SKETCHINC
 40
0.1
  9
$FILLETRAD
 40
20.0
  9
$AUNITS
 70
     1
  9
$AUPREC
 70
     3
  9
$MENU
  1
ACAD
  9
$ELEVATION
 40
0.0
  9
$PELEVATION
 40
0.0
  9
$THICKNESS
 40
0.0
  9
$LIMCHECK
 70
     0
  9
$BLIPMODE
 70
     0
  9
$CHAMFERA
 40
0.0
  9
$CHAMFERB
 40
0.0
  9
$SKPOLY
 70
     0
  9
$TDCREATE
 40
2450330.439931
  9
$TDUPDATE
 40
2452418.678313
  9
$TDINDWG
 40
1.338945
  9
$TDUSRTIMER
 40
1.338945
  9
$USRTIMER
 70
     1
  9
$ANGBASE
 50
0.0
  9
$ANGDIR
 70
     0
  9
$PDMODE
 70
     3
  9
$PDSIZE
 40
-2.0
  9
$PLINEWID
 40
0.0
  9
$COORDS
 70
     2
  9
$SPLFRAME
 70
     0
  9
$SPLINETYPE
 70
     6
  9
$SPLINESEGS
 70
     8
  9
$ATTDIA
 70
     0
  9
$ATTREQ
 70
     1
  9
$HANDLING
 70
     1
  9
$HANDSEED
  5
250
  9
$SURFTAB1
 70
     6
  9
$SURFTAB2
 70
     6
  9
$SURFTYPE
 70
     6
  9
$SURFU
 70
     6
  9
$SURFV
 70
     6
  9
$UCSNAME
  2

  9
$UCSORG
 10
0.0
 20
0.0
 30
0.0
  9
$UCSXDIR
 10
1.0
 20
0.0
 30
0.0
  9
$UCSYDIR
 10
0.0
 20
1.0
 30
0.0
  9
$PUCSNAME
  2

  9
$PUCSORG
 10
0.0
 20
0.0
 30
0.0
  9
$PUCSXDIR
 10
1.0
 20
0.0
 30
0.0
  9
$PUCSYDIR
 10
0.0
 20
1.0
 30
0.0
  9
$USERI1
 70
     0
  9
$USERI2
 70
     0
  9
$USERI3
 70
     0
  9
$USERI4
 70
     0
  9
$USERI5
 70
     0
  9
$USERR1
 40
20.0
  9
$USERR2
 40
0.0
  9
$USERR3
 40
0.0
  9
$USERR4
 40
0.0
  9
$USERR5
 40
0.0
  9
$WORLDVIEW
 70
     1
  9
$SHADEDGE
 70
     3
  9
$SHADEDIF
 70
    70
  9
$TILEMODE
 70
     1
  9
$MAXACTVP
 70
    48
  9
$PLIMCHECK
 70
     0
  9
$PEXTMIN
 10
1.000000E+020
 20
1.000000E+020
 30
1.000000E+020
  9
$PEXTMAX
 10
-1.000000E+020
 20
-1.000000E+020
 30
-1.000000E+020
  9
$PLIMMIN
 10
0.0
 20
0.0
  9
$PLIMMAX
 10
12.0
 20
9.0
  9
$UNITMODE
 70
     0
  9
$VISRETAIN
 70
     1
  9
$PLINEGEN
 70
     0
  9
$PSLTSCALE
 70
     1
  0
ENDSEC
  0
SECTION
  2
TABLES
  0
TABLE
  2
VPORT
 70
     2
  0
VPORT
  2
*ACTIVE
 70
     0
 10
0.0
 20
0.0
 11
1.0
 21
1.0
 12
2045.454545
 22
0.0
 13
0.0
 23
0.0
 14
50.0
 24
50.0
 15
100.0
 25
100.0
 16
0.0
 26
0.0
 36
1.0
 17
0.0
 27
0.0
 37
0.0
 40
9000.0
 41
1.787879
 42
50.0
 43
0.0
 44
0.0
 50
0.0
 51
0.0
 71
     0
 72
  1000
 73
     1
 74
     0
 75
     0
 76
     0
 77
     0
 78
     0
  0
ENDTAB
  0
TABLE
  2
LTYPE
 70
     2
  0
LTYPE
  2
CONTINUOUS
 70
     0
  3
実線
 72
    65
 73
     0
 40
0.0
  0
LTYPE
  2
DASHDOT
 70
     0
  3
____ _ ____ _ ____ _ ____ _ ____ _ ____ _ ____
 72
    65
 73
     4
 40
5.5
 49
4.0
 49
-0.6
 49
0.3
 49
-0.6
  0
ENDTAB
  0
TABLE
  2
LAYER
 70
    12
  0
LAYER
  2
0
 70
     0
 62
     7
  6
CONTINUOUS
  0
LAYER
  2
OUTLINE
 70
     0
 62
     3
  6
CONTINUOUS
  0
LAYER
  2
DETAIL
 70
     0
 62
     5
  6
CONTINUOUS
  0
LAYER
  2
BASIS
 70
     0
 62
     6
  6
DASHDOT
  0
LAYER
  2
SIZE
 70
     0
 62
    30
  6
CONTINUOUS
  0
LAYER
  2
NOTE
 70
     0
 62
     4
  6
CONTINUOUS
  0
LAYER
  2
ARRANGE
 70
     0
 62
     1
  6
CONTINUOUS
  0
LAYER
  2
FIX
 70
     0
 62
    11
  6
CONTINUOUS
  0
LAYER
  2
SERVICESPACE
 70
     0
 62
     2
  6
DASHDOT
  0
LAYER
  2
ETC
 70
     0
 62
    61
  6
CONTINUOUS
  0
LAYER
  2
SYMBOLLINE
 70
     0
 62
    15
  6
CONTINUOUS
  0
LAYER
  2
DEFPOINTS
 70
     0
 62
     7
  6
CONTINUOUS
  0
ENDTAB
  0
TABLE
  2
STYLE
 70
     1
  0
STYLE
  2
STANDARD
 70
     0
 40
0.0
 41
0.9
 50
0.0
 71
     0
 42
64.0
  3
SIMPLEX
  4
BIGFONT
  0
ENDTAB
  0
TABLE
  2
VIEW
 70
     1
  0
VIEW
  2
ALL
 70
     0
 40
9000.0
 10
241.506647
 20
0.0
 41
12483.01
 11
0.0
 21
0.0
 31
1.0
 12
0.0
 22
0.0
 32
0.0
 42
50.0
 43
0.0
 44
0.0
 50
0.0
 71
     0
  0
ENDTAB
  0
TABLE
  2
UCS
 70
     0
  0
ENDTAB
  0
TABLE
  2
APPID
 70
     1
  0
APPID
  2
ACAD
 70
     0
  0
ENDTAB
  0
TABLE
  2
DIMSTYLE
 70
     1
  0
DIMSTYLE
  2
STANDARD
 70
     0
  3

  4

  5

  6

  7

 40
1.0
 41
0.18
 42
0.0625
 43
0.38
 44
0.18
 45
0.0
 46
0.0
 47
0.0
 48
0.0
140
0.18
141
0.09
142
0.0
143
25.4
144
1.0
145
0.0
146
1.0
147
0.09
 71
     0
 72
     0
 73
     1
 74
     1
 75
     0
 76
     0
 77
     0
 78
     0
170
     0
171
     2
172
     0
173
     0
174
     0
175
     0
176
     0
177
     0
178
     0
  0
ENDTAB
  0
ENDSEC
  0
SECTION
  2
BLOCKS
  0
BLOCK
  8
0
  2
$MODEL_SPACE
 70
     0
 10
0.0
 20
0.0
 30
0.0
  3
$MODEL_SPACE
  1

  0
ENDBLK
  5
234
  8
0
  0
BLOCK
 67
     1
  8
0
  2
$PAPER_SPACE
 70
     0
 10
0.0
 20
0.0
 30
0.0
  3
$PAPER_SPACE
  1

  0
ENDBLK
  5
231
 67
     1
  8
0
  0
BLOCK
  8
0
  2
_DOTBLANK
 70
     0
 10
0.0
 20
0.0
 30
0.0
  3
_DOTBLANK
  1

  0
CIRCLE
  5
30
  8
0
  6
CONTINUOUS
 62
     7
 10
0.0
 20
0.0
 30
0.0
 40
0.5
  0
LINE
  5
31
  8
0
  6
CONTINUOUS
 62
     7
 10
-0.5
 20
0.0
 30
0.0
 11
-1.0
 21
0.0
 31
0.0
  0
ENDBLK
  5
32
  8
0
  0
ENDSEC
  0
SECTION
  2
ENTITIES
  0
TEXT
  5
33
  8
ETC
  6
CONTINUOUS
 62
    61
 10
615.594691
 20
-511.729956
 30
0.0
 40
64.0
  1
シティマルチ室内機
 41
0.9
  0
TEXT
  5
34
  8
ETC
  6
CONTINUOUS
 62
    61
 10
618.72925
 20
-395.765865
 30
0.0
 40
64.0
  1
PLFY-P56LMDH-E_4
 41
0.9
  0
LINE
  5
35
  8
SIZE
  6
CONTINUOUS
 62
    30
 10
497.0
 20
188.0
 30
0.0
 11
497.0
 21
848.974782
 31
0.0
  0
LINE
  5
36
  8
SIZE
  6
CONTINUOUS
 62
    30
 10
-497.0
 20
188.0
 30
0.0
 11
-497.0
 21
848.974782
 31
0.0
  0
LINE
  5
37
  8
SIZE
  6
CONTINUOUS
 62
    30
 10
487.0
 20
818.974782
 30
0.0
 11
-487.0
 21
818.974782
 31
0.0
  0
CIRCLE
  5
38
  8
SIZE
  6
CONTINUOUS
 62
    30
 10
497.0
 20
818.974782
 30
0.0
 40
5.0
  0
LINE
  5
39
  8
SIZE
  6
CONTINUOUS
 62
    30
 10
492.0
 20
818.974782
 30
0.0
 11
487.0
 21
818.974782
 31
0.0
  0
CIRCLE
  5
3A
  8
SIZE
  6
CONTINUOUS
 62
    30
 10
-497.0
 20
818.974782
 30
0.0
 40
5.0
  0
LINE
  5
3B
  8
SIZE
  6
CONTINUOUS
 62
    30
 10
-492.0
 20
818.974782
 30
0.0
 11
-487.0
 21
818.974782
 31
0.0
  0
TEXT
  5
3C
  8
SIZE
  6
CONTINUOUS
 62
    30
 10
-301.165714
 20
855.736687
 30
0.0
 40
64.0
  1
994(吊りﾎﾞﾙﾄﾋﾟｯﾁ)
 41
0.9
 72
     1
 11
0.0
 21
855.736687
 31
0.0
  0
POINT
  5
3D
  8
DEFPOINTS
  6
CONTINUOUS
 62
     7
 10
497.0
 20
168.0
 30
0.0
  0
POINT
  5
3E
  8
DEFPOINTS
  6
CONTINUOUS
 62
     7
 10
-497.0
 20
168.0
 30
0.0
  0
POINT
  5
3F
  8
DEFPOINTS
  6
CONTINUOUS
 62
     7
 10
-497.0
 20
818.974782
 30
0.0
  0
LINE
  5
40
  8
NOTE
  6
CONTINUOUS
 62
     4
 10
-497.0
 20
258.0
 30
0.0
 11
-497.0
 21
298.0
 31
0.0
  0
LINE
  5
41
  8
DETAIL
  6
CONTINUOUS
 62
     5
 10
-497.0
 20
294.0
 30
0.0
 11
-497.0
 21
262.0
 31
0.0
  0
TEXT
  5
42
  8
NOTE
  6
CONTINUOUS
 62
     4
 10
-958.750859
 20
772.000101
 30
0.0
 40
64.0
  1
D φ32
 41
0.9
  0
LINE
  5
43
  8
NOTE
  6
CONTINUOUS
 62
     4
 10
-523.0
 20
72.210874
 30
0.0
 11
-713.184163
 21
-266.716355
 31
0.0
  0
LINE
  5
44
  8
DETAIL
  6
CONTINUOUS
 62
     5
 10
-473.0
 20
338.0
 30
0.0
 11
473.0
 21
338.0
 31
0.0
  0
CIRCLE
  5
45
  8
ARRANGE
  6
CONTINUOUS
 62
     1
 10
0.0
 20
0.0
 30
0.0
 40
40.0
  0
LINE
  5
46
  8
DETAIL
  6
CONTINUOUS
 62
     5
 10
473.0
 20
48.0
 30
0.0
 11
-473.0
 21
48.0
 31
0.0
  0
LINE
  5
47
  8
DETAIL
  6
CONTINUOUS
 62
     5
 10
-583.0
 20
45.0
 30
0.0
 11
583.0
 21
45.0
 31
0.0
  0
LINE
  5
48
  8
DETAIL
  6
CONTINUOUS
 62
     5
 10
-625.0
 20
0.0
 30
0.0
 11
625.0
 21
0.0
 31
0.0
  0
POINT
  5
49
  8
ARRANGE
  6
CONTINUOUS
 62
     1
 10
0.0
 20
0.0
 30
0.0
  0
LINE
  5
4A
  8
DETAIL
  6
CONTINUOUS
 62
     5
 10
583.0
 20
45.0
 30
0.0
 11
583.0
 21
0.0
 31
0.0
  0
TEXT
  5
4B
  8
NOTE
  6
CONTINUOUS
 62
     4
 10
567.582081
 20
237.370132
 30
0.0
 40
64.0
  1
AH
 41
0.9
  0
LINE
  5
4C
  8
DETAIL
  6
CONTINUOUS
 62
     5
 10
473.0
 20
338.0
 30
0.0
 11
473.0
 21
45.0
 31
0.0
  0
LINE
  5
4D
  8
NOTE
  6
CONTINUOUS
 62
     4
 10
545.772347
 20
221.330697
 30
0.0
 11
686.728738
 21
221.330697
 31
0.0
  0
LINE
  5
4E
  8
NOTE
  6
CONTINUOUS
 62
     4
 10
477.0
 20
148.0
 30
0.0
 11
517.0
 21
148.0
 31
0.0
  0
LINE
  5
4F
  8
NOTE
  6
CONTINUOUS
 62
     4
 10
497.0
 20
128.0
 30
0.0
 11
497.0
 21
168.0
 31
0.0
  0
POLYLINE
  5
50
  8
NOTE
  6
CONTINUOUS
 62
     4
 66
     1
 10
0.0
 20
0.0
 30
0.0
  0
VERTEX
  5
51
  8
NOTE
  6
CONTINUOUS
 62
     4
 10
509.787697
 20
185.900855
 30
0.0
  0
VERTEX
  5
52
  8
NOTE
  6
CONTINUOUS
 62
     4
 10
497.0
 20
148.0
 30
0.0
  0
VERTEX
  5
53
  8
NOTE
  6
CONTINUOUS
 62
     4
 10
527.024898
 20
174.429255
 30
0.0
  0
SEQEND
  5
54
  8
NOTE
  6
CONTINUOUS
 62
     4
  0
LINE
  5
55
  8
NOTE
  6
CONTINUOUS
 62
     4
 10
497.0
 20
148.0
 30
0.0
 11
545.772347
 21
221.330697
 31
0.0
  0
CIRCLE
  5
56
  8
FIX
  6
CONTINUOUS
 62
    11
 10
497.0
 20
148.0
 30
0.0
 40
5.0
  0
LINE
  5
57
  8
DETAIL
  6
CONTINUOUS
 62
     5
 10
473.0
 20
148.0
 30
0.0
 11
523.0
 21
148.0
 31
0.0
  0
LINE
  5
58
  8
DETAIL
  6
CONTINUOUS
 62
     5
 10
473.0
 20
145.0
 30
0.0
 11
520.0
 21
145.0
 31
0.0
  0
LINE
  5
59
  8
DETAIL
  6
CONTINUOUS
 62
     5
 10
520.0
 20
140.0
 30
0.0
 11
523.0
 21
140.0
 31
0.0
  0
LINE
  5
5A
  8
DETAIL
  6
CONTINUOUS
 62
     5
 10
520.0
 20
145.0
 30
0.0
 11
520.0
 21
140.0
 31
0.0
  0
LINE
  5
5B
  8
DETAIL
  6
CONTINUOUS
 62
     5
 10
523.0
 20
148.0
 30
0.0
 11
523.0
 21
140.0
 31
0.0
  0
LINE
  5
5C
  8
DETAIL
  6
CONTINUOUS
 62
     5
 10
-583.0
 20
45.0
 30
0.0
 11
-583.0
 21
0.0
 31
0.0
  0
LINE
  5
5D
  8
BASIS
  6
DASHDOT
 62
     6
 10
0.0
 20
415.864066
 30
0.0
 11
0.0
 21
-76.418197
 31
0.0
  0
LINE
  5
5E
  8
NOTE
  6
CONTINUOUS
 62
     4
 10
-960.011175
 20
745.991174
 30
0.0
 11
-692.723767
 21
745.991174
 31
0.0
  0
LINE
  5
5F
  8
NOTE
  6
CONTINUOUS
 62
     4
 10
-841.314278
 20
-30.16388
 30
0.0
 11
-701.044383
 21
-30.16388
 31
0.0
  0
TEXT
  5
60
  8
NOTE
  6
CONTINUOUS
 62
     4
 10
-820.191041
 20
-14.124445
 30
0.0
 40
64.0
  1
AH
 41
0.9
  0
LINE
  5
61
  8
DETAIL
  6
CONTINUOUS
 62
     5
 10
-473.0
 20
338.0
 30
0.0
 11
-473.0
 21
45.0
 31
0.0
  0
LINE
  5
62
  8
NOTE
  6
CONTINUOUS
 62
     4
 10
-543.0
 20
72.210874
 30
0.0
 11
-503.0
 21
72.210874
 31
0.0
  0
LINE
  5
63
  8
DETAIL
  6
CONTINUOUS
 62
     5
 10
-473.0
 20
47.210874
 30
0.0
 11
-523.0
 21
47.210874
 31
0.0
  0
LINE
  5
64
  8
DETAIL
  6
CONTINUOUS
 62
     5
 10
-473.0
 20
97.210874
 30
0.0
 11
-523.0
 21
97.210874
 31
0.0
  0
LINE
  5
65
  8
DETAIL
  6
CONTINUOUS
 62
     5
 10
-520.0
 20
145.0
 30
0.0
 11
-473.0
 21
145.0
 31
0.0
  0
LINE
  5
66
  8
DETAIL
  6
CONTINUOUS
 62
     5
 10
-523.0
 20
148.0
 30
0.0
 11
-473.0
 21
148.0
 31
0.0
  0
LINE
  5
67
  8
NOTE
  6
CONTINUOUS
 62
     4
 10
-517.0
 20
148.0
 30
0.0
 11
-477.0
 21
148.0
 31
0.0
  0
LINE
  5
68
  8
NOTE
  6
CONTINUOUS
 62
     4
 10
-497.0
 20
128.0
 30
0.0
 11
-497.0
 21
168.0
 31
0.0
  0
POLYLINE
  5
69
  8
NOTE
  6
CONTINUOUS
 62
     4
 66
     1
 10
0.0
 20
0.0
 30
0.0
  0
VERTEX
  5
6A
  8
NOTE
  6
CONTINUOUS
 62
     4
 10
-519.961089
 20
115.246552
 30
0.0
  0
VERTEX
  5
6B
  8
NOTE
  6
CONTINUOUS
 62
     4
 10
-497.0
 20
148.0
 30
0.0
  0
VERTEX
  5
6C
  8
NOTE
  6
CONTINUOUS
 62
     4
 10
-533.261611
 20
131.115225
 30
0.0
  0
SEQEND
  5
6D
  8
NOTE
  6
CONTINUOUS
 62
     4
  0
LINE
  5
6E
  8
NOTE
  6
CONTINUOUS
 62
     4
 10
-497.0
 20
148.0
 30
0.0
 11
-701.044383
 21
-30.16388
 31
0.0
  0
CIRCLE
  5
6F
  8
FIX
  6
CONTINUOUS
 62
    11
 10
-497.0
 20
148.0
 30
0.0
 40
5.0
  0
LINE
  5
70
  8
NOTE
  6
CONTINUOUS
 62
     4
 10
-523.0
 20
52.210874
 30
0.0
 11
-523.0
 21
92.210874
 31
0.0
  0
POLYLINE
  5
71
  8
NOTE
  6
CONTINUOUS
 62
     4
 66
     1
 10
0.0
 20
0.0
 30
0.0
  0
VERTEX
  5
72
  8
NOTE
  6
CONTINUOUS
 62
     4
 10
-532.853633
 20
33.443544
 30
0.0
  0
VERTEX
  5
73
  8
NOTE
  6
CONTINUOUS
 62
     4
 10
-523.0
 20
72.210874
 30
0.0
  0
VERTEX
  5
74
  8
NOTE
  6
CONTINUOUS
 62
     4
 10
-550.917162
 20
43.564198
 30
0.0
  0
SEQEND
  5
75
  8
NOTE
  6
CONTINUOUS
 62
     4
  0
LINE
  5
76
  8
DETAIL
  6
CONTINUOUS
 62
     5
 10
-573.0
 20
227.971373
 30
0.0
 11
-573.0
 21
185.221025
 31
0.0
  0
LINE
  5
77
  8
DETAIL
  6
CONTINUOUS
 62
     5
 10
-523.0
 20
140.0
 30
0.0
 11
-520.0
 21
140.0
 31
0.0
  0
LINE
  5
78
  8
DETAIL
  6
CONTINUOUS
 62
     5
 10
-520.0
 20
145.0
 30
0.0
 11
-520.0
 21
140.0
 31
0.0
  0
LINE
  5
79
  8
DETAIL
  6
CONTINUOUS
 62
     5
 10
-523.0
 20
148.0
 30
0.0
 11
-523.0
 21
140.0
 31
0.0
  0
LINE
  5
7A
  8
NOTE
  6
CONTINUOUS
 62
     4
 10
-517.0
 20
278.0
 30
0.0
 11
-477.0
 21
278.0
 31
0.0
  0
POLYLINE
  5
7B
  8
NOTE
  6
CONTINUOUS
 62
     4
 66
     1
 10
0.0
 20
0.0
 30
0.0
  0
VERTEX
  5
7C
  8
NOTE
  6
CONTINUOUS
 62
     4
 10
-519.241533
 20
311.246267
 30
0.0
  0
VERTEX
  5
7D
  8
NOTE
  6
CONTINUOUS
 62
     4
 10
-497.0
 20
278.0
 30
0.0
  0
VERTEX
  5
7E
  8
NOTE
  6
CONTINUOUS
 62
     4
 10
-499.638599
 20
317.912877
 30
0.0
  0
SEQEND
  5
7F
  8
NOTE
  6
CONTINUOUS
 62
     4
  0
LINE
  5
80
  8
NOTE
  6
CONTINUOUS
 62
     4
 10
-497.0
 20
278.0
 30
0.0
 11
-692.723767
 21
745.991174
 31
0.0
  0
LINE
  5
81
  8
DETAIL
  6
CONTINUOUS
 62
     5
 10
-497.0
 20
262.0
 30
0.0
 11
-473.0
 21
262.0
 31
0.0
  0
LINE
  5
82
  8
DETAIL
  6
CONTINUOUS
 62
     5
 10
-497.0
 20
294.0
 30
0.0
 11
-473.0
 21
294.0
 31
0.0
  0
TEXT
  5
83
  8
NOTE
  6
CONTINUOUS
 62
     4
 10
-904.903785
 20
-252.627029
 30
0.0
 40
64.0
  1
D抜き
 41
0.9
  0
LINE
  5
84
  8
NOTE
  6
CONTINUOUS
 62
     4
 10
-713.184163
 20
-266.716355
 30
0.0
 11
-951.229556
 21
-266.716355
 31
0.0
  0
LINE
  5
85
  8
SIZE
  6
CONTINUOUS
 62
    30
 10
473.0
 20
358.0
 30
0.0
 11
473.0
 21
738.232021
 31
0.0
  0
LINE
  5
86
  8
SIZE
  6
CONTINUOUS
 62
    30
 10
-473.0
 20
358.0
 30
0.0
 11
-473.0
 21
738.232021
 31
0.0
  0
LINE
  5
87
  8
SIZE
  6
CONTINUOUS
 62
    30
 10
463.0
 20
708.232021
 30
0.0
 11
-463.0
 21
708.232021
 31
0.0
  0
CIRCLE
  5
88
  8
SIZE
  6
CONTINUOUS
 62
    30
 10
473.0
 20
708.232021
 30
0.0
 40
5.0
  0
LINE
  5
89
  8
SIZE
  6
CONTINUOUS
 62
    30
 10
468.0
 20
708.232021
 30
0.0
 11
463.0
 21
708.232021
 31
0.0
  0
CIRCLE
  5
8A
  8
SIZE
  6
CONTINUOUS
 62
    30
 10
-473.0
 20
708.232021
 30
0.0
 40
5.0
  0
LINE
  5
8B
  8
SIZE
  6
CONTINUOUS
 62
    30
 10
-468.0
 20
708.232021
 30
0.0
 11
-463.0
 21
708.232021
 31
0.0
  0
TEXT
  5
8C
  8
SIZE
  6
CONTINUOUS
 62
    30
 10
-72.685714
 20
728.232021
 30
0.0
 40
64.0
  1
946
 41
0.9
 72
     1
 11
0.0
 21
728.232021
 31
0.0
  0
POINT
  5
8D
  8
DEFPOINTS
  6
CONTINUOUS
 62
     7
 10
473.0
 20
338.0
 30
0.0
  0
POINT
  5
8E
  8
DEFPOINTS
  6
CONTINUOUS
 62
     7
 10
-473.0
 20
338.0
 30
0.0
  0
POINT
  5
8F
  8
DEFPOINTS
  6
CONTINUOUS
 62
     7
 10
-473.0
 20
708.232021
 30
0.0
  0
LINE
  5
90
  8
DETAIL
  6
CONTINUOUS
 62
     5
 10
0.0
 20
-20.0
 30
0.0
 11
557.0
 21
-20.0
 31
0.0
  0
ARC
  5
91
  8
DETAIL
  6
CONTINUOUS
 62
     5
 10
536.907662
 20
173.91395
 30
0.0
 40
194.952102
 50
275.915576
 51
296.863505
  0
LINE
  5
92
  8
DETAIL
  6
CONTINUOUS
 62
     5
 10
0.0
 20
-20.0
 30
0.0
 11
-557.0
 21
-20.0
 31
0.0
  0
ARC
  5
93
  8
DETAIL
  6
CONTINUOUS
 62
     5
 10
-536.907662
 20
173.91395
 30
0.0
 40
194.952102
 50
243.136495
 51
264.084424
  0
LINE
  5
94
  8
SIZE
  6
CONTINUOUS
 62
    30
 10
605.0
 20
-48.759955
 30
0.0
 11
605.0
 21
-301.469946
 31
0.0
  0
LINE
  5
95
  8
SIZE
  6
CONTINUOUS
 62
    30
 10
-605.0
 20
-48.759955
 30
0.0
 11
-605.0
 21
-301.469946
 31
0.0
  0
LINE
  5
96
  8
SIZE
  6
CONTINUOUS
 62
    30
 10
595.0
 20
-271.469946
 30
0.0
 11
-595.0
 21
-271.469946
 31
0.0
  0
CIRCLE
  5
97
  8
SIZE
  6
CONTINUOUS
 62
    30
 10
605.0
 20
-271.469946
 30
0.0
 40
5.0
  0
LINE
  5
98
  8
SIZE
  6
CONTINUOUS
 62
    30
 10
600.0
 20
-271.469946
 30
0.0
 11
595.0
 21
-271.469946
 31
0.0
  0
CIRCLE
  5
99
  8
SIZE
  6
CONTINUOUS
 62
    30
 10
-605.0
 20
-271.469946
 30
0.0
 40
5.0
  0
LINE
  5
9A
  8
SIZE
  6
CONTINUOUS
 62
    30
 10
-600.0
 20
-271.469946
 30
0.0
 11
-595.0
 21
-271.469946
 31
0.0
  0
TEXT
  5
9B
  8
SIZE
  6
CONTINUOUS
 62
    30
 10
-334.902857
 20
-244.708042
 30
0.0
 40
64.0
  1
1210(天井開口寸法)
 41
0.9
 72
     1
 11
0.0
 21
-244.708042
 31
0.0
  0
POINT
  5
9C
  8
DEFPOINTS
  6
CONTINUOUS
 62
     7
 10
605.0
 20
-28.759955
 30
0.0
  0
POINT
  5
9D
  8
DEFPOINTS
  6
CONTINUOUS
 62
     7
 10
-605.0
 20
-28.759955
 30
0.0
  0
POINT
  5
9E
  8
DEFPOINTS
  6
CONTINUOUS
 62
     7
 10
-605.0
 20
-271.469946
 30
0.0
  0
LINE
  5
9F
  8
SIZE
  6
CONTINUOUS
 62
    30
 10
625.0
 20
-20.0
 30
0.0
 11
625.0
 21
-301.469946
 31
0.0
  0
LINE
  5
A0
  8
SIZE
  6
CONTINUOUS
 62
    30
 10
605.0
 20
-28.759955
 30
0.0
 11
605.0
 21
-301.469946
 31
0.0
  0
LINE
  5
A1
  8
SIZE
  6
CONTINUOUS
 62
    30
 10
635.0
 20
-271.469946
 30
0.0
 11
645.0
 21
-271.469946
 31
0.0
  0
LINE
  5
A2
  8
SIZE
  6
CONTINUOUS
 62
    30
 10
595.0
 20
-271.469946
 30
0.0
 11
585.0
 21
-271.469946
 31
0.0
  0
LINE
  5
A3
  8
SIZE
  6
CONTINUOUS
 62
    30
 10
625.0
 20
-271.469946
 30
0.0
 11
605.0
 21
-271.469946
 31
0.0
  0
CIRCLE
  5
A4
  8
SIZE
  6
CONTINUOUS
 62
    30
 10
625.0
 20
-271.469946
 30
0.0
 40
5.0
  0
LINE
  5
A5
  8
SIZE
  6
CONTINUOUS
 62
    30
 10
630.0
 20
-271.469946
 30
0.0
 11
635.0
 21
-271.469946
 31
0.0
  0
CIRCLE
  5
A6
  8
SIZE
  6
CONTINUOUS
 62
    30
 10
605.0
 20
-271.469946
 30
0.0
 40
5.0
  0
LINE
  5
A7
  8
SIZE
  6
CONTINUOUS
 62
    30
 10
600.0
 20
-271.469946
 30
0.0
 11
595.0
 21
-271.469946
 31
0.0
  0
TEXT
  5
A8
  8
SIZE
  6
CONTINUOUS
 62
    30
 10
568.371429
 20
-251.469946
 30
0.0
 40
64.0
  1
20
 41
0.9
 72
     1
 11
615.0
 21
-251.469946
 31
0.0
  0
POINT
  5
A9
  8
DEFPOINTS
  6
CONTINUOUS
 62
     7
 10
625.0
 20
0.0
 30
0.0
  0
POINT
  5
AA
  8
DEFPOINTS
  6
CONTINUOUS
 62
     7
 10
605.0
 20
-8.759955
 30
0.0
  0
POINT
  5
AB
  8
DEFPOINTS
  6
CONTINUOUS
 62
     7
 10
605.0
 20
-271.469946
 30
0.0
  0
LINE
  5
AC
  8
SIZE
  6
CONTINUOUS
 62
    30
 10
-605.0
 20
-28.759955
 30
0.0
 11
-605.0
 21
-301.469946
 31
0.0
  0
LINE
  5
AD
  8
SIZE
  6
CONTINUOUS
 62
    30
 10
-625.0
 20
-20.0
 30
0.0
 11
-625.0
 21
-301.469946
 31
0.0
  0
LINE
  5
AE
  8
SIZE
  6
CONTINUOUS
 62
    30
 10
-595.0
 20
-271.469946
 30
0.0
 11
-585.0
 21
-271.469946
 31
0.0
  0
LINE
  5
AF
  8
SIZE
  6
CONTINUOUS
 62
    30
 10
-635.0
 20
-271.469946
 30
0.0
 11
-645.0
 21
-271.469946
 31
0.0
  0
LINE
  5
B0
  8
SIZE
  6
CONTINUOUS
 62
    30
 10
-605.0
 20
-271.469946
 30
0.0
 11
-625.0
 21
-271.469946
 31
0.0
  0
CIRCLE
  5
B1
  8
SIZE
  6
CONTINUOUS
 62
    30
 10
-605.0
 20
-271.469946
 30
0.0
 40
5.0
  0
LINE
  5
B2
  8
SIZE
  6
CONTINUOUS
 62
    30
 10
-600.0
 20
-271.469946
 30
0.0
 11
-595.0
 21
-271.469946
 31
0.0
  0
CIRCLE
  5
B3
  8
SIZE
  6
CONTINUOUS
 62
    30
 10
-625.0
 20
-271.469946
 30
0.0
 40
5.0
  0
LINE
  5
B4
  8
SIZE
  6
CONTINUOUS
 62
    30
 10
-630.0
 20
-271.469946
 30
0.0
 11
-635.0
 21
-271.469946
 31
0.0
  0
TEXT
  5
B5
  8
SIZE
  6
CONTINUOUS
 62
    30
 10
-661.628571
 20
-251.469946
 30
0.0
 40
64.0
  1
20
 41
0.9
 72
     1
 11
-615.0
 21
-251.469946
 31
0.0
  0
POINT
  5
B6
  8
DEFPOINTS
  6
CONTINUOUS
 62
     7
 10
-605.0
 20
-8.759955
 30
0.0
  0
POINT
  5
B7
  8
DEFPOINTS
  6
CONTINUOUS
 62
     7
 10
-625.0
 20
0.0
 30
0.0
  0
POINT
  5
B8
  8
DEFPOINTS
  6
CONTINUOUS
 62
     7
 10
-625.0
 20
-271.469946
 30
0.0
  0
LINE
  5
B9
  8
SIZE
  6
CONTINUOUS
 62
    30
 10
-493.0
 20
338.0
 30
0.0
 11
-782.332686
 21
338.0
 31
0.0
  0
LINE
  5
BA
  8
SIZE
  6
CONTINUOUS
 62
    30
 10
-537.0
 20
278.0
 30
0.0
 11
-782.332686
 21
278.0
 31
0.0
  0
LINE
  5
BB
  8
SIZE
  6
CONTINUOUS
 62
    30
 10
-752.332686
 20
328.0
 30
0.0
 11
-752.332686
 21
288.0
 31
0.0
  0
CIRCLE
  5
BC
  8
SIZE
  6
CONTINUOUS
 62
    30
 10
-752.332686
 20
338.0
 30
0.0
 40
5.0
  0
LINE
  5
BD
  8
SIZE
  6
CONTINUOUS
 62
    30
 10
-752.332686
 20
333.0
 30
0.0
 11
-752.332686
 21
328.0
 31
0.0
  0
CIRCLE
  5
BE
  8
SIZE
  6
CONTINUOUS
 62
    30
 10
-752.332686
 20
278.0
 30
0.0
 40
5.0
  0
LINE
  5
BF
  8
SIZE
  6
CONTINUOUS
 62
    30
 10
-752.332686
 20
283.0
 30
0.0
 11
-752.332686
 21
288.0
 31
0.0
  0
TEXT
  5
C0
  8
SIZE
  6
CONTINUOUS
 62
    30
 10
-772.332686
 20
261.371429
 30
0.0
 40
64.0
  1
60
 50
90.0
 41
0.9
 72
     1
 11
-772.332686
 21
308.0
 31
0.0
  0
POINT
  5
C1
  8
DEFPOINTS
  6
CONTINUOUS
 62
     7
 10
-473.0
 20
338.0
 30
0.0
  0
POINT
  5
C2
  8
DEFPOINTS
  6
CONTINUOUS
 62
     7
 10
-517.0
 20
278.0
 30
0.0
  0
POINT
  5
C3
  8
DEFPOINTS
  6
CONTINUOUS
 62
     7
 10
-752.332686
 20
278.0
 30
0.0
  0
LINE
  5
C4
  8
SIZE
  6
CONTINUOUS
 62
    30
 10
-493.0
 20
338.0
 30
0.0
 11
-1123.724411
 21
338.0
 31
0.0
  0
LINE
  5
C5
  8
SIZE
  6
CONTINUOUS
 62
    30
 10
-543.0
 20
148.0
 30
0.0
 11
-1123.724411
 21
148.0
 31
0.0
  0
LINE
  5
C6
  8
SIZE
  6
CONTINUOUS
 62
    30
 10
-1093.724411
 20
328.0
 30
0.0
 11
-1093.724411
 21
158.0
 31
0.0
  0
CIRCLE
  5
C7
  8
SIZE
  6
CONTINUOUS
 62
    30
 10
-1093.724411
 20
338.0
 30
0.0
 40
5.0
  0
LINE
  5
C8
  8
SIZE
  6
CONTINUOUS
 62
    30
 10
-1093.724411
 20
333.0
 30
0.0
 11
-1093.724411
 21
328.0
 31
0.0
  0
CIRCLE
  5
C9
  8
SIZE
  6
CONTINUOUS
 62
    30
 10
-1093.724411
 20
148.0
 30
0.0
 40
5.0
  0
LINE
  5
CA
  8
SIZE
  6
CONTINUOUS
 62
    30
 10
-1093.724411
 20
153.0
 30
0.0
 11
-1093.724411
 21
158.0
 31
0.0
  0
TEXT
  5
CB
  8
SIZE
  6
CONTINUOUS
 62
    30
 10
-1113.724411
 20
174.428571
 30
0.0
 40
64.0
  1
190
 50
90.0
 41
0.9
 72
     1
 11
-1113.724411
 21
243.0
 31
0.0
  0
POINT
  5
CC
  8
DEFPOINTS
  6
CONTINUOUS
 62
     7
 10
-473.0
 20
338.0
 30
0.0
  0
POINT
  5
CD
  8
DEFPOINTS
  6
CONTINUOUS
 62
     7
 10
-523.0
 20
148.0
 30
0.0
  0
POINT
  5
CE
  8
DEFPOINTS
  6
CONTINUOUS
 62
     7
 10
-1093.724411
 20
148.0
 30
0.0
  0
LINE
  5
CF
  8
DETAIL
  6
CONTINUOUS
 62
     5
 10
-473.0
 20
72.0
 30
0.0
 11
473.0
 21
72.0
 31
0.0
  0
LINE
  5
D0
  8
SIZE
  6
CONTINUOUS
 62
    30
 10
-493.0
 20
338.0
 30
0.0
 11
-1250.407458
 21
338.0
 31
0.0
  0
LINE
  5
D1
  8
SIZE
  6
CONTINUOUS
 62
    30
 10
-563.0
 20
72.210874
 30
0.0
 11
-1250.407458
 21
72.210874
 31
0.0
  0
LINE
  5
D2
  8
SIZE
  6
CONTINUOUS
 62
    30
 10
-1220.407458
 20
328.0
 30
0.0
 11
-1220.407458
 21
82.210874
 31
0.0
  0
CIRCLE
  5
D3
  8
SIZE
  6
CONTINUOUS
 62
    30
 10
-1220.407458
 20
338.0
 30
0.0
 40
5.0
  0
LINE
  5
D4
  8
SIZE
  6
CONTINUOUS
 62
    30
 10
-1220.407458
 20
333.0
 30
0.0
 11
-1220.407458
 21
328.0
 31
0.0
  0
CIRCLE
  5
D5
  8
SIZE
  6
CONTINUOUS
 62
    30
 10
-1220.407458
 20
72.210874
 30
0.0
 40
5.0
  0
LINE
  5
D6
  8
SIZE
  6
CONTINUOUS
 62
    30
 10
-1220.407458
 20
77.210874
 30
0.0
 11
-1220.407458
 21
82.210874
 31
0.0
  0
TEXT
  5
D7
  8
SIZE
  6
CONTINUOUS
 62
    30
 10
-1240.407458
 20
132.419723
 30
0.0
 40
64.0
  1
266
 50
90.0
 41
0.9
 72
     1
 11
-1240.407458
 21
205.105437
 31
0.0
  0
POINT
  5
D8
  8
DEFPOINTS
  6
CONTINUOUS
 62
     7
 10
-473.0
 20
338.0
 30
0.0
  0
POINT
  5
D9
  8
DEFPOINTS
  6
CONTINUOUS
 62
     7
 10
-543.0
 20
72.210874
 30
0.0
  0
POINT
  5
DA
  8
DEFPOINTS
  6
CONTINUOUS
 62
     7
 10
-1220.407458
 20
72.210874
 30
0.0
  0
LINE
  5
DB
  8
DETAIL
  6
CONTINUOUS
 62
     5
 10
-473.0
 20
227.971373
 30
0.0
 11
-573.0
 21
227.971373
 31
0.0
  0
LINE
  5
DC
  8
DETAIL
  6
CONTINUOUS
 62
     5
 10
-573.0
 20
185.221025
 30
0.0
 11
-473.0
 21
162.971373
 31
0.0
  0
ARC
  5
DD
  8
DETAIL
  6
CONTINUOUS
 62
     5
 10
-499.779922
 20
200.660002
 30
0.0
 40
12.774686
 50
134.204004
 51
45.795996
  0
LINE
  5
DE
  8
DETAIL
  6
CONTINUOUS
 62
     5
 10
-523.0
 20
97.210874
 30
0.0
 11
-523.0
 21
47.210874
 31
0.0
  0
LINE
  5
DF
  8
NOTE
  6
CONTINUOUS
 62
     4
 10
-292.0
 20
304.0
 30
0.0
 11
-252.0
 21
304.0
 31
0.0
  0
LINE
  5
E0
  8
NOTE
  6
CONTINUOUS
 62
     4
 10
-272.0
 20
284.0
 30
0.0
 11
-272.0
 21
324.0
 31
0.0
  0
LINE
  5
E1
  8
NOTE
  6
CONTINUOUS
 62
     4
 10
-292.0
 20
145.0
 30
0.0
 11
-252.0
 21
145.0
 31
0.0
  0
LINE
  5
E2
  8
NOTE
  6
CONTINUOUS
 62
     4
 10
-272.0
 20
125.0
 30
0.0
 11
-272.0
 21
165.0
 31
0.0
  0
LINE
  5
E3
  8
NOTE
  6
CONTINUOUS
 62
     4
 10
-93.0
 20
304.0
 30
0.0
 11
-53.0
 21
304.0
 31
0.0
  0
LINE
  5
E4
  8
NOTE
  6
CONTINUOUS
 62
     4
 10
-73.0
 20
284.0
 30
0.0
 11
-73.0
 21
324.0
 31
0.0
  0
LINE
  5
E5
  8
NOTE
  6
CONTINUOUS
 62
     4
 10
-93.0
 20
145.0
 30
0.0
 11
-53.0
 21
145.0
 31
0.0
  0
LINE
  5
E6
  8
NOTE
  6
CONTINUOUS
 62
     4
 10
-73.0
 20
125.0
 30
0.0
 11
-73.0
 21
165.0
 31
0.0
  0
LINE
  5
E7
  8
NOTE
  6
CONTINUOUS
 62
     4
 10
106.0
 20
304.0
 30
0.0
 11
146.0
 21
304.0
 31
0.0
  0
LINE
  5
E8
  8
NOTE
  6
CONTINUOUS
 62
     4
 10
126.0
 20
284.0
 30
0.0
 11
126.0
 21
324.0
 31
0.0
  0
LINE
  5
E9
  8
NOTE
  6
CONTINUOUS
 62
     4
 10
106.0
 20
145.0
 30
0.0
 11
146.0
 21
145.0
 31
0.0
  0
LINE
  5
EA
  8
NOTE
  6
CONTINUOUS
 62
     4
 10
126.0
 20
125.0
 30
0.0
 11
126.0
 21
165.0
 31
0.0
  0
LINE
  5
EB
  8
DETAIL
  6
CONTINUOUS
 62
     5
 10
-252.0
 20
286.0
 30
0.0
 11
106.0
 21
286.0
 31
0.0
  0
LINE
  5
EC
  8
DETAIL
  6
CONTINUOUS
 62
     5
 10
-252.0
 20
176.0
 30
0.0
 11
106.0
 21
176.0
 31
0.0
  0
LINE
  5
ED
  8
DETAIL
  6
CONTINUOUS
 62
     5
 10
-252.0
 20
286.0
 30
0.0
 11
-252.0
 21
176.0
 31
0.0
  0
LINE
  5
EE
  8
DETAIL
  6
CONTINUOUS
 62
     5
 10
106.0
 20
286.0
 30
0.0
 11
106.0
 21
176.0
 31
0.0
  0
CIRCLE
  5
EF
  8
DETAIL
  6
CONTINUOUS
 62
     5
 10
-272.0
 20
304.0
 30
0.0
 40
1.45
  0
CIRCLE
  5
F0
  8
DETAIL
  6
CONTINUOUS
 62
     5
 10
-73.0
 20
304.0
 30
0.0
 40
1.45
  0
CIRCLE
  5
F1
  8
DETAIL
  6
CONTINUOUS
 62
     5
 10
126.0
 20
304.0
 30
0.0
 40
1.45
  0
CIRCLE
  5
F2
  8
DETAIL
  6
CONTINUOUS
 62
     5
 10
126.0
 20
145.0
 30
0.0
 40
1.45
  0
CIRCLE
  5
F3
  8
DETAIL
  6
CONTINUOUS
 62
     5
 10
-73.0
 20
145.0
 30
0.0
 40
1.45
  0
CIRCLE
  5
F4
  8
DETAIL
  6
CONTINUOUS
 62
     5
 10
-272.0
 20
145.0
 30
0.0
 40
1.45
  0
LINE
  5
F5
  8
SIZE
  6
CONTINUOUS
 62
    30
 10
126.0
 20
344.0
 30
0.0
 11
126.0
 21
506.62242
 31
0.0
  0
LINE
  5
F6
  8
SIZE
  6
CONTINUOUS
 62
    30
 10
-73.0
 20
344.0
 30
0.0
 11
-73.0
 21
506.62242
 31
0.0
  0
LINE
  5
F7
  8
SIZE
  6
CONTINUOUS
 62
    30
 10
116.0
 20
476.62242
 30
0.0
 11
-63.0
 21
476.62242
 31
0.0
  0
CIRCLE
  5
F8
  8
SIZE
  6
CONTINUOUS
 62
    30
 10
126.0
 20
476.62242
 30
0.0
 40
5.0
  0
LINE
  5
F9
  8
SIZE
  6
CONTINUOUS
 62
    30
 10
121.0
 20
476.62242
 30
0.0
 11
116.0
 21
476.62242
 31
0.0
  0
CIRCLE
  5
FA
  8
SIZE
  6
CONTINUOUS
 62
    30
 10
-73.0
 20
476.62242
 30
0.0
 40
5.0
  0
LINE
  5
FB
  8
SIZE
  6
CONTINUOUS
 62
    30
 10
-68.0
 20
476.62242
 30
0.0
 11
-63.0
 21
476.62242
 31
0.0
  0
TEXT
  5
FC
  8
SIZE
  6
CONTINUOUS
 62
    30
 10
-40.7
 20
496.62242
 30
0.0
 40
64.0
  1
199
 41
0.9
 72
     1
 11
26.5
 21
496.62242
 31
0.0
  0
POINT
  5
FD
  8
DEFPOINTS
  6
CONTINUOUS
 62
     7
 10
126.0
 20
324.0
 30
0.0
  0
POINT
  5
FE
  8
DEFPOINTS
  6
CONTINUOUS
 62
     7
 10
-73.0
 20
324.0
 30
0.0
  0
POINT
  5
FF
  8
DEFPOINTS
  6
CONTINUOUS
 62
     7
 10
-73.0
 20
476.62242
 30
0.0
  0
LINE
  5
100
  8
SIZE
  6
CONTINUOUS
 62
    30
 10
-73.0
 20
344.0
 30
0.0
 11
-73.0
 21
506.62242
 31
0.0
  0
LINE
  5
101
  8
SIZE
  6
CONTINUOUS
 62
    30
 10
-272.0
 20
344.0
 30
0.0
 11
-272.0
 21
506.62242
 31
0.0
  0
LINE
  5
102
  8
SIZE
  6
CONTINUOUS
 62
    30
 10
-83.0
 20
476.62242
 30
0.0
 11
-262.0
 21
476.62242
 31
0.0
  0
CIRCLE
  5
103
  8
SIZE
  6
CONTINUOUS
 62
    30
 10
-73.0
 20
476.62242
 30
0.0
 40
5.0
  0
LINE
  5
104
  8
SIZE
  6
CONTINUOUS
 62
    30
 10
-78.0
 20
476.62242
 30
0.0
 11
-83.0
 21
476.62242
 31
0.0
  0
CIRCLE
  5
105
  8
SIZE
  6
CONTINUOUS
 62
    30
 10
-272.0
 20
476.62242
 30
0.0
 40
5.0
  0
LINE
  5
106
  8
SIZE
  6
CONTINUOUS
 62
    30
 10
-267.0
 20
476.62242
 30
0.0
 11
-262.0
 21
476.62242
 31
0.0
  0
TEXT
  5
107
  8
SIZE
  6
CONTINUOUS
 62
    30
 10
-239.7
 20
496.62242
 30
0.0
 40
64.0
  1
199
 41
0.9
 72
     1
 11
-172.5
 21
496.62242
 31
0.0
  0
POINT
  5
108
  8
DEFPOINTS
  6
CONTINUOUS
 62
     7
 10
-73.0
 20
324.0
 30
0.0
  0
POINT
  5
109
  8
DEFPOINTS
  6
CONTINUOUS
 62
     7
 10
-272.0
 20
324.0
 30
0.0
  0
POINT
  5
10A
  8
DEFPOINTS
  6
CONTINUOUS
 62
     7
 10
-272.0
 20
476.62242
 30
0.0
  0
LINE
  5
10B
  8
SIZE
  6
CONTINUOUS
 62
    30
 10
-272.0
 20
344.0
 30
0.0
 11
-272.0
 21
506.62242
 31
0.0
  0
LINE
  5
10C
  8
SIZE
  6
CONTINUOUS
 62
    30
 10
-473.0
 20
358.0
 30
0.0
 11
-473.0
 21
506.62242
 31
0.0
  0
LINE
  5
10D
  8
SIZE
  6
CONTINUOUS
 62
    30
 10
-282.0
 20
476.62242
 30
0.0
 11
-463.0
 21
476.62242
 31
0.0
  0
CIRCLE
  5
10E
  8
SIZE
  6
CONTINUOUS
 62
    30
 10
-272.0
 20
476.62242
 30
0.0
 40
5.0
  0
LINE
  5
10F
  8
SIZE
  6
CONTINUOUS
 62
    30
 10
-277.0
 20
476.62242
 30
0.0
 11
-282.0
 21
476.62242
 31
0.0
  0
CIRCLE
  5
110
  8
SIZE
  6
CONTINUOUS
 62
    30
 10
-473.0
 20
476.62242
 30
0.0
 40
5.0
  0
LINE
  5
111
  8
SIZE
  6
CONTINUOUS
 62
    30
 10
-468.0
 20
476.62242
 30
0.0
 11
-463.0
 21
476.62242
 31
0.0
  0
TEXT
  5
112
  8
SIZE
  6
CONTINUOUS
 62
    30
 10
-434.214286
 20
496.62242
 30
0.0
 40
64.0
  1
201
 41
0.9
 72
     1
 11
-372.5
 21
496.62242
 31
0.0
  0
POINT
  5
113
  8
DEFPOINTS
  6
CONTINUOUS
 62
     7
 10
-272.0
 20
324.0
 30
0.0
  0
POINT
  5
114
  8
DEFPOINTS
  6
CONTINUOUS
 62
     7
 10
-473.0
 20
338.0
 30
0.0
  0
POINT
  5
115
  8
DEFPOINTS
  6
CONTINUOUS
 62
     7
 10
-473.0
 20
476.62242
 30
0.0
  0
LINE
  5
116
  8
SIZE
  6
CONTINUOUS
 62
    30
 10
106.0
 20
306.0
 30
0.0
 11
106.0
 21
632.009344
 31
0.0
  0
LINE
  5
117
  8
SIZE
  6
CONTINUOUS
 62
    30
 10
-252.0
 20
306.0
 30
0.0
 11
-252.0
 21
632.009344
 31
0.0
  0
LINE
  5
118
  8
SIZE
  6
CONTINUOUS
 62
    30
 10
96.0
 20
602.009344
 30
0.0
 11
-242.0
 21
602.009344
 31
0.0
  0
CIRCLE
  5
119
  8
SIZE
  6
CONTINUOUS
 62
    30
 10
106.0
 20
602.009344
 30
0.0
 40
5.0
  0
LINE
  5
11A
  8
SIZE
  6
CONTINUOUS
 62
    30
 10
101.0
 20
602.009344
 30
0.0
 11
96.0
 21
602.009344
 31
0.0
  0
CIRCLE
  5
11B
  8
SIZE
  6
CONTINUOUS
 62
    30
 10
-252.0
 20
602.009344
 30
0.0
 40
5.0
  0
LINE
  5
11C
  8
SIZE
  6
CONTINUOUS
 62
    30
 10
-247.0
 20
602.009344
 30
0.0
 11
-242.0
 21
602.009344
 31
0.0
  0
TEXT
  5
11D
  8
SIZE
  6
CONTINUOUS
 62
    30
 10
-147.057143
 20
622.009344
 30
0.0
 40
64.0
  1
358
 41
0.9
 72
     1
 11
-73.0
 21
622.009344
 31
0.0
  0
POINT
  5
11E
  8
DEFPOINTS
  6
CONTINUOUS
 62
     7
 10
106.0
 20
286.0
 30
0.0
  0
POINT
  5
11F
  8
DEFPOINTS
  6
CONTINUOUS
 62
     7
 10
-252.0
 20
286.0
 30
0.0
  0
POINT
  5
120
  8
DEFPOINTS
  6
CONTINUOUS
 62
     7
 10
-252.0
 20
602.009344
 30
0.0
  0
POLYLINE
  5
121
  8
NOTE
  6
CONTINUOUS
 62
     4
 66
     1
 10
0.0
 20
0.0
 30
0.0
  0
VERTEX
  5
122
  8
NOTE
  6
CONTINUOUS
 62
     4
 10
153.800801
 20
332.759615
 30
0.0
  0
VERTEX
  5
123
  8
NOTE
  6
CONTINUOUS
 62
     4
 10
126.0
 20
304.0
 30
0.0
  0
VERTEX
  5
124
  8
NOTE
  6
CONTINUOUS
 62
     4
 10
164.456007
 20
315.006158
 30
0.0
  0
SEQEND
  5
125
  8
NOTE
  6
CONTINUOUS
 62
     4
  0
LINE
  5
126
  8
NOTE
  6
CONTINUOUS
 62
     4
 10
126.0
 20
304.0
 30
0.0
 11
437.433189
 21
499.561175
 31
0.0
  0
TEXT
  5
127
  8
NOTE
  6
CONTINUOUS
 62
     4
 10
437.139764
 20
516.985598
 30
0.0
 40
64.0
  1
6-%%C2.9取付穴
 41
0.9
  0
LINE
  5
128
  8
NOTE
  6
CONTINUOUS
 62
     4
 10
437.433189
 20
499.561175
 30
0.0
 11
960.14922
 21
499.561175
 31
0.0
  0
LINE
  5
129
  8
NOTE
  6
CONTINUOUS
 62
     4
 10
-477.365919
 20
-153.072731
 30
0.0
 11
-208.22925
 21
250.104992
 31
0.0
  0
TEXT
  5
12A
  8
NOTE
  6
CONTINUOUS
 62
     4
 10
-390.271411
 20
-145.604545
 30
0.0
 40
55.0
  1
分ﾀﾞｸﾄ接続口､別売加湿器接続口
 41
0.9
  0
LINE
  5
12B
  8
NOTE
  6
CONTINUOUS
 62
     4
 10
-477.365919
 20
-153.072731
 30
0.0
 11
485.160811
 21
-153.072731
 31
0.0
  0
CIRCLE
  5
12C
  8
NOTE
  6
CONTINUOUS
 62
     4
 10
-208.22925
 20
250.104992
 30
0.0
 40
5.0
  0
LINE
  5
12D
  8
NOTE
  6
CONTINUOUS
 62
     4
 10
-204.26447
 20
253.151387
 30
0.0
 11
-205.182855
 21
254.069772
 31
0.0
  0
LINE
  5
12E
  8
NOTE
  6
CONTINUOUS
 62
     4
 10
-203.904995
 20
252.615134
 30
0.0
 11
-205.719108
 21
254.429247
 31
0.0
  0
LINE
  5
12F
  8
NOTE
  6
CONTINUOUS
 62
     4
 10
-203.709213
 20
252.242576
 30
0.0
 11
-206.091666
 21
254.625029
 31
0.0
  0
LINE
  5
130
  8
NOTE
  6
CONTINUOUS
 62
     4
 10
-203.574733
 20
251.93132
 30
0.0
 11
-206.402923
 21
254.759509
 31
0.0
  0
LINE
  5
131
  8
NOTE
  6
CONTINUOUS
 62
     4
 10
-203.475754
 20
251.655563
 30
0.0
 11
-206.678679
 21
254.858488
 31
0.0
  0
LINE
  5
132
  8
NOTE
  6
CONTINUOUS
 62
     4
 10
-203.40093
 20
251.403963
 30
0.0
 11
-206.930279
 21
254.933312
 31
0.0
  0
LINE
  5
133
  8
NOTE
  6
CONTINUOUS
 62
     4
 10
-203.34406
 20
251.170316
 30
0.0
 11
-207.163926
 21
254.990182
 31
0.0
  0
LINE
  5
134
  8
NOTE
  6
CONTINUOUS
 62
     4
 10
-203.301306
 20
250.950786
 30
0.0
 11
-207.383457
 21
255.032936
 31
0.0
  0
LINE
  5
135
  8
NOTE
  6
CONTINUOUS
 62
     4
 10
-203.270097
 20
250.7428
 30
0.0
 11
-207.591442
 21
255.064145
 31
0.0
  0
LINE
  5
136
  8
NOTE
  6
CONTINUOUS
 62
     4
 10
-203.248607
 20
250.544533
 30
0.0
 11
-207.789709
 21
255.085635
 31
0.0
  0
LINE
  5
137
  8
NOTE
  6
CONTINUOUS
 62
     4
 10
-203.235486
 20
250.354636
 30
0.0
 11
-207.979606
 21
255.098756
 31
0.0
  0
LINE
  5
138
  8
NOTE
  6
CONTINUOUS
 62
     4
 10
-203.2297
 20
250.172073
 30
0.0
 11
-208.162169
 21
255.104542
 31
0.0
  0
LINE
  5
139
  8
NOTE
  6
CONTINUOUS
 62
     4
 10
-203.230438
 20
249.996033
 30
0.0
 11
-208.338209
 21
255.103805
 31
0.0
  0
LINE
  5
13A
  8
NOTE
  6
CONTINUOUS
 62
     4
 10
-203.237047
 20
249.825867
 30
0.0
 11
-208.508375
 21
255.097195
 31
0.0
  0
LINE
  5
13B
  8
NOTE
  6
CONTINUOUS
 62
     4
 10
-203.248998
 20
249.661041
 30
0.0
 11
-208.673201
 21
255.085244
 31
0.0
  0
LINE
  5
13C
  8
NOTE
  6
CONTINUOUS
 62
     4
 10
-203.265851
 20
249.501117
 30
0.0
 11
-208.833126
 21
255.068391
 31
0.0
  0
LINE
  5
13D
  8
NOTE
  6
CONTINUOUS
 62
     4
 10
-203.287235
 20
249.345724
 30
0.0
 11
-208.988518
 21
255.047007
 31
0.0
  0
LINE
  5
13E
  8
NOTE
  6
CONTINUOUS
 62
     4
 10
-203.312839
 20
249.194552
 30
0.0
 11
-209.139691
 21
255.021403
 31
0.0
  0
LINE
  5
13F
  8
NOTE
  6
CONTINUOUS
 62
     4
 10
-203.342395
 20
249.047331
 30
0.0
 11
-209.286911
 21
254.991847
 31
0.0
  0
LINE
  5
140
  8
NOTE
  6
CONTINUOUS
 62
     4
 10
-203.375673
 20
248.903832
 30
0.0
 11
-209.43041
 21
254.958569
 31
0.0
  0
LINE
  5
141
  8
NOTE
  6
CONTINUOUS
 62
     4
 10
-203.412472
 20
248.763855
 30
0.0
 11
-209.570388
 21
254.92177
 31
0.0
  0
LINE
  5
142
  8
NOTE
  6
CONTINUOUS
 62
     4
 10
-203.452619
 20
248.627225
 30
0.0
 11
-209.707017
 21
254.881623
 31
0.0
  0
LINE
  5
143
  8
NOTE
  6
CONTINUOUS
 62
     4
 10
-203.495961
 20
248.49379
 30
0.0
 11
-209.840452
 21
254.838281
 31
0.0
  0
LINE
  5
144
  8
NOTE
  6
CONTINUOUS
 62
     4
 10
-203.542363
 20
248.363415
 30
0.0
 11
-209.970827
 21
254.791879
 31
0.0
  0
LINE
  5
145
  8
NOTE
  6
CONTINUOUS
 62
     4
 10
-203.591707
 20
248.235983
 30
0.0
 11
-210.098259
 21
254.742535
 31
0.0
  0
LINE
  5
146
  8
NOTE
  6
CONTINUOUS
 62
     4
 10
-203.643889
 20
248.111387
 30
0.0
 11
-210.222855
 21
254.690354
 31
0.0
  0
LINE
  5
147
  8
NOTE
  6
CONTINUOUS
 62
     4
 10
-203.698814
 20
247.989537
 30
0.0
 11
-210.344706
 21
254.635428
 31
0.0
  0
LINE
  5
148
  8
NOTE
  6
CONTINUOUS
 62
     4
 10
-203.756402
 20
247.870348
 30
0.0
 11
-210.463894
 21
254.57784
 31
0.0
  0
LINE
  5
149
  8
NOTE
  6
CONTINUOUS
 62
     4
 10
-203.81658
 20
247.753749
 30
0.0
 11
-210.580493
 21
254.517662
 31
0.0
  0
LINE
  5
14A
  8
NOTE
  6
CONTINUOUS
 62
     4
 10
-203.879283
 20
247.639675
 30
0.0
 11
-210.694567
 21
254.454959
 31
0.0
  0
LINE
  5
14B
  8
NOTE
  6
CONTINUOUS
 62
     4
 10
-203.944455
 20
247.52807
 30
0.0
 11
-210.806172
 21
254.389788
 31
0.0
  0
LINE
  5
14C
  8
NOTE
  6
CONTINUOUS
 62
     4
 10
-204.012045
 20
247.418884
 30
0.0
 11
-210.915359
 21
254.322197
 31
0.0
  0
LINE
  5
14D
  8
NOTE
  6
CONTINUOUS
 62
     4
 10
-204.08201
 20
247.312072
 30
0.0
 11
-211.02217
 21
254.252232
 31
0.0
  0
LINE
  5
14E
  8
NOTE
  6
CONTINUOUS
 62
     4
 10
-204.154313
 20
247.207599
 30
0.0
 11
-211.126644
 21
254.179929
 31
0.0
  0
LINE
  5
14F
  8
NOTE
  6
CONTINUOUS
 62
     4
 10
-204.228922
 20
247.10543
 30
0.0
 11
-211.228812
 21
254.105321
 31
0.0
  0
LINE
  5
150
  8
NOTE
  6
CONTINUOUS
 62
     4
 10
-204.305808
 20
247.00554
 30
0.0
 11
-211.328702
 21
254.028434
 31
0.0
  0
LINE
  5
151
  8
NOTE
  6
CONTINUOUS
 62
     4
 10
-204.38495
 20
246.907906
 30
0.0
 11
-211.426336
 21
253.949292
 31
0.0
  0
LINE
  5
152
  8
NOTE
  6
CONTINUOUS
 62
     4
 10
-204.466331
 20
246.81251
 30
0.0
 11
-211.521732
 21
253.867911
 31
0.0
  0
LINE
  5
153
  8
NOTE
  6
CONTINUOUS
 62
     4
 10
-204.549936
 20
246.719338
 30
0.0
 11
-211.614904
 21
253.784306
 31
0.0
  0
LINE
  5
154
  8
NOTE
  6
CONTINUOUS
 62
     4
 10
-204.635758
 20
246.628383
 30
0.0
 11
-211.705859
 21
253.698484
 31
0.0
  0
LINE
  5
155
  8
NOTE
  6
CONTINUOUS
 62
     4
 10
-204.72379
 20
246.539638
 30
0.0
 11
-211.794604
 21
253.610452
 31
0.0
  0
LINE
  5
156
  8
NOTE
  6
CONTINUOUS
 62
     4
 10
-204.814032
 20
246.453104
 30
0.0
 11
-211.881138
 21
253.52021
 31
0.0
  0
LINE
  5
157
  8
NOTE
  6
CONTINUOUS
 62
     4
 10
-204.906488
 20
246.368783
 30
0.0
 11
-211.965459
 21
253.427754
 31
0.0
  0
LINE
  5
158
  8
NOTE
  6
CONTINUOUS
 62
     4
 10
-205.001166
 20
246.286684
 30
0.0
 11
-212.047558
 21
253.333076
 31
0.0
  0
LINE
  5
159
  8
NOTE
  6
CONTINUOUS
 62
     4
 10
-205.098077
 20
246.206819
 30
0.0
 11
-212.127423
 21
253.236165
 31
0.0
  0
LINE
  5
15A
  8
NOTE
  6
CONTINUOUS
 62
     4
 10
-205.197238
 20
246.129203
 30
0.0
 11
-212.205039
 21
253.137004
 31
0.0
  0
LINE
  5
15B
  8
NOTE
  6
CONTINUOUS
 62
     4
 10
-205.298669
 20
246.053857
 30
0.0
 11
-212.280385
 21
253.035573
 31
0.0
  0
LINE
  5
15C
  8
NOTE
  6
CONTINUOUS
 62
     4
 10
-205.402396
 20
245.980808
 30
0.0
 11
-212.353434
 21
252.931846
 31
0.0
  0
LINE
  5
15D
  8
NOTE
  6
CONTINUOUS
 62
     4
 10
-205.50845
 20
245.910085
 30
0.0
 11
-212.424157
 21
252.825792
 31
0.0
  0
LINE
  5
15E
  8
NOTE
  6
CONTINUOUS
 62
     4
 10
-205.616866
 20
245.841724
 30
0.0
 11
-212.492518
 21
252.717376
 31
0.0
  0
LINE
  5
15F
  8
NOTE
  6
CONTINUOUS
 62
     4
 10
-205.727687
 20
245.775768
 30
0.0
 11
-212.558474
 21
252.606556
 31
0.0
  0
LINE
  5
160
  8
NOTE
  6
CONTINUOUS
 62
     4
 10
-205.840959
 20
245.712263
 30
0.0
 11
-212.621979
 21
252.493283
 31
0.0
  0
LINE
  5
161
  8
NOTE
  6
CONTINUOUS
 62
     4
 10
-205.956737
 20
245.651265
 30
0.0
 11
-212.682977
 21
252.377505
 31
0.0
  0
LINE
  5
162
  8
NOTE
  6
CONTINUOUS
 62
     4
 10
-206.075083
 20
245.592835
 30
0.0
 11
-212.741408
 21
252.259159
 31
0.0
  0
LINE
  5
163
  8
NOTE
  6
CONTINUOUS
 62
     4
 10
-206.196067
 20
245.537042
 30
0.0
 11
-212.7972
 21
252.138175
 31
0.0
  0
LINE
  5
164
  8
NOTE
  6
CONTINUOUS
 62
     4
 10
-206.319768
 20
245.483966
 30
0.0
 11
-212.850276
 21
252.014474
 31
0.0
  0
LINE
  5
165
  8
NOTE
  6
CONTINUOUS
 62
     4
 10
-206.446275
 20
245.433697
 30
0.0
 11
-212.900546
 21
251.887967
 31
0.0
  0
LINE
  5
166
  8
NOTE
  6
CONTINUOUS
 62
     4
 10
-206.575689
 20
245.386334
 30
0.0
 11
-212.947908
 21
251.758553
 31
0.0
  0
LINE
  5
167
  8
NOTE
  6
CONTINUOUS
 62
     4
 10
-206.708123
 20
245.341991
 30
0.0
 11
-212.992251
 21
251.626119
 31
0.0
  0
LINE
  5
168
  8
NOTE
  6
CONTINUOUS
 62
     4
 10
-206.843708
 20
245.300799
 30
0.0
 11
-213.033443
 21
251.490535
 31
0.0
  0
LINE
  5
169
  8
NOTE
  6
CONTINUOUS
 62
     4
 10
-206.982588
 20
245.262902
 30
0.0
 11
-213.07134
 21
251.351654
 31
0.0
  0
LINE
  5
16A
  8
NOTE
  6
CONTINUOUS
 62
     4
 10
-207.124931
 20
245.228469
 30
0.0
 11
-213.105773
 21
251.209311
 31
0.0
  0
LINE
  5
16B
  8
NOTE
  6
CONTINUOUS
 62
     4
 10
-207.270928
 20
245.197689
 30
0.0
 11
-213.136553
 21
251.063314
 31
0.0
  0
LINE
  5
16C
  8
NOTE
  6
CONTINUOUS
 62
     4
 10
-207.4208
 20
245.170784
 30
0.0
 11
-213.163458
 21
250.913443
 31
0.0
  0
LINE
  5
16D
  8
NOTE
  6
CONTINUOUS
 62
     4
 10
-207.5748
 20
245.148007
 30
0.0
 11
-213.186235
 21
250.759442
 31
0.0
  0
LINE
  5
16E
  8
NOTE
  6
CONTINUOUS
 62
     4
 10
-207.733226
 20
245.129657
 30
0.0
 11
-213.204585
 21
250.601016
 31
0.0
  0
LINE
  5
16F
  8
NOTE
  6
CONTINUOUS
 62
     4
 10
-207.896427
 20
245.116081
 30
0.0
 11
-213.218161
 21
250.437815
 31
0.0
  0
LINE
  5
170
  8
NOTE
  6
CONTINUOUS
 62
     4
 10
-208.064819
 20
245.107696
 30
0.0
 11
-213.226546
 21
250.269423
 31
0.0
  0
LINE
  5
171
  8
NOTE
  6
CONTINUOUS
 62
     4
 10
-208.2389
 20
245.105001
 30
0.0
 11
-213.229241
 21
250.095342
 31
0.0
  0
LINE
  5
172
  8
NOTE
  6
CONTINUOUS
 62
     4
 10
-208.41928
 20
245.108604
 30
0.0
 11
-213.225638
 21
249.914962
 31
0.0
  0
LINE
  5
173
  8
NOTE
  6
CONTINUOUS
 62
     4
 10
-208.606712
 20
245.11926
 30
0.0
 11
-213.214982
 21
249.72753
 31
0.0
  0
LINE
  5
174
  8
NOTE
  6
CONTINUOUS
 62
     4
 10
-208.802151
 20
245.137922
 30
0.0
 11
-213.19632
 21
249.532091
 31
0.0
  0
LINE
  5
175
  8
NOTE
  6
CONTINUOUS
 62
     4
 10
-209.006831
 20
245.165825
 30
0.0
 11
-213.168417
 21
249.327411
 31
0.0
  0
LINE
  5
176
  8
NOTE
  6
CONTINUOUS
 62
     4
 10
-209.222402
 20
245.20462
 30
0.0
 11
-213.129623
 21
249.11184
 31
0.0
  0
LINE
  5
177
  8
NOTE
  6
CONTINUOUS
 62
     4
 10
-209.451154
 20
245.256595
 30
0.0
 11
-213.077647
 21
248.883088
 31
0.0
  0
LINE
  5
178
  8
NOTE
  6
CONTINUOUS
 62
     4
 10
-209.696436
 20
245.3251
 30
0.0
 11
-213.009142
 21
248.637806
 31
0.0
  0
LINE
  5
179
  8
NOTE
  6
CONTINUOUS
 62
     4
 10
-209.963502
 20
245.41539
 30
0.0
 11
-212.918853
 21
248.37074
 31
0.0
  0
LINE
  5
17A
  8
NOTE
  6
CONTINUOUS
 62
     4
 10
-210.261529
 20
245.536639
 30
0.0
 11
-212.797603
 21
248.072713
 31
0.0
  0
LINE
  5
17B
  8
NOTE
  6
CONTINUOUS
 62
     4
 10
-210.609645
 20
245.707979
 30
0.0
 11
-212.626263
 21
247.724597
 31
0.0
  0
LINE
  5
17C
  8
NOTE
  6
CONTINUOUS
 62
     4
 10
-211.066163
 20
245.98772
 30
0.0
 11
-212.346522
 21
247.268079
 31
0.0
  0
LINE
  5
17D
  8
NOTE
  6
CONTINUOUS
 62
     4
 10
-553.0
 20
216.337688
 30
0.0
 11
-513.0
 21
216.337688
 31
0.0
  0
LINE
  5
17E
  8
NOTE
  6
CONTINUOUS
 62
     4
 10
-533.0
 20
196.337688
 30
0.0
 11
-533.0
 21
236.337688
 31
0.0
  0
LINE
  5
17F
  8
NOTE
  6
CONTINUOUS
 62
     4
 10
-548.0
 20
216.337688
 30
0.0
 11
-508.0
 21
216.337688
 31
0.0
  0
LINE
  5
180
  8
NOTE
  6
CONTINUOUS
 62
     4
 10
-528.0
 20
196.337688
 30
0.0
 11
-528.0
 21
236.337688
 31
0.0
  0
LINE
  5
181
  8
DETAIL
  6
CONTINUOUS
 62
     5
 10
-533.0
 20
222.6877
 30
0.0
 11
-533.0
 21
209.9877
 31
0.0
  0
LINE
  5
182
  8
DETAIL
  6
CONTINUOUS
 62
     5
 10
-473.0
 20
213.1627
 30
0.0
 11
-528.0
 21
213.1627
 31
0.0
  0
LINE
  5
183
  8
DETAIL
  6
CONTINUOUS
 62
     5
 10
-473.0
 20
219.5127
 30
0.0
 11
-528.0
 21
219.5127
 31
0.0
  0
LINE
  5
184
  8
DETAIL
  6
CONTINUOUS
 62
     5
 10
-528.0
 20
219.5127
 30
0.0
 11
-528.0
 21
213.1627
 31
0.0
  0
LINE
  5
185
  8
DETAIL
  6
CONTINUOUS
 62
     5
 10
-473.0
 20
209.9877
 30
0.0
 11
-533.0
 21
209.9877
 31
0.0
  0
LINE
  5
186
  8
DETAIL
  6
CONTINUOUS
 62
     5
 10
-473.0
 20
222.6877
 30
0.0
 11
-533.0
 21
222.6877
 31
0.0
  0
LINE
  5
187
  8
SIZE
  6
CONTINUOUS
 62
    30
 10
-573.0
 20
216.167688
 30
0.0
 11
-931.929226
 21
216.167688
 31
0.0
  0
LINE
  5
188
  8
SIZE
  6
CONTINUOUS
 62
    30
 10
-493.0
 20
338.0
 30
0.0
 11
-931.929226
 21
338.0
 31
0.0
  0
LINE
  5
189
  8
SIZE
  6
CONTINUOUS
 62
    30
 10
-901.929226
 20
206.167688
 30
0.0
 11
-901.929226
 21
196.167688
 31
0.0
  0
LINE
  5
18A
  8
SIZE
  6
CONTINUOUS
 62
    30
 10
-901.929226
 20
348.0
 30
0.0
 11
-901.929226
 21
358.0
 31
0.0
  0
LINE
  5
18B
  8
SIZE
  6
CONTINUOUS
 62
    30
 10
-901.929226
 20
216.167688
 30
0.0
 11
-901.929226
 21
338.0
 31
0.0
  0
CIRCLE
  5
18C
  8
SIZE
  6
CONTINUOUS
 62
    30
 10
-901.929226
 20
216.167688
 30
0.0
 40
5.0
  0
LINE
  5
18D
  8
SIZE
  6
CONTINUOUS
 62
    30
 10
-901.929226
 20
211.167688
 30
0.0
 11
-901.929226
 21
206.167688
 31
0.0
  0
CIRCLE
  5
18E
  8
SIZE
  6
CONTINUOUS
 62
    30
 10
-901.929226
 20
338.0
 30
0.0
 40
5.0
  0
LINE
  5
18F
  8
SIZE
  6
CONTINUOUS
 62
    30
 10
-901.929226
 20
343.0
 30
0.0
 11
-901.929226
 21
348.0
 31
0.0
  0
TEXT
  5
190
  8
SIZE
  6
CONTINUOUS
 62
    30
 10
-921.929226
 20
208.512415
 30
0.0
 40
64.0
  1
122
 50
90.0
 41
0.9
 72
     1
 11
-921.929226
 21
277.083844
 31
0.0
  0
POINT
  5
191
  8
DEFPOINTS
  6
CONTINUOUS
 62
     7
 10
-553.0
 20
216.167688
 30
0.0
  0
POINT
  5
192
  8
DEFPOINTS
  6
CONTINUOUS
 62
     7
 10
-473.0
 20
338.0
 30
0.0
  0
POINT
  5
193
  8
DEFPOINTS
  6
CONTINUOUS
 62
     7
 10
-901.929226
 20
338.0
 30
0.0
  0
LINE
  5
194
  8
NOTE
  6
CONTINUOUS
 62
     4
 10
-533.0
 20
216.337688
 30
0.0
 11
-950.566934
 21
497.904386
 31
0.0
  0
POLYLINE
  5
195
  8
NOTE
  6
CONTINUOUS
 62
     4
 66
     1
 10
0.0
 20
0.0
 30
0.0
  0
VERTEX
  5
196
  8
NOTE
  6
CONTINUOUS
 62
     4
 10
-570.840123
 20
229.303995
 30
0.0
  0
VERTEX
  5
197
  8
NOTE
  6
CONTINUOUS
 62
     4
 10
-533.0
 20
216.337688
 30
0.0
  0
VERTEX
  5
198
  8
NOTE
  6
CONTINUOUS
 62
     4
 10
-559.287353
 20
246.4869
 30
0.0
  0
SEQEND
  5
199
  8
NOTE
  6
CONTINUOUS
 62
     4
  0
LINE
  5
19A
  8
NOTE
  6
CONTINUOUS
 62
     4
 10
-528.0
 20
216.337688
 30
0.0
 11
-810.603722
 21
633.203477
 31
0.0
  0
POLYLINE
  5
19B
  8
NOTE
  6
CONTINUOUS
 62
     4
 66
     1
 10
0.0
 20
0.0
 30
0.0
  0
VERTEX
  5
19C
  8
NOTE
  6
CONTINUOUS
 62
     4
 10
-558.285132
 20
242.468336
 30
0.0
  0
VERTEX
  5
19D
  8
NOTE
  6
CONTINUOUS
 62
     4
 10
-528.0
 20
216.337688
 30
0.0
  0
VERTEX
  5
19E
  8
NOTE
  6
CONTINUOUS
 62
     4
 10
-541.16237
 20
254.110058
 30
0.0
  0
SEQEND
  5
19F
  8
NOTE
  6
CONTINUOUS
 62
     4
  0
LINE
  5
1A0
  8
NOTE
  6
CONTINUOUS
 62
     4
 10
-1212.634485
 20
633.203477
 30
0.0
 11
-810.603722
 21
633.203477
 31
0.0
  0
LINE
  5
1A1
  8
NOTE
  6
CONTINUOUS
 62
     4
 10
-1348.744367
 20
497.904386
 30
0.0
 11
-950.566934
 21
497.904386
 31
0.0
  0
LINE
  5
1A2
  8
SIZE
  6
CONTINUOUS
 62
    30
 10
126.0
 20
286.0
 30
0.0
 11
295.433173
 21
286.0
 31
0.0
  0
LINE
  5
1A3
  8
SIZE
  6
CONTINUOUS
 62
    30
 10
126.0
 20
176.0
 30
0.0
 11
295.433173
 21
176.0
 31
0.0
  0
LINE
  5
1A4
  8
SIZE
  6
CONTINUOUS
 62
    30
 10
265.433173
 20
296.0
 30
0.0
 11
265.433173
 21
306.0
 31
0.0
  0
LINE
  5
1A5
  8
SIZE
  6
CONTINUOUS
 62
    30
 10
265.433173
 20
166.0
 30
0.0
 11
265.433173
 21
156.0
 31
0.0
  0
LINE
  5
1A6
  8
SIZE
  6
CONTINUOUS
 62
    30
 10
265.433173
 20
286.0
 30
0.0
 11
265.433173
 21
176.0
 31
0.0
  0
CIRCLE
  5
1A7
  8
SIZE
  6
CONTINUOUS
 62
    30
 10
265.433173
 20
286.0
 30
0.0
 40
5.0
  0
LINE
  5
1A8
  8
SIZE
  6
CONTINUOUS
 62
    30
 10
265.433173
 20
291.0
 30
0.0
 11
265.433173
 21
296.0
 31
0.0
  0
CIRCLE
  5
1A9
  8
SIZE
  6
CONTINUOUS
 62
    30
 10
265.433173
 20
176.0
 30
0.0
 40
5.0
  0
LINE
  5
1AA
  8
SIZE
  6
CONTINUOUS
 62
    30
 10
265.433173
 20
171.0
 30
0.0
 11
265.433173
 21
166.0
 31
0.0
  0
TEXT
  5
1AB
  8
SIZE
  6
CONTINUOUS
 62
    30
 10
245.433173
 20
167.914286
 30
0.0
 40
64.0
  1
110
 50
90.0
 41
0.9
 72
     1
 11
245.433173
 21
231.0
 31
0.0
  0
POINT
  5
1AC
  8
DEFPOINTS
  6
CONTINUOUS
 62
     7
 10
106.0
 20
286.0
 30
0.0
  0
POINT
  5
1AD
  8
DEFPOINTS
  6
CONTINUOUS
 62
     7
 10
106.0
 20
176.0
 30
0.0
  0
POINT
  5
1AE
  8
DEFPOINTS
  6
CONTINUOUS
 62
     7
 10
265.433173
 20
176.0
 30
0.0
  0
LINE
  5
1AF
  8
SIZE
  6
CONTINUOUS
 62
    30
 10
-312.0
 20
304.0
 30
0.0
 11
-379.167771
 21
304.0
 31
0.0
  0
LINE
  5
1B0
  8
SIZE
  6
CONTINUOUS
 62
    30
 10
-312.0
 20
145.0
 30
0.0
 11
-379.167771
 21
145.0
 31
0.0
  0
LINE
  5
1B1
  8
SIZE
  6
CONTINUOUS
 62
    30
 10
-349.167771
 20
314.0
 30
0.0
 11
-349.167771
 21
324.0
 31
0.0
  0
LINE
  5
1B2
  8
SIZE
  6
CONTINUOUS
 62
    30
 10
-349.167771
 20
135.0
 30
0.0
 11
-349.167771
 21
125.0
 31
0.0
  0
LINE
  5
1B3
  8
SIZE
  6
CONTINUOUS
 62
    30
 10
-349.167771
 20
304.0
 30
0.0
 11
-349.167771
 21
145.0
 31
0.0
  0
CIRCLE
  5
1B4
  8
SIZE
  6
CONTINUOUS
 62
    30
 10
-349.167771
 20
304.0
 30
0.0
 40
5.0
  0
LINE
  5
1B5
  8
SIZE
  6
CONTINUOUS
 62
    30
 10
-349.167771
 20
309.0
 30
0.0
 11
-349.167771
 21
314.0
 31
0.0
  0
CIRCLE
  5
1B6
  8
SIZE
  6
CONTINUOUS
 62
    30
 10
-349.167771
 20
145.0
 30
0.0
 40
5.0
  0
LINE
  5
1B7
  8
SIZE
  6
CONTINUOUS
 62
    30
 10
-349.167771
 20
140.0
 30
0.0
 11
-349.167771
 21
135.0
 31
0.0
  0
TEXT
  5
1B8
  8
SIZE
  6
CONTINUOUS
 62
    30
 10
-369.167771
 20
157.3
 30
0.0
 40
64.0
  1
159
 50
90.0
 41
0.9
 72
     1
 11
-369.167771
 21
224.5
 31
0.0
  0
POINT
  5
1B9
  8
DEFPOINTS
  6
CONTINUOUS
 62
     7
 10
-292.0
 20
304.0
 30
0.0
  0
POINT
  5
1BA
  8
DEFPOINTS
  6
CONTINUOUS
 62
     7
 10
-292.0
 20
145.0
 30
0.0
  0
POINT
  5
1BB
  8
DEFPOINTS
  6
CONTINUOUS
 62
     7
 10
-349.167771
 20
145.0
 30
0.0
  0
TEXT
  5
1BC
  8
NOTE
  6
CONTINUOUS
 62
     4
 10
-1219.017569
 20
660.346901
 30
0.0
 40
64.0
  1
RL φ6.35
 41
0.9
  0
TEXT
  5
1BD
  8
NOTE
  6
CONTINUOUS
 62
     4
 10
-1406.665018
 20
521.549402
 30
0.0
 40
64.0
  1
RG φ12.7
 41
0.9
  0
LINE
  5
1BE
  8
OUTLINE
  6
CONTINUOUS
 62
     3
 10
-497.0
 20
294.0
 30
0.0
 11
-497.0
 21
262.0
 31
0.0
  0
LINE
  5
1BF
  8
OUTLINE
  6
CONTINUOUS
 62
     3
 10
-473.0
 20
338.0
 30
0.0
 11
473.0
 21
338.0
 31
0.0
  0
LINE
  5
1C0
  8
OUTLINE
  6
CONTINUOUS
 62
     3
 10
-583.0
 20
45.0
 30
0.0
 11
-473.0
 21
45.0
 31
0.0
  0
LINE
  5
1C1
  8
OUTLINE
  6
CONTINUOUS
 62
     3
 10
-625.0
 20
0.0
 30
0.0
 11
-583.0
 21
0.0
 31
0.0
  0
LINE
  5
1C2
  8
OUTLINE
  6
CONTINUOUS
 62
     3
 10
583.0
 20
45.0
 30
0.0
 11
583.0
 21
0.0
 31
0.0
  0
LINE
  5
1C3
  8
OUTLINE
  6
CONTINUOUS
 62
     3
 10
473.0
 20
338.0
 30
0.0
 11
473.0
 21
45.0
 31
0.0
  0
LINE
  5
1C4
  8
OUTLINE
  6
CONTINUOUS
 62
     3
 10
473.0
 20
148.0
 30
0.0
 11
523.0
 21
148.0
 31
0.0
  0
LINE
  5
1C5
  8
OUTLINE
  6
CONTINUOUS
 62
     3
 10
473.0
 20
145.0
 30
0.0
 11
520.0
 21
145.0
 31
0.0
  0
LINE
  5
1C6
  8
OUTLINE
  6
CONTINUOUS
 62
     3
 10
520.0
 20
140.0
 30
0.0
 11
523.0
 21
140.0
 31
0.0
  0
LINE
  5
1C7
  8
OUTLINE
  6
CONTINUOUS
 62
     3
 10
520.0
 20
145.0
 30
0.0
 11
520.0
 21
140.0
 31
0.0
  0
LINE
  5
1C8
  8
OUTLINE
  6
CONTINUOUS
 62
     3
 10
523.0
 20
148.0
 30
0.0
 11
523.0
 21
140.0
 31
0.0
  0
LINE
  5
1C9
  8
OUTLINE
  6
CONTINUOUS
 62
     3
 10
-583.0
 20
45.0
 30
0.0
 11
-583.0
 21
0.0
 31
0.0
  0
LINE
  5
1CA
  8
OUTLINE
  6
CONTINUOUS
 62
     3
 10
-473.0
 20
338.0
 30
0.0
 11
-473.0
 21
45.0
 31
0.0
  0
LINE
  5
1CB
  8
OUTLINE
  6
CONTINUOUS
 62
     3
 10
-473.0
 20
47.210874
 30
0.0
 11
-523.0
 21
47.210874
 31
0.0
  0
LINE
  5
1CC
  8
OUTLINE
  6
CONTINUOUS
 62
     3
 10
-473.0
 20
97.210874
 30
0.0
 11
-523.0
 21
97.210874
 31
0.0
  0
LINE
  5
1CD
  8
OUTLINE
  6
CONTINUOUS
 62
     3
 10
-520.0
 20
145.0
 30
0.0
 11
-473.0
 21
145.0
 31
0.0
  0
LINE
  5
1CE
  8
OUTLINE
  6
CONTINUOUS
 62
     3
 10
-523.0
 20
148.0
 30
0.0
 11
-473.0
 21
148.0
 31
0.0
  0
LINE
  5
1CF
  8
OUTLINE
  6
CONTINUOUS
 62
     3
 10
-573.0
 20
227.971373
 30
0.0
 11
-573.0
 21
185.221025
 31
0.0
  0
LINE
  5
1D0
  8
OUTLINE
  6
CONTINUOUS
 62
     3
 10
-523.0
 20
140.0
 30
0.0
 11
-520.0
 21
140.0
 31
0.0
  0
LINE
  5
1D1
  8
OUTLINE
  6
CONTINUOUS
 62
     3
 10
-520.0
 20
145.0
 30
0.0
 11
-520.0
 21
140.0
 31
0.0
  0
LINE
  5
1D2
  8
OUTLINE
  6
CONTINUOUS
 62
     3
 10
-523.0
 20
148.0
 30
0.0
 11
-523.0
 21
140.0
 31
0.0
  0
LINE
  5
1D3
  8
OUTLINE
  6
CONTINUOUS
 62
     3
 10
-497.0
 20
262.0
 30
0.0
 11
-473.0
 21
262.0
 31
0.0
  0
LINE
  5
1D4
  8
OUTLINE
  6
CONTINUOUS
 62
     3
 10
-497.0
 20
294.0
 30
0.0
 11
-473.0
 21
294.0
 31
0.0
  0
LINE
  5
1D5
  8
OUTLINE
  6
CONTINUOUS
 62
     3
 10
0.0
 20
-20.0
 30
0.0
 11
557.0
 21
-20.0
 31
0.0
  0
ARC
  5
1D6
  8
OUTLINE
  6
CONTINUOUS
 62
     3
 10
536.907662
 20
173.91395
 30
0.0
 40
194.952102
 50
275.915576
 51
296.863505
  0
LINE
  5
1D7
  8
OUTLINE
  6
CONTINUOUS
 62
     3
 10
0.0
 20
-20.0
 30
0.0
 11
-557.0
 21
-20.0
 31
0.0
  0
ARC
  5
1D8
  8
OUTLINE
  6
CONTINUOUS
 62
     3
 10
-536.907662
 20
173.91395
 30
0.0
 40
194.952102
 50
243.136495
 51
264.084424
  0
LINE
  5
1D9
  8
OUTLINE
  6
CONTINUOUS
 62
     3
 10
-473.0
 20
227.971373
 30
0.0
 11
-573.0
 21
227.971373
 31
0.0
  0
LINE
  5
1DA
  8
OUTLINE
  6
CONTINUOUS
 62
     3
 10
-573.0
 20
185.221025
 30
0.0
 11
-473.0
 21
162.971373
 31
0.0
  0
ARC
  5
1DB
  8
OUTLINE
  6
CONTINUOUS
 62
     3
 10
-499.779922
 20
200.660002
 30
0.0
 40
12.774686
 50
134.204004
 51
45.795996
  0
LINE
  5
1DC
  8
OUTLINE
  6
CONTINUOUS
 62
     3
 10
-523.0
 20
97.210874
 30
0.0
 11
-523.0
 21
47.210874
 31
0.0
  0
LINE
  5
1DD
  8
OUTLINE
  6
CONTINUOUS
 62
     3
 10
-533.0
 20
224.277688
 30
0.0
 11
-533.0
 21
208.397688
 31
0.0
  0
LINE
  5
1DE
  8
OUTLINE
  6
CONTINUOUS
 62
     3
 10
-473.0
 20
211.577688
 30
0.0
 11
-528.0
 21
211.577688
 31
0.0
  0
LINE
  5
1DF
  8
OUTLINE
  6
CONTINUOUS
 62
     3
 10
-473.0
 20
221.097688
 30
0.0
 11
-528.0
 21
221.097688
 31
0.0
  0
LINE
  5
1E0
  8
OUTLINE
  6
CONTINUOUS
 62
     3
 10
-528.0
 20
221.097688
 30
0.0
 11
-528.0
 21
211.577688
 31
0.0
  0
LINE
  5
1E1
  8
OUTLINE
  6
CONTINUOUS
 62
     3
 10
-473.0
 20
208.397688
 30
0.0
 11
-533.0
 21
208.397688
 31
0.0
  0
LINE
  5
1E2
  8
OUTLINE
  6
CONTINUOUS
 62
     3
 10
-473.0
 20
224.277688
 30
0.0
 11
-533.0
 21
224.277688
 31
0.0
  0
LINE
  5
1E3
  8
OUTLINE
  6
CONTINUOUS
 62
     3
 10
473.0
 20
45.0
 30
0.0
 11
583.0
 21
45.0
 31
0.0
  0
LINE
  5
1E4
  8
OUTLINE
  6
CONTINUOUS
 62
     3
 10
583.0
 20
0.0
 30
0.0
 11
625.0
 21
0.0
 31
0.0
  0
LINE
  5
1E5
  8
SIZE
  6
CONTINUOUS
 62
    30
 10
603.0
 20
45.0
 30
0.0
 11
1031.326134
 21
45.0
 31
0.0
  0
LINE
  5
1E6
  8
SIZE
  6
CONTINUOUS
 62
    30
 10
645.0
 20
0.0
 30
0.0
 11
1031.326134
 21
0.0
 31
0.0
  0
LINE
  5
1E7
  8
SIZE
  6
CONTINUOUS
 62
    30
 10
1001.326134
 20
55.0
 30
0.0
 11
1001.326134
 21
65.0
 31
0.0
  0
LINE
  5
1E8
  8
SIZE
  6
CONTINUOUS
 62
    30
 10
1001.326134
 20
-10.0
 30
0.0
 11
1001.326134
 21
-20.0
 31
0.0
  0
LINE
  5
1E9
  8
SIZE
  6
CONTINUOUS
 62
    30
 10
1001.326134
 20
45.0
 30
0.0
 11
1001.326134
 21
0.0
 31
0.0
  0
CIRCLE
  5
1EA
  8
SIZE
  6
CONTINUOUS
 62
    30
 10
1001.326134
 20
45.0
 30
0.0
 40
5.0
  0
LINE
  5
1EB
  8
SIZE
  6
CONTINUOUS
 62
    30
 10
1001.326134
 20
50.0
 30
0.0
 11
1001.326134
 21
55.0
 31
0.0
  0
CIRCLE
  5
1EC
  8
SIZE
  6
CONTINUOUS
 62
    30
 10
1001.326134
 20
0.0
 30
0.0
 40
5.0
  0
LINE
  5
1ED
  8
SIZE
  6
CONTINUOUS
 62
    30
 10
1001.326134
 20
-5.0
 30
0.0
 11
1001.326134
 21
-10.0
 31
0.0
  0
TEXT
  5
1EE
  8
SIZE
  6
CONTINUOUS
 62
    30
 10
981.326134
 20
-24.128571
 30
0.0
 40
64.0
  1
45
 50
90.0
 41
0.9
 72
     1
 11
981.326134
 21
22.5
 31
0.0
  0
POINT
  5
1EF
  8
DEFPOINTS
  6
CONTINUOUS
 62
     7
 10
583.0
 20
45.0
 30
0.0
  0
POINT
  5
1F0
  8
DEFPOINTS
  6
CONTINUOUS
 62
     7
 10
625.0
 20
0.0
 30
0.0
  0
POINT
  5
1F1
  8
DEFPOINTS
  6
CONTINUOUS
 62
     7
 10
1001.326134
 20
0.0
 30
0.0
  0
LINE
  5
1F2
  8
SIZE
  6
CONTINUOUS
 62
    30
 10
645.0
 20
0.0
 30
0.0
 11
874.600959
 21
0.0
 31
0.0
  0
LINE
  5
1F3
  8
SIZE
  6
CONTINUOUS
 62
    30
 10
577.0
 20
-20.0
 30
0.0
 11
874.600959
 21
-20.0
 31
0.0
  0
LINE
  5
1F4
  8
SIZE
  6
CONTINUOUS
 62
    30
 10
844.600959
 20
10.0
 30
0.0
 11
844.600959
 21
20.0
 31
0.0
  0
LINE
  5
1F5
  8
SIZE
  6
CONTINUOUS
 62
    30
 10
844.600959
 20
-30.0
 30
0.0
 11
844.600959
 21
-40.0
 31
0.0
  0
LINE
  5
1F6
  8
SIZE
  6
CONTINUOUS
 62
    30
 10
844.600959
 20
0.0
 30
0.0
 11
844.600959
 21
-20.0
 31
0.0
  0
CIRCLE
  5
1F7
  8
SIZE
  6
CONTINUOUS
 62
    30
 10
844.600959
 20
0.0
 30
0.0
 40
5.0
  0
LINE
  5
1F8
  8
SIZE
  6
CONTINUOUS
 62
    30
 10
844.600959
 20
5.0
 30
0.0
 11
844.600959
 21
10.0
 31
0.0
  0
CIRCLE
  5
1F9
  8
SIZE
  6
CONTINUOUS
 62
    30
 10
844.600959
 20
-20.0
 30
0.0
 40
5.0
  0
LINE
  5
1FA
  8
SIZE
  6
CONTINUOUS
 62
    30
 10
844.600959
 20
-25.0
 30
0.0
 11
844.600959
 21
-30.0
 31
0.0
  0
TEXT
  5
1FB
  8
SIZE
  6
CONTINUOUS
 62
    30
 10
824.600959
 20
-56.628571
 30
0.0
 40
64.0
  1
20
 50
90.0
 41
0.9
 72
     1
 11
824.600959
 21
-10.0
 31
0.0
  0
POINT
  5
1FC
  8
DEFPOINTS
  6
CONTINUOUS
 62
     7
 10
625.0
 20
0.0
 30
0.0
  0
POINT
  5
1FD
  8
DEFPOINTS
  6
CONTINUOUS
 62
     7
 10
557.0
 20
-20.0
 30
0.0
  0
POINT
  5
1FE
  8
DEFPOINTS
  6
CONTINUOUS
 62
     7
 10
844.600959
 20
-20.0
 30
0.0
  0
LINE
  5
1FF
  8
SIZE
  6
CONTINUOUS
 62
    30
 10
20.0
 20
338.0
 30
0.0
 11
123.934038
 21
338.0
 31
0.0
  0
LINE
  5
200
  8
SIZE
  6
CONTINUOUS
 62
    30
 10
86.0
 20
286.0
 30
0.0
 11
63.934038
 21
286.0
 31
0.0
  0
LINE
  5
201
  8
SIZE
  6
CONTINUOUS
 62
    30
 10
93.934038
 20
276.0
 30
0.0
 11
93.934038
 21
266.0
 31
0.0
  0
LINE
  5
202
  8
SIZE
  6
CONTINUOUS
 62
    30
 10
93.934038
 20
348.0
 30
0.0
 11
93.934038
 21
491.257143
 31
0.0
  0
LINE
  5
203
  8
SIZE
  6
CONTINUOUS
 62
    30
 10
93.934038
 20
286.0
 30
0.0
 11
93.934038
 21
338.0
 31
0.0
  0
CIRCLE
  5
204
  8
SIZE
  6
CONTINUOUS
 62
    30
 10
93.934038
 20
286.0
 30
0.0
 40
5.0
  0
LINE
  5
205
  8
SIZE
  6
CONTINUOUS
 62
    30
 10
93.934038
 20
281.0
 30
0.0
 11
93.934038
 21
276.0
 31
0.0
  0
CIRCLE
  5
206
  8
SIZE
  6
CONTINUOUS
 62
    30
 10
93.934038
 20
338.0
 30
0.0
 40
5.0
  0
LINE
  5
207
  8
SIZE
  6
CONTINUOUS
 62
    30
 10
93.934038
 20
343.0
 30
0.0
 11
93.934038
 21
348.0
 31
0.0
  0
TEXT
  5
208
  8
SIZE
  6
CONTINUOUS
 62
    30
 10
73.934038
 20
378.0
 30
0.0
 40
64.0
  1
52
 50
90.0
 41
0.9
 72
     1
 11
73.934038
 21
424.628571
 31
0.0
  0
POINT
  5
209
  8
DEFPOINTS
  6
CONTINUOUS
 62
     7
 10
0.0
 20
338.0
 30
0.0
  0
POINT
  5
20A
  8
DEFPOINTS
  6
CONTINUOUS
 62
     7
 10
106.0
 20
286.0
 30
0.0
  0
POINT
  5
20B
  8
DEFPOINTS
  6
CONTINUOUS
 62
     7
 10
93.934038
 20
286.0
 30
0.0
  0
LINE
  5
20C
  8
SIZE
  6
CONTINUOUS
 62
    30
 10
-20.0
 20
338.0
 30
0.0
 11
-157.547308
 21
338.0
 31
0.0
  0
LINE
  5
20D
  8
SIZE
  6
CONTINUOUS
 62
    30
 10
-113.0
 20
304.0
 30
0.0
 11
-157.547308
 21
304.0
 31
0.0
  0
LINE
  5
20E
  8
SIZE
  6
CONTINUOUS
 62
    30
 10
-127.547308
 20
294.0
 30
0.0
 11
-127.547308
 21
284.0
 31
0.0
  0
LINE
  5
20F
  8
SIZE
  6
CONTINUOUS
 62
    30
 10
-127.547308
 20
348.0
 30
0.0
 11
-127.547308
 21
494.0
 31
0.0
  0
LINE
  5
210
  8
SIZE
  6
CONTINUOUS
 62
    30
 10
-127.547308
 20
304.0
 30
0.0
 11
-127.547308
 21
338.0
 31
0.0
  0
CIRCLE
  5
211
  8
SIZE
  6
CONTINUOUS
 62
    30
 10
-127.547308
 20
304.0
 30
0.0
 40
5.0
  0
LINE
  5
212
  8
SIZE
  6
CONTINUOUS
 62
    30
 10
-127.547308
 20
299.0
 30
0.0
 11
-127.547308
 21
294.0
 31
0.0
  0
CIRCLE
  5
213
  8
SIZE
  6
CONTINUOUS
 62
    30
 10
-127.547308
 20
338.0
 30
0.0
 40
5.0
  0
LINE
  5
214
  8
SIZE
  6
CONTINUOUS
 62
    30
 10
-127.547308
 20
343.0
 30
0.0
 11
-127.547308
 21
348.0
 31
0.0
  0
TEXT
  5
215
  8
SIZE
  6
CONTINUOUS
 62
    30
 10
-147.547308
 20
378.0
 30
0.0
 40
64.0
  1
34
 50
90.0
 41
0.9
 72
     1
 11
-147.547308
 21
426.0
 31
0.0
  0
POINT
  5
216
  8
DEFPOINTS
  6
CONTINUOUS
 62
     7
 10
0.0
 20
338.0
 30
0.0
  0
POINT
  5
217
  8
DEFPOINTS
  6
CONTINUOUS
 62
     7
 10
-93.0
 20
304.0
 30
0.0
  0
POINT
  5
218
  8
DEFPOINTS
  6
CONTINUOUS
 62
     7
 10
-127.547308
 20
304.0
 30
0.0
  0
ENDSEC
  0
EOF
