  0
SECTION
  2
HEADER
  9
$ACADVER
  1
AC1009
  9
$INSBASE
 10
0.0
 20
0.0
 30
0.0
  9
$EXTMIN
 10
-1059.2651030273009
 20
-289.76437844075548
 30
-0.0000000000000053
  9
$EXTMAX
 10
1122.4365456989431
 20
1213.3026294332269
 30
0.0000000000000099
  9
$LIMMIN
 10
-6000.0
 20
-4500.0
  9
$LIMMAX
 10
6000.0
 20
4500.0
  9
$ORTHOMODE
 70
     1
  9
$REGENMODE
 70
     1
  9
$FILLMODE
 70
     1
  9
$QTEXTMODE
 70
     0
  9
$MIRRTEXT
 70
     0
  9
$DRAGMODE
 70
     2
  9
$LTSCALE
 40
20.0
  9
$OSMODE
 70
   431
  9
$ATTMODE
 70
     1
  9
$TEXTSIZE
 40
64.0
  9
$TRACEWID
 40
0.05
  9
$TEXTSTYLE
  7
STANDARD
  9
$CLAYER
  8
SYMBOLLINE
  9
$CELTYPE
  6
CONTINUOUS
  9
$CECOLOR
 62
     7
  9
$DIMSCALE
 40
1.0
  9
$DIMASZ
 40
10.0
  9
$DIMEXO
 40
20.0
  9
$DIMDLI
 40
200.0
  9
$DIMRND
 40
0.0
  9
$DIMDLE
 40
0.0
  9
$DIMEXE
 40
30.0
  9
$DIMTP
 40
0.0
  9
$DIMTM
 40
0.0
  9
$DIMTXT
 40
64.0
  9
$DIMCEN
 40
0.0
  9
$DIMTSZ
 40
0.0
  9
$DIMTOL
 70
     0
  9
$DIMLIM
 70
     0
  9
$DIMTIH
 70
     0
  9
$DIMTOH
 70
     0
  9
$DIMSE1
 70
     0
  9
$DIMSE2
 70
     0
  9
$DIMTAD
 70
     1
  9
$DIMZIN
 70
     8
  9
$DIMBLK
  1

  9
$DIMASO
 70
     1
  9
$DIMSHO
 70
     0
  9
$DIMPOST
  1

  9
$DIMAPOST
  1

  9
$DIMALT
 70
     0
  9
$DIMALTD
 70
     2
  9
$DIMALTF
 40
25.399999999999999
  9
$DIMLFAC
 40
1.0
  9
$DIMTOFL
 70
     1
  9
$DIMTVP
 40
0.0
  9
$DIMTIX
 70
     1
  9
$DIMSOXD
 70
     0
  9
$DIMSAH
 70
     1
  9
$DIMBLK1
  1
DOTBLANK
  9
$DIMBLK2
  1
DOTBLANK
  9
$DIMSTYLE
  2
STANDARD
  9
$DIMCLRD
 70
     0
  9
$DIMCLRE
 70
     0
  9
$DIMCLRT
 70
     0
  9
$DIMTFAC
 40
1.0
  9
$DIMGAP
 40
0.09
  9
$LUNITS
 70
     2
  9
$LUPREC
 70
     4
  9
$SKETCHINC
 40
0.1
  9
$FILLETRAD
 40
20.0
  9
$AUNITS
 70
     1
  9
$AUPREC
 70
     3
  9
$MENU
  1
ACAD
  9
$ELEVATION
 40
0.0
  9
$PELEVATION
 40
0.0
  9
$THICKNESS
 40
0.0
  9
$LIMCHECK
 70
     0
  9
$BLIPMODE
 70
     0
  9
$CHAMFERA
 40
0.0
  9
$CHAMFERB
 40
0.0
  9
$SKPOLY
 70
     0
  9
$TDCREATE
 40
2450330.4399309959
  9
$TDUPDATE
 40
2457053.748159063
  9
$TDINDWG
 40
1.4589962036999999
  9
$TDUSRTIMER
 40
1.4589934258999999
  9
$USRTIMER
 70
     1
  9
$ANGBASE
 50
0.0
  9
$ANGDIR
 70
     0
  9
$PDMODE
 70
     3
  9
$PDSIZE
 40
-2.0
  9
$PLINEWID
 40
0.0
  9
$COORDS
 70
     1
  9
$SPLFRAME
 70
     0
  9
$SPLINETYPE
 70
     6
  9
$SPLINESEGS
 70
     8
  9
$ATTDIA
 70
     1
  9
$ATTREQ
 70
     1
  9
$HANDLING
 70
     1
  9
$HANDSEED
  5
948
  9
$SURFTAB1
 70
     6
  9
$SURFTAB2
 70
     6
  9
$SURFTYPE
 70
     6
  9
$SURFU
 70
     6
  9
$SURFV
 70
     6
  9
$UCSNAME
  2

  9
$UCSORG
 10
0.0
 20
0.0
 30
0.0
  9
$UCSXDIR
 10
1.0
 20
0.0
 30
0.0
  9
$UCSYDIR
 10
0.0
 20
1.0
 30
0.0
  9
$PUCSNAME
  2

  9
$PUCSORG
 10
0.0
 20
0.0
 30
0.0
  9
$PUCSXDIR
 10
1.0
 20
0.0
 30
0.0
  9
$PUCSYDIR
 10
0.0
 20
1.0
 30
0.0
  9
$USERI1
 70
     0
  9
$USERI2
 70
     0
  9
$USERI3
 70
     0
  9
$USERI4
 70
     0
  9
$USERI5
 70
     0
  9
$USERR1
 40
20.0
  9
$USERR2
 40
0.0
  9
$USERR3
 40
0.0
  9
$USERR4
 40
0.0
  9
$USERR5
 40
0.0
  9
$WORLDVIEW
 70
     1
  9
$SHADEDGE
 70
     3
  9
$SHADEDIF
 70
    70
  9
$TILEMODE
 70
     1
  9
$MAXACTVP
 70
    48
  9
$PLIMCHECK
 70
     0
  9
$PEXTMIN
 10
1.0000000000000000E+020
 20
1.0000000000000000E+020
 30
1.0000000000000000E+020
  9
$PEXTMAX
 10
-1.0000000000000000E+020
 20
-1.0000000000000000E+020
 30
-1.0000000000000000E+020
  9
$PLIMMIN
 10
0.0
 20
0.0
  9
$PLIMMAX
 10
12.0
 20
9.0
  9
$UNITMODE
 70
     0
  9
$VISRETAIN
 70
     1
  9
$PLINEGEN
 70
     0
  9
$PSLTSCALE
 70
     1
  0
ENDSEC
  0
SECTION
  2
TABLES
  0
TABLE
  2
VPORT
 70
     1
  0
VPORT
  2
*ACTIVE
 70
     0
 10
0.0
 20
0.0
 11
1.0
 21
1.0
 12
31.585721335821312
 22
461.76912549623557
 13
0.0
 23
0.0
 14
50.0
 24
50.0
 15
100.0
 25
100.0
 16
0.0
 26
0.0
 36
1.0
 17
0.0
 27
0.0
 37
0.0
 40
1514.8711990352961
 41
1.6159895150720831
 42
50.0
 43
0.0
 44
0.0
 50
0.0
 51
0.0
 71
     0
 72
  1000
 73
     1
 74
     0
 75
     0
 76
     0
 77
     0
 78
     0
  0
ENDTAB
  0
TABLE
  2
LTYPE
 70
     3
  0
LTYPE
  2
CONTINUOUS
 70
     0
  3
実線
 72
    65
 73
     0
 40
0.0
  0
LTYPE
  2
DASHDOT
 70
     0
  3
____ _ ____ _ ____ _ ____ _ ____ _ ____ _ ____
 72
    65
 73
     4
 40
5.5
 49
4.0
 49
-0.6
 49
0.3
 49
-0.6
  0
ENDTAB
  0
TABLE
  2
LAYER
 70
    12
  0
LAYER
  2
0
 70
     0
 62
     7
  6
CONTINUOUS
  0
LAYER
  2
SYMBOLLINE
 70
     0
 62
    15
  6
CONTINUOUS
  0
LAYER
  2
SIZE
 70
     0
 62
    30
  6
CONTINUOUS
  0
LAYER
  2
OUTLINE
 70
     0
 62
     3
  6
CONTINUOUS
  0
LAYER
  2
DETAIL
 70
     0
 62
     5
  6
CONTINUOUS
  0
LAYER
  2
BASIS
 70
     0
 62
     6
  6
DASHDOT
  0
LAYER
  2
NOTE
 70
     0
 62
     4
  6
CONTINUOUS
  0
LAYER
  2
ARRANGE
 70
     0
 62
     1
  6
CONTINUOUS
  0
LAYER
  2
FIX
 70
     0
 62
    11
  6
CONTINUOUS
  0
LAYER
  2
SERVICESPACE
 70
     0
 62
     2
  6
DASHDOT
  0
LAYER
  2
ETC
 70
     0
 62
    61
  6
CONTINUOUS
  0
LAYER
  2
DEFPOINTS
 70
     0
 62
     7
  6
CONTINUOUS
  0
ENDTAB
  0
TABLE
  2
STYLE
 70
     2
  0
STYLE
  2
STANDARD
 70
     0
 40
0.0
 41
0.9
 50
0.0
 71
     0
 42
64.0
  3
SIMPLEX
  4
BIGFONT
  0
STYLE
  2
ANNOTATIVE
 70
     0
 40
0.0
 41
1.0
 50
0.0
 71
     0
 42
0.2
  3
txt
  4

  0
ENDTAB
  0
TABLE
  2
VIEW
 70
     1
  0
VIEW
  2
ALL
 70
     0
 40
9000.0
 10
241.50664699999999
 20
0.0
 41
12483.01
 11
0.0
 21
0.0
 31
1.0
 12
0.0
 22
0.0
 32
0.0
 42
50.0
 43
0.0
 44
0.0
 50
0.0
 71
     0
  0
ENDTAB
  0
TABLE
  2
UCS
 70
     0
  0
ENDTAB
  0
TABLE
  2
APPID
 70
     5
  0
APPID
  2
ACAD
 70
     0
  0
APPID
  2
ACADANNOTATIVE
 70
     0
  0
APPID
  2
ACAD_MLEADERVER
 70
     0
  0
APPID
  2
ACAD_EXEMPT_FROM_CAD_STANDARDS
 70
     0
  0
APPID
  2
ACAD_NAV_VCDISPLAY
 70
     0
  0
ENDTAB
  0
TABLE
  2
DIMSTYLE
 70
     3
  0
DIMSTYLE
  2
STANDARD
 70
     0
  3

  4

  5

  6

  7

 40
1.0
 41
0.18
 42
0.0625
 43
0.38
 44
0.18
 45
0.0
 46
0.0
 47
0.0
 48
0.0
140
0.18
141
0.09
142
0.0
143
25.399999999999999
144
1.0
145
0.0
146
1.0
147
0.09
 71
     0
 72
     0
 73
     1
 74
     1
 75
     0
 76
     0
 77
     0
 78
     0
170
     0
171
     2
172
     0
173
     0
174
     0
175
     0
176
     0
177
     0
178
     0
  0
DIMSTYLE
  2
ANNOTATIVE
 70
     0
  3

  4

  5

  6

  7

 40
1.0
 41
0.18
 42
0.0625
 43
0.38
 44
0.18
 45
0.0
 46
0.0
 47
0.0
 48
0.0
140
0.18
141
0.09
142
0.0
143
25.399999999999999
144
1.0
145
0.0
146
1.0
147
0.09
 71
     0
 72
     0
 73
     1
 74
     1
 75
     0
 76
     0
 77
     0
 78
     0
170
     0
171
     2
172
     0
173
     0
174
     0
175
     0
176
     0
177
     0
178
     0
  0
ENDTAB
  0
ENDSEC
  0
SECTION
  2
BLOCKS
  0
BLOCK
  8
0
  2
$MODEL_SPACE
 70
     0
 10
0.0
 20
0.0
 30
0.0
  3
$MODEL_SPACE
  1

  0
ENDBLK
  5
8AC
  8
0
  0
BLOCK
 67
     1
  8
0
  2
$PAPER_SPACE
 70
     0
 10
0.0
 20
0.0
 30
0.0
  3
$PAPER_SPACE
  1

  0
ENDBLK
  5
8A8
 67
     1
  8
0
  0
BLOCK
  8
0
  2
_DOTBLANK
 70
     0
 10
0.0
 20
0.0
 30
0.0
  3
_DOTBLANK
  1

  0
CIRCLE
  5
30
  8
0
  6
CONTINUOUS
 62
     7
 10
0.0
 20
0.0
 30
0.0
 40
0.5
  0
LINE
  5
31
  8
0
  6
CONTINUOUS
 62
     7
 10
-0.5
 20
0.0
 30
0.0
 11
-1.0
 21
0.0
 31
0.0
  0
ENDBLK
  5
32
  8
0
  0
BLOCK
  8
0
  2
_ORIGIN
 70
     0
 10
0.0
 20
0.0
 30
0.0
  3
_ORIGIN
  1

  0
CIRCLE
  5
7B9
  8
0
  6
CONTINUOUS
 62
     7
 10
0.0
 20
0.0
 30
0.0
 40
0.5
  0
LINE
  5
7BA
  8
0
  6
CONTINUOUS
 62
     7
 10
0.0
 20
0.0
 30
0.0
 11
-1.0
 21
0.0
 31
0.0
  0
ENDBLK
  5
7BB
  8
0
  0
ENDSEC
  0
SECTION
  2
ENTITIES
  0
LINE
  5
33
  8
NOTE
  6
CONTINUOUS
 62
     4
 10
101.0
 20
228.0
 30
0.0
 11
440.20691499999992
 21
600.26417900000001
 31
0.0
  0
LINE
  5
34
  8
NOTE
  6
CONTINUOUS
 62
     4
 10
-180.0
 20
290.0
 30
0.0
 11
-419.51172899999989
 21
553.61084999999991
 31
0.0
  0
TEXT
  5
35
  8
NOTE
  6
CONTINUOUS
 62
     4
 10
446.50236399999989
 20
619.45526299999995
 30
0.0
 40
55.0
  1
RL \U+03C69.52
 41
0.9
  0
LINE
  5
36
  8
DETAIL
  6
CONTINUOUS
 62
     5
 10
30.0
 20
174.971373
 30
0.0
 11
-100.0
 21
174.971373
 31
0.0
  0
LINE
  5
37
  8
DETAIL
  6
CONTINUOUS
 62
     5
 10
30.0
 20
239.971373
 30
0.0
 11
-100.0
 21
239.971373
 31
0.0
  0
LINE
  5
38
  8
DETAIL
  6
CONTINUOUS
 62
     5
 10
317.0
 20
350.0
 30
0.0
 11
-317.0
 21
350.0
 31
0.0
  0
LINE
  5
39
  8
DETAIL
  6
CONTINUOUS
 62
     5
 10
355.0
 20
0.0
 30
0.0
 11
-355.0
 21
0.0
 31
0.0
  0
LINE
  5
3A
  8
DETAIL
  6
CONTINUOUS
 62
     5
 10
317.0
 20
45.0
 30
0.0
 11
-317.0
 21
45.0
 31
0.0
  0
LINE
  5
3B
  8
DETAIL
  6
CONTINUOUS
 62
     5
 10
317.0
 20
60.0
 30
0.0
 11
-317.0
 21
60.0
 31
0.0
  0
LINE
  5
3C
  8
NOTE
  6
CONTINUOUS
 62
     4
 10
-189.311904
 20
84.210874000000004
 30
0.0
 11
-590.22817635880335
 21
-214.54027774311541
 31
0.0
  0
LINE
  5
3D
  8
DETAIL
  6
CONTINUOUS
 62
     5
 10
-317.0
 20
0.0
 30
0.0
 11
-317.0
 21
350.0
 31
0.0
  0
LINE
  5
40
  8
SIZE
  6
CONTINUOUS
 62
    30
 10
-337.0
 20
350.0
 30
0.0
 11
-456.78134799999981
 21
350.0
 31
0.0
  0
LINE
  5
43
  8
DETAIL
  6
CONTINUOUS
 62
     5
 10
-312.0
 20
120.0
 30
0.0
 11
-262.0
 21
120.0
 31
0.0
  0
LINE
  5
44
  8
DETAIL
  6
CONTINUOUS
 62
     5
 10
-312.0
 20
150.0
 30
0.0
 11
-262.0
 21
150.0
 31
0.0
  0
LINE
  5
45
  8
DETAIL
  6
CONTINUOUS
 62
     5
 10
-312.0
 20
160.0
 30
0.0
 11
-262.0
 21
160.0
 31
0.0
  0
LINE
  5
4E
  8
DETAIL
  6
CONTINUOUS
 62
     5
 10
-312.0
 20
120.0
 30
0.0
 11
-312.0
 21
160.0
 31
0.0
  0
POLYLINE
  5
51
  8
NOTE
  6
CONTINUOUS
 62
     4
 66
     1
 10
0.0
 20
0.0
 30
0.0
  0
VERTEX
  5
8F5
  8
NOTE
  6
CONTINUOUS
 62
     4
 10
-216.572317
 20
54.938534999999987
 30
0.0
  0
VERTEX
  5
8F6
  8
NOTE
  6
CONTINUOUS
 62
     4
 10
-189.311904
 20
84.210874000000004
 30
0.0
  0
VERTEX
  5
8F7
  8
NOTE
  6
CONTINUOUS
 62
     4
 10
-227.55628400000001
 20
72.490492000000003
 30
0.0
  0
SEQEND
  5
8F8
  8
NOTE
  6
CONTINUOUS
 62
     4
  0
LINE
  5
56
  8
DETAIL
  6
CONTINUOUS
 62
     5
 10
-100.0
 20
174.971373
 30
0.0
 11
-100.0
 21
239.971373
 31
0.0
  0
LINE
  5
57
  8
DETAIL
  6
CONTINUOUS
 62
     5
 10
-262.0
 20
120.0
 30
0.0
 11
-262.0
 21
160.0
 31
0.0
  0
LINE
  5
58
  8
NOTE
  6
CONTINUOUS
 62
     4
 10
-200.0
 20
290.0
 30
0.0
 11
-160.0
 21
290.0
 31
0.0
  0
LINE
  5
59
  8
NOTE
  6
CONTINUOUS
 62
     4
 10
-180.0
 20
270.0
 30
0.0
 11
-180.0
 21
310.0
 31
0.0
  0
POLYLINE
  5
5A
  8
NOTE
  6
CONTINUOUS
 62
     4
 66
     1
 10
0.0
 20
0.0
 30
0.0
  0
VERTEX
  5
8F9
  8
NOTE
  6
CONTINUOUS
 62
     4
 10
-213.44429700000001
 20
311.94262900000001
 30
0.0
  0
VERTEX
  5
8FA
  8
NOTE
  6
CONTINUOUS
 62
     4
 10
-180.0
 20
290.0
 30
0.0
  0
VERTEX
  5
8FB
  8
NOTE
  6
CONTINUOUS
 62
     4
 10
-197.99229600000001
 20
325.72502300000002
 30
0.0
  0
SEQEND
  5
8FC
  8
NOTE
  6
CONTINUOUS
 62
     4
  0
CIRCLE
  5
5F
  8
DETAIL
  6
CONTINUOUS
 62
     5
 10
-180.0
 20
290.0
 30
0.0
 40
16.0
  0
LINE
  5
61
  8
NOTE
  6
CONTINUOUS
 62
     4
 10
440.20691499999992
 20
492.38403199999988
 30
0.0
 11
842.23767799999985
 21
492.38403199999988
 31
0.0
  0
CIRCLE
  5
62
  8
ARRANGE
  6
CONTINUOUS
 62
     1
 10
0.0
 20
0.0
 30
0.0
 40
40.0
  0
LINE
  5
63
  8
DETAIL
  6
CONTINUOUS
 62
     5
 10
317.0
 20
0.0
 30
0.0
 11
317.0
 21
350.0
 31
0.0
  0
LINE
  5
64
  8
BASIS
  6
DASHDOT
 62
     6
 10
0.0
 20
-65.755581000000006
 30
0.0
 11
0.0
 21
414.21727499999992
 31
0.0
  0
POINT
  5
65
  8
ARRANGE
  6
CONTINUOUS
 62
     1
 10
0.0
 20
0.0
 30
0.0
  0
LINE
  5
66
  8
NOTE
  6
CONTINUOUS
 62
     4
 10
171.0
 20
228.0
 30
0.0
 11
440.20691499999992
 21
492.38403199999988
 31
0.0
  0
LINE
  5
67
  8
NOTE
  6
CONTINUOUS
 62
     4
 10
81.0
 20
228.0
 30
0.0
 11
121.0
 21
228.0
 31
0.0
  0
POLYLINE
  5
68
  8
NOTE
  6
CONTINUOUS
 62
     4
 66
     1
 10
0.0
 20
0.0
 30
0.0
  0
VERTEX
  5
8FD
  8
NOTE
  6
CONTINUOUS
 62
     4
 10
119.322655
 20
263.55671999999998
 30
0.0
  0
VERTEX
  5
8FE
  8
NOTE
  6
CONTINUOUS
 62
     4
 10
101.0
 20
228.0
 30
0.0
  0
VERTEX
  5
8FF
  8
NOTE
  6
CONTINUOUS
 62
     4
 10
134.646244
 20
249.63169500000001
 30
0.0
  0
SEQEND
  5
900
  8
NOTE
  6
CONTINUOUS
 62
     4
  0
CIRCLE
  5
6D
  8
DETAIL
  6
CONTINUOUS
 62
     5
 10
171.0
 20
228.0
 30
0.0
 40
7.9400000000000004
  0
LINE
  5
6E
  8
NOTE
  6
CONTINUOUS
 62
     4
 10
101.0
 20
208.0
 30
0.0
 11
101.0
 21
248.0
 31
0.0
  0
LINE
  5
6F
  8
DETAIL
  6
CONTINUOUS
 62
     5
 10
30.0
 20
174.971373
 30
0.0
 11
30.0
 21
239.971373
 31
0.0
  0
LINE
  5
70
  8
NOTE
  6
CONTINUOUS
 62
     4
 10
151.0
 20
228.0
 30
0.0
 11
191.0
 21
228.0
 31
0.0
  0
LINE
  5
71
  8
NOTE
  6
CONTINUOUS
 62
     4
 10
171.0
 20
208.0
 30
0.0
 11
171.0
 21
248.0
 31
0.0
  0
POLYLINE
  5
72
  8
NOTE
  6
CONTINUOUS
 62
     4
 66
     1
 10
0.0
 20
0.0
 30
0.0
  0
VERTEX
  5
901
  8
NOTE
  6
CONTINUOUS
 62
     4
 10
190.57015699999999
 20
262.88565499999999
 30
0.0
  0
VERTEX
  5
902
  8
NOTE
  6
CONTINUOUS
 62
     4
 10
171.0
 20
228.0
 30
0.0
  0
VERTEX
  5
903
  8
NOTE
  6
CONTINUOUS
 62
     4
 10
205.39108100000001
 20
248.426785
 30
0.0
  0
SEQEND
  5
904
  8
NOTE
  6
CONTINUOUS
 62
     4
  0
CIRCLE
  5
77
  8
DETAIL
  6
CONTINUOUS
 62
     5
 10
101.0
 20
228.0
 30
0.0
 40
4.759999999999998
  0
LINE
  5
82
  8
DETAIL
  6
CONTINUOUS
 62
     5
 10
262.0
 20
150.0
 30
0.0
 11
312.0
 21
150.0
 31
0.0
  0
LINE
  5
83
  8
DETAIL
  6
CONTINUOUS
 62
     5
 10
262.0
 20
120.0
 30
0.0
 11
312.0
 21
120.0
 31
0.0
  0
LINE
  5
84
  8
DETAIL
  6
CONTINUOUS
 62
     5
 10
262.0
 20
160.0
 30
0.0
 11
312.0
 21
160.0
 31
0.0
  0
LINE
  5
85
  8
DETAIL
  6
CONTINUOUS
 62
     5
 10
312.0
 20
120.0
 30
0.0
 11
312.0
 21
160.0
 31
0.0
  0
LINE
  5
86
  8
DETAIL
  6
CONTINUOUS
 62
     5
 10
262.0
 20
120.0
 30
0.0
 11
262.0
 21
160.0
 31
0.0
  0
LINE
  5
8C
  8
NOTE
  6
CONTINUOUS
 62
     4
 10
440.20691499999992
 20
600.26417900000001
 30
0.0
 11
838.38434800000005
 21
600.26417900000001
 31
0.0
  0
TEXT
  5
8D
  8
NOTE
  6
CONTINUOUS
 62
     4
 10
463.94298599999991
 20
510.44178099999988
 30
0.0
 40
55.0
  1
RG \U+03C615.88
 41
0.9
  0
LINE
  5
90
  8
NOTE
  6
CONTINUOUS
 62
     4
 10
-210.0
 20
84.0
 30
0.0
 11
-170.0
 21
84.0
 31
0.0
  0
LINE
  5
91
  8
NOTE
  6
CONTINUOUS
 62
     4
 10
-190.0
 20
64.0
 30
0.0
 11
-190.0
 21
104.0
 31
0.0
  0
CIRCLE
  5
92
  8
DETAIL
  6
CONTINUOUS
 62
     5
 10
-190.0
 20
84.0
 30
0.0
 40
20.0
  0
LINE
  5
93
  8
DETAIL
  6
CONTINUOUS
 62
     5
 10
287.0
 20
-20.0
 30
0.0
 11
-287.0
 21
-20.0
 31
0.0
  0
ARC
  5
94
  8
DETAIL
  6
CONTINUOUS
 62
     5
 10
-266.90766200000002
 20
173.91395
 30
0.0
 40
194.952102
 50
243.13649500000011
 51
264.08442400000001
  0
ARC
  5
95
  8
DETAIL
  6
CONTINUOUS
 62
     5
 10
266.90766200000002
 20
173.91395
 30
0.0
 40
194.952102
 50
275.91557599999999
 51
296.86350499999992
  0
LINE
  5
96
  8
OUTLINE
  6
CONTINUOUS
 62
     3
 10
317.0
 20
350.0
 30
0.0
 11
-317.0
 21
350.0
 31
0.0
  0
LINE
  5
97
  8
OUTLINE
  6
CONTINUOUS
 62
     3
 10
355.0
 20
0.0
 30
0.0
 11
-355.0
 21
0.0
 31
0.0
  0
LINE
  5
98
  8
OUTLINE
  6
CONTINUOUS
 62
     3
 10
-317.0
 20
0.0
 30
0.0
 11
-317.0
 21
350.0
 31
0.0
  0
LINE
  5
99
  8
OUTLINE
  6
CONTINUOUS
 62
     3
 10
317.0
 20
0.0
 30
0.0
 11
317.0
 21
350.0
 31
0.0
  0
LINE
  5
9A
  8
OUTLINE
  6
CONTINUOUS
 62
     3
 10
287.0
 20
-20.0
 30
0.0
 11
-287.0
 21
-20.0
 31
0.0
  0
ARC
  5
9B
  8
OUTLINE
  6
CONTINUOUS
 62
     3
 10
-266.90766200000002
 20
173.91395
 30
0.0
 40
194.952102
 50
243.13649500000011
 51
264.08442400000001
  0
ARC
  5
9C
  8
OUTLINE
  6
CONTINUOUS
 62
     3
 10
266.90766200000002
 20
173.91395
 30
0.0
 40
194.952102
 50
275.91557599999999
 51
296.86350499999992
  0
LINE
  5
9E
  8
SIZE
  6
CONTINUOUS
 62
    30
 10
-180.0
 20
330.0
 30
0.0
 11
-180.0
 21
699.099919
 31
0.0
  0
LINE
  5
9F
  8
SIZE
  6
CONTINUOUS
 62
    30
 10
317.0
 20
370.0
 30
0.0
 11
317.0
 21
699.099919
 31
0.0
  0
LINE
  5
A0
  8
SIZE
  6
CONTINUOUS
 62
    30
 10
-170.0
 20
669.099919
 30
0.0
 11
307.0
 21
669.099919
 31
0.0
  0
CIRCLE
  5
A1
  8
SIZE
  6
CONTINUOUS
 62
    30
 10
-180.0
 20
669.099919
 30
0.0
 40
5.0
  0
LINE
  5
A2
  8
SIZE
  6
CONTINUOUS
 62
    30
 10
-175.0
 20
669.099919
 30
0.0
 11
-170.0
 21
669.099919
 31
0.0
  0
CIRCLE
  5
A3
  8
SIZE
  6
CONTINUOUS
 62
    30
 10
317.0
 20
669.099919
 30
0.0
 40
5.0
  0
LINE
  5
A4
  8
SIZE
  6
CONTINUOUS
 62
    30
 10
312.0
 20
669.099919
 30
0.0
 11
307.0
 21
669.099919
 31
0.0
  0
TEXT
  5
A5
  8
SIZE
  6
CONTINUOUS
 62
    30
 10
4.8571428571428612
 20
689.099919
 30
0.0
 40
55.0
  1
497
 41
0.9
 72
     1
 11
68.5
 21
689.099919
 31
0.0
  0
LINE
  5
A6
  8
SIZE
  6
CONTINUOUS
 62
    30
 10
-335.0
 20
-40.0
 30
0.0
 11
-335.0
 21
-262.06240600000001
 31
0.0
  0
LINE
  5
A7
  8
SIZE
  6
CONTINUOUS
 62
    30
 10
335.0
 20
-48.0
 30
0.0
 11
335.0
 21
-262.06240600000001
 31
0.0
  0
LINE
  5
A8
  8
SIZE
  6
CONTINUOUS
 62
    30
 10
-325.0
 20
-232.06240600000001
 30
0.0
 11
325.0
 21
-232.06240600000001
 31
0.0
  0
CIRCLE
  5
A9
  8
SIZE
  6
CONTINUOUS
 62
    30
 10
-335.0
 20
-232.06240600000001
 30
0.0
 40
5.0
  0
LINE
  5
AA
  8
SIZE
  6
CONTINUOUS
 62
    30
 10
-330.0
 20
-232.06240600000001
 30
0.0
 11
-325.0
 21
-232.06240600000001
 31
0.0
  0
CIRCLE
  5
AB
  8
SIZE
  6
CONTINUOUS
 62
    30
 10
335.0
 20
-232.06240600000001
 30
0.0
 40
5.0
  0
LINE
  5
AC
  8
SIZE
  6
CONTINUOUS
 62
    30
 10
330.0
 20
-232.06240600000001
 30
0.0
 11
325.0
 21
-232.06240600000001
 31
0.0
  0
TEXT
  5
AD
  8
SIZE
  6
CONTINUOUS
 62
    30
 10
-272.72816391715469
 20
-197.657644
 30
0.0
 40
55.0
  1
670(天井開口寸法)
 41
0.9
 72
     1
 11
0.9361217971309088
 21
-197.657644
 31
0.0
  0
LINE
  5
AE
  8
SIZE
  6
CONTINUOUS
 62
    30
 10
-190.0
 20
124.0
 30
0.0
 11
-190.0
 21
809.01745300000005
 31
0.0
  0
LINE
  5
AF
  8
SIZE
  6
CONTINUOUS
 62
    30
 10
317.0
 20
370.0
 30
0.0
 11
317.0
 21
809.01745300000005
 31
0.0
  0
LINE
  5
B0
  8
SIZE
  6
CONTINUOUS
 62
    30
 10
-180.0
 20
779.01745300000005
 30
0.0
 11
307.0
 21
779.01745300000005
 31
0.0
  0
CIRCLE
  5
B1
  8
SIZE
  6
CONTINUOUS
 62
    30
 10
-190.0
 20
779.01745300000005
 30
0.0
 40
5.0
  0
LINE
  5
B2
  8
SIZE
  6
CONTINUOUS
 62
    30
 10
-185.0
 20
779.01745300000005
 30
0.0
 11
-180.0
 21
779.01745300000005
 31
0.0
  0
CIRCLE
  5
B3
  8
SIZE
  6
CONTINUOUS
 62
    30
 10
317.0
 20
779.01745300000005
 30
0.0
 40
5.0
  0
LINE
  5
B4
  8
SIZE
  6
CONTINUOUS
 62
    30
 10
312.0
 20
779.01745300000005
 30
0.0
 11
307.0
 21
779.01745300000005
 31
0.0
  0
TEXT
  5
B5
  8
SIZE
  6
CONTINUOUS
 62
    30
 10
-0.1428571428571388
 20
799.01745300000005
 30
0.0
 40
55.0
  1
507
 41
0.9
 72
     1
 11
63.5
 21
799.01745300000005
 31
0.0
  0
LINE
  5
D2
  8
SIZE
  6
CONTINUOUS
 62
    30
 10
355.0
 20
-20.0
 30
0.0
 11
355.0
 21
-261.56647400000003
 31
0.0
  0
LINE
  5
D3
  8
SIZE
  6
CONTINUOUS
 62
    30
 10
335.0
 20
-48.0
 30
0.0
 11
335.0
 21
-261.56647400000003
 31
0.0
  0
LINE
  5
D4
  8
SIZE
  6
CONTINUOUS
 62
    30
 10
325.0
 20
-231.566474
 30
0.0
 11
315.0
 21
-231.566474
 31
0.0
  0
LINE
  5
D5
  8
SIZE
  6
CONTINUOUS
 62
    30
 10
365.0
 20
-231.566474
 30
0.0
 11
526.92779299999995
 21
-231.566474
 31
0.0
  0
LINE
  5
D6
  8
SIZE
  6
CONTINUOUS
 62
    30
 10
335.0
 20
-231.566474
 30
0.0
 11
355.0
 21
-231.566474
 31
0.0
  0
CIRCLE
  5
D7
  8
SIZE
  6
CONTINUOUS
 62
    30
 10
335.0
 20
-231.566474
 30
0.0
 40
5.0
  0
LINE
  5
D8
  8
SIZE
  6
CONTINUOUS
 62
    30
 10
330.0
 20
-231.566474
 30
0.0
 11
325.0
 21
-231.566474
 31
0.0
  0
CIRCLE
  5
D9
  8
SIZE
  6
CONTINUOUS
 62
    30
 10
355.0
 20
-231.566474
 30
0.0
 40
5.0
  0
LINE
  5
DA
  8
SIZE
  6
CONTINUOUS
 62
    30
 10
360.0
 20
-231.566474
 30
0.0
 11
365.0
 21
-231.566474
 31
0.0
  0
TEXT
  5
DB
  8
SIZE
  6
CONTINUOUS
 62
    30
 10
420.22779242857138
 20
-211.566474
 30
0.0
 40
55.0
  1
20
 41
0.9
 72
     1
 11
460.29922099999999
 21
-211.566474
 31
0.0
  0
LINE
  5
DC
  8
SIZE
  6
CONTINUOUS
 62
    30
 10
-355.0
 20
-20.0
 30
0.0
 11
-355.0
 21
-261.56647400000003
 31
0.0
  0
LINE
  5
DD
  8
SIZE
  6
CONTINUOUS
 62
    30
 10
-335.0
 20
-40.0
 30
0.0
 11
-335.0
 21
-261.56647400000003
 31
0.0
  0
LINE
  5
DE
  8
SIZE
  6
CONTINUOUS
 62
    30
 10
-325.0
 20
-231.566474
 30
0.0
 11
-315.0
 21
-231.566474
 31
0.0
  0
LINE
  5
DF
  8
SIZE
  6
CONTINUOUS
 62
    30
 10
-365.0
 20
-231.566474
 30
0.0
 11
-515.11297100000002
 21
-231.566474
 31
0.0
  0
LINE
  5
E0
  8
SIZE
  6
CONTINUOUS
 62
    30
 10
-335.0
 20
-231.566474
 30
0.0
 11
-355.0
 21
-231.566474
 31
0.0
  0
CIRCLE
  5
E1
  8
SIZE
  6
CONTINUOUS
 62
    30
 10
-335.0
 20
-231.566474
 30
0.0
 40
5.0
  0
LINE
  5
E2
  8
SIZE
  6
CONTINUOUS
 62
    30
 10
-330.0
 20
-231.566474
 30
0.0
 11
-325.0
 21
-231.566474
 31
0.0
  0
CIRCLE
  5
E3
  8
SIZE
  6
CONTINUOUS
 62
    30
 10
-355.0
 20
-231.566474
 30
0.0
 40
5.0
  0
LINE
  5
E4
  8
SIZE
  6
CONTINUOUS
 62
    30
 10
-360.0
 20
-231.566474
 30
0.0
 11
-365.0
 21
-231.566474
 31
0.0
  0
TEXT
  5
E5
  8
SIZE
  6
CONTINUOUS
 62
    30
 10
-488.55582857142838
 20
-211.566474
 30
0.0
 40
55.0
  1
20
 41
0.9
 72
     1
 11
-448.48439999999988
 21
-211.566474
 31
0.0
  0
LINE
  5
E6
  8
SIZE
  6
CONTINUOUS
 62
    30
 10
-337.0
 20
45.0
 30
0.0
 11
-752.91297599999984
 21
45.0
 31
0.0
  0
LINE
  5
E7
  8
SIZE
  6
CONTINUOUS
 62
    30
 10
-375.0
 20
0.0
 30
0.0
 11
-752.91297599999984
 21
0.0
 31
0.0
  0
LINE
  5
E8
  8
SIZE
  6
CONTINUOUS
 62
    30
 10
-722.91297599999984
 20
55.0
 30
0.0
 11
-722.91297599999984
 21
65.0
 31
0.0
  0
LINE
  5
E9
  8
SIZE
  6
CONTINUOUS
 62
    30
 10
-722.91297599999984
 20
-10.0
 30
0.0
 11
-722.91297599999984
 21
-115.3980292763808
 31
0.0
  0
LINE
  5
EA
  8
SIZE
  6
CONTINUOUS
 62
    30
 10
-722.91297599999984
 20
45.0
 30
0.0
 11
-722.91297599999984
 21
0.0
 31
0.0
  0
CIRCLE
  5
EB
  8
SIZE
  6
CONTINUOUS
 62
    30
 10
-722.91297599999984
 20
45.0
 30
0.0
 40
5.0
  0
LINE
  5
EC
  8
SIZE
  6
CONTINUOUS
 62
    30
 10
-722.91297599999984
 20
50.0
 30
0.0
 11
-722.91297599999984
 21
55.0
 31
0.0
  0
CIRCLE
  5
ED
  8
SIZE
  6
CONTINUOUS
 62
    30
 10
-722.91297599999984
 20
0.0
 30
0.0
 40
5.0
  0
LINE
  5
EE
  8
SIZE
  6
CONTINUOUS
 62
    30
 10
-722.91297599999984
 20
-5.0
 30
0.0
 11
-722.91297599999984
 21
-10.0
 31
0.0
  0
TEXT
  5
EF
  8
SIZE
  6
CONTINUOUS
 62
    30
 10
-742.91297599999984
 20
-106.7796831402239
 30
0.0
 40
55.0
  1
45
 50
90.0
 41
0.9
 72
     1
 11
-742.91297599999984
 21
-66.708254568795383
 31
0.0
  0
LINE
  5
F0
  8
SIZE
  6
CONTINUOUS
 62
    30
 10
368.60150347314629
 20
0.0
 30
0.0
 11
680.72461299999998
 21
0.0
 31
0.0
  0
LINE
  5
F1
  8
SIZE
  6
CONTINUOUS
 62
    30
 10
307.0
 20
-20.0
 30
0.0
 11
680.72461299999998
 21
-20.0
 31
0.0
  0
LINE
  5
F2
  8
SIZE
  6
CONTINUOUS
 62
    30
 10
650.72461299999975
 20
10.0
 30
0.0
 11
650.72461299999975
 21
20.0
 31
0.0
  0
LINE
  5
F3
  8
SIZE
  6
CONTINUOUS
 62
    30
 10
650.72461299999975
 20
-30.0
 30
0.0
 11
650.72461299999975
 21
-150.45466908672819
 31
0.0
  0
LINE
  5
F4
  8
SIZE
  6
CONTINUOUS
 62
    30
 10
650.72461299999975
 20
0.0
 30
0.0
 11
650.72461299999975
 21
-20.0
 31
0.0
  0
CIRCLE
  5
F5
  8
SIZE
  6
CONTINUOUS
 62
    30
 10
650.72461299999975
 20
0.0
 30
0.0
 40
5.0
  0
LINE
  5
F6
  8
SIZE
  6
CONTINUOUS
 62
    30
 10
650.72461299999975
 20
5.0
 30
0.0
 11
650.72461299999975
 21
10.0
 31
0.0
  0
CIRCLE
  5
F7
  8
SIZE
  6
CONTINUOUS
 62
    30
 10
650.72461299999975
 20
-20.0
 30
0.0
 40
5.0
  0
LINE
  5
F8
  8
SIZE
  6
CONTINUOUS
 62
    30
 10
650.72461299999975
 20
-25.0
 30
0.0
 11
650.72461299999975
 21
-30.0
 31
0.0
  0
TEXT
  5
F9
  8
SIZE
  6
CONTINUOUS
 62
    30
 10
630.72461299999998
 20
-125.1359791656796
 30
0.0
 40
55.0
  1
20
 50
90.0
 41
0.9
 72
     1
 11
630.72461299999998
 21
-85.064550594251045
 31
0.0
  0
LINE
  5
FA
  8
SIZE
  6
CONTINUOUS
 62
    30
 10
-337.0
 20
350.0
 30
0.0
 11
-592.40165300000001
 21
350.0
 31
0.0
  0
LINE
  5
FB
  8
SIZE
  6
CONTINUOUS
 62
    30
 10
-230.0
 20
84.0
 30
0.0
 11
-592.40165300000001
 21
84.0
 31
0.0
  0
LINE
  5
FC
  8
SIZE
  6
CONTINUOUS
 62
    30
 10
-562.40165300000001
 20
340.0
 30
0.0
 11
-562.40165300000001
 21
94.0
 31
0.0
  0
CIRCLE
  5
FD
  8
SIZE
  6
CONTINUOUS
 62
    30
 10
-562.40165300000001
 20
350.0
 30
0.0
 40
5.0
  0
LINE
  5
FE
  8
SIZE
  6
CONTINUOUS
 62
    30
 10
-562.40165300000001
 20
345.0
 30
0.0
 11
-562.40165300000001
 21
340.0
 31
0.0
  0
CIRCLE
  5
FF
  8
SIZE
  6
CONTINUOUS
 62
    30
 10
-562.40165300000001
 20
84.0
 30
0.0
 40
5.0
  0
LINE
  5
100
  8
SIZE
  6
CONTINUOUS
 62
    30
 10
-562.40165300000001
 20
89.0
 30
0.0
 11
-562.40165300000001
 21
94.0
 31
0.0
  0
TEXT
  5
101
  8
SIZE
  6
CONTINUOUS
 62
    30
 10
-582.40165300000001
 20
153.54252726601831
 30
0.0
 40
55.0
  1
266
 50
90.0
 41
0.9
 72
     1
 11
-582.40165300000001
 21
216.00681298030401
 31
0.0
  0
LINE
  5
102
  8
SIZE
  6
CONTINUOUS
 62
    30
 10
337.0
 20
350.0
 30
0.0
 11
1122.2144539999999
 21
350.0
 31
0.0
  0
LINE
  5
103
  8
SIZE
  6
CONTINUOUS
 62
    30
 10
323.0
 20
60.0
 30
0.0
 11
1122.2144539999999
 21
60.0
 31
0.0
  0
LINE
  5
104
  8
SIZE
  6
CONTINUOUS
 62
    30
 10
1092.2144539999999
 20
340.0
 30
0.0
 11
1092.2144539999999
 21
70.0
 31
0.0
  0
CIRCLE
  5
105
  8
SIZE
  6
CONTINUOUS
 62
    30
 10
1092.2144539999999
 20
350.0
 30
0.0
 40
5.0
  0
LINE
  5
106
  8
SIZE
  6
CONTINUOUS
 62
    30
 10
1092.2144539999999
 20
345.0
 30
0.0
 11
1092.2144539999999
 21
340.0
 31
0.0
  0
CIRCLE
  5
107
  8
SIZE
  6
CONTINUOUS
 62
    30
 10
1092.2144539999999
 20
60.0
 30
0.0
 40
5.0
  0
LINE
  5
108
  8
SIZE
  6
CONTINUOUS
 62
    30
 10
1092.2144539999999
 20
65.0
 30
0.0
 11
1092.2144539999999
 21
70.0
 31
0.0
  0
TEXT
  5
109
  8
SIZE
  6
CONTINUOUS
 62
    30
 10
1072.2144539999999
 20
141.3571428571428
 30
0.0
 40
55.0
  1
290
 50
90.0
 41
0.9
 72
     1
 11
1072.2144539999999
 21
205.0
 31
0.0
  0
LINE
  5
10A
  8
SIZE
  6
CONTINUOUS
 62
    30
 10
337.0
 20
350.0
 30
0.0
 11
983.64417699999979
 21
350.0
 31
0.0
  0
LINE
  5
10B
  8
SIZE
  6
CONTINUOUS
 62
    30
 10
320.0
 20
160.0
 30
0.0
 11
983.64417699999979
 21
160.0
 31
0.0
  0
LINE
  5
10C
  8
SIZE
  6
CONTINUOUS
 62
    30
 10
953.6441769999999
 20
340.0
 30
0.0
 11
953.6441769999999
 21
170.0
 31
0.0
  0
CIRCLE
  5
10D
  8
SIZE
  6
CONTINUOUS
 62
    30
 10
953.6441769999999
 20
350.0
 30
0.0
 40
5.0
  0
LINE
  5
10E
  8
SIZE
  6
CONTINUOUS
 62
    30
 10
953.6441769999999
 20
345.0
 30
0.0
 11
953.6441769999999
 21
340.0
 31
0.0
  0
CIRCLE
  5
10F
  8
SIZE
  6
CONTINUOUS
 62
    30
 10
953.6441769999999
 20
160.0
 30
0.0
 40
5.0
  0
LINE
  5
110
  8
SIZE
  6
CONTINUOUS
 62
    30
 10
953.6441769999999
 20
165.0
 30
0.0
 11
953.6441769999999
 21
170.0
 31
0.0
  0
TEXT
  5
111
  8
SIZE
  6
CONTINUOUS
 62
    30
 10
933.64417699999979
 20
196.07142857142861
 30
0.0
 40
55.0
  1
190
 50
90.0
 41
0.9
 72
     1
 11
933.64417699999979
 21
255.0
 31
0.0
  0
LINE
  5
112
  8
SIZE
  6
CONTINUOUS
 62
    30
 10
337.0
 20
350.0
 30
0.0
 11
829.89662899999985
 21
350.0
 31
0.0
  0
LINE
  5
113
  8
SIZE
  6
CONTINUOUS
 62
    30
 10
211.0
 20
228.0
 30
0.0
 11
829.89662899999985
 21
228.0
 31
0.0
  0
LINE
  5
114
  8
SIZE
  6
CONTINUOUS
 62
    30
 10
799.89662899999985
 20
360.0
 30
0.0
 11
799.89662899999985
 21
370.0
 31
0.0
  0
LINE
  5
115
  8
SIZE
  6
CONTINUOUS
 62
    30
 10
799.89662899999985
 20
218.0
 30
0.0
 11
799.89662899999985
 21
208.0
 31
0.0
  0
LINE
  5
116
  8
SIZE
  6
CONTINUOUS
 62
    30
 10
799.89662899999985
 20
350.0
 30
0.0
 11
799.89662899999985
 21
228.0
 31
0.0
  0
CIRCLE
  5
117
  8
SIZE
  6
CONTINUOUS
 62
    30
 10
799.89662899999985
 20
350.0
 30
0.0
 40
5.0
  0
LINE
  5
118
  8
SIZE
  6
CONTINUOUS
 62
    30
 10
799.89662899999985
 20
355.0
 30
0.0
 11
799.89662899999985
 21
360.0
 31
0.0
  0
CIRCLE
  5
119
  8
SIZE
  6
CONTINUOUS
 62
    30
 10
799.89662899999985
 20
228.0
 30
0.0
 40
5.0
  0
LINE
  5
11A
  8
SIZE
  6
CONTINUOUS
 62
    30
 10
799.89662899999985
 20
223.0
 30
0.0
 11
799.89662899999985
 21
218.0
 31
0.0
  0
TEXT
  5
11B
  8
SIZE
  6
CONTINUOUS
 62
    30
 10
779.89662899999985
 20
230.07142857142861
 30
0.0
 40
55.0
  1
122
 50
90.0
 41
0.9
 72
     1
 11
779.89662899999985
 21
289.0
 31
0.0
  0
LINE
  5
11C
  8
SIZE
  6
CONTINUOUS
 62
    30
 10
101.0
 20
268.0
 30
0.0
 11
101.0
 21
578.59300800000005
 31
0.0
  0
LINE
  5
11D
  8
SIZE
  6
CONTINUOUS
 62
    30
 10
171.0
 20
268.0
 30
0.0
 11
171.0
 21
578.59300800000005
 31
0.0
  0
LINE
  5
11E
  8
SIZE
  6
CONTINUOUS
 62
    30
 10
111.0
 20
548.59300800000005
 30
0.0
 11
161.0
 21
548.59300800000005
 31
0.0
  0
CIRCLE
  5
11F
  8
SIZE
  6
CONTINUOUS
 62
    30
 10
101.0
 20
548.59300800000005
 30
0.0
 40
5.0
  0
LINE
  5
120
  8
SIZE
  6
CONTINUOUS
 62
    30
 10
106.0
 20
548.59300800000005
 30
0.0
 11
111.0
 21
548.59300800000005
 31
0.0
  0
CIRCLE
  5
121
  8
SIZE
  6
CONTINUOUS
 62
    30
 10
171.0
 20
548.59300800000005
 30
0.0
 40
5.0
  0
LINE
  5
122
  8
SIZE
  6
CONTINUOUS
 62
    30
 10
166.0
 20
548.59300800000005
 30
0.0
 11
161.0
 21
548.59300800000005
 31
0.0
  0
TEXT
  5
123
  8
SIZE
  6
CONTINUOUS
 62
    30
 10
95.928571428571431
 20
568.59300800000005
 30
0.0
 40
55.0
  1
70
 41
0.9
 72
     1
 11
136.0
 21
568.59300800000005
 31
0.0
  0
LINE
  5
124
  8
SIZE
  6
CONTINUOUS
 62
    30
 10
317.0
 20
370.0
 30
0.0
 11
317.0
 21
578.59300800000005
 31
0.0
  0
LINE
  5
125
  8
SIZE
  6
CONTINUOUS
 62
    30
 10
171.0
 20
268.0
 30
0.0
 11
171.0
 21
578.59300800000005
 31
0.0
  0
LINE
  5
126
  8
SIZE
  6
CONTINUOUS
 62
    30
 10
307.0
 20
548.59300800000005
 30
0.0
 11
181.0
 21
548.59300800000005
 31
0.0
  0
CIRCLE
  5
127
  8
SIZE
  6
CONTINUOUS
 62
    30
 10
317.0
 20
548.59300800000005
 30
0.0
 40
5.0
  0
LINE
  5
128
  8
SIZE
  6
CONTINUOUS
 62
    30
 10
312.0
 20
548.59300800000005
 30
0.0
 11
307.0
 21
548.59300800000005
 31
0.0
  0
CIRCLE
  5
129
  8
SIZE
  6
CONTINUOUS
 62
    30
 10
171.0
 20
548.59300800000005
 30
0.0
 40
5.0
  0
LINE
  5
12A
  8
SIZE
  6
CONTINUOUS
 62
    30
 10
176.0
 20
548.59300800000005
 30
0.0
 11
181.0
 21
548.59300800000005
 31
0.0
  0
TEXT
  5
12B
  8
SIZE
  6
CONTINUOUS
 62
    30
 10
186.25
 20
568.59300800000005
 30
0.0
 40
55.0
  1
146
 41
0.9
 72
     1
 11
244.0
 21
568.59300800000005
 31
0.0
  0
LINE
  5
12C
  8
SIZE
  6
CONTINUOUS
 62
    30
 10
-337.0
 20
350.0
 30
0.0
 11
-453.05324399999989
 21
350.0
 31
0.0
  0
LINE
  5
12D
  8
SIZE
  6
CONTINUOUS
 62
    30
 10
-220.0
 20
290.0
 30
0.0
 11
-453.05324399999989
 21
290.0
 31
0.0
  0
LINE
  5
12E
  8
SIZE
  6
CONTINUOUS
 62
    30
 10
-423.05324400000012
 20
360.0
 30
0.0
 11
-423.05324400000012
 21
454.25086532052927
 31
0.0
  0
LINE
  5
12F
  8
SIZE
  6
CONTINUOUS
 62
    30
 10
-423.05324400000012
 20
280.0
 30
0.0
 11
-423.05324400000012
 21
270.0
 31
0.0
  0
LINE
  5
130
  8
SIZE
  6
CONTINUOUS
 62
    30
 10
-423.05324400000012
 20
350.0
 30
0.0
 11
-423.05324400000012
 21
290.0
 31
0.0
  0
CIRCLE
  5
131
  8
SIZE
  6
CONTINUOUS
 62
    30
 10
-423.05324400000012
 20
350.0
 30
0.0
 40
5.0
  0
LINE
  5
132
  8
SIZE
  6
CONTINUOUS
 62
    30
 10
-423.05324400000012
 20
355.0
 30
0.0
 11
-423.05324400000012
 21
360.0
 31
0.0
  0
CIRCLE
  5
133
  8
SIZE
  6
CONTINUOUS
 62
    30
 10
-423.05324400000012
 20
290.0
 30
0.0
 40
5.0
  0
LINE
  5
134
  8
SIZE
  6
CONTINUOUS
 62
    30
 10
-423.05324400000012
 20
285.0
 30
0.0
 11
-423.05324400000012
 21
280.0
 31
0.0
  0
TEXT
  5
135
  8
SIZE
  6
CONTINUOUS
 62
    30
 10
-443.05324400000001
 20
372.19878142414598
 30
0.0
 40
55.0
  1
60
 50
90.0
 41
0.9
 72
     1
 11
-443.05324400000001
 21
412.27020999557459
 31
0.0
  0
LINE
  5
136
  8
SIZE
  6
CONTINUOUS
 62
    30
 10
-317.0
 20
370.0
 30
0.0
 11
-317.0
 21
923.55947100000003
 31
0.0
  0
LINE
  5
137
  8
SIZE
  6
CONTINUOUS
 62
    30
 10
317.0
 20
370.0
 30
0.0
 11
317.0
 21
923.55947100000003
 31
0.0
  0
LINE
  5
138
  8
SIZE
  6
CONTINUOUS
 62
    30
 10
-307.0
 20
893.55947100000003
 30
0.0
 11
307.0
 21
893.55947100000003
 31
0.0
  0
CIRCLE
  5
139
  8
SIZE
  6
CONTINUOUS
 62
    30
 10
-317.0
 20
893.55947100000003
 30
0.0
 40
5.0
  0
LINE
  5
13A
  8
SIZE
  6
CONTINUOUS
 62
    30
 10
-312.0
 20
893.55947100000003
 30
0.0
 11
-307.0
 21
893.55947100000003
 31
0.0
  0
CIRCLE
  5
13B
  8
SIZE
  6
CONTINUOUS
 62
    30
 10
317.0
 20
893.55947100000003
 30
0.0
 40
5.0
  0
LINE
  5
13C
  8
SIZE
  6
CONTINUOUS
 62
    30
 10
312.0
 20
893.55947100000003
 30
0.0
 11
307.0
 21
893.55947100000003
 31
0.0
  0
TEXT
  5
13D
  8
SIZE
  6
CONTINUOUS
 62
    30
 10
-64.821428571428569
 20
913.55947100000014
 30
0.0
 40
55.0
  1
634
 41
0.9
 72
     1
 11
0.0
 21
913.55947100000014
 31
0.0
  0
LINE
  5
25B
  8
NOTE
  6
CONTINUOUS
 62
     4
 10
-419.51172899999989
 20
553.61084999999991
 30
0.0
 11
-782.70830111885152
 21
553.61084999999991
 31
0.0
  0
TEXT
  5
25D
  8
NOTE
  6
CONTINUOUS
 62
     4
 10
-761.27493438624515
 20
585.03220145577654
 30
0.0
 40
55.0
  1
D VP-25
 41
0.9
  0
TEXT
  5
25E
  8
NOTE
  6
CONTINUOUS
 62
     4
 10
-1034.2541253588031
 20
-289.26776274311578
 30
0.0
 40
55.0
  1
（自然排水口）
 41
0.9
  0
LINE
  5
25F
  8
NOTE
  6
CONTINUOUS
 62
     4
 10
-1059.0932503588031
 20
-214.54027774311541
 30
0.0
 11
-590.22817635880335
 21
-214.54027774311541
 31
0.0
  0
TEXT
  5
260
  8
NOTE
  6
CONTINUOUS
 62
     4
 10
-1007.482489358803
 20
-187.5981617431157
 30
0.0
 40
55.0
  1
D抜き
 41
0.9
  0
TEXT
  5
7C5
  8
ETC
  6
CONTINUOUS
 62
    61
 10
59.906953327672007
 20
1051.86028794703
 30
0.0
 40
64.0
  1
PLFY-P80_112LMG3_2
 41
0.9
  0
TEXT
  5
7C6
  8
ETC
  6
CONTINUOUS
 62
    61
 10
59.906953327672007
 20
1149.027277159955
 30
0.0
 40
64.0
  1
PLFY-P80_112LMG1_2
 41
0.9
  0
ENDSEC
  0
EOF
