  0
SECTION
  2
HEADER
  9
$ACADVER
  1
AC1009
  9
$INSBASE
 10
0.0
 20
0.0
 30
0.0
  9
$EXTMIN
 10
-1382.995582631552
 20
-510.28745889231681
 30
-0.0015258207003583
  9
$EXTMAX
 10
1233.0322426662681
 20
2197.499097403484
 30
0.0000000349246037
  9
$LIMMIN
 10
-4200.0
 20
-2970.0
  9
$LIMMAX
 10
4200.0
 20
2970.0
  9
$ORTHOMODE
 70
     1
  9
$REGENMODE
 70
     1
  9
$FILLMODE
 70
     1
  9
$QTEXTMODE
 70
     0
  9
$MIRRTEXT
 70
     0
  9
$DRAGMODE
 70
     2
  9
$LTSCALE
 40
20.0
  9
$OSMODE
 70
   431
  9
$ATTMODE
 70
     1
  9
$TEXTSIZE
 40
64.0
  9
$TRACEWID
 40
0.05
  9
$TEXTSTYLE
  7
STANDARD
  9
$CLAYER
  8
SYMBOLLINE
  9
$CELTYPE
  6
CONTINUOUS
  9
$CECOLOR
 62
     7
  9
$DIMSCALE
 40
1.0
  9
$DIMASZ
 40
10.0
  9
$DIMEXO
 40
20.0
  9
$DIMDLI
 40
200.0
  9
$DIMRND
 40
0.0
  9
$DIMDLE
 40
0.0
  9
$DIMEXE
 40
30.0
  9
$DIMTP
 40
0.0
  9
$DIMTM
 40
0.0
  9
$DIMTXT
 40
55.0
  9
$DIMCEN
 40
0.0
  9
$DIMTSZ
 40
0.0
  9
$DIMTOL
 70
     0
  9
$DIMLIM
 70
     0
  9
$DIMTIH
 70
     0
  9
$DIMTOH
 70
     0
  9
$DIMSE1
 70
     0
  9
$DIMSE2
 70
     0
  9
$DIMTAD
 70
     1
  9
$DIMZIN
 70
     8
  9
$DIMBLK
  1
DOTBLANK
  9
$DIMASO
 70
     1
  9
$DIMSHO
 70
     0
  9
$DIMPOST
  1

  9
$DIMAPOST
  1

  9
$DIMALT
 70
     0
  9
$DIMALTD
 70
     2
  9
$DIMALTF
 40
25.399999999999999
  9
$DIMLFAC
 40
1.0
  9
$DIMTOFL
 70
     1
  9
$DIMTVP
 40
0.0
  9
$DIMTIX
 70
     1
  9
$DIMSOXD
 70
     0
  9
$DIMSAH
 70
     0
  9
$DIMBLK1
  1

  9
$DIMBLK2
  1

  9
$DIMSTYLE
  2
STANDARD
  9
$DIMCLRD
 70
     0
  9
$DIMCLRE
 70
     0
  9
$DIMCLRT
 70
     0
  9
$DIMTFAC
 40
1.0
  9
$DIMGAP
 40
0.09
  9
$LUNITS
 70
     2
  9
$LUPREC
 70
     4
  9
$SKETCHINC
 40
0.1
  9
$FILLETRAD
 40
0.0
  9
$AUNITS
 70
     1
  9
$AUPREC
 70
     3
  9
$MENU
  1
ACAD
  9
$ELEVATION
 40
0.0
  9
$PELEVATION
 40
0.0
  9
$THICKNESS
 40
0.0
  9
$LIMCHECK
 70
     0
  9
$BLIPMODE
 70
     0
  9
$CHAMFERA
 40
0.0
  9
$CHAMFERB
 40
0.0
  9
$SKPOLY
 70
     0
  9
$TDCREATE
 40
2449761.4936229978
  9
$TDUPDATE
 40
2455953.5586350928
  9
$TDINDWG
 40
4.5994985301
  9
$TDUSRTIMER
 40
4.5994970833000002
  9
$USRTIMER
 70
     1
  9
$ANGBASE
 50
0.0
  9
$ANGDIR
 70
     0
  9
$PDMODE
 70
    35
  9
$PDSIZE
 40
100.0
  9
$PLINEWID
 40
0.0
  9
$COORDS
 70
     0
  9
$SPLFRAME
 70
     0
  9
$SPLINETYPE
 70
     6
  9
$SPLINESEGS
 70
     8
  9
$ATTDIA
 70
     0
  9
$ATTREQ
 70
     1
  9
$HANDLING
 70
     1
  9
$HANDSEED
  5
1255
  9
$SURFTAB1
 70
     6
  9
$SURFTAB2
 70
     6
  9
$SURFTYPE
 70
     6
  9
$SURFU
 70
     6
  9
$SURFV
 70
     6
  9
$UCSNAME
  2

  9
$UCSORG
 10
0.0
 20
0.0
 30
0.0
  9
$UCSXDIR
 10
1.0
 20
0.0
 30
0.0
  9
$UCSYDIR
 10
0.0
 20
1.0
 30
0.0
  9
$PUCSNAME
  2

  9
$PUCSORG
 10
0.0
 20
0.0
 30
0.0
  9
$PUCSXDIR
 10
1.0
 20
0.0
 30
0.0
  9
$PUCSYDIR
 10
0.0
 20
1.0
 30
0.0
  9
$USERI1
 70
     0
  9
$USERI2
 70
     0
  9
$USERI3
 70
     0
  9
$USERI4
 70
     0
  9
$USERI5
 70
     0
  9
$USERR1
 40
20.0
  9
$USERR2
 40
0.0
  9
$USERR3
 40
0.0
  9
$USERR4
 40
0.0
  9
$USERR5
 40
0.0
  9
$WORLDVIEW
 70
     1
  9
$SHADEDGE
 70
     3
  9
$SHADEDIF
 70
    70
  9
$TILEMODE
 70
     1
  9
$MAXACTVP
 70
    48
  9
$PLIMCHECK
 70
     0
  9
$PEXTMIN
 10
1.0000000000000000E+020
 20
1.0000000000000000E+020
 30
1.0000000000000000E+020
  9
$PEXTMAX
 10
-1.0000000000000000E+020
 20
-1.0000000000000000E+020
 30
-1.0000000000000000E+020
  9
$PLIMMIN
 10
0.0
 20
0.0
  9
$PLIMMAX
 10
12.0
 20
9.0
  9
$UNITMODE
 70
     0
  9
$VISRETAIN
 70
     1
  9
$PLINEGEN
 70
     0
  9
$PSLTSCALE
 70
     1
  0
ENDSEC
  0
SECTION
  2
TABLES
  0
TABLE
  2
VPORT
 70
     1
  0
VPORT
  2
*ACTIVE
 70
     0
 10
0.0
 20
0.0
 11
1.0
 21
1.0
 12
0.0000000000004547
 22
0.0
 13
0.0
 23
0.0
 14
50.0
 24
50.0
 15
100.0
 25
100.0
 16
0.0
 26
0.0
 36
1.0
 17
0.0
 27
0.0
 37
0.0
 40
5985.2858958068618
 41
1.555979643765903
 42
50.0
 43
0.0
 44
0.0
 50
0.0
 51
0.0
 71
     0
 72
  1000
 73
     1
 74
     0
 75
     0
 76
     0
 77
     0
 78
     0
  0
ENDTAB
  0
TABLE
  2
LTYPE
 70
     3
  0
LTYPE
  2
CONTINUOUS
 70
     0
  3
実線
 72
    65
 73
     0
 40
0.0
  0
LTYPE
  2
DASHDOT
 70
     0
  3
____ _ ____ _ ____ _ ____ _ ____ _ ____ _ ____
 72
    65
 73
     4
 40
5.5
 49
4.0
 49
-0.6
 49
0.3
 49
-0.6
  0
ENDTAB
  0
TABLE
  2
LAYER
 70
    12
  0
LAYER
  2
0
 70
     0
 62
     7
  6
CONTINUOUS
  0
LAYER
  2
SYMBOLLINE
 70
     0
 62
    15
  6
CONTINUOUS
  0
LAYER
  2
SIZE
 70
     0
 62
    30
  6
CONTINUOUS
  0
LAYER
  2
OUTLINE
 70
     0
 62
     3
  6
CONTINUOUS
  0
LAYER
  2
DETAIL
 70
     0
 62
     5
  6
CONTINUOUS
  0
LAYER
  2
BASIS
 70
     0
 62
     6
  6
DASHDOT
  0
LAYER
  2
NOTE
 70
     0
 62
     4
  6
CONTINUOUS
  0
LAYER
  2
ARRANGE
 70
     0
 62
     1
  6
CONTINUOUS
  0
LAYER
  2
FIX
 70
     0
 62
    11
  6
CONTINUOUS
  0
LAYER
  2
SERVICESPACE
 70
     0
 62
     2
  6
DASHDOT
  0
LAYER
  2
ETC
 70
     0
 62
    61
  6
CONTINUOUS
  0
LAYER
  2
DEFPOINTS
 70
     0
 62
     7
  6
CONTINUOUS
  0
ENDTAB
  0
TABLE
  2
STYLE
 70
     3
  0
STYLE
  2
STANDARD
 70
     0
 40
0.0
 41
0.9
 50
0.0
 71
     0
 42
64.0
  3
SIMPLEX
  4
BIGFONT
  0
STYLE
  2
ANNOTATIVE
 70
     0
 40
0.0
 41
1.0
 50
0.0
 71
     0
 42
0.2
  3
txt
  4

  0
STYLE
  2
STANDARD1
 70
     0
 40
0.0
 41
1.0
 50
0.0
 71
     0
 42
3.5
  3
MONOTXT
  4
BIGFONT
  0
ENDTAB
  0
TABLE
  2
VIEW
 70
     9
  0
VIEW
  2
ALL
 70
     0
 40
6056.2300320000013
 10
0.0
 20
58.11501599999999
 41
8400.0
 11
0.0
 21
0.0
 31
1.0
 12
0.0
 22
0.0
 32
0.0
 42
50.0
 43
0.0
 44
0.0
 50
0.0
 71
     0
  0
ENDTAB
  0
TABLE
  2
UCS
 70
     0
  0
ENDTAB
  0
TABLE
  2
APPID
 70
     4
  0
APPID
  2
ACAD
 70
     0
  0
APPID
  2
ACADANNOTATIVE
 70
     0
  0
APPID
  2
ACAD_MLEADERVER
 70
     0
  0
APPID
  2
ACAD_EXEMPT_FROM_CAD_STANDARDS
 70
     0
  0
ENDTAB
  0
TABLE
  2
DIMSTYLE
 70
     3
  0
DIMSTYLE
  2
STANDARD
 70
     0
  3

  4

  5

  6

  7

 40
1.0
 41
0.18
 42
0.0625
 43
0.38
 44
0.18
 45
0.0
 46
0.0
 47
0.0
 48
0.0
140
0.18
141
0.09
142
0.0
143
25.399999999999999
144
1.0
145
0.0
146
1.0
147
0.09
 71
     0
 72
     0
 73
     1
 74
     1
 75
     0
 76
     0
 77
     0
 78
     0
170
     0
171
     2
172
     0
173
     0
174
     0
175
     0
176
     0
177
     0
178
     0
  0
DIMSTYLE
  2
ANNOTATIVE
 70
     0
  3

  4

  5

  6

  7

 40
1.0
 41
0.18
 42
0.0625
 43
0.38
 44
0.18
 45
0.0
 46
0.0
 47
0.0
 48
0.0
140
0.18
141
0.09
142
0.0
143
25.399999999999999
144
1.0
145
0.0
146
1.0
147
0.09
 71
     0
 72
     0
 73
     1
 74
     1
 75
     0
 76
     0
 77
     0
 78
     0
170
     0
171
     2
172
     0
173
     0
174
     0
175
     0
176
     0
177
     0
178
     0
  0
ENDTAB
  0
ENDSEC
  0
SECTION
  2
BLOCKS
  0
BLOCK
  8
0
  2
$MODEL_SPACE
 70
     0
 10
0.0
 20
0.0
 30
0.0
  3
$MODEL_SPACE
  1

  0
ENDBLK
  5
11B5
  8
0
  0
BLOCK
 67
     1
  8
0
  2
$PAPER_SPACE
 70
     0
 10
0.0
 20
0.0
 30
0.0
  3
$PAPER_SPACE
  1

  0
ENDBLK
  5
11B1
 67
     1
  8
0
  0
BLOCK
  8
0
  2
_DOTBLANK
 70
     0
 10
0.0
 20
0.0
 30
0.0
  3
_DOTBLANK
  1

  0
CIRCLE
  5
32
  8
0
  6
CONTINUOUS
 62
     7
 10
0.0
 20
0.0
 30
0.0
 40
0.5
  0
LINE
  5
33
  8
0
  6
CONTINUOUS
 62
     7
 10
-0.5
 20
0.0
 30
0.0
 11
-1.0
 21
0.0
 31
0.0
  0
ENDBLK
  5
34
  8
0
  0
ENDSEC
  0
SECTION
  2
ENTITIES
  0
LINE
  5
35
  8
NOTE
  6
CONTINUOUS
 62
     4
 10
704.40128900000002
 20
1246.2450269999999
 30
0.0
 11
754.29733499999975
 21
1196.2450260000001
 31
0.0
  0
LINE
  5
36
  8
NOTE
  6
CONTINUOUS
 62
     4
 10
754.29733499999975
 20
1296.245028
 30
0.0
 11
704.40128900000002
 21
1246.2450269999999
 31
0.0
  0
LINE
  5
37
  8
NOTE
  6
CONTINUOUS
 62
     4
 10
754.29733499999975
 20
1296.245028
 30
0.0
 11
754.29733499999975
 21
1271.2450269999999
 31
0.0
  0
LINE
  5
38
  8
NOTE
  6
CONTINUOUS
 62
     4
 10
754.29733499999975
 20
1221.2450260000001
 30
0.0
 11
754.29733499999975
 21
1196.2450260000001
 31
0.0
  0
LINE
  5
39
  8
NOTE
  6
CONTINUOUS
 62
     4
 10
754.29733499999975
 20
1221.2450260000001
 30
0.0
 11
794.98342400000001
 21
1221.2450260000001
 31
0.0
  0
LINE
  5
3A
  8
NOTE
  6
CONTINUOUS
 62
     4
 10
754.29733499999975
 20
1271.2450269999999
 30
0.0
 11
794.98342400000001
 21
1271.2450269999999
 31
0.0
  0
LINE
  5
3B
  8
NOTE
  6
CONTINUOUS
 62
     4
 10
794.98342400000001
 20
1221.2450260000001
 30
0.0
 11
794.98342400000001
 21
1271.2450269999999
 31
0.0
  0
LINE
  5
3C
  8
NOTE
  6
CONTINUOUS
 62
     4
 10
708.62234999999998
 20
975.90970300000015
 30
0.0
 11
758.51839600000005
 21
925.90970199999981
 31
0.0
  0
LINE
  5
3D
  8
NOTE
  6
CONTINUOUS
 62
     4
 10
758.51839600000005
 20
1025.9097039999999
 30
0.0
 11
708.62234999999998
 21
975.90970300000015
 31
0.0
  0
LINE
  5
3E
  8
NOTE
  6
CONTINUOUS
 62
     4
 10
758.51839600000005
 20
1025.9097039999999
 30
0.0
 11
758.51839600000005
 21
1000.909703
 31
0.0
  0
LINE
  5
3F
  8
NOTE
  6
CONTINUOUS
 62
     4
 10
758.51839600000005
 20
950.90970199999981
 30
0.0
 11
758.51839600000005
 21
925.90970199999981
 31
0.0
  0
LINE
  5
40
  8
NOTE
  6
CONTINUOUS
 62
     4
 10
758.51839600000005
 20
950.90970199999981
 30
0.0
 11
799.20448399999998
 21
950.90970199999981
 31
0.0
  0
LINE
  5
41
  8
NOTE
  6
CONTINUOUS
 62
     4
 10
758.51839600000005
 20
1000.909703
 30
0.0
 11
799.20448399999998
 21
1000.909703
 31
0.0
  0
LINE
  5
42
  8
NOTE
  6
CONTINUOUS
 62
     4
 10
799.20448399999998
 20
950.90970199999981
 30
0.0
 11
799.20448399999998
 21
1000.909703
 31
0.0
  0
TEXT
  5
43
  8
NOTE
  6
CONTINUOUS
 62
     4
 10
729.11462400000005
 20
1042.2888760000001
 30
0.0
 40
55.0
  1
吸込
 50
0.000003
 41
0.703125
  7
STANDARD1
  0
TEXT
  5
44
  8
NOTE
  6
CONTINUOUS
 62
     4
 10
729.11462400000005
 20
1128.955565
 30
0.0
 40
55.0
  1
空気
 50
0.000003
 41
0.703125
  7
STANDARD1
  0
TEXT
  5
45
  8
NOTE
  6
CONTINUOUS
 62
     4
 10
-804.23120373566155
 20
1049.113280637175
 30
0.0
 40
55.0
  1
吸込
 50
0.000003
 41
0.703125
  7
STANDARD1
  0
TEXT
  5
46
  8
NOTE
  6
CONTINUOUS
 62
     4
 10
-804.23120373566155
 20
1135.7799686371759
 30
0.0
 40
55.0
  1
空気
 50
0.000003
 41
0.703125
  7
STANDARD1
  0
LINE
  5
47
  8
NOTE
  6
CONTINUOUS
 62
     4
 10
-811.20428973566175
 20
1225.6719816371749
 30
0.0
 11
-811.20428973566175
 21
1275.671982637175
 31
0.0
  0
LINE
  5
48
  8
NOTE
  6
CONTINUOUS
 62
     4
 10
-770.51820173566182
 20
1275.671982637175
 30
0.0
 11
-811.20428973566175
 21
1275.671982637175
 31
0.0
  0
LINE
  5
49
  8
NOTE
  6
CONTINUOUS
 62
     4
 10
-770.51820173566182
 20
1225.6719816371749
 30
0.0
 11
-811.20428973566175
 21
1225.6719816371749
 31
0.0
  0
LINE
  5
4A
  8
NOTE
  6
CONTINUOUS
 62
     4
 10
-770.51820173566182
 20
1225.6719816371749
 30
0.0
 11
-770.51820173566182
 21
1200.671980637175
 31
0.0
  0
LINE
  5
4B
  8
NOTE
  6
CONTINUOUS
 62
     4
 10
-770.51820173566182
 20
1300.671982637175
 30
0.0
 11
-770.51820173566182
 21
1275.671982637175
 31
0.0
  0
LINE
  5
4C
  8
NOTE
  6
CONTINUOUS
 62
     4
 10
-770.51820173566182
 20
1300.671982637175
 30
0.0
 11
-720.62215573566164
 21
1250.6719816371749
 31
0.0
  0
LINE
  5
4D
  8
NOTE
  6
CONTINUOUS
 62
     4
 10
-720.62215573566164
 20
1250.6719816371749
 30
0.0
 11
-770.51820173566182
 21
1200.671980637175
 31
0.0
  0
LINE
  5
4E
  8
NOTE
  6
CONTINUOUS
 62
     4
 10
-766.27593673566184
 20
945.66674163717562
 30
0.0
 11
-766.27593673566184
 21
920.66674163717562
 31
0.0
  0
LINE
  5
4F
  8
NOTE
  6
CONTINUOUS
 62
     4
 10
-716.379889735662
 20
970.66674263717562
 30
0.0
 11
-766.27593673566184
 21
920.66674163717562
 31
0.0
  0
LINE
  5
50
  8
NOTE
  6
CONTINUOUS
 62
     4
 10
-766.27593673566184
 20
1020.666743637175
 30
0.0
 11
-716.379889735662
 21
970.66674263717562
 31
0.0
  0
LINE
  5
51
  8
NOTE
  6
CONTINUOUS
 62
     4
 10
-766.27593673566184
 20
945.66674163717562
 30
0.0
 11
-806.96202473566166
 21
945.66674163717562
 31
0.0
  0
LINE
  5
52
  8
NOTE
  6
CONTINUOUS
 62
     4
 10
-766.27593673566184
 20
995.66674263717562
 30
0.0
 11
-806.96202473566166
 21
995.66674263717562
 31
0.0
  0
LINE
  5
53
  8
NOTE
  6
CONTINUOUS
 62
     4
 10
-806.96202473566166
 20
945.66674163717562
 30
0.0
 11
-806.96202473566166
 21
995.66674263717562
 31
0.0
  0
LINE
  5
54
  8
NOTE
  6
CONTINUOUS
 62
     4
 10
-766.27593673566184
 20
1020.666743637175
 30
0.0
 11
-766.27593673566184
 21
995.66674263717562
 31
0.0
  0
LINE
  5
55
  8
DETAIL
  6
CONTINUOUS
 62
     5
 10
599.50000799999975
 20
9.0
 30
0.0
 11
599.50000799999975
 21
0.0
 31
0.0
  0
LINE
  5
56
  8
DETAIL
  6
CONTINUOUS
 62
     5
 10
-599.50000799999975
 20
9.0
 30
0.0
 11
-599.50000799999975
 21
0.0
 31
0.0
  0
ARC
  5
5B
  8
DETAIL
  6
CONTINUOUS
 62
     5
 10
-379.00000499999999
 20
241.00000399999999
 30
0.0
 40
22.0
 50
90.0
 51
180.0
  0
ARC
  5
5C
  8
DETAIL
  6
CONTINUOUS
 62
     5
 10
-207.00000199999999
 20
241.00000399999999
 30
0.0
 40
22.0
 50
0.0
 51
90.0
  0
CIRCLE
  5
5D
  8
DETAIL
  6
CONTINUOUS
 62
     5
 10
0.0
 20
746.50001399999985
 30
0.0
 40
3.549999999999998
  0
CIRCLE
  5
5E
  8
DETAIL
  6
CONTINUOUS
 62
     5
 10
510.00000699999998
 20
746.50001399999985
 30
0.0
 40
3.549999999999998
  0
CIRCLE
  5
5F
  8
DETAIL
  6
CONTINUOUS
 62
     5
 10
-510.00000699999998
 20
746.50001399999985
 30
0.0
 40
3.549999999999998
  0
ARC
  5
60
  8
DETAIL
  6
CONTINUOUS
 62
     5
 10
529.70000700000003
 20
744.50001399999985
 30
0.0
 40
5.0
 50
270.0
 51
0.0
  0
ARC
  5
61
  8
DETAIL
  6
CONTINUOUS
 62
     5
 10
-529.70000700000003
 20
744.50001399999985
 30
0.0
 40
5.0
 50
180.0
 51
270.0
  0
ARC
  5
62
  8
DETAIL
  6
CONTINUOUS
 62
     5
 10
-541.00000699999975
 20
62.000000999999997
 30
0.0
 40
3.0
 50
270.0
 51
0.0
  0
ARC
  5
63
  8
DETAIL
  6
CONTINUOUS
 62
     5
 10
541.00000699999975
 20
62.000000999999997
 30
0.0
 40
3.0
 50
180.0
 51
270.0
  0
ARC
  5
64
  8
DETAIL
  6
CONTINUOUS
 62
     5
 10
-186.14664012470061
 20
1543.003041178582
 30
0.0
 40
174.99282610378009
 50
147.97376145802571
 51
177.70845022509269
  0
ARC
  5
65
  8
DETAIL
  6
CONTINUOUS
 62
     5
 10
-326.02841000000001
 20
1630.5000299999999
 30
0.0
 40
10.0
 50
90.0
 51
147.97406799999999
  0
ARC
  5
66
  8
DETAIL
  6
CONTINUOUS
 62
     5
 10
186.14664012470149
 20
1543.0030411785831
 30
0.0
 40
174.99282610377901
 50
2.2915497749070308
 51
32.026238541974138
  0
ARC
  5
67
  8
DETAIL
  6
CONTINUOUS
 62
     5
 10
326.02841000000001
 20
1630.5000299999999
 30
0.0
 40
10.0
 50
32.025931999999997
 51
90.0
  0
ARC
  5
6A
  8
DETAIL
  6
CONTINUOUS
 62
     5
 10
-293.50000399999999
 20
152.00000299999999
 30
0.0
 40
10.0
 50
90.0
 51
180.0
  0
ARC
  5
6B
  8
DETAIL
  6
CONTINUOUS
 62
     5
 10
-211.50000199999999
 20
152.00000299999999
 30
0.0
 40
10.0
 50
0.0
 51
90.0
  0
ARC
  5
6C
  8
DETAIL
  6
CONTINUOUS
 62
     5
 10
-211.50000199999999
 20
100.00000199999999
 30
0.0
 40
10.0
 50
270.0
 51
0.0
  0
ARC
  5
6D
  8
DETAIL
  6
CONTINUOUS
 62
     5
 10
-293.50000399999999
 20
100.00000199999999
 30
0.0
 40
10.0
 50
180.0
 51
270.0
  0
CIRCLE
  5
6E
  8
DETAIL
  6
CONTINUOUS
 62
     5
 10
-350.50000499999999
 20
220.00000399999999
 30
0.0
 40
26.0
  0
CIRCLE
  5
6F
  8
DETAIL
  6
CONTINUOUS
 62
     5
 10
-252.50000299999999
 20
220.00000399999999
 30
0.0
 40
17.0
  0
CIRCLE
  5
70
  8
DETAIL
  6
CONTINUOUS
 62
     5
 10
-350.50000499999999
 20
132.00000199999999
 30
0.0
 40
32.500000999999997
  0
CIRCLE
  5
71
  8
DETAIL
  6
CONTINUOUS
 62
     5
 10
-350.50000499999999
 20
220.00000399999999
 30
0.0
 40
13.5
  0
CIRCLE
  5
72
  8
DETAIL
  6
CONTINUOUS
 62
     5
 10
-350.50000499999999
 20
132.00000199999999
 30
0.0
 40
20.0
  0
ARC
  5
73
  8
DETAIL
  6
CONTINUOUS
 62
     5
 10
582.00000799999975
 20
39.000000999999997
 30
0.0
 40
8.3000000000000007
 50
0.0
 51
90.0
  0
ARC
  5
74
  8
DETAIL
  6
CONTINUOUS
 62
     5
 10
582.00000799999975
 20
21.0
 30
0.0
 40
8.3000000000000007
 50
270.0
 51
0.0
  0
ARC
  5
75
  8
DETAIL
  6
CONTINUOUS
 62
     5
 10
540.50000699999975
 20
21.0
 30
0.0
 40
8.3000000000000007
 50
180.0
 51
270.0
  0
ARC
  5
76
  8
DETAIL
  6
CONTINUOUS
 62
     5
 10
540.50000699999975
 20
39.000000999999997
 30
0.0
 40
8.3000000000000007
 50
90.0
 51
180.0
  0
ARC
  5
77
  8
DETAIL
  6
CONTINUOUS
 62
     5
 10
582.00000799999975
 20
39.000000999999997
 30
0.0
 40
6.0
 50
0.0
 51
90.0
  0
ARC
  5
78
  8
DETAIL
  6
CONTINUOUS
 62
     5
 10
540.50000699999975
 20
39.000000999999997
 30
0.0
 40
6.0
 50
90.0
 51
180.0
  0
ARC
  5
79
  8
DETAIL
  6
CONTINUOUS
 62
     5
 10
540.50000699999975
 20
21.0
 30
0.0
 40
6.0
 50
180.0
 51
270.0
  0
ARC
  5
7A
  8
DETAIL
  6
CONTINUOUS
 62
     5
 10
582.00000799999975
 20
21.0
 30
0.0
 40
6.0
 50
270.0
 51
0.0
  0
ARC
  5
7B
  8
DETAIL
  6
CONTINUOUS
 62
     5
 10
-582.00000799999975
 20
39.000000999999997
 30
0.0
 40
8.3000000000000007
 50
90.0
 51
180.0
  0
ARC
  5
7C
  8
DETAIL
  6
CONTINUOUS
 62
     5
 10
-540.50000699999975
 20
39.000000999999997
 30
0.0
 40
8.3000000000000007
 50
0.0
 51
90.0
  0
ARC
  5
7D
  8
DETAIL
  6
CONTINUOUS
 62
     5
 10
-540.50000699999975
 20
21.0
 30
0.0
 40
8.3000000000000007
 50
270.0
 51
0.0
  0
ARC
  5
7E
  8
DETAIL
  6
CONTINUOUS
 62
     5
 10
-582.00000799999975
 20
21.0
 30
0.0
 40
8.3000000000000007
 50
180.0
 51
270.0
  0
ARC
  5
7F
  8
DETAIL
  6
CONTINUOUS
 62
     5
 10
-582.00000799999975
 20
21.0
 30
0.0
 40
6.0
 50
180.0
 51
270.0
  0
ARC
  5
80
  8
DETAIL
  6
CONTINUOUS
 62
     5
 10
-540.50000699999975
 20
21.0
 30
0.0
 40
6.0
 50
270.0
 51
0.0
  0
ARC
  5
81
  8
DETAIL
  6
CONTINUOUS
 62
     5
 10
-540.50000699999975
 20
39.000000999999997
 30
0.0
 40
6.0
 50
0.0
 51
90.0
  0
ARC
  5
82
  8
DETAIL
  6
CONTINUOUS
 62
     5
 10
-582.00000799999975
 20
39.000000999999997
 30
0.0
 40
6.0
 50
90.0
 51
180.0
  0
LINE
  5
8B
  8
DETAIL
  6
CONTINUOUS
 62
     5
 10
144.26963900000001
 20
1640.5000299999999
 30
0.0
 11
145.15071800000001
 21
1640.295965
 31
0.0
  0
LINE
  5
90
  8
DETAIL
  6
CONTINUOUS
 62
     5
 10
141.57325700000001
 20
1640.5000299999999
 30
0.0
 11
142.45433600000001
 21
1640.295965
 31
0.0
  0
LINE
  5
95
  8
DETAIL
  6
CONTINUOUS
 62
     5
 10
154.38548899999981
 20
1640.5000299999999
 30
0.0
 11
155.32907599999999
 21
1640.295965
 31
0.0
  0
LINE
  5
9A
  8
DETAIL
  6
CONTINUOUS
 62
     5
 10
151.73664600000001
 20
1640.5000299999999
 30
0.0
 11
152.68023299999999
 21
1640.295965
 31
0.0
  0
LINE
  5
9F
  8
DETAIL
  6
CONTINUOUS
 62
     5
 10
164.313243
 20
1640.5000299999999
 30
0.0
 11
165.31818999999999
 21
1640.295965
 31
0.0
  0
LINE
  5
A4
  8
DETAIL
  6
CONTINUOUS
 62
     5
 10
161.71516700000001
 20
1640.5000299999999
 30
0.0
 11
162.720113
 21
1640.295965
 31
0.0
  0
LINE
  5
A9
  8
DETAIL
  6
CONTINUOUS
 62
     5
 10
174.040807
 20
1640.5000299999999
 30
0.0
 11
175.10588799999999
 21
1640.295965
 31
0.0
  0
LINE
  5
AE
  8
DETAIL
  6
CONTINUOUS
 62
     5
 10
171.49666300000001
 20
1640.5000299999999
 30
0.0
 11
172.561744
 21
1640.295965
 31
0.0
  0
LINE
  5
B3
  8
DETAIL
  6
CONTINUOUS
 62
     5
 10
183.55633
 20
1640.5000299999999
 30
0.0
 11
184.68024700000001
 21
1640.295965
 31
0.0
  0
LINE
  5
B8
  8
DETAIL
  6
CONTINUOUS
 62
     5
 10
181.06921700000001
 20
1640.5000299999999
 30
0.0
 11
182.19313500000001
 21
1640.295965
 31
0.0
  0
LINE
  5
BD
  8
DETAIL
  6
CONTINUOUS
 62
     5
 10
192.84821700000001
 20
1640.5000299999999
 30
0.0
 11
194.02960200000001
 21
1640.295965
 31
0.0
  0
LINE
  5
C2
  8
DETAIL
  6
CONTINUOUS
 62
     5
 10
190.421166
 20
1640.5000299999999
 30
0.0
 11
191.60255100000001
 21
1640.295965
 31
0.0
  0
LINE
  5
C7
  8
DETAIL
  6
CONTINUOUS
 62
     5
 10
201.905148
 20
1640.5000299999999
 30
0.0
 11
203.142562
 21
1640.295965
 31
0.0
  0
LINE
  5
CC
  8
DETAIL
  6
CONTINUOUS
 62
     5
 10
199.54111599999999
 20
1640.5000299999999
 30
0.0
 11
200.77852899999999
 21
1640.295965
 31
0.0
  0
LINE
  5
D1
  8
DETAIL
  6
CONTINUOUS
 62
     5
 10
210.71608900000001
 20
1640.5000299999999
 30
0.0
 11
212.00802300000001
 21
1640.295965
 31
0.0
  0
LINE
  5
D6
  8
DETAIL
  6
CONTINUOUS
 62
     5
 10
208.417956
 20
1640.5000299999999
 30
0.0
 11
209.70989
 21
1640.295965
 31
0.0
  0
LINE
  5
DB
  8
DETAIL
  6
CONTINUOUS
 62
     5
 10
219.27030500000001
 20
1640.5000299999999
 30
0.0
 11
220.61518599999999
 21
1640.295965
 31
0.0
  0
LINE
  5
E0
  8
DETAIL
  6
CONTINUOUS
 62
     5
 10
217.04087100000001
 20
1640.5000299999999
 30
0.0
 11
218.385751
 21
1640.295965
 31
0.0
  0
LINE
  5
E5
  8
DETAIL
  6
CONTINUOUS
 62
     5
 10
227.55737400000001
 20
1640.5000299999999
 30
0.0
 11
228.953563
 21
1640.295965
 31
0.0
  0
LINE
  5
EA
  8
DETAIL
  6
CONTINUOUS
 62
     5
 10
225.39935500000001
 20
1640.5000299999999
 30
0.0
 11
226.79554300000001
 21
1640.295965
 31
0.0
  0
LINE
  5
EF
  8
DETAIL
  6
CONTINUOUS
 62
     5
 10
235.56719899999999
 20
1640.5000299999999
 30
0.0
 11
237.01299499999999
 21
1640.295965
 31
0.0
  0
LINE
  5
F4
  8
DETAIL
  6
CONTINUOUS
 62
     5
 10
233.48322400000001
 20
1640.5000299999999
 30
0.0
 11
234.92902000000001
 21
1640.295965
 31
0.0
  0
LINE
  5
F9
  8
DETAIL
  6
CONTINUOUS
 62
     5
 10
243.29002199999999
 20
1640.5000299999999
 30
0.0
 11
244.78366299999999
 21
1640.295965
 31
0.0
  0
LINE
  5
FE
  8
DETAIL
  6
CONTINUOUS
 62
     5
 10
241.28263000000001
 20
1640.5000299999999
 30
0.0
 11
242.77627100000001
 21
1640.295965
 31
0.0
  0
LINE
  5
103
  8
DETAIL
  6
CONTINUOUS
 62
     5
 10
250.71643299999999
 20
1640.5000299999999
 30
0.0
 11
252.2561
 21
1640.295965
 31
0.0
  0
LINE
  5
108
  8
DETAIL
  6
CONTINUOUS
 62
     5
 10
248.788071
 20
1640.5000299999999
 30
0.0
 11
250.32773800000001
 21
1640.295965
 31
0.0
  0
LINE
  5
10D
  8
DETAIL
  6
CONTINUOUS
 62
     5
 10
257.83738599999998
 20
1640.5000299999999
 30
0.0
 11
259.42120199999999
 21
1640.295965
 31
0.0
  0
LINE
  5
112
  8
DETAIL
  6
CONTINUOUS
 62
     5
 10
255.99040099999999
 20
1640.5000299999999
 30
0.0
 11
257.57421799999997
 21
1640.295965
 31
0.0
  0
LINE
  5
117
  8
DETAIL
  6
CONTINUOUS
 62
     5
 10
264.64420200000001
 20
1640.5000299999999
 30
0.0
 11
266.27024
 21
1640.295965
 31
0.0
  0
LINE
  5
118
  8
DETAIL
  6
CONTINUOUS
 62
     5
 10
262.88084700000002
 20
1640.5000299999999
 30
0.0
 11
264.5068839999999
 21
1640.295965
 31
0.0
  0
LINE
  5
11D
  8
DETAIL
  6
CONTINUOUS
 62
     5
 10
271.12859099999997
 20
1640.5000299999999
 30
0.0
 11
272.79486800000001
 21
1640.295965
 31
0.0
  0
LINE
  5
122
  8
DETAIL
  6
CONTINUOUS
 62
     5
 10
269.45101299999999
 20
1640.5000299999999
 30
0.0
 11
271.11728900000003
 21
1640.295965
 31
0.0
  0
LINE
  5
127
  8
DETAIL
  6
CONTINUOUS
 62
     5
 10
277.28265199999998
 20
1640.5000299999999
 30
0.0
 11
278.98713700000002
 21
1640.295965
 31
0.0
  0
LINE
  5
12C
  8
DETAIL
  6
CONTINUOUS
 62
     5
 10
275.69289400000002
 20
1640.5000299999999
 30
0.0
 11
277.397379
 21
1640.295965
 31
0.0
  0
LINE
  5
131
  8
DETAIL
  6
CONTINUOUS
 62
     5
 10
283.09888599999999
 20
1640.5000299999999
 30
0.0
 11
284.83950399999998
 21
1640.295965
 31
0.0
  0
LINE
  5
136
  8
DETAIL
  6
CONTINUOUS
 62
     5
 10
281.59888599999999
 20
1640.5000299999999
 30
0.0
 11
283.33950399999998
 21
1640.295965
 31
0.0
  0
LINE
  5
13B
  8
DETAIL
  6
CONTINUOUS
 62
     5
 10
288.57020699999998
 20
1640.5000299999999
 30
0.0
 11
290.34483699999998
 21
1640.295965
 31
0.0
  0
LINE
  5
140
  8
DETAIL
  6
CONTINUOUS
 62
     5
 10
287.16179299999999
 20
1640.5000299999999
 30
0.0
 11
288.93642299999999
 21
1640.295965
 31
0.0
  0
LINE
  5
145
  8
DETAIL
  6
CONTINUOUS
 62
     5
 10
293.68995099999989
 20
1640.5000299999999
 30
0.0
 11
295.49642999999998
 21
1640.295965
 31
0.0
  0
LINE
  5
14A
  8
DETAIL
  6
CONTINUOUS
 62
     5
 10
292.37483700000001
 20
1640.5000299999999
 30
0.0
 11
294.18131699999992
 21
1640.295965
 31
0.0
  0
LINE
  5
14F
  8
DETAIL
  6
CONTINUOUS
 62
     5
 10
298.45187800000002
 20
1640.5000299999999
 30
0.0
 11
300.288006
 21
1640.295965
 31
0.0
  0
LINE
  5
154
  8
DETAIL
  6
CONTINUOUS
 62
     5
 10
297.23166800000001
 20
1640.5000299999999
 30
0.0
 11
299.0677970000001
 21
1640.295965
 31
0.0
  0
LINE
  5
159
  8
DETAIL
  6
CONTINUOUS
 62
     5
 10
302.850188
 20
1640.5000299999999
 30
0.0
 11
304.713728
 21
1640.295965
 31
0.0
  0
LINE
  5
15E
  8
DETAIL
  6
CONTINUOUS
 62
     5
 10
301.72636800000009
 20
1640.5000299999999
 30
0.0
 11
303.58990799999998
 21
1640.295965
 31
0.0
  0
LINE
  5
163
  8
DETAIL
  6
CONTINUOUS
 62
     5
 10
306.87952200000001
 20
1640.5000299999999
 30
0.0
 11
308.76820300000009
 21
1640.295965
 31
0.0
  0
LINE
  5
168
  8
DETAIL
  6
CONTINUOUS
 62
     5
 10
305.85346099999998
 20
1640.5000299999999
 30
0.0
 11
307.742142
 21
1640.295965
 31
0.0
  0
LINE
  5
16D
  8
DETAIL
  6
CONTINUOUS
 62
     5
 10
310.53496999999999
 20
1640.5000299999999
 30
0.0
 11
312.44649099999998
 21
1640.295965
 31
0.0
  0
LINE
  5
172
  8
DETAIL
  6
CONTINUOUS
 62
     5
 10
309.60791899999998
 20
1640.5000299999999
 30
0.0
 11
311.51943999999997
 21
1640.295965
 31
0.0
  0
LINE
  5
177
  8
DETAIL
  6
CONTINUOUS
 62
     5
 10
313.81207899999998
 20
1640.5000299999999
 30
0.0
 11
315.74411099999998
 21
1640.295965
 31
0.0
  0
LINE
  5
17C
  8
DETAIL
  6
CONTINUOUS
 62
     5
 10
312.98516699999999
 20
1640.5000299999999
 30
0.0
 11
314.9171990000001
 21
1640.295965
 31
0.0
  0
LINE
  5
181
  8
DETAIL
  6
CONTINUOUS
 62
     5
 10
316.70685600000002
 20
1640.5000299999999
 30
0.0
 11
318.65704599999998
 21
1640.295965
 31
0.0
  0
LINE
  5
186
  8
DETAIL
  6
CONTINUOUS
 62
     5
 10
315.98108999999999
 20
1640.5000299999999
 30
0.0
 11
317.9312799999999
 21
1640.295965
 31
0.0
  0
LINE
  5
18B
  8
DETAIL
  6
CONTINUOUS
 62
     5
 10
319.21577500000001
 20
1640.5000299999999
 30
0.0
 11
321.18174599999998
 21
1640.295965
 31
0.0
  0
LINE
  5
190
  8
DETAIL
  6
CONTINUOUS
 62
     5
 10
318.59204
 20
1640.5000299999999
 30
0.0
 11
320.55801100000002
 21
1640.295965
 31
0.0
  0
LINE
  5
191
  8
DETAIL
  6
CONTINUOUS
 62
     5
 10
328.4650200000001
 20
1637.3988469999999
 30
0.0
 11
329.68505900000002
 21
1635.8030610000001
 31
0.0
  0
LINE
  5
195
  8
DETAIL
  6
CONTINUOUS
 62
     5
 10
321.335778
 20
1640.5000299999999
 30
0.0
 11
323.315136
 21
1640.295965
 31
0.0
  0
LINE
  5
19A
  8
DETAIL
  6
CONTINUOUS
 62
     5
 10
320.81483400000002
 20
1640.5000299999999
 30
0.0
 11
322.79419200000001
 21
1640.295965
 31
0.0
  0
LINE
  5
19B
  8
DETAIL
  6
CONTINUOUS
 62
     5
 10
330.23305399999998
 20
1637.3988469999999
 30
0.0
 11
331.459858
 21
1635.8030610000001
 31
0.0
  0
LINE
  5
19C
  8
DETAIL
  6
CONTINUOUS
 62
     5
 10
328.71366999999998
 20
1638.713072
 30
0.0
 11
330.23305399999998
 21
1637.3988469999999
 31
0.0
  0
LINE
  5
19D
  8
DETAIL
  6
CONTINUOUS
 62
     5
 10
326.96371699999997
 20
1639.6920970000001
 30
0.0
 11
328.71366999999998
 21
1638.713072
 31
0.0
  0
LINE
  5
19E
  8
DETAIL
  6
CONTINUOUS
 62
     5
 10
325.05461600000001
 20
1640.295965
 30
0.0
 11
326.96371699999997
 21
1639.6920970000001
 31
0.0
  0
LINE
  5
19F
  8
DETAIL
  6
CONTINUOUS
 62
     5
 10
323.06428399999999
 20
1640.5000299999999
 30
0.0
 11
325.05461600000001
 21
1640.295965
 31
0.0
  0
LINE
  5
1A0
  8
DETAIL
  6
CONTINUOUS
 62
     5
 10
329.81553400000001
 20
1637.3988469999999
 30
0.0
 11
331.04233799999997
 21
1635.8030610000001
 31
0.0
  0
LINE
  5
1A1
  8
DETAIL
  6
CONTINUOUS
 62
     5
 10
328.29615100000001
 20
1638.713072
 30
0.0
 11
329.81553400000001
 21
1637.3988469999999
 31
0.0
  0
LINE
  5
1A2
  8
DETAIL
  6
CONTINUOUS
 62
     5
 10
326.546198
 20
1639.6920970000001
 30
0.0
 11
328.29615100000001
 21
1638.713072
 31
0.0
  0
LINE
  5
1A3
  8
DETAIL
  6
CONTINUOUS
 62
     5
 10
324.63709699999998
 20
1640.295965
 30
0.0
 11
326.546198
 21
1639.6920970000001
 31
0.0
  0
LINE
  5
1A4
  8
DETAIL
  6
CONTINUOUS
 62
     5
 10
322.64676500000002
 20
1640.5000299999999
 30
0.0
 11
324.63709699999998
 21
1640.295965
 31
0.0
  0
LINE
  5
1A5
  8
DETAIL
  6
CONTINUOUS
 62
     5
 10
331.598749
 20
1637.3988469999999
 30
0.0
 11
332.83082300000001
 21
1635.8030610000001
 31
0.0
  0
LINE
  5
1A6
  8
DETAIL
  6
CONTINUOUS
 62
     5
 10
330.07283899999999
 20
1638.713072
 30
0.0
 11
331.598749
 21
1637.3988469999999
 31
0.0
  0
LINE
  5
1A7
  8
DETAIL
  6
CONTINUOUS
 62
     5
 10
328.31536899999998
 20
1639.6920970000001
 30
0.0
 11
330.07283899999999
 21
1638.713072
 31
0.0
  0
LINE
  5
1A8
  8
DETAIL
  6
CONTINUOUS
 62
     5
 10
326.39806700000008
 20
1640.295965
 30
0.0
 11
328.31536899999998
 21
1639.6920970000001
 31
0.0
  0
LINE
  5
1A9
  8
DETAIL
  6
CONTINUOUS
 62
     5
 10
324.39918499999999
 20
1640.5000299999999
 30
0.0
 11
326.39806700000008
 21
1640.295965
 31
0.0
  0
LINE
  5
1AA
  8
DETAIL
  6
CONTINUOUS
 62
     5
 10
331.28516400000001
 20
1637.3988469999999
 30
0.0
 11
332.51723800000002
 21
1635.8030610000001
 31
0.0
  0
LINE
  5
1AB
  8
DETAIL
  6
CONTINUOUS
 62
     5
 10
329.759254
 20
1638.713072
 30
0.0
 11
331.28516400000001
 21
1637.3988469999999
 31
0.0
  0
LINE
  5
1AC
  8
DETAIL
  6
CONTINUOUS
 62
     5
 10
328.00178399999999
 20
1639.6920970000001
 30
0.0
 11
329.759254
 21
1638.713072
 31
0.0
  0
LINE
  5
1AD
  8
DETAIL
  6
CONTINUOUS
 62
     5
 10
326.08448199999998
 20
1640.295965
 30
0.0
 11
328.00178399999999
 21
1639.6920970000001
 31
0.0
  0
LINE
  5
1AE
  8
DETAIL
  6
CONTINUOUS
 62
     5
 10
324.0856
 20
1640.5000299999999
 30
0.0
 11
326.08448199999998
 21
1640.295965
 31
0.0
  0
LINE
  5
1AF
  8
DETAIL
  6
CONTINUOUS
 62
     5
 10
332.56044300000002
 20
1637.3988469999999
 30
0.0
 11
333.79628600000001
 21
1635.8030610000001
 31
0.0
  0
LINE
  5
1B0
  8
DETAIL
  6
CONTINUOUS
 62
     5
 10
331.02986499999997
 20
1638.713072
 30
0.0
 11
332.56044300000002
 21
1637.3988469999999
 31
0.0
  0
LINE
  5
1B1
  8
DETAIL
  6
CONTINUOUS
 62
     5
 10
329.267019
 20
1639.6920970000001
 30
0.0
 11
331.02986499999997
 21
1638.713072
 31
0.0
  0
LINE
  5
1B2
  8
DETAIL
  6
CONTINUOUS
 62
     5
 10
327.34385300000002
 20
1640.295965
 30
0.0
 11
329.267019
 21
1639.6920970000001
 31
0.0
  0
LINE
  5
1B3
  8
DETAIL
  6
CONTINUOUS
 62
     5
 10
325.33885600000002
 20
1640.5000299999999
 30
0.0
 11
327.34385300000002
 21
1640.295965
 31
0.0
  0
LINE
  5
1B4
  8
DETAIL
  6
CONTINUOUS
 62
     5
 10
332.35117400000001
 20
1637.3988469999999
 30
0.0
 11
333.58701600000001
 21
1635.8030610000001
 31
0.0
  0
LINE
  5
1B5
  8
DETAIL
  6
CONTINUOUS
 62
     5
 10
330.82059600000002
 20
1638.713072
 30
0.0
 11
332.35117400000001
 21
1637.3988469999999
 31
0.0
  0
LINE
  5
1B6
  8
DETAIL
  6
CONTINUOUS
 62
     5
 10
329.05775
 20
1639.6920970000001
 30
0.0
 11
330.82059600000002
 21
1638.713072
 31
0.0
  0
LINE
  5
1B7
  8
DETAIL
  6
CONTINUOUS
 62
     5
 10
327.13458300000002
 20
1640.295965
 30
0.0
 11
329.05775
 21
1639.6920970000001
 31
0.0
  0
LINE
  5
1B8
  8
DETAIL
  6
CONTINUOUS
 62
     5
 10
325.12958700000001
 20
1640.5000299999999
 30
0.0
 11
327.13458300000002
 21
1640.295965
 31
0.0
  0
LINE
  5
1B9
  8
DETAIL
  6
CONTINUOUS
 62
     5
 10
333.116963
 20
1637.3988469999999
 30
0.0
 11
334.35506900000001
 21
1635.8030610000001
 31
0.0
  0
LINE
  5
1BA
  8
DETAIL
  6
CONTINUOUS
 62
     5
 10
331.58358199999998
 20
1638.713072
 30
0.0
 11
333.116963
 21
1637.3988469999999
 31
0.0
  0
LINE
  5
1BB
  8
DETAIL
  6
CONTINUOUS
 62
     5
 10
329.81750799999998
 20
1639.6920970000001
 30
0.0
 11
331.58358199999998
 21
1638.713072
 31
0.0
  0
LINE
  5
1BC
  8
DETAIL
  6
CONTINUOUS
 62
     5
 10
327.89082000000002
 20
1640.295965
 30
0.0
 11
329.81750799999998
 21
1639.6920970000001
 31
0.0
  0
LINE
  5
1BD
  8
DETAIL
  6
CONTINUOUS
 62
     5
 10
325.88215200000002
 20
1640.5000299999999
 30
0.0
 11
327.89082000000002
 21
1640.295965
 31
0.0
  0
LINE
  5
1BE
  8
DETAIL
  6
CONTINUOUS
 62
     5
 10
333.01226500000001
 20
1637.3988469999999
 30
0.0
 11
334.25037099999997
 21
1635.8030610000001
 31
0.0
  0
LINE
  5
1BF
  8
DETAIL
  6
CONTINUOUS
 62
     5
 10
331.47888399999999
 20
1638.713072
 30
0.0
 11
333.01226500000001
 21
1637.3988469999999
 31
0.0
  0
LINE
  5
1C0
  8
DETAIL
  6
CONTINUOUS
 62
     5
 10
329.71280999999999
 20
1639.6920970000001
 30
0.0
 11
331.47888399999999
 21
1638.713072
 31
0.0
  0
LINE
  5
1C1
  8
DETAIL
  6
CONTINUOUS
 62
     5
 10
327.78612200000009
 20
1640.295965
 30
0.0
 11
329.71280999999999
 21
1639.6920970000001
 31
0.0
  0
LINE
  5
1C2
  8
DETAIL
  6
CONTINUOUS
 62
     5
 10
325.77745299999998
 20
1640.5000299999999
 30
0.0
 11
327.78612200000009
 21
1640.295965
 31
0.0
  0
LINE
  5
1C3
  8
DETAIL
  6
CONTINUOUS
 62
     5
 10
-333.116963
 20
1637.3988469999999
 30
0.0
 11
-334.35506900000001
 21
1635.8030610000001
 31
0.0
  0
LINE
  5
1C4
  8
DETAIL
  6
CONTINUOUS
 62
     5
 10
-331.58358199999998
 20
1638.713072
 30
0.0
 11
-333.116963
 21
1637.3988469999999
 31
0.0
  0
LINE
  5
1C5
  8
DETAIL
  6
CONTINUOUS
 62
     5
 10
-329.81750799999998
 20
1639.6920970000001
 30
0.0
 11
-331.58358199999998
 21
1638.713072
 31
0.0
  0
LINE
  5
1C6
  8
DETAIL
  6
CONTINUOUS
 62
     5
 10
-327.89082000000002
 20
1640.295965
 30
0.0
 11
-329.81750799999998
 21
1639.6920970000001
 31
0.0
  0
LINE
  5
1C7
  8
DETAIL
  6
CONTINUOUS
 62
     5
 10
-325.88215200000002
 20
1640.5000299999999
 30
0.0
 11
-327.89082000000002
 21
1640.295965
 31
0.0
  0
LINE
  5
1C8
  8
DETAIL
  6
CONTINUOUS
 62
     5
 10
-333.01226500000001
 20
1637.3988469999999
 30
0.0
 11
-334.25037099999997
 21
1635.8030610000001
 31
0.0
  0
LINE
  5
1C9
  8
DETAIL
  6
CONTINUOUS
 62
     5
 10
-331.47888399999999
 20
1638.713072
 30
0.0
 11
-333.01226500000001
 21
1637.3988469999999
 31
0.0
  0
LINE
  5
1CA
  8
DETAIL
  6
CONTINUOUS
 62
     5
 10
-329.71280999999999
 20
1639.6920970000001
 30
0.0
 11
-331.47888399999999
 21
1638.713072
 31
0.0
  0
LINE
  5
1CB
  8
DETAIL
  6
CONTINUOUS
 62
     5
 10
-327.78612200000009
 20
1640.295965
 30
0.0
 11
-329.71280999999999
 21
1639.6920970000001
 31
0.0
  0
LINE
  5
1CC
  8
DETAIL
  6
CONTINUOUS
 62
     5
 10
-325.77745299999998
 20
1640.5000299999999
 30
0.0
 11
-327.78612200000009
 21
1640.295965
 31
0.0
  0
LINE
  5
1CD
  8
DETAIL
  6
CONTINUOUS
 62
     5
 10
-332.56044300000002
 20
1637.3988469999999
 30
0.0
 11
-333.79628600000001
 21
1635.8030610000001
 31
0.0
  0
LINE
  5
1CE
  8
DETAIL
  6
CONTINUOUS
 62
     5
 10
-331.02986499999997
 20
1638.713072
 30
0.0
 11
-332.56044300000002
 21
1637.3988469999999
 31
0.0
  0
LINE
  5
1CF
  8
DETAIL
  6
CONTINUOUS
 62
     5
 10
-329.267019
 20
1639.6920970000001
 30
0.0
 11
-331.02986499999997
 21
1638.713072
 31
0.0
  0
LINE
  5
1D0
  8
DETAIL
  6
CONTINUOUS
 62
     5
 10
-327.34385300000002
 20
1640.295965
 30
0.0
 11
-329.267019
 21
1639.6920970000001
 31
0.0
  0
LINE
  5
1D1
  8
DETAIL
  6
CONTINUOUS
 62
     5
 10
-325.33885600000002
 20
1640.5000299999999
 30
0.0
 11
-327.34385300000002
 21
1640.295965
 31
0.0
  0
LINE
  5
1D2
  8
DETAIL
  6
CONTINUOUS
 62
     5
 10
-332.35117400000001
 20
1637.3988469999999
 30
0.0
 11
-333.58701600000001
 21
1635.8030610000001
 31
0.0
  0
LINE
  5
1D3
  8
DETAIL
  6
CONTINUOUS
 62
     5
 10
-330.82059600000002
 20
1638.713072
 30
0.0
 11
-332.35117400000001
 21
1637.3988469999999
 31
0.0
  0
LINE
  5
1D4
  8
DETAIL
  6
CONTINUOUS
 62
     5
 10
-329.05775
 20
1639.6920970000001
 30
0.0
 11
-330.82059600000002
 21
1638.713072
 31
0.0
  0
LINE
  5
1D5
  8
DETAIL
  6
CONTINUOUS
 62
     5
 10
-327.13458300000002
 20
1640.295965
 30
0.0
 11
-329.05775
 21
1639.6920970000001
 31
0.0
  0
LINE
  5
1D6
  8
DETAIL
  6
CONTINUOUS
 62
     5
 10
-325.12958700000001
 20
1640.5000299999999
 30
0.0
 11
-327.13458300000002
 21
1640.295965
 31
0.0
  0
LINE
  5
1D7
  8
DETAIL
  6
CONTINUOUS
 62
     5
 10
-331.598749
 20
1637.3988469999999
 30
0.0
 11
-332.83082300000001
 21
1635.8030610000001
 31
0.0
  0
LINE
  5
1D8
  8
DETAIL
  6
CONTINUOUS
 62
     5
 10
-330.07283899999999
 20
1638.713072
 30
0.0
 11
-331.598749
 21
1637.3988469999999
 31
0.0
  0
LINE
  5
1D9
  8
DETAIL
  6
CONTINUOUS
 62
     5
 10
-328.31536899999998
 20
1639.6920970000001
 30
0.0
 11
-330.07283899999999
 21
1638.713072
 31
0.0
  0
LINE
  5
1DA
  8
DETAIL
  6
CONTINUOUS
 62
     5
 10
-326.39806700000008
 20
1640.295965
 30
0.0
 11
-328.31536899999998
 21
1639.6920970000001
 31
0.0
  0
LINE
  5
1DB
  8
DETAIL
  6
CONTINUOUS
 62
     5
 10
-324.39918499999999
 20
1640.5000299999999
 30
0.0
 11
-326.39806700000008
 21
1640.295965
 31
0.0
  0
LINE
  5
1DC
  8
DETAIL
  6
CONTINUOUS
 62
     5
 10
-331.28516400000001
 20
1637.3988469999999
 30
0.0
 11
-332.51723800000002
 21
1635.8030610000001
 31
0.0
  0
LINE
  5
1DD
  8
DETAIL
  6
CONTINUOUS
 62
     5
 10
-329.759254
 20
1638.713072
 30
0.0
 11
-331.28516400000001
 21
1637.3988469999999
 31
0.0
  0
LINE
  5
1DE
  8
DETAIL
  6
CONTINUOUS
 62
     5
 10
-328.00178399999999
 20
1639.6920970000001
 30
0.0
 11
-329.759254
 21
1638.713072
 31
0.0
  0
LINE
  5
1DF
  8
DETAIL
  6
CONTINUOUS
 62
     5
 10
-326.08448199999998
 20
1640.295965
 30
0.0
 11
-328.00178399999999
 21
1639.6920970000001
 31
0.0
  0
LINE
  5
1E0
  8
DETAIL
  6
CONTINUOUS
 62
     5
 10
-324.0856
 20
1640.5000299999999
 30
0.0
 11
-326.08448199999998
 21
1640.295965
 31
0.0
  0
LINE
  5
1E1
  8
DETAIL
  6
CONTINUOUS
 62
     5
 10
-330.23305399999998
 20
1637.3988469999999
 30
0.0
 11
-331.459858
 21
1635.8030610000001
 31
0.0
  0
LINE
  5
1E2
  8
DETAIL
  6
CONTINUOUS
 62
     5
 10
-328.71366999999998
 20
1638.713072
 30
0.0
 11
-330.23305399999998
 21
1637.3988469999999
 31
0.0
  0
LINE
  5
1E5
  8
DETAIL
  6
CONTINUOUS
 62
     5
 10
-323.06428399999999
 20
1640.5000299999999
 30
0.0
 11
-325.05461600000001
 21
1640.295965
 31
0.0
  0
LINE
  5
1E6
  8
DETAIL
  6
CONTINUOUS
 62
     5
 10
-329.81553400000001
 20
1637.3988469999999
 30
0.0
 11
-331.04233799999997
 21
1635.8030610000001
 31
0.0
  0
LINE
  5
1EA
  8
DETAIL
  6
CONTINUOUS
 62
     5
 10
-322.64676500000002
 20
1640.5000299999999
 30
0.0
 11
-324.63709699999998
 21
1640.295965
 31
0.0
  0
LINE
  5
1EF
  8
DETAIL
  6
CONTINUOUS
 62
     5
 10
-321.335778
 20
1640.5000299999999
 30
0.0
 11
-323.315136
 21
1640.295965
 31
0.0
  0
LINE
  5
1F4
  8
DETAIL
  6
CONTINUOUS
 62
     5
 10
-320.81483400000002
 20
1640.5000299999999
 30
0.0
 11
-322.79419200000001
 21
1640.295965
 31
0.0
  0
LINE
  5
1F9
  8
DETAIL
  6
CONTINUOUS
 62
     5
 10
-319.21577500000001
 20
1640.5000299999999
 30
0.0
 11
-321.18174599999998
 21
1640.295965
 31
0.0
  0
LINE
  5
1FE
  8
DETAIL
  6
CONTINUOUS
 62
     5
 10
-318.59204
 20
1640.5000299999999
 30
0.0
 11
-320.55801100000002
 21
1640.295965
 31
0.0
  0
LINE
  5
203
  8
DETAIL
  6
CONTINUOUS
 62
     5
 10
-316.70685600000002
 20
1640.5000299999999
 30
0.0
 11
-318.65704599999998
 21
1640.295965
 31
0.0
  0
LINE
  5
208
  8
DETAIL
  6
CONTINUOUS
 62
     5
 10
-315.98108999999999
 20
1640.5000299999999
 30
0.0
 11
-317.9312799999999
 21
1640.295965
 31
0.0
  0
LINE
  5
20D
  8
DETAIL
  6
CONTINUOUS
 62
     5
 10
-313.81207899999998
 20
1640.5000299999999
 30
0.0
 11
-315.74411099999998
 21
1640.295965
 31
0.0
  0
LINE
  5
212
  8
DETAIL
  6
CONTINUOUS
 62
     5
 10
-312.98516699999999
 20
1640.5000299999999
 30
0.0
 11
-314.9171990000001
 21
1640.295965
 31
0.0
  0
LINE
  5
217
  8
DETAIL
  6
CONTINUOUS
 62
     5
 10
-310.53496999999999
 20
1640.5000299999999
 30
0.0
 11
-312.44649099999998
 21
1640.295965
 31
0.0
  0
LINE
  5
21C
  8
DETAIL
  6
CONTINUOUS
 62
     5
 10
-309.60791899999998
 20
1640.5000299999999
 30
0.0
 11
-311.51943999999997
 21
1640.295965
 31
0.0
  0
LINE
  5
221
  8
DETAIL
  6
CONTINUOUS
 62
     5
 10
-306.87952200000001
 20
1640.5000299999999
 30
0.0
 11
-308.76820300000009
 21
1640.295965
 31
0.0
  0
LINE
  5
226
  8
DETAIL
  6
CONTINUOUS
 62
     5
 10
-305.85346099999998
 20
1640.5000299999999
 30
0.0
 11
-307.742142
 21
1640.295965
 31
0.0
  0
LINE
  5
22B
  8
DETAIL
  6
CONTINUOUS
 62
     5
 10
-302.850188
 20
1640.5000299999999
 30
0.0
 11
-304.713728
 21
1640.295965
 31
0.0
  0
LINE
  5
230
  8
DETAIL
  6
CONTINUOUS
 62
     5
 10
-301.72636800000009
 20
1640.5000299999999
 30
0.0
 11
-303.58990799999998
 21
1640.295965
 31
0.0
  0
LINE
  5
235
  8
DETAIL
  6
CONTINUOUS
 62
     5
 10
-298.45187800000002
 20
1640.5000299999999
 30
0.0
 11
-300.288006
 21
1640.295965
 31
0.0
  0
LINE
  5
23A
  8
DETAIL
  6
CONTINUOUS
 62
     5
 10
-297.23166800000001
 20
1640.5000299999999
 30
0.0
 11
-299.0677970000001
 21
1640.295965
 31
0.0
  0
LINE
  5
23F
  8
DETAIL
  6
CONTINUOUS
 62
     5
 10
-293.68995099999989
 20
1640.5000299999999
 30
0.0
 11
-295.49642999999998
 21
1640.295965
 31
0.0
  0
LINE
  5
244
  8
DETAIL
  6
CONTINUOUS
 62
     5
 10
-292.37483700000001
 20
1640.5000299999999
 30
0.0
 11
-294.18131699999992
 21
1640.295965
 31
0.0
  0
LINE
  5
249
  8
DETAIL
  6
CONTINUOUS
 62
     5
 10
-288.57020699999998
 20
1640.5000299999999
 30
0.0
 11
-290.34483699999998
 21
1640.295965
 31
0.0
  0
LINE
  5
24E
  8
DETAIL
  6
CONTINUOUS
 62
     5
 10
-287.16179299999999
 20
1640.5000299999999
 30
0.0
 11
-288.93642299999999
 21
1640.295965
 31
0.0
  0
LINE
  5
253
  8
DETAIL
  6
CONTINUOUS
 62
     5
 10
-283.09888599999999
 20
1640.5000299999999
 30
0.0
 11
-284.83950399999998
 21
1640.295965
 31
0.0
  0
LINE
  5
258
  8
DETAIL
  6
CONTINUOUS
 62
     5
 10
-281.59888599999999
 20
1640.5000299999999
 30
0.0
 11
-283.33950399999998
 21
1640.295965
 31
0.0
  0
LINE
  5
25D
  8
DETAIL
  6
CONTINUOUS
 62
     5
 10
-277.28265199999998
 20
1640.5000299999999
 30
0.0
 11
-278.98713700000002
 21
1640.295965
 31
0.0
  0
LINE
  5
262
  8
DETAIL
  6
CONTINUOUS
 62
     5
 10
-275.69289400000002
 20
1640.5000299999999
 30
0.0
 11
-277.397379
 21
1640.295965
 31
0.0
  0
LINE
  5
267
  8
DETAIL
  6
CONTINUOUS
 62
     5
 10
-271.12859099999997
 20
1640.5000299999999
 30
0.0
 11
-272.79486800000001
 21
1640.295965
 31
0.0
  0
LINE
  5
26C
  8
DETAIL
  6
CONTINUOUS
 62
     5
 10
-269.45101299999999
 20
1640.5000299999999
 30
0.0
 11
-271.11728900000003
 21
1640.295965
 31
0.0
  0
LINE
  5
271
  8
DETAIL
  6
CONTINUOUS
 62
     5
 10
-264.64420200000001
 20
1640.5000299999999
 30
0.0
 11
-266.27024
 21
1640.295965
 31
0.0
  0
LINE
  5
272
  8
DETAIL
  6
CONTINUOUS
 62
     5
 10
-262.88084700000002
 20
1640.5000299999999
 30
0.0
 11
-264.5068839999999
 21
1640.295965
 31
0.0
  0
LINE
  5
277
  8
DETAIL
  6
CONTINUOUS
 62
     5
 10
-257.83738599999998
 20
1640.5000299999999
 30
0.0
 11
-259.42120199999999
 21
1640.295965
 31
0.0
  0
LINE
  5
27C
  8
DETAIL
  6
CONTINUOUS
 62
     5
 10
-255.99040099999999
 20
1640.5000299999999
 30
0.0
 11
-257.57421799999997
 21
1640.295965
 31
0.0
  0
LINE
  5
281
  8
DETAIL
  6
CONTINUOUS
 62
     5
 10
-250.71643299999999
 20
1640.5000299999999
 30
0.0
 11
-252.2561
 21
1640.295965
 31
0.0
  0
LINE
  5
286
  8
DETAIL
  6
CONTINUOUS
 62
     5
 10
-248.788071
 20
1640.5000299999999
 30
0.0
 11
-250.32773800000001
 21
1640.295965
 31
0.0
  0
LINE
  5
28B
  8
DETAIL
  6
CONTINUOUS
 62
     5
 10
-243.29002199999999
 20
1640.5000299999999
 30
0.0
 11
-244.78366299999999
 21
1640.295965
 31
0.0
  0
LINE
  5
290
  8
DETAIL
  6
CONTINUOUS
 62
     5
 10
-241.28263000000001
 20
1640.5000299999999
 30
0.0
 11
-242.77627100000001
 21
1640.295965
 31
0.0
  0
LINE
  5
295
  8
DETAIL
  6
CONTINUOUS
 62
     5
 10
-235.56719899999999
 20
1640.5000299999999
 30
0.0
 11
-237.01299499999999
 21
1640.295965
 31
0.0
  0
LINE
  5
29A
  8
DETAIL
  6
CONTINUOUS
 62
     5
 10
-233.48322400000001
 20
1640.5000299999999
 30
0.0
 11
-234.92902000000001
 21
1640.295965
 31
0.0
  0
LINE
  5
29F
  8
DETAIL
  6
CONTINUOUS
 62
     5
 10
-227.55737400000001
 20
1640.5000299999999
 30
0.0
 11
-228.953563
 21
1640.295965
 31
0.0
  0
LINE
  5
2A4
  8
DETAIL
  6
CONTINUOUS
 62
     5
 10
-225.39935500000001
 20
1640.5000299999999
 30
0.0
 11
-226.79554300000001
 21
1640.295965
 31
0.0
  0
LINE
  5
2A9
  8
DETAIL
  6
CONTINUOUS
 62
     5
 10
-219.27030500000001
 20
1640.5000299999999
 30
0.0
 11
-220.61518599999999
 21
1640.295965
 31
0.0
  0
LINE
  5
2AE
  8
DETAIL
  6
CONTINUOUS
 62
     5
 10
-217.04087100000001
 20
1640.5000299999999
 30
0.0
 11
-218.385751
 21
1640.295965
 31
0.0
  0
LINE
  5
2B3
  8
DETAIL
  6
CONTINUOUS
 62
     5
 10
-210.71608900000001
 20
1640.5000299999999
 30
0.0
 11
-212.00802300000001
 21
1640.295965
 31
0.0
  0
LINE
  5
2B8
  8
DETAIL
  6
CONTINUOUS
 62
     5
 10
-208.417956
 20
1640.5000299999999
 30
0.0
 11
-209.70989
 21
1640.295965
 31
0.0
  0
LINE
  5
2BD
  8
DETAIL
  6
CONTINUOUS
 62
     5
 10
-201.905148
 20
1640.5000299999999
 30
0.0
 11
-203.142562
 21
1640.295965
 31
0.0
  0
LINE
  5
2C2
  8
DETAIL
  6
CONTINUOUS
 62
     5
 10
-199.54111599999999
 20
1640.5000299999999
 30
0.0
 11
-200.77852899999999
 21
1640.295965
 31
0.0
  0
LINE
  5
2C7
  8
DETAIL
  6
CONTINUOUS
 62
     5
 10
-192.84821700000001
 20
1640.5000299999999
 30
0.0
 11
-194.02960200000001
 21
1640.295965
 31
0.0
  0
LINE
  5
2CC
  8
DETAIL
  6
CONTINUOUS
 62
     5
 10
-190.421166
 20
1640.5000299999999
 30
0.0
 11
-191.60255100000001
 21
1640.295965
 31
0.0
  0
LINE
  5
2D1
  8
DETAIL
  6
CONTINUOUS
 62
     5
 10
-183.55633
 20
1640.5000299999999
 30
0.0
 11
-184.68024700000001
 21
1640.295965
 31
0.0
  0
LINE
  5
2D6
  8
DETAIL
  6
CONTINUOUS
 62
     5
 10
-181.06921700000001
 20
1640.5000299999999
 30
0.0
 11
-182.19313500000001
 21
1640.295965
 31
0.0
  0
LINE
  5
2DB
  8
DETAIL
  6
CONTINUOUS
 62
     5
 10
-174.040807
 20
1640.5000299999999
 30
0.0
 11
-175.10588799999999
 21
1640.295965
 31
0.0
  0
LINE
  5
2E0
  8
DETAIL
  6
CONTINUOUS
 62
     5
 10
-171.49666300000001
 20
1640.5000299999999
 30
0.0
 11
-172.561744
 21
1640.295965
 31
0.0
  0
LINE
  5
2E5
  8
DETAIL
  6
CONTINUOUS
 62
     5
 10
-164.313243
 20
1640.5000299999999
 30
0.0
 11
-165.31818999999999
 21
1640.295965
 31
0.0
  0
LINE
  5
2EA
  8
DETAIL
  6
CONTINUOUS
 62
     5
 10
-161.71516700000001
 20
1640.5000299999999
 30
0.0
 11
-162.720113
 21
1640.295965
 31
0.0
  0
LINE
  5
2EF
  8
DETAIL
  6
CONTINUOUS
 62
     5
 10
-154.38548899999981
 20
1640.5000299999999
 30
0.0
 11
-155.32907599999999
 21
1640.295965
 31
0.0
  0
LINE
  5
2F4
  8
DETAIL
  6
CONTINUOUS
 62
     5
 10
-151.73664600000001
 20
1640.5000299999999
 30
0.0
 11
-152.68023299999999
 21
1640.295965
 31
0.0
  0
LINE
  5
2F9
  8
DETAIL
  6
CONTINUOUS
 62
     5
 10
-144.26963900000001
 20
1640.5000299999999
 30
0.0
 11
-145.15071800000001
 21
1640.295965
 31
0.0
  0
LINE
  5
2FE
  8
DETAIL
  6
CONTINUOUS
 62
     5
 10
-141.57325700000001
 20
1640.5000299999999
 30
0.0
 11
-142.45433600000001
 21
1640.295965
 31
0.0
  0
LINE
  5
303
  8
DETAIL
  6
CONTINUOUS
 62
     5
 10
80.328855000000004
 20
1640.5000299999999
 30
0.0
 11
80.815092000000007
 21
1640.295965
 31
0.0
  0
LINE
  5
308
  8
DETAIL
  6
CONTINUOUS
 62
     5
 10
77.417967000000004
 20
1640.5000299999999
 30
0.0
 11
77.904203999999993
 21
1640.295965
 31
0.0
  0
LINE
  5
30D
  8
DETAIL
  6
CONTINUOUS
 62
     5
 10
91.307501999999985
 20
1640.5000299999999
 30
0.0
 11
91.861502999999985
 21
1640.295965
 31
0.0
  0
LINE
  5
312
  8
DETAIL
  6
CONTINUOUS
 62
     5
 10
88.423715999999985
 20
1640.5000299999999
 30
0.0
 11
88.977718000000024
 21
1640.295965
 31
0.0
  0
LINE
  5
317
  8
DETAIL
  6
CONTINUOUS
 62
     5
 10
102.174904
 20
1640.5000299999999
 30
0.0
 11
102.795995
 21
1640.295965
 31
0.0
  0
LINE
  5
31C
  8
DETAIL
  6
CONTINUOUS
 62
     5
 10
99.321735000000004
 20
1640.5000299999999
 30
0.0
 11
99.942825999999997
 21
1640.295965
 31
0.0
  0
LINE
  5
321
  8
DETAIL
  6
CONTINUOUS
 62
     5
 10
112.917823
 20
1640.5000299999999
 30
0.0
 11
113.60524599999999
 21
1640.295965
 31
0.0
  0
LINE
  5
326
  8
DETAIL
  6
CONTINUOUS
 62
     5
 10
110.09874499999999
 20
1640.5000299999999
 30
0.0
 11
110.786168
 21
1640.295965
 31
0.0
  0
LINE
  5
32B
  8
DETAIL
  6
CONTINUOUS
 62
     5
 10
123.523168
 20
1640.5000299999999
 30
0.0
 11
124.276087
 21
1640.295965
 31
0.0
  0
LINE
  5
330
  8
DETAIL
  6
CONTINUOUS
 62
     5
 10
120.74161599999999
 20
1640.5000299999999
 30
0.0
 11
121.494535
 21
1640.295965
 31
0.0
  0
LINE
  5
335
  8
DETAIL
  6
CONTINUOUS
 62
     5
 10
133.97801899999999
 20
1640.5000299999999
 30
0.0
 11
134.79551599999999
 21
1640.295965
 31
0.0
  0
LINE
  5
33A
  8
DETAIL
  6
CONTINUOUS
 62
     5
 10
131.23738299999999
 20
1640.5000299999999
 30
0.0
 11
132.05488
 21
1640.295965
 31
0.0
  0
LINE
  5
33B
  8
DETAIL
  6
CONTINUOUS
 62
     5
 10
-79.999969999999976
 20
1650.000031
 30
0.0
 11
79.999969999999976
 21
1650.000031
 31
0.0
  0
LINE
  5
33C
  8
DETAIL
  6
CONTINUOUS
 62
     5
 10
-100.00000199999999
 20
1649.300031
 30
0.0
 11
100.00000199999999
 21
1649.300031
 31
0.0
  0
LINE
  5
33D
  8
DETAIL
  6
CONTINUOUS
 62
     5
 10
-119.999972
 20
1648.6000300000001
 30
0.0
 11
119.999972
 21
1648.6000300000001
 31
0.0
  0
LINE
  5
33E
  8
DETAIL
  6
CONTINUOUS
 62
     5
 10
-139.99997200000001
 20
1647.90003
 30
0.0
 11
139.99997200000001
 21
1647.90003
 31
0.0
  0
LINE
  5
33F
  8
DETAIL
  6
CONTINUOUS
 62
     5
 10
-159.99997300000001
 20
1647.20003
 30
0.0
 11
159.99997300000001
 21
1647.20003
 31
0.0
  0
LINE
  5
340
  8
DETAIL
  6
CONTINUOUS
 62
     5
 10
-179.99997400000001
 20
1646.5000299999999
 30
0.0
 11
179.99997400000001
 21
1646.5000299999999
 31
0.0
  0
LINE
  5
341
  8
DETAIL
  6
CONTINUOUS
 62
     5
 10
-200.00000399999999
 20
1645.8000300000001
 30
0.0
 11
200.00000399999999
 21
1645.8000300000001
 31
0.0
  0
LINE
  5
342
  8
DETAIL
  6
CONTINUOUS
 62
     5
 10
-220.00000399999999
 20
1645.1000300000001
 30
0.0
 11
220.00000399999999
 21
1645.1000300000001
 31
0.0
  0
LINE
  5
343
  8
DETAIL
  6
CONTINUOUS
 62
     5
 10
-239.99997400000001
 20
1644.40003
 30
0.0
 11
239.99997400000001
 21
1644.40003
 31
0.0
  0
LINE
  5
344
  8
DETAIL
  6
CONTINUOUS
 62
     5
 10
-259.99997500000001
 20
1643.70003
 30
0.0
 11
259.99997500000001
 21
1643.70003
 31
0.0
  0
LINE
  5
345
  8
DETAIL
  6
CONTINUOUS
 62
     5
 10
-280.00000499999999
 20
1643.0000299999999
 30
0.0
 11
280.00000499999999
 21
1643.0000299999999
 31
0.0
  0
LINE
  5
346
  8
DETAIL
  6
CONTINUOUS
 62
     5
 10
-299.99997500000001
 20
1642.3000300000001
 30
0.0
 11
299.99997500000001
 21
1642.3000300000001
 31
0.0
  0
LINE
  5
347
  8
DETAIL
  6
CONTINUOUS
 62
     5
 10
-320.00000599999998
 20
1641.6000300000001
 30
0.0
 11
320.00000599999998
 21
1641.6000300000001
 31
0.0
  0
LINE
  5
348
  8
DETAIL
  6
CONTINUOUS
 62
     5
 10
325.33885600000002
 20
1640.5000299999999
 30
0.0
 11
326.02841000000001
 21
1640.5000299999999
 31
0.0
  0
LINE
  5
349
  8
DETAIL
  6
CONTINUOUS
 62
     5
 10
324.39918499999999
 20
1640.5000299999999
 30
0.0
 11
325.12958700000001
 21
1640.5000299999999
 31
0.0
  0
LINE
  5
34A
  8
DETAIL
  6
CONTINUOUS
 62
     5
 10
323.06428399999999
 20
1640.5000299999999
 30
0.0
 11
324.0856
 21
1640.5000299999999
 31
0.0
  0
LINE
  5
34B
  8
DETAIL
  6
CONTINUOUS
 62
     5
 10
321.335778
 20
1640.5000299999999
 30
0.0
 11
322.64676500000002
 21
1640.5000299999999
 31
0.0
  0
LINE
  5
34C
  8
DETAIL
  6
CONTINUOUS
 62
     5
 10
319.21577500000001
 20
1640.5000299999999
 30
0.0
 11
320.81483400000002
 21
1640.5000299999999
 31
0.0
  0
LINE
  5
34D
  8
DETAIL
  6
CONTINUOUS
 62
     5
 10
258.00092100000001
 20
1640.5000299999999
 30
0.0
 11
318.59204
 21
1640.5000299999999
 31
0.0
  0
LINE
  5
34E
  8
DETAIL
  6
CONTINUOUS
 62
     5
 10
251.23718299999999
 20
1640.5000299999999
 30
0.0
 11
257.83738599999998
 21
1640.5000299999999
 31
0.0
  0
LINE
  5
34F
  8
DETAIL
  6
CONTINUOUS
 62
     5
 10
244.16735199999999
 20
1640.5000299999999
 30
0.0
 11
250.71643299999999
 21
1640.5000299999999
 31
0.0
  0
LINE
  5
350
  8
DETAIL
  6
CONTINUOUS
 62
     5
 10
236.80004
 20
1640.5000299999999
 30
0.0
 11
243.29002199999999
 21
1640.5000299999999
 31
0.0
  0
LINE
  5
351
  8
DETAIL
  6
CONTINUOUS
 62
     5
 10
229.14422400000001
 20
1640.5000299999999
 30
0.0
 11
235.56719899999999
 21
1640.5000299999999
 31
0.0
  0
LINE
  5
352
  8
DETAIL
  6
CONTINUOUS
 62
     5
 10
221.20923099999999
 20
1640.5000299999999
 30
0.0
 11
227.55737400000001
 21
1640.5000299999999
 31
0.0
  0
LINE
  5
353
  8
DETAIL
  6
CONTINUOUS
 62
     5
 10
213.004728
 20
1640.5000299999999
 30
0.0
 11
219.27030500000001
 21
1640.5000299999999
 31
0.0
  0
LINE
  5
354
  8
DETAIL
  6
CONTINUOUS
 62
     5
 10
204.54071200000001
 20
1640.5000299999999
 30
0.0
 11
210.71608900000001
 21
1640.5000299999999
 31
0.0
  0
LINE
  5
355
  8
DETAIL
  6
CONTINUOUS
 62
     5
 10
195.827495
 20
1640.5000299999999
 30
0.0
 11
201.905148
 21
1640.5000299999999
 31
0.0
  0
LINE
  5
356
  8
DETAIL
  6
CONTINUOUS
 62
     5
 10
186.87569199999999
 20
1640.5000299999999
 30
0.0
 11
192.84821700000001
 21
1640.5000299999999
 31
0.0
  0
LINE
  5
357
  8
DETAIL
  6
CONTINUOUS
 62
     5
 10
177.69621000000001
 20
1640.5000299999999
 30
0.0
 11
183.55633
 21
1640.5000299999999
 31
0.0
  0
LINE
  5
358
  8
DETAIL
  6
CONTINUOUS
 62
     5
 10
168.30023299999999
 20
1640.5000299999999
 30
0.0
 11
174.040807
 21
1640.5000299999999
 31
0.0
  0
LINE
  5
359
  8
DETAIL
  6
CONTINUOUS
 62
     5
 10
158.699207
 20
1640.5000299999999
 30
0.0
 11
164.313243
 21
1640.5000299999999
 31
0.0
  0
LINE
  5
35A
  8
DETAIL
  6
CONTINUOUS
 62
     5
 10
148.904831
 20
1640.5000299999999
 30
0.0
 11
154.38548899999981
 21
1640.5000299999999
 31
0.0
  0
LINE
  5
35B
  8
DETAIL
  6
CONTINUOUS
 62
     5
 10
138.92903699999999
 20
1640.5000299999999
 30
0.0
 11
144.26963900000001
 21
1640.5000299999999
 31
0.0
  0
LINE
  5
35C
  8
DETAIL
  6
CONTINUOUS
 62
     5
 10
128.78398000000001
 20
1640.5000299999999
 30
0.0
 11
133.97801899999999
 21
1640.5000299999999
 31
0.0
  0
LINE
  5
35D
  8
DETAIL
  6
CONTINUOUS
 62
     5
 10
118.48201899999999
 20
1640.5000299999999
 30
0.0
 11
123.523168
 21
1640.5000299999999
 31
0.0
  0
LINE
  5
35E
  8
DETAIL
  6
CONTINUOUS
 62
     5
 10
108.035707
 20
1640.5000299999999
 30
0.0
 11
112.917823
 21
1640.5000299999999
 31
0.0
  0
LINE
  5
35F
  8
DETAIL
  6
CONTINUOUS
 62
     5
 10
97.457769000000013
 20
1640.5000299999999
 30
0.0
 11
102.174904
 21
1640.5000299999999
 31
0.0
  0
LINE
  5
360
  8
DETAIL
  6
CONTINUOUS
 62
     5
 10
86.761093999999986
 20
1640.5000299999999
 30
0.0
 11
91.307501999999985
 21
1640.5000299999999
 31
0.0
  0
LINE
  5
361
  8
DETAIL
  6
CONTINUOUS
 62
     5
 10
75.958714000000001
 20
1640.5000299999999
 30
0.0
 11
80.328855000000004
 21
1640.5000299999999
 31
0.0
  0
LINE
  5
362
  8
DETAIL
  6
CONTINUOUS
 62
     5
 10
65.063789999999983
 20
1640.5000299999999
 30
0.0
 11
69.252339000000006
 21
1640.5000299999999
 31
0.0
  0
LINE
  5
363
  8
DETAIL
  6
CONTINUOUS
 62
     5
 10
54.089595999999993
 20
1640.5000299999999
 30
0.0
 11
58.091450999999999
 21
1640.5000299999999
 31
0.0
  0
LINE
  5
364
  8
DETAIL
  6
CONTINUOUS
 62
     5
 10
43.04950199999999
 20
1640.5000299999999
 30
0.0
 11
46.859786999999983
 21
1640.5000299999999
 31
0.0
  0
LINE
  5
365
  8
DETAIL
  6
CONTINUOUS
 62
     5
 10
31.956959000000001
 20
1640.5000299999999
 30
0.0
 11
35.571032000000002
 21
1640.5000299999999
 31
0.0
  0
LINE
  5
366
  8
DETAIL
  6
CONTINUOUS
 62
     5
 10
20.825481
 20
1640.5000299999999
 30
0.0
 11
24.238938000000001
 21
1640.5000299999999
 31
0.0
  0
LINE
  5
367
  8
DETAIL
  6
CONTINUOUS
 62
     5
 10
9.6686300000000003
 20
1640.5000299999999
 30
0.0
 11
12.877314
 21
1640.5000299999999
 31
0.0
  0
LINE
  5
368
  8
DETAIL
  6
CONTINUOUS
 62
     5
 10
-1.5
 20
1640.5000299999999
 30
0.0
 11
1.5
 21
1640.5000299999999
 31
0.0
  0
LINE
  5
369
  8
DETAIL
  6
CONTINUOUS
 62
     5
 10
-12.877314
 20
1640.5000299999999
 30
0.0
 11
-9.6686300000000003
 21
1640.5000299999999
 31
0.0
  0
LINE
  5
36A
  8
DETAIL
  6
CONTINUOUS
 62
     5
 10
-24.238938000000001
 20
1640.5000299999999
 30
0.0
 11
-20.825481
 21
1640.5000299999999
 31
0.0
  0
LINE
  5
36B
  8
DETAIL
  6
CONTINUOUS
 62
     5
 10
-35.571032000000002
 20
1640.5000299999999
 30
0.0
 11
-31.956959000000001
 21
1640.5000299999999
 31
0.0
  0
LINE
  5
36C
  8
DETAIL
  6
CONTINUOUS
 62
     5
 10
-46.859786999999983
 20
1640.5000299999999
 30
0.0
 11
-43.04950199999999
 21
1640.5000299999999
 31
0.0
  0
LINE
  5
36D
  8
DETAIL
  6
CONTINUOUS
 62
     5
 10
-58.091450999999999
 20
1640.5000299999999
 30
0.0
 11
-54.089595999999993
 21
1640.5000299999999
 31
0.0
  0
LINE
  5
36E
  8
DETAIL
  6
CONTINUOUS
 62
     5
 10
-69.252339000000006
 20
1640.5000299999999
 30
0.0
 11
-65.063789999999983
 21
1640.5000299999999
 31
0.0
  0
LINE
  5
36F
  8
DETAIL
  6
CONTINUOUS
 62
     5
 10
-80.328855000000004
 20
1640.5000299999999
 30
0.0
 11
-75.958714000000001
 21
1640.5000299999999
 31
0.0
  0
LINE
  5
370
  8
DETAIL
  6
CONTINUOUS
 62
     5
 10
-91.307501999999985
 20
1640.5000299999999
 30
0.0
 11
-86.761093999999986
 21
1640.5000299999999
 31
0.0
  0
LINE
  5
371
  8
DETAIL
  6
CONTINUOUS
 62
     5
 10
-102.174904
 20
1640.5000299999999
 30
0.0
 11
-97.457769000000013
 21
1640.5000299999999
 31
0.0
  0
LINE
  5
372
  8
DETAIL
  6
CONTINUOUS
 62
     5
 10
-112.917823
 20
1640.5000299999999
 30
0.0
 11
-108.035707
 21
1640.5000299999999
 31
0.0
  0
LINE
  5
373
  8
DETAIL
  6
CONTINUOUS
 62
     5
 10
-123.523168
 20
1640.5000299999999
 30
0.0
 11
-118.48201899999999
 21
1640.5000299999999
 31
0.0
  0
LINE
  5
374
  8
DETAIL
  6
CONTINUOUS
 62
     5
 10
-133.97801899999999
 20
1640.5000299999999
 30
0.0
 11
-128.78398000000001
 21
1640.5000299999999
 31
0.0
  0
LINE
  5
375
  8
DETAIL
  6
CONTINUOUS
 62
     5
 10
-144.26963900000001
 20
1640.5000299999999
 30
0.0
 11
-138.92903699999999
 21
1640.5000299999999
 31
0.0
  0
LINE
  5
376
  8
DETAIL
  6
CONTINUOUS
 62
     5
 10
-154.38548899999981
 20
1640.5000299999999
 30
0.0
 11
-148.904831
 21
1640.5000299999999
 31
0.0
  0
LINE
  5
377
  8
DETAIL
  6
CONTINUOUS
 62
     5
 10
-164.313243
 20
1640.5000299999999
 30
0.0
 11
-158.699207
 21
1640.5000299999999
 31
0.0
  0
LINE
  5
378
  8
DETAIL
  6
CONTINUOUS
 62
     5
 10
-174.040807
 20
1640.5000299999999
 30
0.0
 11
-168.30023299999999
 21
1640.5000299999999
 31
0.0
  0
LINE
  5
379
  8
DETAIL
  6
CONTINUOUS
 62
     5
 10
-183.55633
 20
1640.5000299999999
 30
0.0
 11
-177.69621000000001
 21
1640.5000299999999
 31
0.0
  0
LINE
  5
37A
  8
DETAIL
  6
CONTINUOUS
 62
     5
 10
-192.84821700000001
 20
1640.5000299999999
 30
0.0
 11
-186.87569199999999
 21
1640.5000299999999
 31
0.0
  0
LINE
  5
37B
  8
DETAIL
  6
CONTINUOUS
 62
     5
 10
-201.905148
 20
1640.5000299999999
 30
0.0
 11
-195.827495
 21
1640.5000299999999
 31
0.0
  0
LINE
  5
37C
  8
DETAIL
  6
CONTINUOUS
 62
     5
 10
-210.71608900000001
 20
1640.5000299999999
 30
0.0
 11
-204.54071200000001
 21
1640.5000299999999
 31
0.0
  0
LINE
  5
37D
  8
DETAIL
  6
CONTINUOUS
 62
     5
 10
-219.27030500000001
 20
1640.5000299999999
 30
0.0
 11
-213.004728
 21
1640.5000299999999
 31
0.0
  0
LINE
  5
37E
  8
DETAIL
  6
CONTINUOUS
 62
     5
 10
-227.55737400000001
 20
1640.5000299999999
 30
0.0
 11
-221.20923099999999
 21
1640.5000299999999
 31
0.0
  0
LINE
  5
37F
  8
DETAIL
  6
CONTINUOUS
 62
     5
 10
-235.56719899999999
 20
1640.5000299999999
 30
0.0
 11
-229.14422400000001
 21
1640.5000299999999
 31
0.0
  0
LINE
  5
380
  8
DETAIL
  6
CONTINUOUS
 62
     5
 10
-243.29002199999999
 20
1640.5000299999999
 30
0.0
 11
-236.80004
 21
1640.5000299999999
 31
0.0
  0
LINE
  5
381
  8
DETAIL
  6
CONTINUOUS
 62
     5
 10
-250.71643299999999
 20
1640.5000299999999
 30
0.0
 11
-244.16735199999999
 21
1640.5000299999999
 31
0.0
  0
LINE
  5
382
  8
DETAIL
  6
CONTINUOUS
 62
     5
 10
-257.83738599999998
 20
1640.5000299999999
 30
0.0
 11
-251.23718299999999
 21
1640.5000299999999
 31
0.0
  0
LINE
  5
383
  8
DETAIL
  6
CONTINUOUS
 62
     5
 10
-305.85346099999998
 20
1640.5000299999999
 30
0.0
 11
-258.00092100000001
 21
1640.5000299999999
 31
0.0
  0
LINE
  5
384
  8
DETAIL
  6
CONTINUOUS
 62
     5
 10
-325.33885600000002
 20
1640.5000299999999
 30
0.0
 11
-326.028410000002
 21
1640.500029999949
 31
0.0
  0
LINE
  5
385
  8
DETAIL
  6
CONTINUOUS
 62
     5
 10
-324.39918499999999
 20
1640.5000299999999
 30
0.0
 11
-325.12958700000001
 21
1640.5000299999999
 31
0.0
  0
LINE
  5
386
  8
DETAIL
  6
CONTINUOUS
 62
     5
 10
-323.06428399999999
 20
1640.5000299999999
 30
0.0
 11
-324.0856
 21
1640.5000299999999
 31
0.0
  0
LINE
  5
387
  8
DETAIL
  6
CONTINUOUS
 62
     5
 10
-321.335778
 20
1640.5000299999999
 30
0.0
 11
-322.64676500000002
 21
1640.5000299999999
 31
0.0
  0
LINE
  5
388
  8
DETAIL
  6
CONTINUOUS
 62
     5
 10
-319.21577500000001
 20
1640.5000299999999
 30
0.0
 11
-320.81483400000002
 21
1640.5000299999999
 31
0.0
  0
LINE
  5
389
  8
DETAIL
  6
CONTINUOUS
 62
     5
 10
-316.70685600000002
 20
1640.5000299999999
 30
0.0
 11
-318.59204
 21
1640.5000299999999
 31
0.0
  0
LINE
  5
38A
  8
DETAIL
  6
CONTINUOUS
 62
     5
 10
-313.81207899999998
 20
1640.5000299999999
 30
0.0
 11
-315.98108999999999
 21
1640.5000299999999
 31
0.0
  0
LINE
  5
38B
  8
DETAIL
  6
CONTINUOUS
 62
     5
 10
-310.53496999999999
 20
1640.5000299999999
 30
0.0
 11
-312.98516699999999
 21
1640.5000299999999
 31
0.0
  0
LINE
  5
38C
  8
DETAIL
  6
CONTINUOUS
 62
     5
 10
-306.87952200000001
 20
1640.5000299999999
 30
0.0
 11
-309.60791899999998
 21
1640.5000299999999
 31
0.0
  0
LINE
  5
3DB
  8
DETAIL
  6
CONTINUOUS
 62
     5
 10
-133.97801899999999
 20
1640.5000299999999
 30
0.0
 11
-134.79551599999999
 21
1640.295965
 31
0.0
  0
LINE
  5
3E0
  8
DETAIL
  6
CONTINUOUS
 62
     5
 10
-131.23738299999999
 20
1640.5000299999999
 30
0.0
 11
-132.05488
 21
1640.295965
 31
0.0
  0
LINE
  5
3E5
  8
DETAIL
  6
CONTINUOUS
 62
     5
 10
-123.523168
 20
1640.5000299999999
 30
0.0
 11
-124.276087
 21
1640.295965
 31
0.0
  0
LINE
  5
3EA
  8
DETAIL
  6
CONTINUOUS
 62
     5
 10
-120.74161599999999
 20
1640.5000299999999
 30
0.0
 11
-121.494535
 21
1640.295965
 31
0.0
  0
LINE
  5
3EF
  8
DETAIL
  6
CONTINUOUS
 62
     5
 10
58.091450999999999
 20
1640.5000299999999
 30
0.0
 11
58.44046500000001
 21
1640.295965
 31
0.0
  0
LINE
  5
3F4
  8
DETAIL
  6
CONTINUOUS
 62
     5
 10
55.137028000000001
 20
1640.5000299999999
 30
0.0
 11
55.486041999999991
 21
1640.295965
 31
0.0
  0
LINE
  5
3F9
  8
DETAIL
  6
CONTINUOUS
 62
     5
 10
69.252339000000006
 20
1640.5000299999999
 30
0.0
 11
69.67022
 21
1640.295965
 31
0.0
  0
LINE
  5
3FE
  8
DETAIL
  6
CONTINUOUS
 62
     5
 10
66.317897000000002
 20
1640.5000299999999
 30
0.0
 11
66.735776999999999
 21
1640.295965
 31
0.0
  0
LINE
  5
460
  8
DETAIL
  6
CONTINUOUS
 62
     5
 10
-360.99952500000018
 20
1550.0000289999989
 30
0.0
 11
360.99952500000001
 21
1550.0000289999989
 31
0.0
  0
LINE
  5
4B6
  8
DETAIL
  6
CONTINUOUS
 62
     5
 10
346.63923
 20
1561.32024
 30
0.0
 11
347.42893500000002
 21
1550.000029
 31
0.0
  0
LINE
  5
4B7
  8
DETAIL
  6
CONTINUOUS
 62
     5
 10
345.145804
 20
1572.563388
 30
0.0
 11
346.63923
 21
1561.32024
 31
0.0
  0
LINE
  5
4BE
  8
DETAIL
  6
CONTINUOUS
 62
     5
 10
345.812318
 20
1561.32024
 30
0.0
 11
346.60202299999997
 21
1550.000029
 31
0.0
  0
LINE
  5
4C6
  8
DETAIL
  6
CONTINUOUS
 62
     5
 10
343.21745499999997
 20
1594.629844
 30
0.0
 11
346.123603
 21
1583.68218
 31
0.0
  0
LINE
  5
4CB
  8
DETAIL
  6
CONTINUOUS
 62
     5
 10
349.11675500000001
 20
1561.32024
 30
0.0
 11
349.913881
 21
1550.000029
 31
0.0
  0
LINE
  5
4CC
  8
DETAIL
  6
CONTINUOUS
 62
     5
 10
347.60929299999998
 20
1572.563388
 30
0.0
 11
349.11675500000001
 21
1561.32024
 31
0.0
  0
LINE
  5
4CD
  8
DETAIL
  6
CONTINUOUS
 62
     5
 10
345.3978370000001
 20
1583.68218
 30
0.0
 11
347.60929299999998
 21
1572.563388
 31
0.0
  0
LINE
  5
4D3
  8
DETAIL
  6
CONTINUOUS
 62
     5
 10
352.61958099999998
 20
1561.32024
 30
0.0
 11
353.423158
 21
1550.000029
 31
0.0
  0
LINE
  5
4D4
  8
DETAIL
  6
CONTINUOUS
 62
     5
 10
351.09992099999999
 20
1572.563388
 30
0.0
 11
352.61958099999998
 21
1561.32024
 31
0.0
  0
LINE
  5
4D5
  8
DETAIL
  6
CONTINUOUS
 62
     5
 10
348.8705700000001
 20
1583.68218
 30
0.0
 11
351.09992099999999
 21
1572.563388
 31
0.0
  0
LINE
  5
4D6
  8
DETAIL
  6
CONTINUOUS
 62
     5
 10
345.94090399999999
 20
1594.629844
 30
0.0
 11
348.8705700000001
 21
1583.68218
 31
0.0
  0
LINE
  5
4D7
  8
DETAIL
  6
CONTINUOUS
 62
     5
 10
342.32324899999998
 20
1605.360332
 30
0.0
 11
345.94090399999999
 21
1594.629844
 31
0.0
  0
LINE
  5
4D8
  8
DETAIL
  6
CONTINUOUS
 62
     5
 10
338.03282100000001
 20
1615.828505
 30
0.0
 11
342.32324899999998
 21
1605.360332
 31
0.0
  0
LINE
  5
4DB
  8
DETAIL
  6
CONTINUOUS
 62
     5
 10
351.99584599999997
 20
1561.32024
 30
0.0
 11
352.79942299999999
 21
1550.000029
 31
0.0
  0
LINE
  5
4DC
  8
DETAIL
  6
CONTINUOUS
 62
     5
 10
350.47618599999998
 20
1572.563388
 30
0.0
 11
351.99584599999997
 21
1561.32024
 31
0.0
  0
LINE
  5
4DD
  8
DETAIL
  6
CONTINUOUS
 62
     5
 10
348.24683399999998
 20
1583.68218
 30
0.0
 11
350.47618599999998
 21
1572.563388
 31
0.0
  0
LINE
  5
4DE
  8
DETAIL
  6
CONTINUOUS
 62
     5
 10
345.31716899999998
 20
1594.629844
 30
0.0
 11
348.24683399999998
 21
1583.68218
 31
0.0
  0
LINE
  5
4DF
  8
DETAIL
  6
CONTINUOUS
 62
     5
 10
341.69951400000002
 20
1605.360332
 30
0.0
 11
345.31716899999998
 21
1594.629844
 31
0.0
  0
LINE
  5
4E3
  8
DETAIL
  6
CONTINUOUS
 62
     5
 10
354.96703000000002
 20
1561.32024
 30
0.0
 11
355.77607799999998
 21
1550.000029
 31
0.0
  0
LINE
  5
4E4
  8
DETAIL
  6
CONTINUOUS
 62
     5
 10
353.43702200000001
 20
1572.563388
 30
0.0
 11
354.96703000000002
 21
1561.32024
 31
0.0
  0
LINE
  5
4E5
  8
DETAIL
  6
CONTINUOUS
 62
     5
 10
351.19249100000002
 20
1583.68218
 30
0.0
 11
353.43702200000001
 21
1572.563388
 31
0.0
  0
LINE
  5
4E6
  8
DETAIL
  6
CONTINUOUS
 62
     5
 10
348.24287800000002
 20
1594.629844
 30
0.0
 11
351.19249100000002
 21
1583.68218
 31
0.0
  0
LINE
  5
4E7
  8
DETAIL
  6
CONTINUOUS
 62
     5
 10
344.60059000000001
 20
1605.360332
 30
0.0
 11
348.24287800000002
 21
1594.629844
 31
0.0
  0
LINE
  5
4E8
  8
DETAIL
  6
CONTINUOUS
 62
     5
 10
340.28094900000002
 20
1615.828505
 30
0.0
 11
344.60059000000001
 21
1605.360332
 31
0.0
  0
LINE
  5
4E9
  8
DETAIL
  6
CONTINUOUS
 62
     5
 10
335.30212399999999
 20
1625.990329
 30
0.0
 11
340.28094900000002
 21
1615.828505
 31
0.0
  0
LINE
  5
4EA
  8
DETAIL
  6
CONTINUOUS
 62
     5
 10
329.68505900000002
 20
1635.8030610000001
 30
0.0
 11
335.30212399999999
 21
1625.990329
 31
0.0
  0
LINE
  5
4EB
  8
DETAIL
  6
CONTINUOUS
 62
     5
 10
354.44608499999998
 20
1561.32024
 30
0.0
 11
355.255133
 21
1550.000029
 31
0.0
  0
LINE
  5
4EC
  8
DETAIL
  6
CONTINUOUS
 62
     5
 10
352.91607699999997
 20
1572.563388
 30
0.0
 11
354.44608499999998
 21
1561.32024
 31
0.0
  0
LINE
  5
4ED
  8
DETAIL
  6
CONTINUOUS
 62
     5
 10
350.67154599999998
 20
1583.68218
 30
0.0
 11
352.91607699999997
 21
1572.563388
 31
0.0
  0
LINE
  5
4EE
  8
DETAIL
  6
CONTINUOUS
 62
     5
 10
347.72193299999998
 20
1594.629844
 30
0.0
 11
350.67154599999998
 21
1583.68218
 31
0.0
  0
LINE
  5
4EF
  8
DETAIL
  6
CONTINUOUS
 62
     5
 10
344.07964600000008
 20
1605.360332
 30
0.0
 11
347.72193299999998
 21
1594.629844
 31
0.0
  0
LINE
  5
4F0
  8
DETAIL
  6
CONTINUOUS
 62
     5
 10
339.76000399999998
 20
1615.828505
 30
0.0
 11
344.07964600000008
 21
1605.360332
 31
0.0
  0
LINE
  5
4F1
  8
DETAIL
  6
CONTINUOUS
 62
     5
 10
334.78118000000001
 20
1625.990329
 30
0.0
 11
339.76000399999998
 21
1615.828505
 31
0.0
  0
LINE
  5
4F3
  8
DETAIL
  6
CONTINUOUS
 62
     5
 10
356.88200499999999
 20
1561.32024
 30
0.0
 11
357.695539
 21
1550.000029
 31
0.0
  0
LINE
  5
4F4
  8
DETAIL
  6
CONTINUOUS
 62
     5
 10
355.34351400000008
 20
1572.563388
 30
0.0
 11
356.88200499999999
 21
1561.32024
 31
0.0
  0
LINE
  5
4F5
  8
DETAIL
  6
CONTINUOUS
 62
     5
 10
353.08653800000002
 20
1583.68218
 30
0.0
 11
355.34351400000008
 21
1572.563388
 31
0.0
  0
LINE
  5
4F6
  8
DETAIL
  6
CONTINUOUS
 62
     5
 10
350.12057099999998
 20
1594.629844
 30
0.0
 11
353.08653800000002
 21
1583.68218
 31
0.0
  0
LINE
  5
4F7
  8
DETAIL
  6
CONTINUOUS
 62
     5
 10
346.45808900000009
 20
1605.360332
 30
0.0
 11
350.12057099999998
 21
1594.629844
 31
0.0
  0
LINE
  5
4F8
  8
DETAIL
  6
CONTINUOUS
 62
     5
 10
342.11449699999997
 20
1615.828505
 30
0.0
 11
346.45808900000009
 21
1605.360332
 31
0.0
  0
LINE
  5
4F9
  8
DETAIL
  6
CONTINUOUS
 62
     5
 10
337.10806700000001
 20
1625.990329
 30
0.0
 11
342.11449699999997
 21
1615.828505
 31
0.0
  0
LINE
  5
4FA
  8
DETAIL
  6
CONTINUOUS
 62
     5
 10
331.459858
 20
1635.8030610000001
 30
0.0
 11
337.10806700000001
 21
1625.990329
 31
0.0
  0
LINE
  5
4FB
  8
DETAIL
  6
CONTINUOUS
 62
     5
 10
356.46448600000002
 20
1561.32024
 30
0.0
 11
357.27802000000008
 21
1550.000029
 31
0.0
  0
LINE
  5
4FC
  8
DETAIL
  6
CONTINUOUS
 62
     5
 10
354.925995
 20
1572.563388
 30
0.0
 11
356.46448600000002
 21
1561.32024
 31
0.0
  0
LINE
  5
4FD
  8
DETAIL
  6
CONTINUOUS
 62
     5
 10
352.66901899999999
 20
1583.68218
 30
0.0
 11
354.925995
 21
1572.563388
 31
0.0
  0
LINE
  5
4FE
  8
DETAIL
  6
CONTINUOUS
 62
     5
 10
349.70305200000001
 20
1594.629844
 30
0.0
 11
352.66901899999999
 21
1583.68218
 31
0.0
  0
LINE
  5
4FF
  8
DETAIL
  6
CONTINUOUS
 62
     5
 10
346.040569
 20
1605.360332
 30
0.0
 11
349.70305200000001
 21
1594.629844
 31
0.0
  0
LINE
  5
500
  8
DETAIL
  6
CONTINUOUS
 62
     5
 10
341.696977
 20
1615.828505
 30
0.0
 11
346.040569
 21
1605.360332
 31
0.0
  0
LINE
  5
501
  8
DETAIL
  6
CONTINUOUS
 62
     5
 10
336.69054699999998
 20
1625.990329
 30
0.0
 11
341.696977
 21
1615.828505
 31
0.0
  0
LINE
  5
502
  8
DETAIL
  6
CONTINUOUS
 62
     5
 10
331.04233799999997
 20
1635.8030610000001
 30
0.0
 11
336.69054699999998
 21
1625.990329
 31
0.0
  0
LINE
  5
503
  8
DETAIL
  6
CONTINUOUS
 62
     5
 10
358.36217499999998
 20
1561.32024
 30
0.0
 11
359.17920400000008
 21
1550.000029
 31
0.0
  0
LINE
  5
504
  8
DETAIL
  6
CONTINUOUS
 62
     5
 10
356.81707499999999
 20
1572.563388
 30
0.0
 11
358.36217499999998
 21
1561.32024
 31
0.0
  0
LINE
  5
505
  8
DETAIL
  6
CONTINUOUS
 62
     5
 10
354.55040400000001
 20
1583.68218
 30
0.0
 11
356.81707499999999
 21
1572.563388
 31
0.0
  0
LINE
  5
506
  8
DETAIL
  6
CONTINUOUS
 62
     5
 10
351.57169599999997
 20
1594.629844
 30
0.0
 11
354.55040400000001
 21
1583.68218
 31
0.0
  0
LINE
  5
507
  8
DETAIL
  6
CONTINUOUS
 62
     5
 10
347.89348100000001
 20
1605.360332
 30
0.0
 11
351.57169599999997
 21
1594.629844
 31
0.0
  0
LINE
  5
508
  8
DETAIL
  6
CONTINUOUS
 62
     5
 10
343.53123099999999
 20
1615.828505
 30
0.0
 11
347.89348100000001
 21
1605.360332
 31
0.0
  0
LINE
  5
509
  8
DETAIL
  6
CONTINUOUS
 62
     5
 10
338.50329499999998
 20
1625.990329
 30
0.0
 11
343.53123099999999
 21
1615.828505
 31
0.0
  0
LINE
  5
50A
  8
DETAIL
  6
CONTINUOUS
 62
     5
 10
332.83082300000001
 20
1635.8030610000001
 30
0.0
 11
338.50329499999998
 21
1625.990329
 31
0.0
  0
LINE
  5
50B
  8
DETAIL
  6
CONTINUOUS
 62
     5
 10
358.04858999999999
 20
1561.32024
 30
0.0
 11
358.86561799999998
 21
1550.000029
 31
0.0
  0
LINE
  5
50C
  8
DETAIL
  6
CONTINUOUS
 62
     5
 10
356.50349
 20
1572.563388
 30
0.0
 11
358.04858999999999
 21
1561.32024
 31
0.0
  0
LINE
  5
50D
  8
DETAIL
  6
CONTINUOUS
 62
     5
 10
354.23681900000008
 20
1583.68218
 30
0.0
 11
356.50349
 21
1572.563388
 31
0.0
  0
LINE
  5
50E
  8
DETAIL
  6
CONTINUOUS
 62
     5
 10
351.25811099999999
 20
1594.629844
 30
0.0
 11
354.23681900000008
 21
1583.68218
 31
0.0
  0
LINE
  5
50F
  8
DETAIL
  6
CONTINUOUS
 62
     5
 10
347.57989600000002
 20
1605.360332
 30
0.0
 11
351.25811099999999
 21
1594.629844
 31
0.0
  0
LINE
  5
510
  8
DETAIL
  6
CONTINUOUS
 62
     5
 10
343.217645
 20
1615.828505
 30
0.0
 11
347.57989600000002
 21
1605.360332
 31
0.0
  0
LINE
  5
511
  8
DETAIL
  6
CONTINUOUS
 62
     5
 10
338.18970999999999
 20
1625.990329
 30
0.0
 11
343.217645
 21
1615.828505
 31
0.0
  0
LINE
  5
512
  8
DETAIL
  6
CONTINUOUS
 62
     5
 10
332.51723800000002
 20
1635.8030610000001
 30
0.0
 11
338.18970999999999
 21
1625.990329
 31
0.0
  0
LINE
  5
513
  8
DETAIL
  6
CONTINUOUS
 62
     5
 10
359.40573599999999
 20
1561.32024
 30
0.0
 11
360.2252640000001
 21
1550.000029
 31
0.0
  0
LINE
  5
514
  8
DETAIL
  6
CONTINUOUS
 62
     5
 10
357.85590999999999
 20
1572.563388
 30
0.0
 11
359.40573599999999
 21
1561.32024
 31
0.0
  0
LINE
  5
515
  8
DETAIL
  6
CONTINUOUS
 62
     5
 10
355.58230500000002
 20
1583.68218
 30
0.0
 11
357.85590999999999
 21
1572.563388
 31
0.0
  0
LINE
  5
516
  8
DETAIL
  6
CONTINUOUS
 62
     5
 10
352.59448600000002
 20
1594.629844
 30
0.0
 11
355.58230500000002
 21
1583.68218
 31
0.0
  0
LINE
  5
517
  8
DETAIL
  6
CONTINUOUS
 62
     5
 10
348.90501899999998
 20
1605.360332
 30
0.0
 11
352.59448600000002
 21
1594.629844
 31
0.0
  0
LINE
  5
518
  8
DETAIL
  6
CONTINUOUS
 62
     5
 10
344.529425
 20
1615.828505
 30
0.0
 11
348.90501899999998
 21
1605.360332
 31
0.0
  0
LINE
  5
519
  8
DETAIL
  6
CONTINUOUS
 62
     5
 10
339.486109
 20
1625.990329
 30
0.0
 11
344.529425
 21
1615.828505
 31
0.0
  0
LINE
  5
51A
  8
DETAIL
  6
CONTINUOUS
 62
     5
 10
333.79628600000001
 20
1635.8030610000001
 30
0.0
 11
339.486109
 21
1625.990329
 31
0.0
  0
LINE
  5
51B
  8
DETAIL
  6
CONTINUOUS
 62
     5
 10
359.19646599999999
 20
1561.32024
 30
0.0
 11
360.01599399999998
 21
1550.000029
 31
0.0
  0
LINE
  5
51C
  8
DETAIL
  6
CONTINUOUS
 62
     5
 10
357.64663999999999
 20
1572.563388
 30
0.0
 11
359.19646599999999
 21
1561.32024
 31
0.0
  0
LINE
  5
51D
  8
DETAIL
  6
CONTINUOUS
 62
     5
 10
355.37303600000001
 20
1583.68218
 30
0.0
 11
357.64663999999999
 21
1572.563388
 31
0.0
  0
LINE
  5
51E
  8
DETAIL
  6
CONTINUOUS
 62
     5
 10
352.38521600000001
 20
1594.629844
 30
0.0
 11
355.37303600000001
 21
1583.68218
 31
0.0
  0
LINE
  5
51F
  8
DETAIL
  6
CONTINUOUS
 62
     5
 10
348.69574999999998
 20
1605.360332
 30
0.0
 11
352.38521600000001
 21
1594.629844
 31
0.0
  0
LINE
  5
520
  8
DETAIL
  6
CONTINUOUS
 62
     5
 10
344.320156
 20
1615.828505
 30
0.0
 11
348.69574999999998
 21
1605.360332
 31
0.0
  0
LINE
  5
521
  8
DETAIL
  6
CONTINUOUS
 62
     5
 10
339.27683999999999
 20
1625.990329
 30
0.0
 11
344.320156
 21
1615.828505
 31
0.0
  0
LINE
  5
522
  8
DETAIL
  6
CONTINUOUS
 62
     5
 10
333.58701600000001
 20
1635.8030610000001
 30
0.0
 11
339.27683999999999
 21
1625.990329
 31
0.0
  0
LINE
  5
523
  8
DETAIL
  6
CONTINUOUS
 62
     5
 10
360.011416
 20
1561.32024
 30
0.0
 11
360.83244400000001
 21
1550.000029
 31
0.0
  0
LINE
  5
524
  8
DETAIL
  6
CONTINUOUS
 62
     5
 10
358.458752
 20
1572.563388
 30
0.0
 11
360.011416
 21
1561.32024
 31
0.0
  0
LINE
  5
525
  8
DETAIL
  6
CONTINUOUS
 62
     5
 10
356.18098400000002
 20
1583.68218
 30
0.0
 11
358.458752
 21
1572.563388
 31
0.0
  0
LINE
  5
526
  8
DETAIL
  6
CONTINUOUS
 62
     5
 10
353.18769300000002
 20
1594.629844
 30
0.0
 11
356.18098400000002
 21
1583.68218
 31
0.0
  0
LINE
  5
527
  8
DETAIL
  6
CONTINUOUS
 62
     5
 10
349.49146999999999
 20
1605.360332
 30
0.0
 11
353.18769300000002
 21
1594.629844
 31
0.0
  0
LINE
  5
528
  8
DETAIL
  6
CONTINUOUS
 62
     5
 10
345.10786300000001
 20
1615.828505
 30
0.0
 11
349.49146999999999
 21
1605.360332
 31
0.0
  0
LINE
  5
529
  8
DETAIL
  6
CONTINUOUS
 62
     5
 10
340.05531200000001
 20
1625.990329
 30
0.0
 11
345.10786300000001
 21
1615.828505
 31
0.0
  0
LINE
  5
52A
  8
DETAIL
  6
CONTINUOUS
 62
     5
 10
334.35506900000001
 20
1635.8030610000001
 30
0.0
 11
340.05531200000001
 21
1625.990329
 31
0.0
  0
LINE
  5
52B
  8
DETAIL
  6
CONTINUOUS
 62
     5
 10
359.90671700000001
 20
1561.32024
 30
0.0
 11
360.72774600000002
 21
1550.000029
 31
0.0
  0
LINE
  5
52C
  8
DETAIL
  6
CONTINUOUS
 62
     5
 10
358.35405300000002
 20
1572.563388
 30
0.0
 11
359.90671700000001
 21
1561.32024
 31
0.0
  0
LINE
  5
52D
  8
DETAIL
  6
CONTINUOUS
 62
     5
 10
356.07628499999998
 20
1583.68218
 30
0.0
 11
358.35405300000002
 21
1572.563388
 31
0.0
  0
LINE
  5
52E
  8
DETAIL
  6
CONTINUOUS
 62
     5
 10
353.08299399999999
 20
1594.629844
 30
0.0
 11
356.07628499999998
 21
1583.68218
 31
0.0
  0
LINE
  5
52F
  8
DETAIL
  6
CONTINUOUS
 62
     5
 10
349.38677100000001
 20
1605.360332
 30
0.0
 11
353.08299399999999
 21
1594.629844
 31
0.0
  0
LINE
  5
530
  8
DETAIL
  6
CONTINUOUS
 62
     5
 10
345.00316500000002
 20
1615.828505
 30
0.0
 11
349.38677100000001
 21
1605.360332
 31
0.0
  0
LINE
  5
531
  8
DETAIL
  6
CONTINUOUS
 62
     5
 10
339.95061299999998
 20
1625.990329
 30
0.0
 11
345.00316500000002
 21
1615.828505
 31
0.0
  0
LINE
  5
532
  8
DETAIL
  6
CONTINUOUS
 62
     5
 10
334.25037099999997
 20
1635.8030610000001
 30
0.0
 11
339.95061299999998
 21
1625.990329
 31
0.0
  0
LINE
  5
537
  8
DETAIL
  6
CONTINUOUS
 62
     5
 10
46.859786999999983
 20
1640.5000299999999
 30
0.0
 11
47.13950999999998
 21
1640.295965
 31
0.0
  0
LINE
  5
53C
  8
DETAIL
  6
CONTINUOUS
 62
     5
 10
43.888983000000003
 20
1640.5000299999999
 30
0.0
 11
44.168706
 21
1640.295965
 31
0.0
  0
LINE
  5
5A1
  8
DETAIL
  6
CONTINUOUS
 62
     5
 10
35.571032000000002
 20
1640.5000299999999
 30
0.0
 11
35.781123000000001
 21
1640.295965
 31
0.0
  0
LINE
  5
5A6
  8
DETAIL
  6
CONTINUOUS
 62
     5
 10
32.587465999999999
 20
1640.5000299999999
 30
0.0
 11
32.797556999999998
 21
1640.295965
 31
0.0
  0
LINE
  5
5A7
  8
DETAIL
  6
CONTINUOUS
 62
     5
 10
365.97744399999999
 20
1437.0423619999999
 30
0.0
 11
365.85984400000001
 21
1438.6914449999999
 31
0.0
  0
LINE
  5
5A8
  8
DETAIL
  6
CONTINUOUS
 62
     5
 10
366.27575000000002
 20
1434.8551480000001
 30
0.0
 11
365.97744399999999
 21
1437.0423619999999
 31
0.0
  0
LINE
  5
5A9
  8
DETAIL
  6
CONTINUOUS
 62
     5
 10
366.7340890000001
 20
1432.695757
 30
0.0
 11
366.27575000000002
 21
1434.8551480000001
 31
0.0
  0
LINE
  5
5AA
  8
DETAIL
  6
CONTINUOUS
 62
     5
 10
367.349987
 20
1430.575885
 30
0.0
 11
366.7340890000001
 21
1432.695757
 31
0.0
  0
LINE
  5
5AB
  8
DETAIL
  6
CONTINUOUS
 62
     5
 10
368.12011100000001
 20
1428.5070189999999
 30
0.0
 11
367.349987
 21
1430.575885
 31
0.0
  0
LINE
  5
5AC
  8
DETAIL
  6
CONTINUOUS
 62
     5
 10
369.04029200000002
 20
1426.500372
 30
0.0
 11
368.12011100000001
 21
1428.5070189999999
 31
0.0
  0
LINE
  5
5AD
  8
DETAIL
  6
CONTINUOUS
 62
     5
 10
370.105548
 20
1424.5668149999999
 30
0.0
 11
369.04029200000002
 21
1426.500372
 31
0.0
  0
LINE
  5
5AE
  8
DETAIL
  6
CONTINUOUS
 62
     5
 10
371.310112
 20
1422.716821
 30
0.0
 11
370.105548
 21
1424.5668149999999
 31
0.0
  0
LINE
  5
5AF
  8
DETAIL
  6
CONTINUOUS
 62
     5
 10
372.64745799999997
 20
1420.960411
 30
0.0
 11
371.310112
 21
1422.716821
 31
0.0
  0
LINE
  5
5B0
  8
DETAIL
  6
CONTINUOUS
 62
     5
 10
374.11034699999999
 20
1419.3070970000001
 30
0.0
 11
372.64745799999997
 21
1420.960411
 31
0.0
  0
LINE
  5
5B1
  8
DETAIL
  6
CONTINUOUS
 62
     5
 10
375.69085699999999
 20
1417.765832
 30
0.0
 11
374.11034699999999
 21
1419.3070970000001
 31
0.0
  0
LINE
  5
5B2
  8
DETAIL
  6
CONTINUOUS
 62
     5
 10
377.38042899999999
 20
1416.3449639999999
 30
0.0
 11
375.69085699999999
 21
1417.765832
 31
0.0
  0
LINE
  5
5B3
  8
DETAIL
  6
CONTINUOUS
 62
     5
 10
379.16991400000001
 20
1415.0521859999999
 30
0.0
 11
377.38042899999999
 21
1416.3449639999999
 31
0.0
  0
LINE
  5
5B4
  8
DETAIL
  6
CONTINUOUS
 62
     5
 10
381.049622
 20
1413.8945000000001
 30
0.0
 11
379.16991400000001
 21
1415.0521859999999
 31
0.0
  0
LINE
  5
5B5
  8
DETAIL
  6
CONTINUOUS
 62
     5
 10
383.00937499999992
 20
1412.8781739999999
 30
0.0
 11
381.049622
 21
1413.8945000000001
 31
0.0
  0
LINE
  5
5B6
  8
DETAIL
  6
CONTINUOUS
 62
     5
 10
385.03856100000002
 20
1412.0087129999999
 30
0.0
 11
383.00937499999992
 21
1412.8781739999999
 31
0.0
  0
LINE
  5
5B7
  8
DETAIL
  6
CONTINUOUS
 62
     5
 10
387.12619000000001
 20
1411.2908239999999
 30
0.0
 11
385.03856100000002
 21
1412.0087129999999
 31
0.0
  0
LINE
  5
5B8
  8
DETAIL
  6
CONTINUOUS
 62
     5
 10
389.26095800000002
 20
1410.7283970000001
 30
0.0
 11
387.12619000000001
 21
1411.2908239999999
 31
0.0
  0
LINE
  5
5B9
  8
DETAIL
  6
CONTINUOUS
 62
     5
 10
391.43129900000002
 20
1410.3244749999999
 30
0.0
 11
389.26095800000002
 21
1410.7283970000001
 31
0.0
  0
LINE
  5
5BA
  8
DETAIL
  6
CONTINUOUS
 62
     5
 10
393.62546500000002
 20
1410.081246
 30
0.0
 11
391.43129900000002
 21
1410.3244749999999
 31
0.0
  0
LINE
  5
5BB
  8
DETAIL
  6
CONTINUOUS
 62
     5
 10
395.831525
 20
1410.0000259999999
 30
0.0
 11
393.62546500000002
 21
1410.081246
 31
0.0
  0
LINE
  5
5BC
  8
DETAIL
  6
CONTINUOUS
 62
     5
 10
-610.00000899999986
 20
1410.0000259999999
 30
0.0
 11
610.00000899999986
 21
1410.0000259999999
 31
0.0
  0
LINE
  5
606
  8
DETAIL
  6
CONTINUOUS
 62
     5
 10
-610.00000899999986
 20
1370.0000250000001
 30
0.0
 11
610.00000899999986
 21
1370.0000250000001
 31
0.0
  0
LINE
  5
607
  8
DETAIL
  6
CONTINUOUS
 62
     5
 10
349.84251999999998
 20
1561.32024
 30
0.0
 11
350.63964700000002
 21
1550.000029
 31
0.0
  0
LINE
  5
608
  8
DETAIL
  6
CONTINUOUS
 62
     5
 10
348.335059
 20
1572.563388
 30
0.0
 11
349.84251999999998
 21
1561.32024
 31
0.0
  0
LINE
  5
609
  8
DETAIL
  6
CONTINUOUS
 62
     5
 10
346.123603
 20
1583.68218
 30
0.0
 11
348.335059
 21
1572.563388
 31
0.0
  0
LINE
  5
654
  8
DETAIL
  6
CONTINUOUS
 62
     5
 10
24.238938000000001
 20
1640.5000299999999
 30
0.0
 11
24.379141000000001
 21
1640.295965
 31
0.0
  0
LINE
  5
659
  8
DETAIL
  6
CONTINUOUS
 62
     5
 10
21.246245999999999
 20
1640.5000299999999
 30
0.0
 11
21.386448999999999
 21
1640.295965
 31
0.0
  0
LINE
  5
65A
  8
DETAIL
  6
CONTINUOUS
 62
     5
 10
534.70000699999991
 20
1328.0000250000001
 30
0.0
 11
538.00000699999998
 21
1328.0000250000001
 31
0.0
  0
LINE
  5
65B
  8
DETAIL
  6
CONTINUOUS
 62
     5
 10
-538.00000699999998
 20
1328.0000250000001
 30
0.0
 11
-534.70000699999991
 21
1328.0000250000001
 31
0.0
  0
LINE
  5
65C
  8
DETAIL
  6
CONTINUOUS
 62
     5
 10
-535.50000699999998
 20
1322.5000239999999
 30
0.0
 11
-534.70000699999991
 21
1322.5000239999999
 31
0.0
  0
LINE
  5
65D
  8
DETAIL
  6
CONTINUOUS
 62
     5
 10
535.50000699999998
 20
1322.5000239999999
 30
0.0
 11
534.70000699999991
 21
1322.5000239999999
 31
0.0
  0
LINE
  5
65E
  8
DETAIL
  6
CONTINUOUS
 62
     5
 10
610.00000899999986
 20
1370.0000250000001
 30
0.0
 11
610.00000899999986
 21
1410.0000259999999
 31
0.0
  0
LINE
  5
65F
  8
DETAIL
  6
CONTINUOUS
 62
     5
 10
605.20000800000003
 20
54.00000099999999
 30
0.0
 11
605.20000800000003
 21
1370.0000250000001
 31
0.0
  0
LINE
  5
660
  8
DETAIL
  6
CONTINUOUS
 62
     5
 10
604.50000799999998
 20
54.000107999999997
 30
0.0
 11
604.50000799999998
 21
9.0
 31
0.0
  0
LINE
  5
6A7
  8
DETAIL
  6
CONTINUOUS
 62
     5
 10
590.30000800000005
 20
21.0
 30
0.0
 11
590.30000800000005
 21
39.000000999999997
 31
0.0
  0
LINE
  5
6A8
  8
DETAIL
  6
CONTINUOUS
 62
     5
 10
588.00000799999998
 20
39.000000999999997
 30
0.0
 11
588.00000799999998
 21
21.0
 31
0.0
  0
LINE
  5
6A9
  8
DETAIL
  6
CONTINUOUS
 62
     5
 10
558.414221
 20
59.00000099999999
 30
0.0
 11
558.414221
 21
1370.0000250000001
 31
0.0
  0
LINE
  5
6AA
  8
DETAIL
  6
CONTINUOUS
 62
     5
 10
538.00000699999998
 20
62.000000999999997
 30
0.0
 11
538.00000699999998
 21
84.000001999999995
 31
0.0
  0
LINE
  5
6AB
  8
DETAIL
  6
CONTINUOUS
 62
     5
 10
538.00000699999998
 20
1370.0000250000001
 30
0.0
 11
538.00000699999998
 21
1328.0000250000001
 31
0.0
  0
LINE
  5
6AD
  8
DETAIL
  6
CONTINUOUS
 62
     5
 10
360.99952500000001
 20
1550.000029
 30
0.0
 11
365.85984400000001
 21
1438.6914449999999
 31
0.0
  0
LINE
  5
6F8
  8
DETAIL
  6
CONTINUOUS
 62
     5
 10
535.50000699999998
 20
731.50001399999985
 30
0.0
 11
535.50000699999998
 21
85.500001999999967
 31
0.0
  0
LINE
  5
6F9
  8
DETAIL
  6
CONTINUOUS
 62
     5
 10
535.50000699999998
 20
1322.5000239999999
 30
0.0
 11
535.50000699999998
 21
755.50001399999985
 31
0.0
  0
LINE
  5
6FA
  8
DETAIL
  6
CONTINUOUS
 62
     5
 10
534.70000699999991
 20
1322.5000239999999
 30
0.0
 11
534.70000699999991
 21
1370.0000250000001
 31
0.0
  0
LINE
  5
6FB
  8
DETAIL
  6
CONTINUOUS
 62
     5
 10
534.70000699999991
 20
744.50001399999985
 30
0.0
 11
534.70000699999991
 21
755.50001399999985
 31
0.0
  0
LINE
  5
6FC
  8
DETAIL
  6
CONTINUOUS
 62
     5
 10
534.70000699999991
 20
731.50001399999985
 30
0.0
 11
534.70000699999991
 21
732.50001399999985
 31
0.0
  0
LINE
  5
6FD
  8
DETAIL
  6
CONTINUOUS
 62
     5
 10
534.70000699999991
 20
85.500001999999967
 30
0.0
 11
534.70000699999991
 21
54.00000099999999
 31
0.0
  0
LINE
  5
6FE
  8
DETAIL
  6
CONTINUOUS
 62
     5
 10
534.50000699999998
 20
21.0
 30
0.0
 11
534.50000699999998
 21
39.000000999999997
 31
0.0
  0
LINE
  5
6FF
  8
DETAIL
  6
CONTINUOUS
 62
     5
 10
532.20000700000003
 20
39.000000999999997
 30
0.0
 11
532.20000700000003
 21
21.0
 31
0.0
  0
LINE
  5
700
  8
DETAIL
  6
CONTINUOUS
 62
     5
 10
524.00000699999975
 20
732.50001399999985
 30
0.0
 11
524.00000699999975
 21
739.50001399999985
 31
0.0
  0
LINE
  5
758
  8
DETAIL
  6
CONTINUOUS
 62
     5
 10
12.877314
 20
1640.5000299999999
 30
0.0
 11
12.947457999999999
 21
1640.295965
 31
0.0
  0
LINE
  5
75D
  8
DETAIL
  6
CONTINUOUS
 62
     5
 10
9.8791410000000006
 20
1640.5000299999999
 30
0.0
 11
9.9492849999999997
 21
1640.295965
 31
0.0
  0
LINE
  5
75E
  8
DETAIL
  6
CONTINUOUS
 62
     5
 10
320.00000599999998
 20
1641.6000300000001
 30
0.0
 11
320.00000599999998
 21
1640.5000299999999
 31
0.0
  0
LINE
  5
75F
  8
DETAIL
  6
CONTINUOUS
 62
     5
 10
300.00000599999998
 20
1642.3000300000001
 30
0.0
 11
300.00000599999998
 21
1641.6000300000001
 31
0.0
  0
LINE
  5
760
  8
DETAIL
  6
CONTINUOUS
 62
     5
 10
280.00000499999999
 20
1643.0000299999999
 30
0.0
 11
280.00000499999999
 21
1642.3000300000001
 31
0.0
  0
LINE
  5
7A3
  8
DETAIL
  6
CONTINUOUS
 62
     5
 10
260.00000499999999
 20
1643.70003
 30
0.0
 11
260.00000499999999
 21
1643.0000299999999
 31
0.0
  0
LINE
  5
7A4
  8
DETAIL
  6
CONTINUOUS
 62
     5
 10
240.00000399999999
 20
1644.40003
 30
0.0
 11
240.00000399999999
 21
1643.70003
 31
0.0
  0
LINE
  5
7A5
  8
DETAIL
  6
CONTINUOUS
 62
     5
 10
236.80004
 20
1640.5000299999999
 30
0.0
 11
236.80004
 21
1640.326022
 31
0.0
  0
LINE
  5
7A6
  8
DETAIL
  6
CONTINUOUS
 62
     5
 10
229.14422400000001
 20
1640.5000299999999
 30
0.0
 11
229.14422400000001
 21
1640.2099929999999
 31
0.0
  0
LINE
  5
7A7
  8
DETAIL
  6
CONTINUOUS
 62
     5
 10
221.20923099999999
 20
1640.5000299999999
 30
0.0
 11
221.20923099999999
 21
1640.0178820000001
 31
0.0
  0
LINE
  5
7A8
  8
DETAIL
  6
CONTINUOUS
 62
     5
 10
220.00000399999999
 20
1645.1000300000001
 30
0.0
 11
220.00000399999999
 21
1644.40003
 31
0.0
  0
LINE
  5
7A9
  8
DETAIL
  6
CONTINUOUS
 62
     5
 10
213.004728
 20
1640.5000299999999
 30
0.0
 11
213.004728
 21
1639.810268
 31
0.0
  0
LINE
  5
7AA
  8
DETAIL
  6
CONTINUOUS
 62
     5
 10
204.54071200000001
 20
1640.5000299999999
 30
0.0
 11
204.54071200000001
 21
1639.502009
 31
0.0
  0
LINE
  5
7AC
  8
DETAIL
  6
CONTINUOUS
 62
     5
 10
200.00000399999999
 20
1645.8000300000001
 30
0.0
 11
200.00000399999999
 21
1645.1000300000001
 31
0.0
  0
LINE
  5
7F1
  8
DETAIL
  6
CONTINUOUS
 62
     5
 10
195.827495
 20
1640.5000299999999
 30
0.0
 11
195.827495
 21
1639.065566
 31
0.0
  0
LINE
  5
7F2
  8
DETAIL
  6
CONTINUOUS
 62
     5
 10
186.87569199999999
 20
1640.5000299999999
 30
0.0
 11
186.87569199999999
 21
1638.5151370000001
 31
0.0
  0
LINE
  5
7F3
  8
DETAIL
  6
CONTINUOUS
 62
     5
 10
180.00000299999991
 20
1646.5000299999999
 30
0.0
 11
180.00000299999991
 21
1645.8000300000001
 31
0.0
  0
LINE
  5
7F4
  8
DETAIL
  6
CONTINUOUS
 62
     5
 10
177.69621000000001
 20
1640.5000299999999
 30
0.0
 11
177.69621000000001
 21
1637.69109
 31
0.0
  0
LINE
  5
7F5
  8
DETAIL
  6
CONTINUOUS
 62
     5
 10
168.30023299999999
 20
1640.5000299999999
 30
0.0
 11
168.30023299999999
 21
1636.452401
 31
0.0
  0
LINE
  5
7F6
  8
DETAIL
  6
CONTINUOUS
 62
     5
 10
160.00000299999999
 20
1647.20003
 30
0.0
 11
160.00000299999999
 21
1646.5000299999999
 31
0.0
  0
LINE
  5
7F7
  8
DETAIL
  6
CONTINUOUS
 62
     5
 10
158.699207
 20
1640.5000299999999
 30
0.0
 11
158.699207
 21
1634.5809280000001
 31
0.0
  0
LINE
  5
7F8
  8
DETAIL
  6
CONTINUOUS
 62
     5
 10
148.904831
 20
1640.5000299999999
 30
0.0
 11
148.904831
 21
1632.5000299999999
 31
0.0
  0
LINE
  5
7F9
  8
DETAIL
  6
CONTINUOUS
 62
     5
 10
140.00000299999999
 20
1647.90003
 30
0.0
 11
140.00000299999999
 21
1647.20003
 31
0.0
  0
LINE
  5
7FA
  8
DETAIL
  6
CONTINUOUS
 62
     5
 10
138.92903699999999
 20
1640.5000299999999
 30
0.0
 11
138.92903699999999
 21
1632.5000299999999
 31
0.0
  0
LINE
  5
828
  8
DETAIL
  6
CONTINUOUS
 62
     5
 10
128.78398000000001
 20
1640.5000299999999
 30
0.0
 11
128.78398000000001
 21
1632.5000299999999
 31
0.0
  0
LINE
  5
829
  8
DETAIL
  6
CONTINUOUS
 62
     5
 10
120.00000199999999
 20
1648.6000300000001
 30
0.0
 11
120.00000199999999
 21
1647.90003
 31
0.0
  0
LINE
  5
82A
  8
DETAIL
  6
CONTINUOUS
 62
     5
 10
118.48201899999999
 20
1640.5000299999999
 30
0.0
 11
118.48201899999999
 21
1632.5000299999999
 31
0.0
  0
LINE
  5
82B
  8
DETAIL
  6
CONTINUOUS
 62
     5
 10
108.035707
 20
1640.5000299999999
 30
0.0
 11
108.035707
 21
1632.5000299999999
 31
0.0
  0
LINE
  5
82C
  8
DETAIL
  6
CONTINUOUS
 62
     5
 10
100.00000199999999
 20
1649.300031
 30
0.0
 11
100.00000199999999
 21
1648.6000300000001
 31
0.0
  0
LINE
  5
82D
  8
DETAIL
  6
CONTINUOUS
 62
     5
 10
97.457769000000013
 20
1640.5000299999999
 30
0.0
 11
97.457769000000013
 21
1632.5000299999999
 31
0.0
  0
LINE
  5
82E
  8
DETAIL
  6
CONTINUOUS
 62
     5
 10
86.761093999999986
 20
1640.5000299999999
 30
0.0
 11
86.761093999999986
 21
1632.5000299999999
 31
0.0
  0
LINE
  5
82F
  8
DETAIL
  6
CONTINUOUS
 62
     5
 10
80.000000999999983
 20
1649.300031
 30
0.0
 11
80.000000999999983
 21
1650.000031
 31
0.0
  0
LINE
  5
830
  8
DETAIL
  6
CONTINUOUS
 62
     5
 10
75.958714000000001
 20
1640.5000299999999
 30
0.0
 11
75.958714000000001
 21
1632.5000299999999
 31
0.0
  0
LINE
  5
87A
  8
DETAIL
  6
CONTINUOUS
 62
     5
 10
65.063789999999983
 20
1640.5000299999999
 30
0.0
 11
65.063789999999983
 21
1632.5000299999999
 31
0.0
  0
LINE
  5
87B
  8
DETAIL
  6
CONTINUOUS
 62
     5
 10
54.089595999999993
 20
1640.5000299999999
 30
0.0
 11
54.089595999999993
 21
1632.5000299999999
 31
0.0
  0
LINE
  5
87C
  8
DETAIL
  6
CONTINUOUS
 62
     5
 10
43.04950199999999
 20
1640.5000299999999
 30
0.0
 11
43.04950199999999
 21
1632.5000299999999
 31
0.0
  0
LINE
  5
87D
  8
DETAIL
  6
CONTINUOUS
 62
     5
 10
31.956959000000001
 20
1640.5000299999999
 30
0.0
 11
31.956959000000001
 21
1632.5000299999999
 31
0.0
  0
LINE
  5
87E
  8
DETAIL
  6
CONTINUOUS
 62
     5
 10
20.825481
 20
1640.5000299999999
 30
0.0
 11
20.825481
 21
1632.5000299999999
 31
0.0
  0
LINE
  5
87F
  8
DETAIL
  6
CONTINUOUS
 62
     5
 10
9.6686300000000003
 20
1640.5000299999999
 30
0.0
 11
9.6686300000000003
 21
1632.5000299999999
 31
0.0
  0
LINE
  5
8F1
  8
DETAIL
  6
CONTINUOUS
 62
     5
 10
-9.6686300000000003
 20
1640.5000299999999
 30
0.0
 11
-9.6686300000000003
 21
1632.5000299999999
 31
0.0
  0
LINE
  5
8F2
  8
DETAIL
  6
CONTINUOUS
 62
     5
 10
-20.825481
 20
1640.5000299999999
 30
0.0
 11
-20.825481
 21
1632.5000299999999
 31
0.0
  0
LINE
  5
8F3
  8
DETAIL
  6
CONTINUOUS
 62
     5
 10
-31.956959000000001
 20
1640.5000299999999
 30
0.0
 11
-31.956959000000001
 21
1632.5000299999999
 31
0.0
  0
LINE
  5
8F4
  8
DETAIL
  6
CONTINUOUS
 62
     5
 10
-43.04950199999999
 20
1640.5000299999999
 30
0.0
 11
-43.04950199999999
 21
1632.5000299999999
 31
0.0
  0
LINE
  5
8F5
  8
DETAIL
  6
CONTINUOUS
 62
     5
 10
-54.089595999999993
 20
1640.5000299999999
 30
0.0
 11
-54.089595999999993
 21
1632.5000299999999
 31
0.0
  0
LINE
  5
8F6
  8
DETAIL
  6
CONTINUOUS
 62
     5
 10
-535.50000699999998
 20
755.50001399999985
 30
0.0
 11
535.50000699999998
 21
755.50001399999985
 31
0.0
  0
LINE
  5
8F7
  8
DETAIL
  6
CONTINUOUS
 62
     5
 10
529.70000700000003
 20
739.50001399999985
 30
0.0
 11
-529.70000700000003
 21
739.50001399999985
 31
0.0
  0
LINE
  5
8F8
  8
DETAIL
  6
CONTINUOUS
 62
     5
 10
534.70000699999991
 20
732.50001399999985
 30
0.0
 11
-534.70000699999991
 21
732.50001399999985
 31
0.0
  0
LINE
  5
8F9
  8
DETAIL
  6
CONTINUOUS
 62
     5
 10
-535.50000699999998
 20
731.50001399999985
 30
0.0
 11
-534.70000699999991
 21
731.50001399999985
 31
0.0
  0
LINE
  5
955
  8
DETAIL
  6
CONTINUOUS
 62
     5
 10
-65.063789999999983
 20
1640.5000299999999
 30
0.0
 11
-65.063789999999983
 21
1632.5000299999999
 31
0.0
  0
LINE
  5
956
  8
DETAIL
  6
CONTINUOUS
 62
     5
 10
-75.958714000000001
 20
1640.5000299999999
 30
0.0
 11
-75.958714000000001
 21
1632.5000299999999
 31
0.0
  0
LINE
  5
957
  8
DETAIL
  6
CONTINUOUS
 62
     5
 10
-80.000000999999983
 20
1649.300031
 30
0.0
 11
-80.000000999999983
 21
1650.000031
 31
0.0
  0
LINE
  5
958
  8
DETAIL
  6
CONTINUOUS
 62
     5
 10
-185.00000199999999
 20
54.000044000000003
 30
0.0
 11
-185.00000199999999
 21
241.00000399999999
 31
0.0
  0
LINE
  5
959
  8
DETAIL
  6
CONTINUOUS
 62
     5
 10
-86.761093999999986
 20
1640.5000299999999
 30
0.0
 11
-86.761093999999986
 21
1632.5000299999999
 31
0.0
  0
LINE
  5
95B
  8
DETAIL
  6
CONTINUOUS
 62
     5
 10
-97.457769000000013
 20
1640.5000299999999
 30
0.0
 11
-97.457769000000013
 21
1632.5000299999999
 31
0.0
  0
LINE
  5
95C
  8
DETAIL
  6
CONTINUOUS
 62
     5
 10
-100.00000199999999
 20
1649.300031
 30
0.0
 11
-100.00000199999999
 21
1648.6000300000001
 31
0.0
  0
LINE
  5
95D
  8
DETAIL
  6
CONTINUOUS
 62
     5
 10
-201.50000199999999
 20
100.00000199999999
 30
0.0
 11
-201.50000199999999
 21
152.00000299999999
 31
0.0
  0
LINE
  5
95E
  8
DETAIL
  6
CONTINUOUS
 62
     5
 10
-108.035707
 20
1640.5000299999999
 30
0.0
 11
-108.035707
 21
1632.5000299999999
 31
0.0
  0
LINE
  5
9A6
  8
DETAIL
  6
CONTINUOUS
 62
     5
 10
-118.48201899999999
 20
1640.5000299999999
 30
0.0
 11
-118.48201899999999
 21
1632.5000299999999
 31
0.0
  0
LINE
  5
9A7
  8
DETAIL
  6
CONTINUOUS
 62
     5
 10
-120.00000199999999
 20
1648.6000300000001
 30
0.0
 11
-120.00000199999999
 21
1647.90003
 31
0.0
  0
LINE
  5
9A8
  8
DETAIL
  6
CONTINUOUS
 62
     5
 10
-128.78398000000001
 20
1640.5000299999999
 30
0.0
 11
-128.78398000000001
 21
1632.5000299999999
 31
0.0
  0
LINE
  5
9A9
  8
DETAIL
  6
CONTINUOUS
 62
     5
 10
-138.92903699999999
 20
1640.5000299999999
 30
0.0
 11
-138.92903699999999
 21
1632.5000299999999
 31
0.0
  0
LINE
  5
9AA
  8
DETAIL
  6
CONTINUOUS
 62
     5
 10
-140.00000299999999
 20
1647.90003
 30
0.0
 11
-140.00000299999999
 21
1647.20003
 31
0.0
  0
LINE
  5
9AB
  8
DETAIL
  6
CONTINUOUS
 62
     5
 10
-148.904831
 20
1640.5000299999999
 30
0.0
 11
-148.904831
 21
1632.5000299999999
 31
0.0
  0
LINE
  5
9AC
  8
DETAIL
  6
CONTINUOUS
 62
     5
 10
-158.699207
 20
1640.5000299999999
 30
0.0
 11
-158.699207
 21
1634.5809280000001
 31
0.0
  0
LINE
  5
9AD
  8
DETAIL
  6
CONTINUOUS
 62
     5
 10
-160.00000299999999
 20
1647.20003
 30
0.0
 11
-160.00000299999999
 21
1646.5000299999999
 31
0.0
  0
LINE
  5
9AE
  8
DETAIL
  6
CONTINUOUS
 62
     5
 10
-168.30023299999999
 20
1640.5000299999999
 30
0.0
 11
-168.30023299999999
 21
1636.452401
 31
0.0
  0
LINE
  5
9AF
  8
DETAIL
  6
CONTINUOUS
 62
     5
 10
-177.69621000000001
 20
1640.5000299999999
 30
0.0
 11
-177.69621000000001
 21
1637.69109
 31
0.0
  0
LINE
  5
9B0
  8
DETAIL
  6
CONTINUOUS
 62
     5
 10
-180.00000299999991
 20
1646.5000299999999
 30
0.0
 11
-180.00000299999991
 21
1645.8000300000001
 31
0.0
  0
LINE
  5
9FE
  8
DETAIL
  6
CONTINUOUS
 62
     5
 10
-186.87569199999999
 20
1640.5000299999999
 30
0.0
 11
-186.87569199999999
 21
1638.5151370000001
 31
0.0
  0
LINE
  5
9FF
  8
DETAIL
  6
CONTINUOUS
 62
     5
 10
-195.827495
 20
1640.5000299999999
 30
0.0
 11
-195.827495
 21
1639.065566
 31
0.0
  0
LINE
  5
A00
  8
DETAIL
  6
CONTINUOUS
 62
     5
 10
-200.00000399999999
 20
1645.8000300000001
 30
0.0
 11
-200.00000399999999
 21
1645.1000300000001
 31
0.0
  0
LINE
  5
A01
  8
DETAIL
  6
CONTINUOUS
 62
     5
 10
-303.50000399999999
 20
152.00000299999999
 30
0.0
 11
-303.50000399999999
 21
100.00000199999999
 31
0.0
  0
LINE
  5
A02
  8
DETAIL
  6
CONTINUOUS
 62
     5
 10
-204.54071200000001
 20
1640.5000299999999
 30
0.0
 11
-204.54071200000001
 21
1639.502009
 31
0.0
  0
LINE
  5
A03
  8
DETAIL
  6
CONTINUOUS
 62
     5
 10
-213.004728
 20
1640.5000299999999
 30
0.0
 11
-213.004728
 21
1639.810268
 31
0.0
  0
LINE
  5
A04
  8
DETAIL
  6
CONTINUOUS
 62
     5
 10
-220.00000399999999
 20
1645.1000300000001
 30
0.0
 11
-220.00000399999999
 21
1644.40003
 31
0.0
  0
LINE
  5
A05
  8
DETAIL
  6
CONTINUOUS
 62
     5
 10
-221.20923099999999
 20
1640.5000299999999
 30
0.0
 11
-221.20923099999999
 21
1640.0178820000001
 31
0.0
  0
LINE
  5
A06
  8
DETAIL
  6
CONTINUOUS
 62
     5
 10
-229.14422400000001
 20
1640.5000299999999
 30
0.0
 11
-229.14422400000001
 21
1640.2099929999999
 31
0.0
  0
LINE
  5
A07
  8
DETAIL
  6
CONTINUOUS
 62
     5
 10
-236.80004
 20
1640.5000299999999
 30
0.0
 11
-236.80004
 21
1640.326022
 31
0.0
  0
LINE
  5
A08
  8
DETAIL
  6
CONTINUOUS
 62
     5
 10
-240.00000399999999
 20
1644.40003
 30
0.0
 11
-240.00000399999999
 21
1643.70003
 31
0.0
  0
LINE
  5
A12
  8
DETAIL
  6
CONTINUOUS
 62
     5
 10
-9.8791410000000006
 20
1640.5000299999999
 30
0.0
 11
-9.9492849999999997
 21
1640.295965
 31
0.0
  0
LINE
  5
A17
  8
DETAIL
  6
CONTINUOUS
 62
     5
 10
-12.877314
 20
1640.5000299999999
 30
0.0
 11
-12.947457999999999
 21
1640.295965
 31
0.0
  0
LINE
  5
A76
  8
DETAIL
  6
CONTINUOUS
 62
     5
 10
-260.00000499999999
 20
1643.70003
 30
0.0
 11
-260.00000499999999
 21
1643.0000299999999
 31
0.0
  0
LINE
  5
A77
  8
DETAIL
  6
CONTINUOUS
 62
     5
 10
-280.00000499999999
 20
1643.0000299999999
 30
0.0
 11
-280.00000499999999
 21
1642.3000300000001
 31
0.0
  0
LINE
  5
A78
  8
DETAIL
  6
CONTINUOUS
 62
     5
 10
-401.00000599999998
 20
241.00000399999999
 30
0.0
 11
-401.00000599999998
 21
54.000018999999988
 31
0.0
  0
LINE
  5
A79
  8
DETAIL
  6
CONTINUOUS
 62
     5
 10
-300.00000599999998
 20
1642.3000300000001
 30
0.0
 11
-300.00000599999998
 21
1641.6000300000001
 31
0.0
  0
LINE
  5
AD5
  8
DETAIL
  6
CONTINUOUS
 62
     5
 10
-320.00000599999998
 20
1641.6000300000001
 30
0.0
 11
-320.00000599999998
 21
1640.5000299999999
 31
0.0
  0
LINE
  5
B1B
  8
DETAIL
  6
CONTINUOUS
 62
     5
 10
-393.62547799999999
 20
1410.0812450000001
 30
0.0
 11
-395.831524
 21
1410.0000259999999
 31
0.0
  0
LINE
  5
B1C
  8
DETAIL
  6
CONTINUOUS
 62
     5
 10
-391.43131199999999
 20
1410.324474
 30
0.0
 11
-393.62547799999999
 21
1410.0812450000001
 31
0.0
  0
LINE
  5
B1D
  8
DETAIL
  6
CONTINUOUS
 62
     5
 10
-389.26097099999998
 20
1410.728394
 30
0.0
 11
-391.43131199999999
 21
1410.324474
 31
0.0
  0
LINE
  5
B1E
  8
DETAIL
  6
CONTINUOUS
 62
     5
 10
-387.12620199999998
 20
1411.2908210000001
 30
0.0
 11
-389.26097099999998
 21
1410.728394
 31
0.0
  0
LINE
  5
B1F
  8
DETAIL
  6
CONTINUOUS
 62
     5
 10
-385.03857099999999
 20
1412.008709
 30
0.0
 11
-387.12620199999998
 21
1411.2908210000001
 31
0.0
  0
LINE
  5
B20
  8
DETAIL
  6
CONTINUOUS
 62
     5
 10
-383.00938500000001
 20
1412.8781690000001
 30
0.0
 11
-385.03857099999999
 21
1412.008709
 31
0.0
  0
LINE
  5
B21
  8
DETAIL
  6
CONTINUOUS
 62
     5
 10
-381.04963099999998
 20
1413.8944939999999
 30
0.0
 11
-383.00938500000001
 21
1412.8781690000001
 31
0.0
  0
LINE
  5
B22
  8
DETAIL
  6
CONTINUOUS
 62
     5
 10
-379.16992199999999
 20
1415.0521799999999
 30
0.0
 11
-381.04963099999998
 21
1413.8944939999999
 31
0.0
  0
LINE
  5
B23
  8
DETAIL
  6
CONTINUOUS
 62
     5
 10
-377.38043599999997
 20
1416.3449579999999
 30
0.0
 11
-379.16992199999999
 21
1415.0521799999999
 31
0.0
  0
LINE
  5
B24
  8
DETAIL
  6
CONTINUOUS
 62
     5
 10
-375.69086299999998
 20
1417.7658269999999
 30
0.0
 11
-377.38043599999997
 21
1416.3449579999999
 31
0.0
  0
LINE
  5
B25
  8
DETAIL
  6
CONTINUOUS
 62
     5
 10
-374.11035199999998
 20
1419.3070909999999
 30
0.0
 11
-375.69086299999998
 21
1417.7658269999999
 31
0.0
  0
LINE
  5
B26
  8
DETAIL
  6
CONTINUOUS
 62
     5
 10
-372.64746300000002
 20
1420.960405
 30
0.0
 11
-374.11035199999998
 21
1419.3070909999999
 31
0.0
  0
LINE
  5
B27
  8
DETAIL
  6
CONTINUOUS
 62
     5
 10
-371.310115
 20
1422.7168160000001
 30
0.0
 11
-372.64746300000002
 21
1420.960405
 31
0.0
  0
LINE
  5
B28
  8
DETAIL
  6
CONTINUOUS
 62
     5
 10
-370.10555099999999
 20
1424.56681
 30
0.0
 11
-371.310115
 21
1422.7168160000001
 31
0.0
  0
LINE
  5
B29
  8
DETAIL
  6
CONTINUOUS
 62
     5
 10
-369.04029400000002
 20
1426.500368
 30
0.0
 11
-370.10555099999999
 21
1424.56681
 31
0.0
  0
LINE
  5
B2A
  8
DETAIL
  6
CONTINUOUS
 62
     5
 10
-368.120113
 20
1428.5070149999999
 30
0.0
 11
-369.04029400000002
 21
1426.500368
 31
0.0
  0
LINE
  5
B2B
  8
DETAIL
  6
CONTINUOUS
 62
     5
 10
-367.349988
 20
1430.5758820000001
 30
0.0
 11
-368.120113
 21
1428.5070149999999
 31
0.0
  0
LINE
  5
B2C
  8
DETAIL
  6
CONTINUOUS
 62
     5
 10
-366.73408999999998
 20
1432.695755
 30
0.0
 11
-367.349988
 21
1430.5758820000001
 31
0.0
  0
LINE
  5
B2D
  8
DETAIL
  6
CONTINUOUS
 62
     5
 10
-366.27575000000002
 20
1434.855147
 30
0.0
 11
-366.73408999999998
 21
1432.695755
 31
0.0
  0
LINE
  5
B2E
  8
DETAIL
  6
CONTINUOUS
 62
     5
 10
-365.97744399999999
 20
1437.042361
 30
0.0
 11
-366.27575000000002
 21
1434.855147
 31
0.0
  0
LINE
  5
B2F
  8
DETAIL
  6
CONTINUOUS
 62
     5
 10
-365.85984400000001
 20
1438.6914449999999
 30
0.0
 11
-365.97744399999999
 21
1437.042361
 31
0.0
  0
LINE
  5
B30
  8
DETAIL
  6
CONTINUOUS
 62
     5
 10
-365.85984400000001
 20
1438.6914449999999
 30
0.0
 11
-360.99952500000001
 21
1550.000029
 31
0.0
  0
LINE
  5
B31
  8
DETAIL
  6
CONTINUOUS
 62
     5
 10
-524.00000699999975
 20
739.50001399999985
 30
0.0
 11
-524.00000699999975
 21
732.50001399999985
 31
0.0
  0
LINE
  5
B32
  8
DETAIL
  6
CONTINUOUS
 62
     5
 10
-532.20000700000003
 20
39.000000999999997
 30
0.0
 11
-532.20000700000003
 21
21.0
 31
0.0
  0
LINE
  5
B33
  8
DETAIL
  6
CONTINUOUS
 62
     5
 10
-534.50000699999998
 20
21.0
 30
0.0
 11
-534.50000699999998
 21
39.000000999999997
 31
0.0
  0
LINE
  5
B34
  8
DETAIL
  6
CONTINUOUS
 62
     5
 10
-534.70000699999991
 20
744.50001399999985
 30
0.0
 11
-534.70000699999991
 21
755.50001399999985
 31
0.0
  0
LINE
  5
B35
  8
DETAIL
  6
CONTINUOUS
 62
     5
 10
-534.70000699999991
 20
731.50001399999985
 30
0.0
 11
-534.70000699999991
 21
732.50001399999985
 31
0.0
  0
LINE
  5
B36
  8
DETAIL
  6
CONTINUOUS
 62
     5
 10
-534.70000699999991
 20
85.500001999999967
 30
0.0
 11
-534.70000699999991
 21
54.000008999999999
 31
0.0
  0
LINE
  5
B37
  8
DETAIL
  6
CONTINUOUS
 62
     5
 10
-534.70000699999991
 20
1370.0000250000001
 30
0.0
 11
-534.70000699999991
 21
1322.5000239999999
 31
0.0
  0
LINE
  5
B38
  8
DETAIL
  6
CONTINUOUS
 62
     5
 10
-535.50000699999998
 20
755.50001399999985
 30
0.0
 11
-535.50000699999998
 21
1322.5000239999999
 31
0.0
  0
LINE
  5
B39
  8
DETAIL
  6
CONTINUOUS
 62
     5
 10
-535.50000699999998
 20
731.50001399999985
 30
0.0
 11
-535.50000699999998
 21
85.500001999999967
 31
0.0
  0
LINE
  5
B3B
  8
DETAIL
  6
CONTINUOUS
 62
     5
 10
-538.00000699999998
 20
62.000000999999997
 30
0.0
 11
-538.00000699999998
 21
84.000001999999995
 31
0.0
  0
LINE
  5
B3C
  8
DETAIL
  6
CONTINUOUS
 62
     5
 10
-538.00000699999998
 20
1370.0000250000001
 30
0.0
 11
-538.00000699999998
 21
1328.0000250000001
 31
0.0
  0
LINE
  5
B3D
  8
DETAIL
  6
CONTINUOUS
 62
     5
 10
-559.34315300000003
 20
1370.0000250000001
 30
0.0
 11
-559.34315300000003
 21
1410.0000259999999
 31
0.0
  0
LINE
  5
B3E
  8
DETAIL
  6
CONTINUOUS
 62
     5
 10
-558.414221
 20
59.00000099999999
 30
0.0
 11
-558.414221
 21
1370.0000250000001
 31
0.0
  0
LINE
  5
B43
  8
DETAIL
  6
CONTINUOUS
 62
     5
 10
-21.246245999999999
 20
1640.5000299999999
 30
0.0
 11
-21.386448999999999
 21
1640.295965
 31
0.0
  0
LINE
  5
B48
  8
DETAIL
  6
CONTINUOUS
 62
     5
 10
-24.238938000000001
 20
1640.5000299999999
 30
0.0
 11
-24.379141000000001
 21
1640.295965
 31
0.0
  0
LINE
  5
B88
  8
DETAIL
  6
CONTINUOUS
 62
     5
 10
-349.84251999999998
 20
1561.32024
 30
0.0
 11
-350.63964700000002
 21
1550.000029
 31
0.0
  0
LINE
  5
B89
  8
DETAIL
  6
CONTINUOUS
 62
     5
 10
-348.335059
 20
1572.563388
 30
0.0
 11
-349.84251999999998
 21
1561.32024
 31
0.0
  0
LINE
  5
B8A
  8
DETAIL
  6
CONTINUOUS
 62
     5
 10
-346.123603
 20
1583.68218
 30
0.0
 11
-348.335059
 21
1572.563388
 31
0.0
  0
LINE
  5
B8B
  8
DETAIL
  6
CONTINUOUS
 62
     5
 10
-588.00000799999998
 20
39.000000999999997
 30
0.0
 11
-588.00000799999998
 21
21.0
 31
0.0
  0
LINE
  5
B8C
  8
DETAIL
  6
CONTINUOUS
 62
     5
 10
-590.30000800000005
 20
21.0
 30
0.0
 11
-590.30000800000005
 21
39.000000999999997
 31
0.0
  0
LINE
  5
B8D
  8
DETAIL
  6
CONTINUOUS
 62
     5
 10
-604.50000799999998
 20
9.0
 30
0.0
 11
-604.50000799999998
 21
54.0
 31
0.0
  0
LINE
  5
B8E
  8
DETAIL
  6
CONTINUOUS
 62
     5
 10
-605.20000800000003
 20
54.0
 30
0.0
 11
-605.20000800000003
 21
1370.0000250000001
 31
0.0
  0
LINE
  5
B8F
  8
DETAIL
  6
CONTINUOUS
 62
     5
 10
-610.00000899999986
 20
1410.0000259999999
 30
0.0
 11
-610.00000899999986
 21
1370.0000250000001
 31
0.0
  0
LINE
  5
BDE
  8
DETAIL
  6
CONTINUOUS
 62
     5
 10
-379.00000499999999
 20
263.00000499999999
 30
0.0
 11
-207.00000199999999
 21
263.00000499999999
 31
0.0
  0
LINE
  5
BE4
  8
DETAIL
  6
CONTINUOUS
 62
     5
 10
-32.587465999999999
 20
1640.5000299999999
 30
0.0
 11
-32.797556999999998
 21
1640.295965
 31
0.0
  0
LINE
  5
BE9
  8
DETAIL
  6
CONTINUOUS
 62
     5
 10
-35.571032000000002
 20
1640.5000299999999
 30
0.0
 11
-35.781123000000001
 21
1640.295965
 31
0.0
  0
LINE
  5
C3A
  8
DETAIL
  6
CONTINUOUS
 62
     5
 10
-211.50000199999999
 20
162.00000299999999
 30
0.0
 11
-293.50000399999999
 21
162.00000299999999
 31
0.0
  0
LINE
  5
C3C
  8
DETAIL
  6
CONTINUOUS
 62
     5
 10
-349.11675500000001
 20
1561.32024
 30
0.0
 11
-349.913881
 21
1550.000029
 31
0.0
  0
LINE
  5
C3D
  8
DETAIL
  6
CONTINUOUS
 62
     5
 10
-347.60929299999998
 20
1572.563388
 30
0.0
 11
-349.11675500000001
 21
1561.32024
 31
0.0
  0
LINE
  5
C51
  8
DETAIL
  6
CONTINUOUS
 62
     5
 10
-346.63923
 20
1561.32024
 30
0.0
 11
-347.42893500000002
 21
1550.000029
 31
0.0
  0
LINE
  5
CC9
  8
DETAIL
  6
CONTINUOUS
 62
     5
 10
-293.50000399999999
 20
90.000001999999981
 30
0.0
 11
-211.50000199999999
 21
90.000001999999981
 31
0.0
  0
LINE
  5
CCA
  8
DETAIL
  6
CONTINUOUS
 62
     5
 10
-535.50000699999998
 20
85.500001999999967
 30
0.0
 11
-534.70000699999991
 21
85.500001999999967
 31
0.0
  0
LINE
  5
CCB
  8
DETAIL
  6
CONTINUOUS
 62
     5
 10
535.50000699999998
 20
85.500001999999967
 30
0.0
 11
534.70000699999991
 21
85.500001999999967
 31
0.0
  0
LINE
  5
CCC
  8
DETAIL
  6
CONTINUOUS
 62
     5
 10
534.70000699999991
 20
84.000001999999995
 30
0.0
 11
538.00000699999998
 21
84.000001999999995
 31
0.0
  0
LINE
  5
CCD
  8
DETAIL
  6
CONTINUOUS
 62
     5
 10
-538.00000699999998
 20
84.000001999999995
 30
0.0
 11
-534.70000699999991
 21
84.000001999999995
 31
0.0
  0
LINE
  5
CD2
  8
DETAIL
  6
CONTINUOUS
 62
     5
 10
-55.137028000000001
 20
1640.5000299999999
 30
0.0
 11
-55.486041999999991
 21
1640.295965
 31
0.0
  0
LINE
  5
CD7
  8
DETAIL
  6
CONTINUOUS
 62
     5
 10
-58.091450999999999
 20
1640.5000299999999
 30
0.0
 11
-58.44046500000001
 21
1640.295965
 31
0.0
  0
LINE
  5
CDC
  8
DETAIL
  6
CONTINUOUS
 62
     5
 10
-43.888983000000003
 20
1640.5000299999999
 30
0.0
 11
-44.168706
 21
1640.295965
 31
0.0
  0
LINE
  5
CE1
  8
DETAIL
  6
CONTINUOUS
 62
     5
 10
-46.859786999999983
 20
1640.5000299999999
 30
0.0
 11
-47.13950999999998
 21
1640.295965
 31
0.0
  0
LINE
  5
CE2
  8
DETAIL
  6
CONTINUOUS
 62
     5
 10
-359.90671700000001
 20
1561.32024
 30
0.0
 11
-360.72774600000002
 21
1550.000029
 31
0.0
  0
LINE
  5
CE3
  8
DETAIL
  6
CONTINUOUS
 62
     5
 10
-358.35405300000002
 20
1572.563388
 30
0.0
 11
-359.90671700000001
 21
1561.32024
 31
0.0
  0
LINE
  5
CE4
  8
DETAIL
  6
CONTINUOUS
 62
     5
 10
-356.07628499999998
 20
1583.68218
 30
0.0
 11
-358.35405300000002
 21
1572.563388
 31
0.0
  0
LINE
  5
CE5
  8
DETAIL
  6
CONTINUOUS
 62
     5
 10
-353.08299399999999
 20
1594.629844
 30
0.0
 11
-356.07628499999998
 21
1583.68218
 31
0.0
  0
LINE
  5
CE6
  8
DETAIL
  6
CONTINUOUS
 62
     5
 10
-349.38677100000001
 20
1605.360332
 30
0.0
 11
-353.08299399999999
 21
1594.629844
 31
0.0
  0
LINE
  5
CE7
  8
DETAIL
  6
CONTINUOUS
 62
     5
 10
-345.00316500000002
 20
1615.828505
 30
0.0
 11
-349.38677100000001
 21
1605.360332
 31
0.0
  0
LINE
  5
CE8
  8
DETAIL
  6
CONTINUOUS
 62
     5
 10
-339.95061299999998
 20
1625.990329
 30
0.0
 11
-345.00316500000002
 21
1615.828505
 31
0.0
  0
LINE
  5
CE9
  8
DETAIL
  6
CONTINUOUS
 62
     5
 10
-334.25037099999997
 20
1635.8030610000001
 30
0.0
 11
-339.95061299999998
 21
1625.990329
 31
0.0
  0
LINE
  5
CEA
  8
DETAIL
  6
CONTINUOUS
 62
     5
 10
-360.011416
 20
1561.32024
 30
0.0
 11
-360.83244400000001
 21
1550.000029
 31
0.0
  0
LINE
  5
CEB
  8
DETAIL
  6
CONTINUOUS
 62
     5
 10
-358.458752
 20
1572.563388
 30
0.0
 11
-360.011416
 21
1561.32024
 31
0.0
  0
LINE
  5
CEC
  8
DETAIL
  6
CONTINUOUS
 62
     5
 10
-356.18098400000002
 20
1583.68218
 30
0.0
 11
-358.458752
 21
1572.563388
 31
0.0
  0
LINE
  5
CED
  8
DETAIL
  6
CONTINUOUS
 62
     5
 10
-353.18769300000002
 20
1594.629844
 30
0.0
 11
-356.18098400000002
 21
1583.68218
 31
0.0
  0
LINE
  5
CEE
  8
DETAIL
  6
CONTINUOUS
 62
     5
 10
-349.49146999999999
 20
1605.360332
 30
0.0
 11
-353.18769300000002
 21
1594.629844
 31
0.0
  0
LINE
  5
CEF
  8
DETAIL
  6
CONTINUOUS
 62
     5
 10
-345.10786300000001
 20
1615.828505
 30
0.0
 11
-349.49146999999999
 21
1605.360332
 31
0.0
  0
LINE
  5
CF0
  8
DETAIL
  6
CONTINUOUS
 62
     5
 10
-340.05531200000001
 20
1625.990329
 30
0.0
 11
-345.10786300000001
 21
1615.828505
 31
0.0
  0
LINE
  5
CF1
  8
DETAIL
  6
CONTINUOUS
 62
     5
 10
-334.35506900000001
 20
1635.8030610000001
 30
0.0
 11
-340.05531200000001
 21
1625.990329
 31
0.0
  0
LINE
  5
CF2
  8
DETAIL
  6
CONTINUOUS
 62
     5
 10
-359.19646599999999
 20
1561.32024
 30
0.0
 11
-360.01599399999998
 21
1550.000029
 31
0.0
  0
LINE
  5
CF3
  8
DETAIL
  6
CONTINUOUS
 62
     5
 10
-357.64663999999999
 20
1572.563388
 30
0.0
 11
-359.19646599999999
 21
1561.32024
 31
0.0
  0
LINE
  5
CF4
  8
DETAIL
  6
CONTINUOUS
 62
     5
 10
-355.37303600000001
 20
1583.68218
 30
0.0
 11
-357.64663999999999
 21
1572.563388
 31
0.0
  0
LINE
  5
CF5
  8
DETAIL
  6
CONTINUOUS
 62
     5
 10
-352.38521600000001
 20
1594.629844
 30
0.0
 11
-355.37303600000001
 21
1583.68218
 31
0.0
  0
LINE
  5
CF6
  8
DETAIL
  6
CONTINUOUS
 62
     5
 10
-348.69574999999998
 20
1605.360332
 30
0.0
 11
-352.38521600000001
 21
1594.629844
 31
0.0
  0
LINE
  5
CF7
  8
DETAIL
  6
CONTINUOUS
 62
     5
 10
-344.320156
 20
1615.828505
 30
0.0
 11
-348.69574999999998
 21
1605.360332
 31
0.0
  0
LINE
  5
CF8
  8
DETAIL
  6
CONTINUOUS
 62
     5
 10
-339.27683999999999
 20
1625.990329
 30
0.0
 11
-344.320156
 21
1615.828505
 31
0.0
  0
LINE
  5
CF9
  8
DETAIL
  6
CONTINUOUS
 62
     5
 10
-333.58701600000001
 20
1635.8030610000001
 30
0.0
 11
-339.27683999999999
 21
1625.990329
 31
0.0
  0
LINE
  5
CFA
  8
DETAIL
  6
CONTINUOUS
 62
     5
 10
-359.40573599999999
 20
1561.32024
 30
0.0
 11
-360.2252640000001
 21
1550.000029
 31
0.0
  0
LINE
  5
CFB
  8
DETAIL
  6
CONTINUOUS
 62
     5
 10
-357.85590999999999
 20
1572.563388
 30
0.0
 11
-359.40573599999999
 21
1561.32024
 31
0.0
  0
LINE
  5
CFC
  8
DETAIL
  6
CONTINUOUS
 62
     5
 10
-355.58230500000002
 20
1583.68218
 30
0.0
 11
-357.85590999999999
 21
1572.563388
 31
0.0
  0
LINE
  5
CFD
  8
DETAIL
  6
CONTINUOUS
 62
     5
 10
-352.59448600000002
 20
1594.629844
 30
0.0
 11
-355.58230500000002
 21
1583.68218
 31
0.0
  0
LINE
  5
CFE
  8
DETAIL
  6
CONTINUOUS
 62
     5
 10
-348.90501899999998
 20
1605.360332
 30
0.0
 11
-352.59448600000002
 21
1594.629844
 31
0.0
  0
LINE
  5
CFF
  8
DETAIL
  6
CONTINUOUS
 62
     5
 10
-344.529425
 20
1615.828505
 30
0.0
 11
-348.90501899999998
 21
1605.360332
 31
0.0
  0
LINE
  5
D00
  8
DETAIL
  6
CONTINUOUS
 62
     5
 10
-339.486109
 20
1625.990329
 30
0.0
 11
-344.529425
 21
1615.828505
 31
0.0
  0
LINE
  5
D01
  8
DETAIL
  6
CONTINUOUS
 62
     5
 10
-333.79628600000001
 20
1635.8030610000001
 30
0.0
 11
-339.486109
 21
1625.990329
 31
0.0
  0
LINE
  5
D02
  8
DETAIL
  6
CONTINUOUS
 62
     5
 10
-358.04858999999999
 20
1561.32024
 30
0.0
 11
-358.86561799999998
 21
1550.000029
 31
0.0
  0
LINE
  5
D03
  8
DETAIL
  6
CONTINUOUS
 62
     5
 10
-356.50349
 20
1572.563388
 30
0.0
 11
-358.04858999999999
 21
1561.32024
 31
0.0
  0
LINE
  5
D04
  8
DETAIL
  6
CONTINUOUS
 62
     5
 10
-354.23681900000008
 20
1583.68218
 30
0.0
 11
-356.50349
 21
1572.563388
 31
0.0
  0
LINE
  5
D05
  8
DETAIL
  6
CONTINUOUS
 62
     5
 10
-351.25811099999999
 20
1594.629844
 30
0.0
 11
-354.23681900000008
 21
1583.68218
 31
0.0
  0
LINE
  5
D06
  8
DETAIL
  6
CONTINUOUS
 62
     5
 10
-347.57989600000002
 20
1605.360332
 30
0.0
 11
-351.25811099999999
 21
1594.629844
 31
0.0
  0
LINE
  5
D07
  8
DETAIL
  6
CONTINUOUS
 62
     5
 10
-343.217645
 20
1615.828505
 30
0.0
 11
-347.57989600000002
 21
1605.360332
 31
0.0
  0
LINE
  5
D08
  8
DETAIL
  6
CONTINUOUS
 62
     5
 10
-338.18970999999999
 20
1625.990329
 30
0.0
 11
-343.217645
 21
1615.828505
 31
0.0
  0
LINE
  5
D09
  8
DETAIL
  6
CONTINUOUS
 62
     5
 10
-332.51723800000002
 20
1635.8030610000001
 30
0.0
 11
-338.18970999999999
 21
1625.990329
 31
0.0
  0
LINE
  5
D0A
  8
DETAIL
  6
CONTINUOUS
 62
     5
 10
-358.36217499999998
 20
1561.32024
 30
0.0
 11
-359.17920400000008
 21
1550.000029
 31
0.0
  0
LINE
  5
D0B
  8
DETAIL
  6
CONTINUOUS
 62
     5
 10
-356.81707499999999
 20
1572.563388
 30
0.0
 11
-358.36217499999998
 21
1561.32024
 31
0.0
  0
LINE
  5
D0C
  8
DETAIL
  6
CONTINUOUS
 62
     5
 10
-354.55040400000001
 20
1583.68218
 30
0.0
 11
-356.81707499999999
 21
1572.563388
 31
0.0
  0
LINE
  5
D0D
  8
DETAIL
  6
CONTINUOUS
 62
     5
 10
-351.57169599999997
 20
1594.629844
 30
0.0
 11
-354.55040400000001
 21
1583.68218
 31
0.0
  0
LINE
  5
D0E
  8
DETAIL
  6
CONTINUOUS
 62
     5
 10
-347.89348100000001
 20
1605.360332
 30
0.0
 11
-351.57169599999997
 21
1594.629844
 31
0.0
  0
LINE
  5
D0F
  8
DETAIL
  6
CONTINUOUS
 62
     5
 10
-343.53123099999999
 20
1615.828505
 30
0.0
 11
-347.89348100000001
 21
1605.360332
 31
0.0
  0
LINE
  5
D10
  8
DETAIL
  6
CONTINUOUS
 62
     5
 10
-338.50329499999998
 20
1625.990329
 30
0.0
 11
-343.53123099999999
 21
1615.828505
 31
0.0
  0
LINE
  5
D11
  8
DETAIL
  6
CONTINUOUS
 62
     5
 10
-332.83082300000001
 20
1635.8030610000001
 30
0.0
 11
-338.50329499999998
 21
1625.990329
 31
0.0
  0
LINE
  5
D12
  8
DETAIL
  6
CONTINUOUS
 62
     5
 10
-356.46448600000002
 20
1561.32024
 30
0.0
 11
-357.27802000000008
 21
1550.000029
 31
0.0
  0
LINE
  5
D13
  8
DETAIL
  6
CONTINUOUS
 62
     5
 10
-354.925995
 20
1572.563388
 30
0.0
 11
-356.46448600000002
 21
1561.32024
 31
0.0
  0
LINE
  5
D14
  8
DETAIL
  6
CONTINUOUS
 62
     5
 10
-352.66901899999999
 20
1583.68218
 30
0.0
 11
-354.925995
 21
1572.563388
 31
0.0
  0
LINE
  5
D15
  8
DETAIL
  6
CONTINUOUS
 62
     5
 10
-349.70305200000001
 20
1594.629844
 30
0.0
 11
-352.66901899999999
 21
1583.68218
 31
0.0
  0
LINE
  5
D16
  8
DETAIL
  6
CONTINUOUS
 62
     5
 10
-346.040569
 20
1605.360332
 30
0.0
 11
-349.70305200000001
 21
1594.629844
 31
0.0
  0
LINE
  5
D17
  8
DETAIL
  6
CONTINUOUS
 62
     5
 10
-341.696977
 20
1615.828505
 30
0.0
 11
-346.040569
 21
1605.360332
 31
0.0
  0
LINE
  5
D18
  8
DETAIL
  6
CONTINUOUS
 62
     5
 10
-336.69054699999998
 20
1625.990329
 30
0.0
 11
-341.696977
 21
1615.828505
 31
0.0
  0
LINE
  5
D19
  8
DETAIL
  6
CONTINUOUS
 62
     5
 10
-331.04233799999997
 20
1635.8030610000001
 30
0.0
 11
-336.69054699999998
 21
1625.990329
 31
0.0
  0
LINE
  5
D1A
  8
DETAIL
  6
CONTINUOUS
 62
     5
 10
-356.88200499999999
 20
1561.32024
 30
0.0
 11
-357.695539
 21
1550.000029
 31
0.0
  0
LINE
  5
D1B
  8
DETAIL
  6
CONTINUOUS
 62
     5
 10
-355.34351400000008
 20
1572.563388
 30
0.0
 11
-356.88200499999999
 21
1561.32024
 31
0.0
  0
LINE
  5
D1C
  8
DETAIL
  6
CONTINUOUS
 62
     5
 10
-353.08653800000002
 20
1583.68218
 30
0.0
 11
-355.34351400000008
 21
1572.563388
 31
0.0
  0
LINE
  5
D1D
  8
DETAIL
  6
CONTINUOUS
 62
     5
 10
-350.12057099999998
 20
1594.629844
 30
0.0
 11
-353.08653800000002
 21
1583.68218
 31
0.0
  0
LINE
  5
D1E
  8
DETAIL
  6
CONTINUOUS
 62
     5
 10
-346.45808900000009
 20
1605.360332
 30
0.0
 11
-350.12057099999998
 21
1594.629844
 31
0.0
  0
LINE
  5
D1F
  8
DETAIL
  6
CONTINUOUS
 62
     5
 10
-342.11449699999997
 20
1615.828505
 30
0.0
 11
-346.45808900000009
 21
1605.360332
 31
0.0
  0
LINE
  5
D20
  8
DETAIL
  6
CONTINUOUS
 62
     5
 10
-337.10806700000001
 20
1625.990329
 30
0.0
 11
-342.11449699999997
 21
1615.828505
 31
0.0
  0
LINE
  5
D21
  8
DETAIL
  6
CONTINUOUS
 62
     5
 10
-331.459858
 20
1635.8030610000001
 30
0.0
 11
-337.10806700000001
 21
1625.990329
 31
0.0
  0
LINE
  5
D22
  8
DETAIL
  6
CONTINUOUS
 62
     5
 10
-354.44608499999998
 20
1561.32024
 30
0.0
 11
-355.255133
 21
1550.000029
 31
0.0
  0
LINE
  5
D23
  8
DETAIL
  6
CONTINUOUS
 62
     5
 10
-352.91607699999997
 20
1572.563388
 30
0.0
 11
-354.44608499999998
 21
1561.32024
 31
0.0
  0
LINE
  5
D24
  8
DETAIL
  6
CONTINUOUS
 62
     5
 10
-350.67154599999998
 20
1583.68218
 30
0.0
 11
-352.91607699999997
 21
1572.563388
 31
0.0
  0
LINE
  5
D25
  8
DETAIL
  6
CONTINUOUS
 62
     5
 10
-347.72193299999998
 20
1594.629844
 30
0.0
 11
-350.67154599999998
 21
1583.68218
 31
0.0
  0
LINE
  5
D26
  8
DETAIL
  6
CONTINUOUS
 62
     5
 10
-344.07964600000008
 20
1605.360332
 30
0.0
 11
-347.72193299999998
 21
1594.629844
 31
0.0
  0
LINE
  5
D27
  8
DETAIL
  6
CONTINUOUS
 62
     5
 10
-339.76000399999998
 20
1615.828505
 30
0.0
 11
-344.07964600000008
 21
1605.360332
 31
0.0
  0
LINE
  5
D2A
  8
DETAIL
  6
CONTINUOUS
 62
     5
 10
-354.96703000000002
 20
1561.32024
 30
0.0
 11
-355.77607799999998
 21
1550.000029
 31
0.0
  0
LINE
  5
D2B
  8
DETAIL
  6
CONTINUOUS
 62
     5
 10
-353.43702200000001
 20
1572.563388
 30
0.0
 11
-354.96703000000002
 21
1561.32024
 31
0.0
  0
LINE
  5
D2C
  8
DETAIL
  6
CONTINUOUS
 62
     5
 10
-351.19249100000002
 20
1583.68218
 30
0.0
 11
-353.43702200000001
 21
1572.563388
 31
0.0
  0
LINE
  5
D2D
  8
DETAIL
  6
CONTINUOUS
 62
     5
 10
-348.24287800000002
 20
1594.629844
 30
0.0
 11
-351.19249100000002
 21
1583.68218
 31
0.0
  0
LINE
  5
D2E
  8
DETAIL
  6
CONTINUOUS
 62
     5
 10
-344.60059000000001
 20
1605.360332
 30
0.0
 11
-348.24287800000002
 21
1594.629844
 31
0.0
  0
LINE
  5
D2F
  8
DETAIL
  6
CONTINUOUS
 62
     5
 10
-340.28094900000002
 20
1615.828505
 30
0.0
 11
-344.60059000000001
 21
1605.360332
 31
0.0
  0
LINE
  5
D30
  8
DETAIL
  6
CONTINUOUS
 62
     5
 10
-335.30212399999999
 20
1625.990329
 30
0.0
 11
-340.28094900000002
 21
1615.828505
 31
0.0
  0
LINE
  5
D32
  8
DETAIL
  6
CONTINUOUS
 62
     5
 10
-351.99584599999997
 20
1561.32024
 30
0.0
 11
-352.79942299999999
 21
1550.000029
 31
0.0
  0
LINE
  5
D33
  8
DETAIL
  6
CONTINUOUS
 62
     5
 10
-350.47618599999998
 20
1572.563388
 30
0.0
 11
-351.99584599999997
 21
1561.32024
 31
0.0
  0
LINE
  5
D34
  8
DETAIL
  6
CONTINUOUS
 62
     5
 10
-348.24683399999998
 20
1583.68218
 30
0.0
 11
-350.47618599999998
 21
1572.563388
 31
0.0
  0
LINE
  5
D35
  8
DETAIL
  6
CONTINUOUS
 62
     5
 10
-345.31716899999998
 20
1594.629844
 30
0.0
 11
-348.24683399999998
 21
1583.68218
 31
0.0
  0
LINE
  5
D3A
  8
DETAIL
  6
CONTINUOUS
 62
     5
 10
-352.61958099999998
 20
1561.32024
 30
0.0
 11
-353.423158
 21
1550.000029
 31
0.0
  0
LINE
  5
D3B
  8
DETAIL
  6
CONTINUOUS
 62
     5
 10
-351.09992099999999
 20
1572.563388
 30
0.0
 11
-352.61958099999998
 21
1561.32024
 31
0.0
  0
LINE
  5
D3C
  8
DETAIL
  6
CONTINUOUS
 62
     5
 10
-348.8705700000001
 20
1583.68218
 30
0.0
 11
-351.09992099999999
 21
1572.563388
 31
0.0
  0
LINE
  5
D3D
  8
DETAIL
  6
CONTINUOUS
 62
     5
 10
-345.94090399999999
 20
1594.629844
 30
0.0
 11
-348.8705700000001
 21
1583.68218
 31
0.0
  0
LINE
  5
D3E
  8
DETAIL
  6
CONTINUOUS
 62
     5
 10
-342.32324899999998
 20
1605.360332
 30
0.0
 11
-345.94090399999999
 21
1594.629844
 31
0.0
  0
LINE
  5
D45
  8
DETAIL
  6
CONTINUOUS
 62
     5
 10
541.00000699999975
 20
59.00000099999999
 30
0.0
 11
605.20000800000003
 21
59.00000099999999
 31
0.0
  0
LINE
  5
D46
  8
DETAIL
  6
CONTINUOUS
 62
     5
 10
-605.20000800000003
 20
59.00000099999999
 30
0.0
 11
-541.00000699999975
 21
59.00000099999999
 31
0.0
  0
LINE
  5
D47
  8
DETAIL
  6
CONTINUOUS
 62
     5
 10
-605.20000800000003
 20
54.0
 30
0.0
 11
605.20000800000003
 21
54.000143999999992
 31
0.0
  0
LINE
  5
D48
  8
DETAIL
  6
CONTINUOUS
 62
     5
 10
-582.00000799999975
 20
47.300001000000002
 30
0.0
 11
-540.50000699999975
 21
47.300001000000002
 31
0.0
  0
LINE
  5
D49
  8
DETAIL
  6
CONTINUOUS
 62
     5
 10
582.00000799999975
 20
47.300001000000002
 30
0.0
 11
540.50000699999975
 21
47.300001000000002
 31
0.0
  0
LINE
  5
D4A
  8
DETAIL
  6
CONTINUOUS
 62
     5
 10
540.50000699999975
 20
45.000000999999997
 30
0.0
 11
582.00000799999975
 21
45.000000999999997
 31
0.0
  0
LINE
  5
D4B
  8
DETAIL
  6
CONTINUOUS
 62
     5
 10
-540.50000699999975
 20
45.000000999999997
 30
0.0
 11
-582.00000799999975
 21
45.000000999999997
 31
0.0
  0
LINE
  5
D50
  8
DETAIL
  6
CONTINUOUS
 62
     5
 10
-99.321735000000004
 20
1640.5000299999999
 30
0.0
 11
-99.942825999999997
 21
1640.295965
 31
0.0
  0
LINE
  5
D55
  8
DETAIL
  6
CONTINUOUS
 62
     5
 10
-102.174904
 20
1640.5000299999999
 30
0.0
 11
-102.795995
 21
1640.295965
 31
0.0
  0
LINE
  5
D5A
  8
DETAIL
  6
CONTINUOUS
 62
     5
 10
-88.423715999999985
 20
1640.5000299999999
 30
0.0
 11
-88.977718000000024
 21
1640.295965
 31
0.0
  0
LINE
  5
D5F
  8
DETAIL
  6
CONTINUOUS
 62
     5
 10
-91.307501999999985
 20
1640.5000299999999
 30
0.0
 11
-91.861502999999985
 21
1640.295965
 31
0.0
  0
LINE
  5
D64
  8
DETAIL
  6
CONTINUOUS
 62
     5
 10
-77.417967000000004
 20
1640.5000299999999
 30
0.0
 11
-77.904203999999993
 21
1640.295965
 31
0.0
  0
LINE
  5
D69
  8
DETAIL
  6
CONTINUOUS
 62
     5
 10
-80.328855000000004
 20
1640.5000299999999
 30
0.0
 11
-80.815092000000007
 21
1640.295965
 31
0.0
  0
LINE
  5
D6E
  8
DETAIL
  6
CONTINUOUS
 62
     5
 10
-66.317897000000002
 20
1640.5000299999999
 30
0.0
 11
-66.735776999999999
 21
1640.295965
 31
0.0
  0
LINE
  5
D73
  8
DETAIL
  6
CONTINUOUS
 62
     5
 10
-69.252339000000006
 20
1640.5000299999999
 30
0.0
 11
-69.67022
 21
1640.295965
 31
0.0
  0
LINE
  5
D74
  8
DETAIL
  6
CONTINUOUS
 62
     5
 10
-582.00000799999975
 20
15.0
 30
0.0
 11
-540.50000699999975
 21
15.0
 31
0.0
  0
LINE
  5
D75
  8
DETAIL
  6
CONTINUOUS
 62
     5
 10
582.00000799999975
 20
15.0
 30
0.0
 11
540.50000699999975
 21
15.0
 31
0.0
  0
LINE
  5
D76
  8
DETAIL
  6
CONTINUOUS
 62
     5
 10
540.50000699999975
 20
12.699999999999999
 30
0.0
 11
582.00000799999975
 21
12.699999999999999
 31
0.0
  0
LINE
  5
D77
  8
DETAIL
  6
CONTINUOUS
 62
     5
 10
-540.50000699999975
 20
12.699999999999999
 30
0.0
 11
-582.00000799999975
 21
12.699999999999999
 31
0.0
  0
LINE
  5
D78
  8
DETAIL
  6
CONTINUOUS
 62
     5
 10
-599.50000799999975
 20
9.0
 30
0.0
 11
-604.50000799999998
 21
9.0
 31
0.0
  0
LINE
  5
D79
  8
DETAIL
  6
CONTINUOUS
 62
     5
 10
604.50000799999998
 20
9.0
 30
0.0
 11
599.50000799999975
 21
9.0
 31
0.0
  0
LINE
  5
D7E
  8
DETAIL
  6
CONTINUOUS
 62
     5
 10
-110.09874499999999
 20
1640.5000299999999
 30
0.0
 11
-110.786168
 21
1640.295965
 31
0.0
  0
LINE
  5
D83
  8
DETAIL
  6
CONTINUOUS
 62
     5
 10
-112.917823
 20
1640.5000299999999
 30
0.0
 11
-113.60524599999999
 21
1640.295965
 31
0.0
  0
LINE
  5
D88
  8
DETAIL
  6
CONTINUOUS
 62
     5
 10
534.70000699999991
 20
731.50001399999985
 30
0.0
 11
535.50000699999998
 21
731.50001399999985
 31
0.0
  0
LINE
  5
D89
  8
NOTE
  6
CONTINUOUS
 62
     4
 10
-350.50000499999999
 20
259.00000499999999
 30
0.0
 11
-350.50000499999999
 21
181.00000299999999
 31
0.0
  0
LINE
  5
D8A
  8
NOTE
  6
CONTINUOUS
 62
     4
 10
-311.50000399999999
 20
220.00000399999999
 30
0.0
 11
-389.50000499999999
 21
220.00000399999999
 31
0.0
  0
LINE
  5
D8B
  8
NOTE
  6
CONTINUOUS
 62
     4
 10
-350.50000499999999
 20
177.00000299999999
 30
0.0
 11
-350.50000499999999
 21
87.000001999999981
 31
0.0
  0
LINE
  5
D8C
  8
NOTE
  6
CONTINUOUS
 62
     4
 10
-305.50000399999999
 20
132.00000199999999
 30
0.0
 11
-395.50000499999999
 21
132.00000199999999
 31
0.0
  0
LINE
  5
D8D
  8
NOTE
  6
CONTINUOUS
 62
     4
 10
-252.50000299999999
 20
249.50000499999999
 30
0.0
 11
-252.50000299999999
 21
190.50000399999999
 31
0.0
  0
LINE
  5
D8E
  8
NOTE
  6
CONTINUOUS
 62
     4
 10
-223.00000199999999
 20
220.00000399999999
 30
0.0
 11
-282.00000299999999
 21
220.00000399999999
 31
0.0
  0
LINE
  5
D8F
  8
DETAIL
  6
CONTINUOUS
 62
     5
 10
559.34315300000003
 20
1410.0000259999999
 30
0.0
 11
559.34315300000003
 21
1370.0000250000001
 31
0.0
  0
LINE
  5
D90
  8
DETAIL
  6
CONTINUOUS
 62
     5
 10
-599.50000799999975
 20
0.0
 30
0.0
 11
599.50000799999975
 21
0.0
 31
0.0
  0
LINE
  5
D91
  8
DETAIL
  6
CONTINUOUS
 62
     5
 10
-599.50000799999975
 20
2.299999999999998
 30
0.0
 11
599.50000799999975
 21
2.299999999999998
 31
0.0
  0
LINE
  5
D92
  8
BASIS
  6
DASHDOT
 62
     6
 10
0.0
 20
-103.087189
 30
0.0
 11
0.0
 21
1735.11879
 31
0.0
  0
LINE
  5
D93
  8
ARRANGE
  6
CONTINUOUS
 62
     1
 10
-37.897321000000012
 20
-37.897321000000012
 30
0.0
 11
37.897321000000012
 21
37.897321000000012
 31
0.0
  0
LINE
  5
D94
  8
ARRANGE
  6
CONTINUOUS
 62
     1
 10
-37.897321000000012
 20
37.897321000000012
 30
0.0
 11
37.897321000000012
 21
-37.897321000000012
 31
0.0
  0
CIRCLE
  5
D95
  8
ARRANGE
  6
CONTINUOUS
 62
     1
 10
0.0
 20
0.0
 30
0.0
 40
34.449674000000002
  0
LINE
  5
D97
  8
NOTE
  6
CONTINUOUS
 62
     4
 10
-530.0
 20
-22.0
 30
0.0
 11
-530.0
 21
22.0
 31
0.0
  0
LINE
  5
D98
  8
NOTE
  6
CONTINUOUS
 62
     4
 10
530.0
 20
-22.0
 30
0.0
 11
530.0
 21
22.0
 31
0.0
  0
LINE
  5
D99
  8
NOTE
  6
CONTINUOUS
 62
     4
 10
-552.0
 20
0.0
 30
0.0
 11
-508.0
 21
0.0
 31
0.0
  0
LINE
  5
D9A
  8
NOTE
  6
CONTINUOUS
 62
     4
 10
508.0
 20
0.0
 30
0.0
 11
552.0
 21
0.0
 31
0.0
  0
CIRCLE
  5
D9B
  8
FIX
  6
CONTINUOUS
 62
    11
 10
-530.0
 20
0.0
 30
0.0
 40
18.598564
  0
CIRCLE
  5
D9C
  8
FIX
  6
CONTINUOUS
 62
    11
 10
530.0
 20
0.0
 30
0.0
 40
18.598564
  0
TEXT
  5
D9D
  8
ETC
  6
CONTINUOUS
 62
    61
 10
273.85399920558848
 20
2107.2743621562222
 30
0.0
 40
90.0
  1
PUHV-EP280VCM-E1_2
 50
0.000003
 41
0.6030590000000001
  7
STANDARD1
  0
LINE
  5
D9E
  8
NOTE
  6
CONTINUOUS
 62
     4
 10
-308.99999700000001
 20
177.7500005
 30
0.0
 11
-308.99999700000001
 21
138.2499995
 31
0.0
  0
LINE
  5
D9F
  8
NOTE
  6
CONTINUOUS
 62
     4
 10
-289.24999650000001
 20
158.0
 30
0.0
 11
-328.74999750000012
 21
158.0
 31
0.0
  0
LINE
  5
DA0
  8
NOTE
  6
CONTINUOUS
 62
     4
 10
-308.99999700000001
 20
158.0
 30
0.0
 11
-291.66549709858748
 21
129.52849389143029
 31
0.0
  0
LINE
  5
DA1
  8
NOTE
  6
CONTINUOUS
 62
     4
 10
-308.99999700000001
 20
158.0
 30
0.0
 11
-279.75212427298038
 21
142.010196478046
 31
0.0
  0
LINE
  5
DA2
  8
NOTE
  6
CONTINUOUS
 62
     4
 10
56.634066210424862
 20
-199.95833175596539
 30
0.0
 11
-308.99999700000001
 21
158.0
 31
0.0
  0
LINE
  5
DA3
  8
NOTE
  6
CONTINUOUS
 62
     4
 10
-226.00000900000001
 20
191.75
 30
0.0
 11
-226.00000900000001
 21
152.25
 31
0.0
  0
LINE
  5
DA4
  8
NOTE
  6
CONTINUOUS
 62
     4
 10
-206.25000850000001
 20
172.0
 30
0.0
 11
-245.7500095
 21
172.0
 31
0.0
  0
LINE
  5
DA5
  8
NOTE
  6
CONTINUOUS
 62
     4
 10
-226.00000900000001
 20
172.0
 30
0.0
 11
-194.84401500000001
 21
183.8496981409715
 31
0.0
  0
LINE
  5
DA6
  8
NOTE
  6
CONTINUOUS
 62
     4
 10
-226.00000900000001
 20
172.0
 30
0.0
 11
-204.94297399999999
 21
197.84013714097151
 31
0.0
  0
LINE
  5
DA7
  8
NOTE
  6
CONTINUOUS
 62
     4
 10
12.524217
 20
347.17803600000002
 30
0.0
 11
-226.00000900000001
 21
172.0
 31
0.0
  0
TEXT
  5
DA8
  8
NOTE
  6
CONTINUOUS
 62
     4
 10
75.550515743543201
 20
525.10515879045613
 30
0.0
 40
55.0
  1
CL %%C34ﾉｯｸｱｳﾄ穴
 50
359.99999700000001
 41
0.6309520000000001
  7
STANDARD1
  0
LINE
  5
DA9
  8
NOTE
  6
CONTINUOUS
 62
     4
 10
59.676787743543159
 20
514.7603407904561
 30
0.0
 11
432.54083474354309
 21
514.7603407904561
 31
0.0
  0
TEXT
  5
DAA
  8
NOTE
  6
CONTINUOUS
 62
     4
 10
25.936747
 20
357.522854
 30
0.0
 40
55.0
  1
RG %%C22.2
 50
359.99999700000001
 41
0.6309520000000001
  7
STANDARD1
  0
LINE
  5
DAB
  8
NOTE
  6
CONTINUOUS
 62
     4
 10
12.524217
 20
347.17803600000002
 30
0.0
 11
292.01467946823692
 21
347.17803600000002
 31
0.0
  0
LINE
  5
DAC
  8
NOTE
  6
CONTINUOUS
 62
     4
 10
-252.500011
 20
219.999988
 30
0.0
 11
-223.45941199999999
 21
236.363202
 31
0.0
  0
LINE
  5
DAD
  8
NOTE
  6
CONTINUOUS
 62
     4
 10
-252.500011
 20
219.999988
 30
0.0
 11
-235.531722
 21
248.691247
 31
0.0
  0
LINE
  5
DAE
  8
NOTE
  6
CONTINUOUS
 62
     4
 10
59.676787743543159
 20
514.7603407904561
 30
0.0
 11
-252.500011
 21
219.999988
 31
0.0
  0
LINE
  5
DAF
  8
NOTE
  6
CONTINUOUS
 62
     4
 10
-350.50000499999999
 20
132.00000199999999
 30
0.0
 11
-374.42414300000002
 21
155.21092100000001
 31
0.0
  0
LINE
  5
DB0
  8
NOTE
  6
CONTINUOUS
 62
     4
 10
-350.50000499999999
 20
132.00000199999999
 30
0.0
 11
-382.82437599999997
 21
140.13917799999999
 31
0.0
  0
LINE
  5
DB1
  8
NOTE
  6
CONTINUOUS
 62
     4
 10
-718.82794699999999
 20
337.28749800000008
 30
0.0
 11
-350.50000499999999
 21
132.00000199999999
 31
0.0
  0
LINE
  5
DB2
  8
NOTE
  6
CONTINUOUS
 62
     4
 10
-350.50000499999999
 20
220.00000399999999
 30
0.0
 11
-374.42414300000002
 21
243.21092300000001
 31
0.0
  0
LINE
  5
DB3
  8
NOTE
  6
CONTINUOUS
 62
     4
 10
-350.50000499999999
 20
220.00000399999999
 30
0.0
 11
-382.82437599999997
 21
228.13918000000001
 31
0.0
  0
LINE
  5
DB4
  8
NOTE
  6
CONTINUOUS
 62
     4
 10
-718.82794699999999
 20
425.28749900000003
 30
0.0
 11
-350.50000499999999
 21
220.00000399999999
 31
0.0
  0
TEXT
  5
DB5
  8
NOTE
  6
CONTINUOUS
 62
     4
 10
-1367.914489
 20
435.632317
 30
0.0
 40
55.0
  1
EL2 %%C52もしくは%%C27ﾉｯｸｱｳﾄ穴
 50
359.99999700000001
 41
0.6309520000000001
  7
STANDARD1
  0
LINE
  5
DB6
  8
NOTE
  6
CONTINUOUS
 62
     4
 10
-1382.436019
 20
425.28749900000003
 30
0.0
 11
-718.82794699999999
 21
425.28749900000003
 31
0.0
  0
TEXT
  5
DB7
  8
NOTE
  6
CONTINUOUS
 62
     4
 10
-1367.914489
 20
347.63231500000001
 30
0.0
 40
55.0
  1
EL1 %%C65もしくは%%C40ﾉｯｸｱｳﾄ穴
 50
359.99999700000001
 41
0.6309520000000001
  7
STANDARD1
  0
LINE
  5
DB8
  8
NOTE
  6
CONTINUOUS
 62
     4
 10
-1382.436019
 20
337.28749800000008
 30
0.0
 11
-718.82794699999999
 21
337.28749800000008
 31
0.0
  0
LINE
  5
DB9
  8
OUTLINE
  6
CONTINUOUS
 62
     3
 10
599.50000799999975
 20
9.0
 30
0.0
 11
599.50000799999975
 21
0.0
 31
0.0
  0
LINE
  5
DBA
  8
OUTLINE
  6
CONTINUOUS
 62
     3
 10
-599.50000799999975
 20
9.0
 30
0.0
 11
-599.50000799999975
 21
0.0
 31
0.0
  0
LINE
  5
DC0
  8
OUTLINE
  6
CONTINUOUS
 62
     3
 10
-79.999969999999976
 20
1650.000031
 30
0.0
 11
0.0
 21
1650.000031
 31
0.0
  0
LINE
  5
DC2
  8
OUTLINE
  6
CONTINUOUS
 62
     3
 10
-610.00000899999986
 20
1410.0000259999999
 30
0.0
 11
610.00000899999986
 21
1410.0000259999999
 31
0.0
  0
LINE
  5
DC3
  8
OUTLINE
  6
CONTINUOUS
 62
     3
 10
610.00000899999986
 20
1370.0000250000001
 30
0.0
 11
610.00000899999986
 21
1410.0000259999999
 31
0.0
  0
LINE
  5
DC4
  8
OUTLINE
  6
CONTINUOUS
 62
     3
 10
605.20000800000003
 20
54.00000099999999
 30
0.0
 11
605.20000800000003
 21
1370.0000250000001
 31
0.0
  0
LINE
  5
DC5
  8
OUTLINE
  6
CONTINUOUS
 62
     3
 10
604.50000799999998
 20
54.000107999999997
 30
0.0
 11
604.50000799999998
 21
9.0
 31
0.0
  0
LINE
  5
DC6
  8
OUTLINE
  6
CONTINUOUS
 62
     3
 10
-80.000000999999983
 20
1649.300031
 30
0.0
 11
-80.000000999999983
 21
1650.000031
 31
0.0
  0
LINE
  5
DC7
  8
OUTLINE
  6
CONTINUOUS
 62
     3
 10
-100.00000199999999
 20
1649.300031
 30
0.0
 11
-100.00000199999999
 21
1648.6000300000001
 31
0.0
  0
LINE
  5
DC8
  8
OUTLINE
  6
CONTINUOUS
 62
     3
 10
-120.00000199999999
 20
1648.6000300000001
 30
0.0
 11
-120.00000199999999
 21
1647.90003
 31
0.0
  0
LINE
  5
DC9
  8
OUTLINE
  6
CONTINUOUS
 62
     3
 10
-140.00000299999999
 20
1647.90003
 30
0.0
 11
-140.00000299999999
 21
1647.20003
 31
0.0
  0
LINE
  5
DCA
  8
OUTLINE
  6
CONTINUOUS
 62
     3
 10
-160.00000299999999
 20
1647.20003
 30
0.0
 11
-160.00000299999999
 21
1646.5000299999999
 31
0.0
  0
LINE
  5
DCB
  8
OUTLINE
  6
CONTINUOUS
 62
     3
 10
-180.00000299999991
 20
1646.5000299999999
 30
0.0
 11
-180.00000299999991
 21
1645.8000300000001
 31
0.0
  0
LINE
  5
DCC
  8
OUTLINE
  6
CONTINUOUS
 62
     3
 10
-200.00000399999999
 20
1645.8000300000001
 30
0.0
 11
-200.00000399999999
 21
1645.1000300000001
 31
0.0
  0
LINE
  5
DCD
  8
OUTLINE
  6
CONTINUOUS
 62
     3
 10
-220.00000399999999
 20
1645.1000300000001
 30
0.0
 11
-220.00000399999999
 21
1644.40003
 31
0.0
  0
LINE
  5
DCE
  8
OUTLINE
  6
CONTINUOUS
 62
     3
 10
-240.00000399999999
 20
1644.40003
 30
0.0
 11
-240.00000399999999
 21
1643.70003
 31
0.0
  0
LINE
  5
DCF
  8
OUTLINE
  6
CONTINUOUS
 62
     3
 10
-260.00000499999999
 20
1643.70003
 30
0.0
 11
-260.00000499999999
 21
1643.0000299999999
 31
0.0
  0
LINE
  5
DD0
  8
OUTLINE
  6
CONTINUOUS
 62
     3
 10
-280.00000499999999
 20
1643.0000299999999
 30
0.0
 11
-280.00000499999999
 21
1642.3000300000001
 31
0.0
  0
LINE
  5
DD1
  8
OUTLINE
  6
CONTINUOUS
 62
     3
 10
-300.00000599999998
 20
1642.3000300000001
 30
0.0
 11
-300.00000599999998
 21
1641.6000300000001
 31
0.0
  0
LINE
  5
DD2
  8
OUTLINE
  6
CONTINUOUS
 62
     3
 10
-320.00000599999998
 20
1641.6000300000001
 30
0.0
 11
-320.00000599999998
 21
1640.5000299999999
 31
0.0
  0
LINE
  5
DD3
  8
OUTLINE
  6
CONTINUOUS
 62
     3
 10
-393.62547799999999
 20
1410.0812450000001
 30
0.0
 11
-395.831524
 21
1410.0000259999999
 31
0.0
  0
LINE
  5
DD4
  8
OUTLINE
  6
CONTINUOUS
 62
     3
 10
-391.43131199999999
 20
1410.324474
 30
0.0
 11
-393.62547799999999
 21
1410.0812450000001
 31
0.0
  0
LINE
  5
DD5
  8
OUTLINE
  6
CONTINUOUS
 62
     3
 10
-389.26097099999998
 20
1410.728394
 30
0.0
 11
-391.43131199999999
 21
1410.324474
 31
0.0
  0
LINE
  5
DD6
  8
OUTLINE
  6
CONTINUOUS
 62
     3
 10
-387.12620199999998
 20
1411.2908210000001
 30
0.0
 11
-389.26097099999998
 21
1410.728394
 31
0.0
  0
LINE
  5
DD7
  8
OUTLINE
  6
CONTINUOUS
 62
     3
 10
-385.03857099999999
 20
1412.008709
 30
0.0
 11
-387.12620199999998
 21
1411.2908210000001
 31
0.0
  0
LINE
  5
DD8
  8
OUTLINE
  6
CONTINUOUS
 62
     3
 10
-383.00938500000001
 20
1412.8781690000001
 30
0.0
 11
-385.03857099999999
 21
1412.008709
 31
0.0
  0
LINE
  5
DD9
  8
OUTLINE
  6
CONTINUOUS
 62
     3
 10
-381.04963099999998
 20
1413.8944939999999
 30
0.0
 11
-383.00938500000001
 21
1412.8781690000001
 31
0.0
  0
LINE
  5
DDA
  8
OUTLINE
  6
CONTINUOUS
 62
     3
 10
-379.16992199999999
 20
1415.0521799999999
 30
0.0
 11
-381.04963099999998
 21
1413.8944939999999
 31
0.0
  0
LINE
  5
DDB
  8
OUTLINE
  6
CONTINUOUS
 62
     3
 10
-377.38043599999997
 20
1416.3449579999999
 30
0.0
 11
-379.16992199999999
 21
1415.0521799999999
 31
0.0
  0
LINE
  5
DDC
  8
OUTLINE
  6
CONTINUOUS
 62
     3
 10
-375.69086299999998
 20
1417.7658269999999
 30
0.0
 11
-377.38043599999997
 21
1416.3449579999999
 31
0.0
  0
LINE
  5
DDD
  8
OUTLINE
  6
CONTINUOUS
 62
     3
 10
-374.11035199999998
 20
1419.3070909999999
 30
0.0
 11
-375.69086299999998
 21
1417.7658269999999
 31
0.0
  0
LINE
  5
DDE
  8
OUTLINE
  6
CONTINUOUS
 62
     3
 10
-372.64746300000002
 20
1420.960405
 30
0.0
 11
-374.11035199999998
 21
1419.3070909999999
 31
0.0
  0
LINE
  5
DDF
  8
OUTLINE
  6
CONTINUOUS
 62
     3
 10
-371.310115
 20
1422.7168160000001
 30
0.0
 11
-372.64746300000002
 21
1420.960405
 31
0.0
  0
LINE
  5
DE0
  8
OUTLINE
  6
CONTINUOUS
 62
     3
 10
-370.10555099999999
 20
1424.56681
 30
0.0
 11
-371.310115
 21
1422.7168160000001
 31
0.0
  0
LINE
  5
DE1
  8
OUTLINE
  6
CONTINUOUS
 62
     3
 10
-369.04029400000002
 20
1426.500368
 30
0.0
 11
-370.10555099999999
 21
1424.56681
 31
0.0
  0
LINE
  5
DE2
  8
OUTLINE
  6
CONTINUOUS
 62
     3
 10
-368.120113
 20
1428.5070149999999
 30
0.0
 11
-369.04029400000002
 21
1426.500368
 31
0.0
  0
LINE
  5
DE3
  8
OUTLINE
  6
CONTINUOUS
 62
     3
 10
-367.349988
 20
1430.5758820000001
 30
0.0
 11
-368.120113
 21
1428.5070149999999
 31
0.0
  0
LINE
  5
DE4
  8
OUTLINE
  6
CONTINUOUS
 62
     3
 10
-366.73408999999998
 20
1432.695755
 30
0.0
 11
-367.349988
 21
1430.5758820000001
 31
0.0
  0
LINE
  5
DE5
  8
OUTLINE
  6
CONTINUOUS
 62
     3
 10
-366.27575000000002
 20
1434.855147
 30
0.0
 11
-366.73408999999998
 21
1432.695755
 31
0.0
  0
LINE
  5
DE6
  8
OUTLINE
  6
CONTINUOUS
 62
     3
 10
-365.97744399999999
 20
1437.042361
 30
0.0
 11
-366.27575000000002
 21
1434.855147
 31
0.0
  0
LINE
  5
DE7
  8
OUTLINE
  6
CONTINUOUS
 62
     3
 10
-365.85984400000001
 20
1438.6914449999999
 30
0.0
 11
-365.97744399999999
 21
1437.042361
 31
0.0
  0
LINE
  5
DE8
  8
OUTLINE
  6
CONTINUOUS
 62
     3
 10
-365.85984400000001
 20
1438.6914449999999
 30
0.0
 11
-360.99952500000001
 21
1550.000029
 31
0.0
  0
LINE
  5
DE9
  8
OUTLINE
  6
CONTINUOUS
 62
     3
 10
-604.50000799999998
 20
9.0
 30
0.0
 11
-604.50000799999998
 21
54.0
 31
0.0
  0
LINE
  5
DEA
  8
OUTLINE
  6
CONTINUOUS
 62
     3
 10
-605.20000800000003
 20
54.0
 30
0.0
 11
-605.20000800000003
 21
1370.0000250000001
 31
0.0
  0
LINE
  5
DEB
  8
OUTLINE
  6
CONTINUOUS
 62
     3
 10
-610.00000899999986
 20
1410.0000259999999
 30
0.0
 11
-610.00000899999986
 21
1370.0000250000001
 31
0.0
  0
LINE
  5
DF4
  8
OUTLINE
  6
CONTINUOUS
 62
     3
 10
-599.50000799999975
 20
9.0
 30
0.0
 11
-604.50000799999998
 21
9.0
 31
0.0
  0
LINE
  5
DF5
  8
OUTLINE
  6
CONTINUOUS
 62
     3
 10
604.50000799999998
 20
9.0
 30
0.0
 11
599.50000799999975
 21
9.0
 31
0.0
  0
LINE
  5
DF6
  8
OUTLINE
  6
CONTINUOUS
 62
     3
 10
-599.50000799999975
 20
0.0
 30
0.0
 11
599.50000799999975
 21
0.0
 31
0.0
  0
LINE
  5
DF7
  8
OUTLINE
  6
CONTINUOUS
 62
     3
 10
-610.00000899999986
 20
1370.0000250000001
 30
0.0
 11
-605.20000800000003
 21
1370.0000250000001
 31
0.0
  0
LINE
  5
DF8
  8
OUTLINE
  6
CONTINUOUS
 62
     3
 10
605.20000800000003
 20
1370.0000250000001
 30
0.0
 11
610.00000899999986
 21
1370.0000250000001
 31
0.0
  0
LINE
  5
DF9
  8
OUTLINE
  6
CONTINUOUS
 62
     3
 10
-326.028410000002
 20
1640.500029999949
 30
0.0
 11
-320.00000599999998
 21
1640.5000299999999
 31
0.0
  0
LINE
  5
DFA
  8
OUTLINE
  6
CONTINUOUS
 62
     3
 10
-320.00000599999998
 20
1641.6000300000001
 30
0.0
 11
-300.00000599999998
 21
1641.6000300000001
 31
0.0
  0
LINE
  5
DFB
  8
OUTLINE
  6
CONTINUOUS
 62
     3
 10
-300.00000599999998
 20
1642.3000300000001
 30
0.0
 11
-280.00000499999999
 21
1642.3000300000001
 31
0.0
  0
LINE
  5
DFC
  8
OUTLINE
  6
CONTINUOUS
 62
     3
 10
-280.00000499999999
 20
1643.0000299999999
 30
0.0
 11
-260.00000499999999
 21
1643.0000299999999
 31
0.0
  0
LINE
  5
DFD
  8
OUTLINE
  6
CONTINUOUS
 62
     3
 10
-260.00000499999999
 20
1643.70003
 30
0.0
 11
-240.00000399999999
 21
1643.70003
 31
0.0
  0
LINE
  5
DFE
  8
OUTLINE
  6
CONTINUOUS
 62
     3
 10
-240.00000399999999
 20
1644.40003
 30
0.0
 11
-220.00000399999999
 21
1644.40003
 31
0.0
  0
LINE
  5
DFF
  8
OUTLINE
  6
CONTINUOUS
 62
     3
 10
-220.00000399999999
 20
1645.1000300000001
 30
0.0
 11
-200.00000399999999
 21
1645.1000300000001
 31
0.0
  0
LINE
  5
E00
  8
OUTLINE
  6
CONTINUOUS
 62
     3
 10
-200.00000399999999
 20
1645.8000300000001
 30
0.0
 11
-180.00000299999991
 21
1645.8000300000001
 31
0.0
  0
LINE
  5
E01
  8
OUTLINE
  6
CONTINUOUS
 62
     3
 10
-180.00000299999991
 20
1646.5000299999999
 30
0.0
 11
-160.00000299999999
 21
1646.5000299999999
 31
0.0
  0
LINE
  5
E02
  8
OUTLINE
  6
CONTINUOUS
 62
     3
 10
-160.00000299999999
 20
1647.20003
 30
0.0
 11
-140.00000299999999
 21
1647.20003
 31
0.0
  0
LINE
  5
E03
  8
OUTLINE
  6
CONTINUOUS
 62
     3
 10
-140.00000299999999
 20
1647.90003
 30
0.0
 11
-120.00000199999999
 21
1647.90003
 31
0.0
  0
LINE
  5
E04
  8
OUTLINE
  6
CONTINUOUS
 62
     3
 10
-120.00000199999999
 20
1648.6000300000001
 30
0.0
 11
-100.00000199999999
 21
1648.6000300000001
 31
0.0
  0
LINE
  5
E05
  8
OUTLINE
  6
CONTINUOUS
 62
     3
 10
-100.00000199999999
 20
1649.300031
 30
0.0
 11
-80.000000999999983
 21
1649.300031
 31
0.0
  0
LINE
  5
E0B
  8
OUTLINE
  6
CONTINUOUS
 62
     3
 10
79.999969999999976
 20
1650.000031
 30
0.0
 11
0.0
 21
1650.000031
 31
0.0
  0
LINE
  5
E0D
  8
OUTLINE
  6
CONTINUOUS
 62
     3
 10
80.000000999999983
 20
1649.300031
 30
0.0
 11
80.000000999999983
 21
1650.000031
 31
0.0
  0
LINE
  5
E0E
  8
OUTLINE
  6
CONTINUOUS
 62
     3
 10
100.00000199999999
 20
1649.300031
 30
0.0
 11
100.00000199999999
 21
1648.6000300000001
 31
0.0
  0
LINE
  5
E0F
  8
OUTLINE
  6
CONTINUOUS
 62
     3
 10
120.00000199999999
 20
1648.6000300000001
 30
0.0
 11
120.00000199999999
 21
1647.90003
 31
0.0
  0
LINE
  5
E10
  8
OUTLINE
  6
CONTINUOUS
 62
     3
 10
140.00000299999999
 20
1647.90003
 30
0.0
 11
140.00000299999999
 21
1647.20003
 31
0.0
  0
LINE
  5
E11
  8
OUTLINE
  6
CONTINUOUS
 62
     3
 10
160.00000299999999
 20
1647.20003
 30
0.0
 11
160.00000299999999
 21
1646.5000299999999
 31
0.0
  0
LINE
  5
E12
  8
OUTLINE
  6
CONTINUOUS
 62
     3
 10
180.00000299999991
 20
1646.5000299999999
 30
0.0
 11
180.00000299999991
 21
1645.8000300000001
 31
0.0
  0
LINE
  5
E13
  8
OUTLINE
  6
CONTINUOUS
 62
     3
 10
200.00000399999999
 20
1645.8000300000001
 30
0.0
 11
200.00000399999999
 21
1645.1000300000001
 31
0.0
  0
LINE
  5
E14
  8
OUTLINE
  6
CONTINUOUS
 62
     3
 10
220.00000399999999
 20
1645.1000300000001
 30
0.0
 11
220.00000399999999
 21
1644.40003
 31
0.0
  0
LINE
  5
E15
  8
OUTLINE
  6
CONTINUOUS
 62
     3
 10
240.00000399999999
 20
1644.40003
 30
0.0
 11
240.00000399999999
 21
1643.70003
 31
0.0
  0
LINE
  5
E16
  8
OUTLINE
  6
CONTINUOUS
 62
     3
 10
260.00000499999999
 20
1643.70003
 30
0.0
 11
260.00000499999999
 21
1643.0000299999999
 31
0.0
  0
LINE
  5
E17
  8
OUTLINE
  6
CONTINUOUS
 62
     3
 10
280.00000499999999
 20
1643.0000299999999
 30
0.0
 11
280.00000499999999
 21
1642.3000300000001
 31
0.0
  0
LINE
  5
E18
  8
OUTLINE
  6
CONTINUOUS
 62
     3
 10
300.00000599999998
 20
1642.3000300000001
 30
0.0
 11
300.00000599999998
 21
1641.6000300000001
 31
0.0
  0
LINE
  5
E19
  8
OUTLINE
  6
CONTINUOUS
 62
     3
 10
320.00000599999998
 20
1641.6000300000001
 30
0.0
 11
320.00000599999998
 21
1640.5000299999999
 31
0.0
  0
LINE
  5
E1A
  8
OUTLINE
  6
CONTINUOUS
 62
     3
 10
393.62547799999999
 20
1410.0812450000001
 30
0.0
 11
395.831524
 21
1410.0000259999999
 31
0.0
  0
LINE
  5
E1B
  8
OUTLINE
  6
CONTINUOUS
 62
     3
 10
391.43131199999999
 20
1410.324474
 30
0.0
 11
393.62547799999999
 21
1410.0812450000001
 31
0.0
  0
LINE
  5
E1C
  8
OUTLINE
  6
CONTINUOUS
 62
     3
 10
389.26097099999998
 20
1410.728394
 30
0.0
 11
391.43131199999999
 21
1410.324474
 31
0.0
  0
LINE
  5
E1D
  8
OUTLINE
  6
CONTINUOUS
 62
     3
 10
387.12620199999998
 20
1411.2908210000001
 30
0.0
 11
389.26097099999998
 21
1410.728394
 31
0.0
  0
LINE
  5
E1E
  8
OUTLINE
  6
CONTINUOUS
 62
     3
 10
385.03857099999999
 20
1412.008709
 30
0.0
 11
387.12620199999998
 21
1411.2908210000001
 31
0.0
  0
LINE
  5
E1F
  8
OUTLINE
  6
CONTINUOUS
 62
     3
 10
383.00938500000001
 20
1412.8781690000001
 30
0.0
 11
385.03857099999999
 21
1412.008709
 31
0.0
  0
LINE
  5
E20
  8
OUTLINE
  6
CONTINUOUS
 62
     3
 10
381.04963099999998
 20
1413.8944939999999
 30
0.0
 11
383.00938500000001
 21
1412.8781690000001
 31
0.0
  0
LINE
  5
E21
  8
OUTLINE
  6
CONTINUOUS
 62
     3
 10
379.16992199999999
 20
1415.0521799999999
 30
0.0
 11
381.04963099999998
 21
1413.8944939999999
 31
0.0
  0
LINE
  5
E22
  8
OUTLINE
  6
CONTINUOUS
 62
     3
 10
377.38043599999997
 20
1416.3449579999999
 30
0.0
 11
379.16992199999999
 21
1415.0521799999999
 31
0.0
  0
LINE
  5
E23
  8
OUTLINE
  6
CONTINUOUS
 62
     3
 10
375.69086299999998
 20
1417.7658269999999
 30
0.0
 11
377.38043599999997
 21
1416.3449579999999
 31
0.0
  0
LINE
  5
E24
  8
OUTLINE
  6
CONTINUOUS
 62
     3
 10
374.11035199999998
 20
1419.3070909999999
 30
0.0
 11
375.69086299999998
 21
1417.7658269999999
 31
0.0
  0
LINE
  5
E25
  8
OUTLINE
  6
CONTINUOUS
 62
     3
 10
372.64746300000002
 20
1420.960405
 30
0.0
 11
374.11035199999998
 21
1419.3070909999999
 31
0.0
  0
LINE
  5
E26
  8
OUTLINE
  6
CONTINUOUS
 62
     3
 10
371.310115
 20
1422.7168160000001
 30
0.0
 11
372.64746300000002
 21
1420.960405
 31
0.0
  0
LINE
  5
E27
  8
OUTLINE
  6
CONTINUOUS
 62
     3
 10
370.10555099999999
 20
1424.56681
 30
0.0
 11
371.310115
 21
1422.7168160000001
 31
0.0
  0
LINE
  5
E28
  8
OUTLINE
  6
CONTINUOUS
 62
     3
 10
369.04029400000002
 20
1426.500368
 30
0.0
 11
370.10555099999999
 21
1424.56681
 31
0.0
  0
LINE
  5
E29
  8
OUTLINE
  6
CONTINUOUS
 62
     3
 10
368.120113
 20
1428.5070149999999
 30
0.0
 11
369.04029400000002
 21
1426.500368
 31
0.0
  0
LINE
  5
E2A
  8
OUTLINE
  6
CONTINUOUS
 62
     3
 10
367.349988
 20
1430.5758820000001
 30
0.0
 11
368.120113
 21
1428.5070149999999
 31
0.0
  0
LINE
  5
E2B
  8
OUTLINE
  6
CONTINUOUS
 62
     3
 10
366.73408999999998
 20
1432.695755
 30
0.0
 11
367.349988
 21
1430.5758820000001
 31
0.0
  0
LINE
  5
E2C
  8
OUTLINE
  6
CONTINUOUS
 62
     3
 10
366.27575000000002
 20
1434.855147
 30
0.0
 11
366.73408999999998
 21
1432.695755
 31
0.0
  0
LINE
  5
E2D
  8
OUTLINE
  6
CONTINUOUS
 62
     3
 10
365.97744399999999
 20
1437.042361
 30
0.0
 11
366.27575000000002
 21
1434.855147
 31
0.0
  0
LINE
  5
E2E
  8
OUTLINE
  6
CONTINUOUS
 62
     3
 10
365.85984400000001
 20
1438.6914449999999
 30
0.0
 11
365.97744399999999
 21
1437.042361
 31
0.0
  0
LINE
  5
E2F
  8
OUTLINE
  6
CONTINUOUS
 62
     3
 10
365.85984400000001
 20
1438.6914449999999
 30
0.0
 11
360.99952500000001
 21
1550.000029
 31
0.0
  0
LINE
  5
E38
  8
OUTLINE
  6
CONTINUOUS
 62
     3
 10
326.02841000000001
 20
1640.5000299999999
 30
0.0
 11
320.00000599999998
 21
1640.5000299999999
 31
0.0
  0
LINE
  5
E39
  8
OUTLINE
  6
CONTINUOUS
 62
     3
 10
320.00000599999998
 20
1641.6000300000001
 30
0.0
 11
300.00000599999998
 21
1641.6000300000001
 31
0.0
  0
LINE
  5
E3A
  8
OUTLINE
  6
CONTINUOUS
 62
     3
 10
300.00000599999998
 20
1642.3000300000001
 30
0.0
 11
280.00000499999999
 21
1642.3000300000001
 31
0.0
  0
LINE
  5
E3B
  8
OUTLINE
  6
CONTINUOUS
 62
     3
 10
280.00000499999999
 20
1643.0000299999999
 30
0.0
 11
260.00000499999999
 21
1643.0000299999999
 31
0.0
  0
LINE
  5
E3C
  8
OUTLINE
  6
CONTINUOUS
 62
     3
 10
260.00000499999999
 20
1643.70003
 30
0.0
 11
240.00000399999999
 21
1643.70003
 31
0.0
  0
LINE
  5
E3D
  8
OUTLINE
  6
CONTINUOUS
 62
     3
 10
240.00000399999999
 20
1644.40003
 30
0.0
 11
220.00000399999999
 21
1644.40003
 31
0.0
  0
LINE
  5
E3E
  8
OUTLINE
  6
CONTINUOUS
 62
     3
 10
220.00000399999999
 20
1645.1000300000001
 30
0.0
 11
200.00000399999999
 21
1645.1000300000001
 31
0.0
  0
LINE
  5
E3F
  8
OUTLINE
  6
CONTINUOUS
 62
     3
 10
200.00000399999999
 20
1645.8000300000001
 30
0.0
 11
180.00000299999991
 21
1645.8000300000001
 31
0.0
  0
LINE
  5
E40
  8
OUTLINE
  6
CONTINUOUS
 62
     3
 10
180.00000299999991
 20
1646.5000299999999
 30
0.0
 11
160.00000299999999
 21
1646.5000299999999
 31
0.0
  0
LINE
  5
E41
  8
OUTLINE
  6
CONTINUOUS
 62
     3
 10
160.00000299999999
 20
1647.20003
 30
0.0
 11
140.00000299999999
 21
1647.20003
 31
0.0
  0
LINE
  5
E42
  8
OUTLINE
  6
CONTINUOUS
 62
     3
 10
140.00000299999999
 20
1647.90003
 30
0.0
 11
120.00000199999999
 21
1647.90003
 31
0.0
  0
LINE
  5
E43
  8
OUTLINE
  6
CONTINUOUS
 62
     3
 10
120.00000199999999
 20
1648.6000300000001
 30
0.0
 11
100.00000199999999
 21
1648.6000300000001
 31
0.0
  0
LINE
  5
E44
  8
OUTLINE
  6
CONTINUOUS
 62
     3
 10
100.00000199999999
 20
1649.300031
 30
0.0
 11
80.000000999999983
 21
1649.300031
 31
0.0
  0
LINE
  5
E45
  8
NOTE
  6
CONTINUOUS
 62
     4
 10
-530.0
 20
0.0
 30
0.0
 11
-549.10415699999987
 21
-27.315607
 31
0.0
  0
LINE
  5
E46
  8
NOTE
  6
CONTINUOUS
 62
     4
 10
-530.0
 20
0.0
 30
0.0
 11
-560.2024889999999
 21
-14.103930999999999
 31
0.0
  0
LINE
  5
E47
  8
NOTE
  6
CONTINUOUS
 62
     4
 10
-707.36897699999975
 20
-149.046695
 30
0.0
 11
-530.0
 21
0.0
 31
0.0
  0
TEXT
  5
E48
  8
NOTE
  6
CONTINUOUS
 62
     4
 10
-1213.2876819999999
 20
-135.648584
 30
0.0
 40
55.0
  1
AH  2X2-14X20長穴
 50
0.000003
 41
0.6309520000000001
  7
STANDARD1
  0
LINE
  5
E49
  8
NOTE
  6
CONTINUOUS
 62
     4
 10
-1240.025457
 20
-149.046695
 30
0.0
 11
-707.36897699999975
 21
-149.046695
 31
0.0
  0
LINE
  5
E4A
  8
NOTE
  6
CONTINUOUS
 62
     4
 10
-592.00000799999998
 20
1439.000027
 30
0.0
 11
-592.00000799999998
 21
1381.0000259999999
 31
0.0
  0
LINE
  5
E4B
  8
NOTE
  6
CONTINUOUS
 62
     4
 10
-563.00000799999998
 20
1410.0000259999999
 30
0.0
 11
-621.00000899999998
 21
1410.0000259999999
 31
0.0
  0
LINE
  5
E4C
  8
NOTE
  6
CONTINUOUS
 62
     4
 10
592.00000799999998
 20
1439.000027
 30
0.0
 11
592.00000799999998
 21
1381.0000259999999
 31
0.0
  0
LINE
  5
E4D
  8
NOTE
  6
CONTINUOUS
 62
     4
 10
621.00000899999998
 20
1410.0000259999999
 30
0.0
 11
563.00000799999998
 21
1410.0000259999999
 31
0.0
  0
LINE
  5
E4E
  8
NOTE
  6
CONTINUOUS
 62
     4
 10
-592.00000799999998
 20
1410.0000259999999
 30
0.0
 11
-621.51886699999977
 21
1425.483829
 31
0.0
  0
LINE
  5
E4F
  8
NOTE
  6
CONTINUOUS
 62
     4
 10
-592.00000799999998
 20
1410.0000259999999
 30
0.0
 11
-609.82218799999976
 21
1438.1688220000001
 31
0.0
  0
LINE
  5
E50
  8
NOTE
  6
CONTINUOUS
 62
     4
 10
-721.72098099999982
 20
1529.6141660000001
 30
0.0
 11
-592.00000799999998
 21
1410.0000259999999
 31
0.0
  0
TEXT
  5
E51
  8
NOTE
  6
CONTINUOUS
 62
     4
 10
-1332.4717579999999
 20
1464.386166
 30
0.0
 40
55.0
  1
＜防雪ﾌ-ﾄﾞ（別売品）取付用穴＞
 50
0.000003
 41
0.638665
  7
STANDARD1
  0
TEXT
  5
E52
  8
NOTE
  6
CONTINUOUS
 62
     4
 10
-1300.130766
 20
1540.118561
 30
0.0
 40
55.0
  1
(樹脂部の開口加工必要）
 50
0.000003
 41
0.693662
  7
STANDARD1
  0
TEXT
  5
E53
  8
NOTE
  6
CONTINUOUS
 62
     4
 10
-1300.130766
 20
1610.1185620000001
 30
0.0
 40
55.0
  1
2X5-φ4.6穴
 50
0.000003
 41
0.603058
  7
STANDARD1
  0
LINE
  5
E54
  8
NOTE
  6
CONTINUOUS
 62
     4
 10
-1353.0174850000001
 20
1529.6141660000001
 30
0.0
 11
-721.72098099999982
 21
1529.6141660000001
 31
0.0
  0
LINE
  5
E55
  8
SIZE
  6
CONTINUOUS
 62
    30
 10
610.00000899999986
 20
1430.0000259999999
 30
0.0
 11
610.00000899999986
 21
1866.6858119999999
 31
0.0
  0
LINE
  5
E56
  8
SIZE
  6
CONTINUOUS
 62
    30
 10
592.00000799999998
 20
1459.000027
 30
0.0
 11
592.00000799999998
 21
1866.6858119999999
 31
0.0
  0
LINE
  5
E57
  8
SIZE
  6
CONTINUOUS
 62
    30
 10
582.00000799999975
 20
1836.6858119999999
 30
0.0
 11
572.00000799999998
 21
1836.6858119999999
 31
0.0
  0
LINE
  5
E58
  8
SIZE
  6
CONTINUOUS
 62
    30
 10
620.00000899999975
 20
1836.6858119999999
 30
0.0
 11
730.714294
 21
1836.6858119999999
 31
0.0
  0
LINE
  5
E59
  8
SIZE
  6
CONTINUOUS
 62
    30
 10
592.00000799999998
 20
1836.6858119999999
 30
0.0
 11
610.00000899999986
 21
1836.6858119999999
 31
0.0
  0
CIRCLE
  5
E5A
  8
SIZE
  6
CONTINUOUS
 62
    30
 10
592.00000799999998
 20
1836.6858119999999
 30
0.0
 40
5.0
  0
LINE
  5
E5B
  8
SIZE
  6
CONTINUOUS
 62
    30
 10
587.00000799999975
 20
1836.6858119999999
 30
0.0
 11
582.00000799999975
 21
1836.6858119999999
 31
0.0
  0
CIRCLE
  5
E5C
  8
SIZE
  6
CONTINUOUS
 62
    30
 10
610.00000899999986
 20
1836.6858119999999
 30
0.0
 40
5.0
  0
LINE
  5
E5D
  8
SIZE
  6
CONTINUOUS
 62
    30
 10
615.00000899999975
 20
1836.6858119999999
 30
0.0
 11
620.00000899999975
 21
1836.6858119999999
 31
0.0
  0
TEXT
  5
E5E
  8
SIZE
  6
CONTINUOUS
 62
    30
 10
645.00000814285693
 20
1851.6858119999999
 30
0.0
 40
55.0
  1
18
 41
0.9
 72
     1
 11
680.35715099999982
 21
1851.6858119999999
 31
0.0
  0
POINT
  5
E5F
  8
DEFPOINTS
  6
CONTINUOUS
 62
     7
 10
610.00000899999986
 20
1410.0000259999999
 30
0.0
  0
POINT
  5
E60
  8
DEFPOINTS
  6
CONTINUOUS
 62
     7
 10
592.00000799999998
 20
1439.000027
 30
0.0
  0
POINT
  5
E61
  8
DEFPOINTS
  6
CONTINUOUS
 62
     7
 10
592.00000799999998
 20
1836.6858119999999
 30
0.0
  0
LINE
  5
E62
  8
SIZE
  6
CONTINUOUS
 62
    30
 10
592.00000799999998
 20
1459.000027
 30
0.0
 11
592.00000799999998
 21
1866.6858119999999
 31
0.0
  0
LINE
  5
E63
  8
SIZE
  6
CONTINUOUS
 62
    30
 10
-592.00000799999998
 20
1459.000027
 30
0.0
 11
-592.00000799999998
 21
1866.6858119999999
 31
0.0
  0
LINE
  5
E64
  8
SIZE
  6
CONTINUOUS
 62
    30
 10
582.00000799999975
 20
1836.6858119999999
 30
0.0
 11
-582.00000799999975
 21
1836.6858119999999
 31
0.0
  0
CIRCLE
  5
E65
  8
SIZE
  6
CONTINUOUS
 62
    30
 10
592.00000799999998
 20
1836.6858119999999
 30
0.0
 40
5.0
  0
LINE
  5
E66
  8
SIZE
  6
CONTINUOUS
 62
    30
 10
587.00000799999975
 20
1836.6858119999999
 30
0.0
 11
582.00000799999975
 21
1836.6858119999999
 31
0.0
  0
CIRCLE
  5
E67
  8
SIZE
  6
CONTINUOUS
 62
    30
 10
-592.00000799999998
 20
1836.6858119999999
 30
0.0
 40
5.0
  0
LINE
  5
E68
  8
SIZE
  6
CONTINUOUS
 62
    30
 10
-587.00000799999975
 20
1836.6858119999999
 30
0.0
 11
-582.00000799999975
 21
1836.6858119999999
 31
0.0
  0
TEXT
  5
E69
  8
SIZE
  6
CONTINUOUS
 62
    30
 10
-109.6071428571428
 20
1851.0905740000001
 30
0.0
 40
55.0
  1
(1184)
 41
0.9
 72
     1
 11
0.0
 21
1851.0905740000001
 31
0.0
  0
POINT
  5
E6A
  8
DEFPOINTS
  6
CONTINUOUS
 62
     7
 10
592.00000799999998
 20
1439.000027
 30
0.0
  0
POINT
  5
E6B
  8
DEFPOINTS
  6
CONTINUOUS
 62
     7
 10
-592.00000799999998
 20
1439.000027
 30
0.0
  0
POINT
  5
E6C
  8
DEFPOINTS
  6
CONTINUOUS
 62
     7
 10
-592.00000799999998
 20
1836.6858119999999
 30
0.0
  0
LINE
  5
E6D
  8
SIZE
  6
CONTINUOUS
 62
    30
 10
-592.00000799999998
 20
1459.000027
 30
0.0
 11
-592.00000799999998
 21
1866.6858119999999
 31
0.0
  0
LINE
  5
E6E
  8
SIZE
  6
CONTINUOUS
 62
    30
 10
-610.00000899999986
 20
1430.0000259999999
 30
0.0
 11
-610.00000899999986
 21
1866.6858119999999
 31
0.0
  0
LINE
  5
E6F
  8
SIZE
  6
CONTINUOUS
 62
    30
 10
-582.00000799999975
 20
1836.6858119999999
 30
0.0
 11
-572.00000799999998
 21
1836.6858119999999
 31
0.0
  0
LINE
  5
E70
  8
SIZE
  6
CONTINUOUS
 62
    30
 10
-620.00000899999975
 20
1836.6858119999999
 30
0.0
 11
-630.00000899999998
 21
1836.6858119999999
 31
0.0
  0
LINE
  5
E71
  8
SIZE
  6
CONTINUOUS
 62
    30
 10
-737.39874299999985
 20
1836.6858119999999
 30
0.0
 11
-610.00000899999986
 21
1836.6858119999999
 31
0.0
  0
TEXT
  5
E72
  8
SIZE
  6
CONTINUOUS
 62
    30
 10
-722.3987438571429
 20
1851.6858119999999
 30
0.0
 40
55.0
  1
18
 41
0.9
 72
     1
 11
-687.04160100000001
 21
1851.6858119999999
 31
0.0
  0
LINE
  5
E73
  8
SIZE
  6
CONTINUOUS
 62
    30
 10
-592.00000799999998
 20
1836.6858119999999
 30
0.0
 11
-610.00000899999986
 21
1836.6858119999999
 31
0.0
  0
LINE
  5
E74
  8
SIZE
  6
CONTINUOUS
 62
    30
 10
-592.00000799999998
 20
1836.6858119999999
 30
0.0
 11
-610.00000899999986
 21
1836.6858119999999
 31
0.0
  0
CIRCLE
  5
E75
  8
SIZE
  6
CONTINUOUS
 62
    30
 10
-592.00000799999998
 20
1836.6858119999999
 30
0.0
 40
5.0
  0
LINE
  5
E76
  8
SIZE
  6
CONTINUOUS
 62
    30
 10
-587.00000799999975
 20
1836.6858119999999
 30
0.0
 11
-582.00000799999975
 21
1836.6858119999999
 31
0.0
  0
CIRCLE
  5
E77
  8
SIZE
  6
CONTINUOUS
 62
    30
 10
-610.00000899999986
 20
1836.6858119999999
 30
0.0
 40
5.0
  0
LINE
  5
E78
  8
SIZE
  6
CONTINUOUS
 62
    30
 10
-615.00000899999975
 20
1836.6858119999999
 30
0.0
 11
-620.00000899999975
 21
1836.6858119999999
 31
0.0
  0
POINT
  5
E79
  8
DEFPOINTS
  6
CONTINUOUS
 62
     7
 10
-592.00000799999998
 20
1439.000027
 30
0.0
  0
POINT
  5
E7A
  8
DEFPOINTS
  6
CONTINUOUS
 62
     7
 10
-610.00000899999986
 20
1410.0000259999999
 30
0.0
  0
POINT
  5
E7B
  8
DEFPOINTS
  6
CONTINUOUS
 62
     7
 10
-610.00000899999986
 20
1836.6858119999999
 30
0.0
  0
LINE
  5
E7C
  8
SIZE
  6
CONTINUOUS
 62
    30
 10
610.00000899999986
 20
1430.000004
 30
0.0
 11
610.00000899999986
 21
2001.2626540000001
 31
0.0
  0
LINE
  5
E7D
  8
SIZE
  6
CONTINUOUS
 62
    30
 10
-610.00000899999986
 20
1430.0000259999999
 30
0.0
 11
-610.00000899999986
 21
2001.2626540000001
 31
0.0
  0
LINE
  5
E7E
  8
SIZE
  6
CONTINUOUS
 62
    30
 10
600.00000899999998
 20
1971.2626540000001
 30
0.0
 11
-600.00000899999998
 21
1971.2626540000001
 31
0.0
  0
CIRCLE
  5
E7F
  8
SIZE
  6
CONTINUOUS
 62
    30
 10
610.00000899999986
 20
1971.2626540000001
 30
0.0
 40
5.0
  0
LINE
  5
E80
  8
SIZE
  6
CONTINUOUS
 62
    30
 10
605.00000899999998
 20
1971.2626540000001
 30
0.0
 11
600.00000899999998
 21
1971.2626540000001
 31
0.0
  0
CIRCLE
  5
E81
  8
SIZE
  6
CONTINUOUS
 62
    30
 10
-610.00000899999986
 20
1971.2626540000001
 30
0.0
 40
5.0
  0
LINE
  5
E82
  8
SIZE
  6
CONTINUOUS
 62
    30
 10
-605.00000899999998
 20
1971.2626540000001
 30
0.0
 11
-600.00000899999998
 21
1971.2626540000001
 31
0.0
  0
TEXT
  5
E83
  8
SIZE
  6
CONTINUOUS
 62
    30
 10
-82.500000000000014
 20
1986.2626540000001
 30
0.0
 40
55.0
  1
1220
 41
0.9
 72
     1
 11
0.0
 21
1986.2626540000001
 31
0.0
  0
POINT
  5
E84
  8
DEFPOINTS
  6
CONTINUOUS
 62
     7
 10
610.00000899999986
 20
1410.000004
 30
0.0
  0
POINT
  5
E85
  8
DEFPOINTS
  6
CONTINUOUS
 62
     7
 10
-610.00000899999986
 20
1410.0000259999999
 30
0.0
  0
POINT
  5
E86
  8
DEFPOINTS
  6
CONTINUOUS
 62
     7
 10
-610.00000899999986
 20
1971.2626540000001
 30
0.0
  0
LINE
  5
E87
  8
SIZE
  6
CONTINUOUS
 62
    30
 10
-610.00000899999986
 20
112.00000199999999
 30
0.0
 11
-610.00000899999986
 21
-509.83732199999997
 31
0.0
  0
LINE
  5
E88
  8
SIZE
  6
CONTINUOUS
 62
    30
 10
-530.0
 20
-44.072637
 30
0.0
 11
-530.0
 21
-509.83732199999997
 31
0.0
  0
LINE
  5
E89
  8
SIZE
  6
CONTINUOUS
 62
    30
 10
-540.0
 20
-479.83732199999997
 30
0.0
 11
-600.00000899999998
 21
-479.83732199999997
 31
0.0
  0
LINE
  5
E8A
  8
SIZE
  6
CONTINUOUS
 62
    30
 10
-610.00000899999986
 20
-479.83732199999997
 30
0.0
 11
-735.79883399999983
 21
-479.83732199999997
 31
0.0
  0
CIRCLE
  5
E8B
  8
SIZE
  6
CONTINUOUS
 62
    30
 10
-530.0
 20
-479.83732199999997
 30
0.0
 40
5.0
  0
LINE
  5
E8C
  8
SIZE
  6
CONTINUOUS
 62
    30
 10
-535.0
 20
-479.83732199999997
 30
0.0
 11
-540.0
 21
-479.83732199999997
 31
0.0
  0
CIRCLE
  5
E8D
  8
SIZE
  6
CONTINUOUS
 62
    30
 10
-610.00000899999986
 20
-479.83732199999997
 30
0.0
 40
5.0
  0
LINE
  5
E8E
  8
SIZE
  6
CONTINUOUS
 62
    30
 10
-605.00000899999998
 20
-479.83732199999997
 30
0.0
 11
-600.00000899999998
 21
-479.83732199999997
 31
0.0
  0
TEXT
  5
E8F
  8
SIZE
  6
CONTINUOUS
 62
    30
 10
-720.79883357142853
 20
-464.8373219999998
 30
0.0
 40
55.0
  1
80
 41
0.9
 72
     1
 11
-680.72740499999998
 21
-464.8373219999998
 31
0.0
  0
POINT
  5
E90
  8
DEFPOINTS
  6
CONTINUOUS
 62
     7
 10
-610.00000899999986
 20
132.00000199999999
 30
0.0
  0
POINT
  5
E91
  8
DEFPOINTS
  6
CONTINUOUS
 62
     7
 10
-530.0
 20
-24.072637
 30
0.0
  0
POINT
  5
E92
  8
DEFPOINTS
  6
CONTINUOUS
 62
     7
 10
-530.0
 20
-479.83732199999997
 30
0.0
  0
LINE
  5
E93
  8
SIZE
  6
CONTINUOUS
 62
    30
 10
-530.0
 20
-44.072637
 30
0.0
 11
-530.0
 21
-509.83732199999997
 31
0.0
  0
LINE
  5
E94
  8
SIZE
  6
CONTINUOUS
 62
    30
 10
530.0
 20
-44.072637
 30
0.0
 11
530.0
 21
-509.83732199999997
 31
0.0
  0
LINE
  5
E95
  8
SIZE
  6
CONTINUOUS
 62
    30
 10
-520.0
 20
-479.83732199999997
 30
0.0
 11
520.0
 21
-479.83732199999997
 31
0.0
  0
CIRCLE
  5
E96
  8
SIZE
  6
CONTINUOUS
 62
    30
 10
-530.0
 20
-479.83732199999997
 30
0.0
 40
5.0
  0
LINE
  5
E97
  8
SIZE
  6
CONTINUOUS
 62
    30
 10
-525.0
 20
-479.83732199999997
 30
0.0
 11
-520.0
 21
-479.83732199999997
 31
0.0
  0
CIRCLE
  5
E98
  8
SIZE
  6
CONTINUOUS
 62
    30
 10
530.0
 20
-479.83732199999997
 30
0.0
 40
5.0
  0
LINE
  5
E99
  8
SIZE
  6
CONTINUOUS
 62
    30
 10
525.0
 20
-479.83732199999997
 30
0.0
 11
520.0
 21
-479.83732199999997
 31
0.0
  0
TEXT
  5
E9A
  8
SIZE
  6
CONTINUOUS
 62
    30
 10
-262.8214285714285
 20
-465.43255999999991
 30
0.0
 40
55.0
  1
1060(据付ピッチ)
 41
0.9
 72
     1
 11
0.0
 21
-465.43255999999991
 31
0.0
  0
POINT
  5
E9B
  8
DEFPOINTS
  6
CONTINUOUS
 62
     7
 10
-530.0
 20
-24.072637
 30
0.0
  0
POINT
  5
E9C
  8
DEFPOINTS
  6
CONTINUOUS
 62
     7
 10
530.0
 20
-24.072637
 30
0.0
  0
POINT
  5
E9D
  8
DEFPOINTS
  6
CONTINUOUS
 62
     7
 10
530.0
 20
-479.83732199999997
 30
0.0
  0
LINE
  5
E9E
  8
SIZE
  6
CONTINUOUS
 62
    30
 10
530.0
 20
-44.072637
 30
0.0
 11
530.0
 21
-509.83732199999997
 31
0.0
  0
LINE
  5
E9F
  8
SIZE
  6
CONTINUOUS
 62
    30
 10
610.00000899999986
 20
1350.0000250000001
 30
0.0
 11
610.00000899999986
 21
-509.83732199999997
 31
0.0
  0
LINE
  5
EA0
  8
SIZE
  6
CONTINUOUS
 62
    30
 10
540.0
 20
-479.83732199999997
 30
0.0
 11
600.00000899999998
 21
-479.83732199999997
 31
0.0
  0
LINE
  5
EA1
  8
SIZE
  6
CONTINUOUS
 62
    30
 10
782.61948199999983
 20
-479.83732199999997
 30
0.0
 11
610.00000899999986
 21
-479.83732199999997
 31
0.0
  0
TEXT
  5
EA2
  8
SIZE
  6
CONTINUOUS
 62
    30
 10
638.8337678571429
 20
-465.43255999999991
 30
0.0
 40
55.0
  1
(80)
 41
0.9
 72
     1
 11
710.72662500000001
 21
-465.43255999999991
 31
0.0
  0
CIRCLE
  5
EA3
  8
SIZE
  6
CONTINUOUS
 62
    30
 10
530.0
 20
-479.83732199999997
 30
0.0
 40
5.0
  0
LINE
  5
EA4
  8
SIZE
  6
CONTINUOUS
 62
    30
 10
535.0
 20
-479.83732199999997
 30
0.0
 11
540.0
 21
-479.83732199999997
 31
0.0
  0
CIRCLE
  5
EA5
  8
SIZE
  6
CONTINUOUS
 62
    30
 10
610.00000899999986
 20
-479.83732199999997
 30
0.0
 40
5.0
  0
LINE
  5
EA6
  8
SIZE
  6
CONTINUOUS
 62
    30
 10
605.00000899999998
 20
-479.83732199999997
 30
0.0
 11
600.00000899999998
 21
-479.83732199999997
 31
0.0
  0
POINT
  5
EA7
  8
DEFPOINTS
  6
CONTINUOUS
 62
     7
 10
530.0
 20
-24.072637
 30
0.0
  0
POINT
  5
EA8
  8
DEFPOINTS
  6
CONTINUOUS
 62
     7
 10
610.00000899999986
 20
1370.0000250000001
 30
0.0
  0
POINT
  5
EA9
  8
DEFPOINTS
  6
CONTINUOUS
 62
     7
 10
610.00000899999986
 20
-479.83732199999997
 30
0.0
  0
LINE
  5
EAA
  8
SIZE
  6
CONTINUOUS
 62
    30
 10
-604.50000799999998
 20
-11.0
 30
0.0
 11
-604.50000799999998
 21
-185.016615
 31
0.0
  0
LINE
  5
EAB
  8
SIZE
  6
CONTINUOUS
 62
    30
 10
-350.50000499999999
 20
67.000001999999995
 30
0.0
 11
-350.50000499999999
 21
-185.016615
 31
0.0
  0
LINE
  5
EAC
  8
SIZE
  6
CONTINUOUS
 62
    30
 10
-594.50000799999975
 20
-155.016615
 30
0.0
 11
-360.50000499999999
 21
-155.016615
 31
0.0
  0
CIRCLE
  5
EAD
  8
SIZE
  6
CONTINUOUS
 62
    30
 10
-604.50000799999998
 20
-155.016615
 30
0.0
 40
5.0
  0
LINE
  5
EAE
  8
SIZE
  6
CONTINUOUS
 62
    30
 10
-599.50000799999975
 20
-155.016615
 30
0.0
 11
-594.50000799999975
 21
-155.016615
 31
0.0
  0
CIRCLE
  5
EAF
  8
SIZE
  6
CONTINUOUS
 62
    30
 10
-350.50000499999999
 20
-155.016615
 30
0.0
 40
5.0
  0
LINE
  5
EB0
  8
SIZE
  6
CONTINUOUS
 62
    30
 10
-355.50000499999999
 20
-155.016615
 30
0.0
 11
-360.50000499999999
 21
-155.016615
 31
0.0
  0
TEXT
  5
EB1
  8
SIZE
  6
CONTINUOUS
 62
    30
 10
-516.30977157142854
 20
-140.016615
 30
0.0
 40
55.0
  1
254
 41
0.9
 72
     1
 11
-451.48834299999999
 21
-140.016615
 31
0.0
  0
POINT
  5
EB2
  8
DEFPOINTS
  6
CONTINUOUS
 62
     7
 10
-604.50000799999998
 20
9.0
 30
0.0
  0
POINT
  5
EB3
  8
DEFPOINTS
  6
CONTINUOUS
 62
     7
 10
-350.50000499999999
 20
87.000001999999981
 30
0.0
  0
POINT
  5
EB4
  8
DEFPOINTS
  6
CONTINUOUS
 62
     7
 10
-350.50000499999999
 20
-155.016615
 30
0.0
  0
LINE
  5
EB5
  8
SIZE
  6
CONTINUOUS
 62
    30
 10
-350.50000499999999
 20
67.000001999999995
 30
0.0
 11
-350.50000499999999
 21
-185.016615
 31
0.0
  0
LINE
  5
EB6
  8
SIZE
  6
CONTINUOUS
 62
    30
 10
-252.50000299999999
 20
170.50000399999999
 30
0.0
 11
-252.50000299999999
 21
-185.016615
 31
0.0
  0
LINE
  5
EB7
  8
SIZE
  6
CONTINUOUS
 62
    30
 10
-360.50000499999999
 20
-155.016615
 30
0.0
 11
-370.50000499999999
 21
-155.016615
 31
0.0
  0
LINE
  5
EB8
  8
SIZE
  6
CONTINUOUS
 62
    30
 10
-242.50000299999999
 20
-155.016615
 30
0.0
 11
-232.50000299999999
 21
-155.016615
 31
0.0
  0
LINE
  5
EB9
  8
SIZE
  6
CONTINUOUS
 62
    30
 10
-350.50000499999999
 20
-155.016615
 30
0.0
 11
-252.50000299999999
 21
-155.016615
 31
0.0
  0
CIRCLE
  5
EBA
  8
SIZE
  6
CONTINUOUS
 62
    30
 10
-350.50000499999999
 20
-155.016615
 30
0.0
 40
5.0
  0
LINE
  5
EBB
  8
SIZE
  6
CONTINUOUS
 62
    30
 10
-355.50000499999999
 20
-155.016615
 30
0.0
 11
-360.50000499999999
 21
-155.016615
 31
0.0
  0
CIRCLE
  5
EBC
  8
SIZE
  6
CONTINUOUS
 62
    30
 10
-252.50000299999999
 20
-155.016615
 30
0.0
 40
5.0
  0
LINE
  5
EBD
  8
SIZE
  6
CONTINUOUS
 62
    30
 10
-247.50000299999999
 20
-155.016615
 30
0.0
 11
-242.50000299999999
 21
-155.016615
 31
0.0
  0
TEXT
  5
EBE
  8
SIZE
  6
CONTINUOUS
 62
    30
 10
-341.5714325714286
 20
-140.016615
 30
0.0
 40
55.0
  1
98
 41
0.9
 72
     1
 11
-301.50000399999999
 21
-140.016615
 31
0.0
  0
POINT
  5
EBF
  8
DEFPOINTS
  6
CONTINUOUS
 62
     7
 10
-350.50000499999999
 20
87.000001999999981
 30
0.0
  0
POINT
  5
EC0
  8
DEFPOINTS
  6
CONTINUOUS
 62
     7
 10
-252.50000299999999
 20
190.50000399999999
 30
0.0
  0
POINT
  5
EC1
  8
DEFPOINTS
  6
CONTINUOUS
 62
     7
 10
-252.50000299999999
 20
-155.016615
 30
0.0
  0
LINE
  5
EC2
  8
SIZE
  6
CONTINUOUS
 62
    30
 10
-610.00000899999986
 20
1350.0000250000001
 30
0.0
 11
-610.00000899999986
 21
-333.07007199999998
 31
0.0
  0
LINE
  5
EC3
  8
SIZE
  6
CONTINUOUS
 62
    30
 10
-604.50000799999998
 20
-11.0
 30
0.0
 11
-604.50000799999998
 21
-333.07007199999998
 31
0.0
  0
LINE
  5
EC4
  8
SIZE
  6
CONTINUOUS
 62
    30
 10
-594.50000799999975
 20
-303.07007199999998
 30
0.0
 11
-584.50000799999998
 21
-303.07007199999998
 31
0.0
  0
CIRCLE
  5
EC7
  8
SIZE
  6
CONTINUOUS
 62
    30
 10
-604.50000799999998
 20
-303.07007199999998
 30
0.0
 40
5.0
  0
LINE
  5
EC8
  8
SIZE
  6
CONTINUOUS
 62
    30
 10
-599.50000799999975
 20
-303.07007199999998
 30
0.0
 11
-594.50000799999975
 21
-303.07007199999998
 31
0.0
  0
POINT
  5
ECC
  8
DEFPOINTS
  6
CONTINUOUS
 62
     7
 10
-610.00000899999986
 20
1370.0000250000001
 30
0.0
  0
POINT
  5
ECD
  8
DEFPOINTS
  6
CONTINUOUS
 62
     7
 10
-604.50000799999998
 20
9.0
 30
0.0
  0
POINT
  5
ECE
  8
DEFPOINTS
  6
CONTINUOUS
 62
     7
 10
-604.50000799999998
 20
-303.07007199999998
 30
0.0
  0
LINE
  5
ECF
  8
SIZE
  6
CONTINUOUS
 62
    30
 10
-604.50000799999998
 20
-11.0
 30
0.0
 11
-604.50000799999998
 21
-333.07007199999998
 31
0.0
  0
LINE
  5
ED0
  8
SIZE
  6
CONTINUOUS
 62
    30
 10
-303.50000399999999
 20
80.000001999999981
 30
0.0
 11
-303.50000399999999
 21
-333.07007199999998
 31
0.0
  0
LINE
  5
ED1
  8
SIZE
  6
CONTINUOUS
 62
    30
 10
-594.50000799999975
 20
-303.07007199999998
 30
0.0
 11
-313.50000399999999
 21
-303.07007199999998
 31
0.0
  0
CIRCLE
  5
ED2
  8
SIZE
  6
CONTINUOUS
 62
    30
 10
-604.50000799999998
 20
-303.07007199999998
 30
0.0
 40
5.0
  0
LINE
  5
ED3
  8
SIZE
  6
CONTINUOUS
 62
    30
 10
-599.50000799999975
 20
-303.07007199999998
 30
0.0
 11
-594.50000799999975
 21
-303.07007199999998
 31
0.0
  0
CIRCLE
  5
ED4
  8
SIZE
  6
CONTINUOUS
 62
    30
 10
-303.50000399999999
 20
-303.07007199999998
 30
0.0
 40
5.0
  0
LINE
  5
ED5
  8
SIZE
  6
CONTINUOUS
 62
    30
 10
-308.50000399999999
 20
-303.07007199999998
 30
0.0
 11
-313.50000399999999
 21
-303.07007199999998
 31
0.0
  0
TEXT
  5
ED6
  8
SIZE
  6
CONTINUOUS
 62
    30
 10
-507.03572028571421
 20
-288.07007199999998
 30
0.0
 40
55.0
  1
301
 41
0.9
 72
     1
 11
-454.00000599999993
 21
-288.07007199999998
 31
0.0
  0
POINT
  5
ED7
  8
DEFPOINTS
  6
CONTINUOUS
 62
     7
 10
-604.50000799999998
 20
9.0
 30
0.0
  0
POINT
  5
ED8
  8
DEFPOINTS
  6
CONTINUOUS
 62
     7
 10
-303.50000399999999
 20
100.00000199999999
 30
0.0
  0
POINT
  5
ED9
  8
DEFPOINTS
  6
CONTINUOUS
 62
     7
 10
-303.50000399999999
 20
-303.07007199999998
 30
0.0
  0
LINE
  5
EDA
  8
SIZE
  6
CONTINUOUS
 62
    30
 10
-303.50000399999999
 20
80.000001999999981
 30
0.0
 11
-303.50000399999999
 21
-333.07007199999998
 31
0.0
  0
LINE
  5
EDB
  8
SIZE
  6
CONTINUOUS
 62
    30
 10
-201.50000199999999
 20
80.000001999999981
 30
0.0
 11
-201.50000199999999
 21
-333.07007199999998
 31
0.0
  0
LINE
  5
EDC
  8
SIZE
  6
CONTINUOUS
 62
    30
 10
-293.50000399999999
 20
-303.07007199999998
 30
0.0
 11
-211.50000199999999
 21
-303.07007199999998
 31
0.0
  0
LINE
  5
EDD
  8
SIZE
  6
CONTINUOUS
 62
    30
 10
-32.557646000000013
 20
-303.07007199999998
 30
0.0
 11
-201.50000199999999
 21
-303.07007199999998
 31
0.0
  0
TEXT
  5
EDE
  8
SIZE
  6
CONTINUOUS
 62
    30
 10
-165.4147884285714
 20
-288.07007199999998
 30
0.0
 40
55.0
  1
102
 41
0.9
 72
     1
 11
-106.486217
 21
-288.07007199999998
 31
0.0
  0
CIRCLE
  5
EDF
  8
SIZE
  6
CONTINUOUS
 62
    30
 10
-303.50000399999999
 20
-303.07007199999998
 30
0.0
 40
5.0
  0
LINE
  5
EE0
  8
SIZE
  6
CONTINUOUS
 62
    30
 10
-298.50000399999999
 20
-303.07007199999998
 30
0.0
 11
-293.50000399999999
 21
-303.07007199999998
 31
0.0
  0
CIRCLE
  5
EE1
  8
SIZE
  6
CONTINUOUS
 62
    30
 10
-201.50000199999999
 20
-303.07007199999998
 30
0.0
 40
5.0
  0
LINE
  5
EE2
  8
SIZE
  6
CONTINUOUS
 62
    30
 10
-206.50000199999999
 20
-303.07007199999998
 30
0.0
 11
-211.50000199999999
 21
-303.07007199999998
 31
0.0
  0
POINT
  5
EE3
  8
DEFPOINTS
  6
CONTINUOUS
 62
     7
 10
-303.50000399999999
 20
100.00000199999999
 30
0.0
  0
POINT
  5
EE4
  8
DEFPOINTS
  6
CONTINUOUS
 62
     7
 10
-201.50000199999999
 20
100.00000199999999
 30
0.0
  0
POINT
  5
EE5
  8
DEFPOINTS
  6
CONTINUOUS
 62
     7
 10
-201.50000199999999
 20
-303.07007199999998
 30
0.0
  0
LINE
  5
EE6
  8
SIZE
  6
CONTINUOUS
 62
    30
 10
619.50000799999975
 20
0.0
 30
0.0
 11
823.62447099999986
 21
0.0
 31
0.0
  0
LINE
  5
EE7
  8
SIZE
  6
CONTINUOUS
 62
    30
 10
-191.50000199999999
 20
90.000001999999981
 30
0.0
 11
823.62447099999986
 21
90.000001999999981
 31
0.0
  0
LINE
  5
EE8
  8
SIZE
  6
CONTINUOUS
 62
    30
 10
793.62447099999974
 20
-10.0
 30
0.0
 11
793.62447099999974
 21
-20.0
 31
0.0
  0
LINE
  5
EE9
  8
SIZE
  6
CONTINUOUS
 62
    30
 10
793.62447099999974
 20
100.00000199999999
 30
0.0
 11
793.62447099999974
 21
110.00000199999999
 31
0.0
  0
LINE
  5
EEA
  8
SIZE
  6
CONTINUOUS
 62
    30
 10
793.62447099999974
 20
0.0
 30
0.0
 11
793.62447099999974
 21
90.000001999999981
 31
0.0
  0
CIRCLE
  5
EEB
  8
SIZE
  6
CONTINUOUS
 62
    30
 10
793.62447099999974
 20
0.0
 30
0.0
 40
5.0
  0
LINE
  5
EEC
  8
SIZE
  6
CONTINUOUS
 62
    30
 10
793.62447099999974
 20
-5.0
 30
0.0
 11
793.62447099999974
 21
-10.0
 31
0.0
  0
CIRCLE
  5
EED
  8
SIZE
  6
CONTINUOUS
 62
    30
 10
793.62447099999974
 20
90.000001999999981
 30
0.0
 40
5.0
  0
LINE
  5
EEE
  8
SIZE
  6
CONTINUOUS
 62
    30
 10
793.62447099999974
 20
95.000001999999995
 30
0.0
 11
793.62447099999974
 21
100.00000199999999
 31
0.0
  0
TEXT
  5
EEF
  8
SIZE
  6
CONTINUOUS
 62
    30
 10
778.62447099999986
 20
4.9285724285714352
 30
0.0
 40
55.0
  1
90
 50
90.0
 41
0.9
 72
     1
 11
778.62447099999986
 21
45.000000999999997
 31
0.0
  0
POINT
  5
EF0
  8
DEFPOINTS
  6
CONTINUOUS
 62
     7
 10
599.50000799999975
 20
0.0
 30
0.0
  0
POINT
  5
EF1
  8
DEFPOINTS
  6
CONTINUOUS
 62
     7
 10
-211.50000199999999
 20
90.000001999999981
 30
0.0
  0
POINT
  5
EF2
  8
DEFPOINTS
  6
CONTINUOUS
 62
     7
 10
793.62447099999974
 20
90.000001999999981
 30
0.0
  0
LINE
  5
EF3
  8
SIZE
  6
CONTINUOUS
 62
    30
 10
-191.50000199999999
 20
90.000001999999981
 30
0.0
 11
823.62447099999986
 21
90.000001999999981
 31
0.0
  0
LINE
  5
EF4
  8
SIZE
  6
CONTINUOUS
 62
    30
 10
-191.50000199999999
 20
162.00000299999999
 30
0.0
 11
823.62447099999986
 21
162.00000299999999
 31
0.0
  0
LINE
  5
EF5
  8
SIZE
  6
CONTINUOUS
 62
    30
 10
793.62447099999974
 20
100.00000199999999
 30
0.0
 11
793.62447099999974
 21
152.00000299999999
 31
0.0
  0
LINE
  5
EF6
  8
SIZE
  6
CONTINUOUS
 62
    30
 10
793.62447099999974
 20
303.24562900000001
 30
0.0
 11
793.62447099999974
 21
162.00000299999999
 31
0.0
  0
TEXT
  5
EF7
  8
SIZE
  6
CONTINUOUS
 62
    30
 10
778.62447099999986
 20
208.1027714285714
 30
0.0
 40
55.0
  1
72
 50
90.0
 41
0.9
 72
     1
 11
778.62447099999986
 21
248.17420000000001
 31
0.0
  0
CIRCLE
  5
EF8
  8
SIZE
  6
CONTINUOUS
 62
    30
 10
793.62447099999974
 20
90.000001999999981
 30
0.0
 40
5.0
  0
LINE
  5
EF9
  8
SIZE
  6
CONTINUOUS
 62
    30
 10
793.62447099999974
 20
95.000001999999995
 30
0.0
 11
793.62447099999974
 21
100.00000199999999
 31
0.0
  0
CIRCLE
  5
EFA
  8
SIZE
  6
CONTINUOUS
 62
    30
 10
793.62447099999974
 20
162.00000299999999
 30
0.0
 40
5.0
  0
LINE
  5
EFB
  8
SIZE
  6
CONTINUOUS
 62
    30
 10
793.62447099999974
 20
157.00000299999999
 30
0.0
 11
793.62447099999974
 21
152.00000299999999
 31
0.0
  0
POINT
  5
EFC
  8
DEFPOINTS
  6
CONTINUOUS
 62
     7
 10
-211.50000199999999
 20
90.000001999999981
 30
0.0
  0
POINT
  5
EFD
  8
DEFPOINTS
  6
CONTINUOUS
 62
     7
 10
-211.50000199999999
 20
162.00000299999999
 30
0.0
  0
POINT
  5
EFE
  8
DEFPOINTS
  6
CONTINUOUS
 62
     7
 10
793.62447099999974
 20
162.00000299999999
 30
0.0
  0
LINE
  5
EFF
  8
SIZE
  6
CONTINUOUS
 62
    30
 10
619.50000799999975
 20
0.0
 30
0.0
 11
950.83376899999985
 21
0.0
 31
0.0
  0
LINE
  5
F00
  8
SIZE
  6
CONTINUOUS
 62
    30
 10
-186.25000199999999
 20
172.0000051409715
 30
0.0
 11
950.83376899999985
 21
172.0000051409715
 31
0.0
  0
LINE
  5
F01
  8
SIZE
  6
CONTINUOUS
 62
    30
 10
920.83376899999996
 20
10.0
 30
0.0
 11
920.83376899999996
 21
162.0000051409715
 31
0.0
  0
CIRCLE
  5
F02
  8
SIZE
  6
CONTINUOUS
 62
    30
 10
920.83376899999996
 20
0.0
 30
0.0
 40
5.0
  0
LINE
  5
F03
  8
SIZE
  6
CONTINUOUS
 62
    30
 10
920.83376899999996
 20
5.0
 30
0.0
 11
920.83376899999996
 21
10.0
 31
0.0
  0
CIRCLE
  5
F04
  8
SIZE
  6
CONTINUOUS
 62
    30
 10
920.83376899999996
 20
172.0000051409715
 30
0.0
 40
5.0
  0
LINE
  5
F05
  8
SIZE
  6
CONTINUOUS
 62
    30
 10
920.83376899999996
 20
167.0000051409715
 30
0.0
 11
920.83376899999996
 21
162.0000051409715
 31
0.0
  0
TEXT
  5
F06
  8
SIZE
  6
CONTINUOUS
 62
    30
 10
905.83376899999996
 20
28.57143257142857
 30
0.0
 40
55.0
  1
172
 50
90.0
 41
0.9
 72
     1
 11
905.83376899999996
 21
87.500004000000004
 31
0.0
  0
POINT
  5
F07
  8
DEFPOINTS
  6
CONTINUOUS
 62
     7
 10
599.50000799999975
 20
0.0
 30
0.0
  0
POINT
  5
F08
  8
DEFPOINTS
  6
CONTINUOUS
 62
     7
 10
-206.25000199999999
 20
172.0
 30
0.0
  0
POINT
  5
F09
  8
DEFPOINTS
  6
CONTINUOUS
 62
     7
 10
920.83376899999996
 20
172.0000051409715
 30
0.0
  0
LINE
  5
F0A
  8
SIZE
  6
CONTINUOUS
 62
    30
 10
-348.74999100000002
 20
158.0
 30
0.0
 11
-719.98966408798321
 21
158.0
 31
0.0
  0
LINE
  5
F0B
  8
SIZE
  6
CONTINUOUS
 62
    30
 10
-619.50000799999975
 20
0.0
 30
0.0
 11
-866.96684399999981
 21
0.0
 31
0.0
  0
LINE
  5
F0C
  8
SIZE
  6
CONTINUOUS
 62
    30
 10
-681.21953160686758
 20
148.0
 30
0.0
 11
-681.21953160686758
 21
10.0
 31
0.0
  0
CIRCLE
  5
F0D
  8
SIZE
  6
CONTINUOUS
 62
    30
 10
-681.21953160686758
 20
158.0
 30
0.0
 40
5.0
  0
LINE
  5
F0E
  8
SIZE
  6
CONTINUOUS
 62
    30
 10
-681.21953160686758
 20
153.0
 30
0.0
 11
-681.21953160686758
 21
148.0
 31
0.0
  0
CIRCLE
  5
F0F
  8
SIZE
  6
CONTINUOUS
 62
    30
 10
-681.21953160686758
 20
0.0
 30
0.0
 40
5.0
  0
LINE
  5
F10
  8
SIZE
  6
CONTINUOUS
 62
    30
 10
-681.21953160686758
 20
5.0
 30
0.0
 11
-681.21953160686758
 21
10.0
 31
0.0
  0
TEXT
  5
F11
  8
SIZE
  6
CONTINUOUS
 62
    30
 10
-696.88357177159742
 20
8.0830677711956085
 30
0.0
 40
55.0
  1
158
 50
90.0
 41
0.9
 72
     1
 11
-696.88357177159742
 21
67.011639199767032
 31
0.0
  0
POINT
  5
F12
  8
DEFPOINTS
  6
CONTINUOUS
 62
     7
 10
-328.74999100000002
 20
158.0
 30
0.0
  0
POINT
  5
F13
  8
DEFPOINTS
  6
CONTINUOUS
 62
     7
 10
-599.50000799999975
 20
0.0
 30
0.0
  0
POINT
  5
F14
  8
DEFPOINTS
  6
CONTINUOUS
 62
     7
 10
-681.21953160686758
 20
0.0
 30
0.0
  0
LINE
  5
F15
  8
SIZE
  6
CONTINUOUS
 62
    30
 10
-619.50000799999975
 20
0.0
 30
0.0
 11
-716.9006955156691
 21
0.0
 31
0.0
  0
LINE
  5
F16
  8
SIZE
  6
CONTINUOUS
 62
    30
 10
-415.50000499999987
 20
132.00000199999999
 30
0.0
 11
-739.76915099999985
 21
132.00000199999999
 31
0.0
  0
LINE
  5
F17
  8
SIZE
  6
CONTINUOUS
 62
    30
 10
-834.08578925877305
 20
-10.0
 30
0.0
 11
-834.08578925877305
 21
-20.0
 31
0.0
  0
LINE
  5
F18
  8
SIZE
  6
CONTINUOUS
 62
    30
 10
-834.08578925877305
 20
142.00000199999999
 30
0.0
 11
-834.08578925877305
 21
152.00000199999999
 31
0.0
  0
LINE
  5
F19
  8
SIZE
  6
CONTINUOUS
 62
    30
 10
-834.08578925877305
 20
0.0
 30
0.0
 11
-834.08578925877305
 21
132.00000199999999
 31
0.0
  0
CIRCLE
  5
F1A
  8
SIZE
  6
CONTINUOUS
 62
    30
 10
-834.08578925877305
 20
0.0
 30
0.0
 40
5.0
  0
LINE
  5
F1B
  8
SIZE
  6
CONTINUOUS
 62
    30
 10
-834.08578925877305
 20
-5.0
 30
0.0
 11
-834.08578925877305
 21
-10.0
 31
0.0
  0
CIRCLE
  5
F1C
  8
SIZE
  6
CONTINUOUS
 62
    30
 10
-834.08578925877305
 20
132.00000199999999
 30
0.0
 40
5.0
  0
LINE
  5
F1D
  8
SIZE
  6
CONTINUOUS
 62
    30
 10
-834.08578925877305
 20
137.00000199999999
 30
0.0
 11
-834.08578925877305
 21
142.00000199999999
 31
0.0
  0
TEXT
  5
F1E
  8
SIZE
  6
CONTINUOUS
 62
    30
 10
-849.08578925877305
 20
-2.467762986194308
 30
0.0
 40
55.0
  1
132
 50
90.0
 41
0.9
 72
     1
 11
-849.08578925877305
 21
56.460808442377129
 31
0.0
  0
POINT
  5
F1F
  8
DEFPOINTS
  6
CONTINUOUS
 62
     7
 10
-599.50000799999975
 20
0.0
 30
0.0
  0
POINT
  5
F20
  8
DEFPOINTS
  6
CONTINUOUS
 62
     7
 10
-395.50000499999999
 20
132.00000199999999
 30
0.0
  0
POINT
  5
F21
  8
DEFPOINTS
  6
CONTINUOUS
 62
     7
 10
-834.08578925877305
 20
132.00000199999999
 30
0.0
  0
LINE
  5
F22
  8
SIZE
  6
CONTINUOUS
 62
    30
 10
-415.50000499999987
 20
132.00000199999999
 30
0.0
 11
-867.77791664315714
 21
132.00000199999999
 31
0.0
  0
LINE
  5
F23
  8
SIZE
  6
CONTINUOUS
 62
    30
 10
-409.50000499999999
 20
220.00000399999999
 30
0.0
 11
-871.70370639043722
 21
220.00000399999999
 31
0.0
  0
LINE
  5
F24
  8
SIZE
  6
CONTINUOUS
 62
    30
 10
-834.08578925877305
 20
122.00000199999999
 30
0.0
 11
-834.08578925877305
 21
112.00000199999999
 31
0.0
  0
LINE
  5
F25
  8
SIZE
  6
CONTINUOUS
 62
    30
 10
-834.08578925877305
 20
230.00000399999999
 30
0.0
 11
-834.08578925877305
 21
240.00000399999999
 31
0.0
  0
LINE
  5
F26
  8
SIZE
  6
CONTINUOUS
 62
    30
 10
-834.08578925877305
 20
132.00000199999999
 30
0.0
 11
-834.08578925877305
 21
220.00000399999999
 31
0.0
  0
CIRCLE
  5
F27
  8
SIZE
  6
CONTINUOUS
 62
    30
 10
-834.08578925877305
 20
132.00000199999999
 30
0.0
 40
5.0
  0
LINE
  5
F28
  8
SIZE
  6
CONTINUOUS
 62
    30
 10
-834.08578925877305
 20
127.00000199999999
 30
0.0
 11
-834.08578925877305
 21
122.00000199999999
 31
0.0
  0
CIRCLE
  5
F29
  8
SIZE
  6
CONTINUOUS
 62
    30
 10
-834.08578925877305
 20
220.00000399999999
 30
0.0
 40
5.0
  0
LINE
  5
F2A
  8
SIZE
  6
CONTINUOUS
 62
    30
 10
-834.08578925877305
 20
225.00000399999999
 30
0.0
 11
-834.08578925877305
 21
230.00000399999999
 31
0.0
  0
TEXT
  5
F2B
  8
SIZE
  6
CONTINUOUS
 62
    30
 10
-849.08578925877305
 20
135.92857442857141
 30
0.0
 40
55.0
  1
88
 50
90.0
 41
0.9
 72
     1
 11
-849.08578925877305
 21
176.00000299999999
 31
0.0
  0
POINT
  5
F2C
  8
DEFPOINTS
  6
CONTINUOUS
 62
     7
 10
-395.50000499999999
 20
132.00000199999999
 30
0.0
  0
POINT
  5
F2D
  8
DEFPOINTS
  6
CONTINUOUS
 62
     7
 10
-389.50000499999999
 20
220.00000399999999
 30
0.0
  0
POINT
  5
F2E
  8
DEFPOINTS
  6
CONTINUOUS
 62
     7
 10
-834.08578925877305
 20
220.00000399999999
 30
0.0
  0
LINE
  5
F2F
  8
SIZE
  6
CONTINUOUS
 62
    30
 10
619.50000799999975
 20
0.0
 30
0.0
 11
1061.9105159999999
 21
0.0
 31
0.0
  0
LINE
  5
F30
  8
SIZE
  6
CONTINUOUS
 62
    30
 10
630.00000899999998
 20
1410.0000259999999
 30
0.0
 11
1061.9105159999999
 21
1410.0000259999999
 31
0.0
  0
LINE
  5
F31
  8
SIZE
  6
CONTINUOUS
 62
    30
 10
1031.9105159999999
 20
10.0
 30
0.0
 11
1031.9105159999999
 21
1400.0000259999999
 31
0.0
  0
CIRCLE
  5
F32
  8
SIZE
  6
CONTINUOUS
 62
    30
 10
1031.9105159999999
 20
0.0
 30
0.0
 40
5.0
  0
LINE
  5
F33
  8
SIZE
  6
CONTINUOUS
 62
    30
 10
1031.9105159999999
 20
5.0
 30
0.0
 11
1031.9105159999999
 21
10.0
 31
0.0
  0
CIRCLE
  5
F34
  8
SIZE
  6
CONTINUOUS
 62
    30
 10
1031.9105159999999
 20
1410.0000259999999
 30
0.0
 40
5.0
  0
LINE
  5
F35
  8
SIZE
  6
CONTINUOUS
 62
    30
 10
1031.9105159999999
 20
1405.0000259999999
 30
0.0
 11
1031.9105159999999
 21
1400.0000259999999
 31
0.0
  0
TEXT
  5
F36
  8
SIZE
  6
CONTINUOUS
 62
    30
 10
1016.910516
 20
627.21429871428563
 30
0.0
 40
55.0
  1
1410
 50
90.0
 41
0.9
 72
     1
 11
1016.910516
 21
705.00001299999985
 31
0.0
  0
POINT
  5
F37
  8
DEFPOINTS
  6
CONTINUOUS
 62
     7
 10
599.50000799999975
 20
0.0
 30
0.0
  0
POINT
  5
F38
  8
DEFPOINTS
  6
CONTINUOUS
 62
     7
 10
610.00000899999986
 20
1410.0000259999999
 30
0.0
  0
POINT
  5
F39
  8
DEFPOINTS
  6
CONTINUOUS
 62
     7
 10
1031.9105159999999
 20
1410.0000259999999
 30
0.0
  0
LINE
  5
F3A
  8
SIZE
  6
CONTINUOUS
 62
    30
 10
630.00000899999998
 20
1410.0000259999999
 30
0.0
 11
1061.9105159999999
 21
1410.0000259999999
 31
0.0
  0
LINE
  5
F3B
  8
SIZE
  6
CONTINUOUS
 62
    30
 10
20.0
 20
1650.000031
 30
0.0
 11
1061.9105159999999
 21
1650.000031
 31
0.0
  0
LINE
  5
F3C
  8
SIZE
  6
CONTINUOUS
 62
    30
 10
1031.9105159999999
 20
1420.0000259999999
 30
0.0
 11
1031.9105159999999
 21
1640.000031
 31
0.0
  0
CIRCLE
  5
F3D
  8
SIZE
  6
CONTINUOUS
 62
    30
 10
1031.9105159999999
 20
1410.0000259999999
 30
0.0
 40
5.0
  0
LINE
  5
F3E
  8
SIZE
  6
CONTINUOUS
 62
    30
 10
1031.9105159999999
 20
1415.0000259999999
 30
0.0
 11
1031.9105159999999
 21
1420.0000259999999
 31
0.0
  0
CIRCLE
  5
F3F
  8
SIZE
  6
CONTINUOUS
 62
    30
 10
1031.9105159999999
 20
1650.000031
 30
0.0
 40
5.0
  0
LINE
  5
F40
  8
SIZE
  6
CONTINUOUS
 62
    30
 10
1031.9105159999999
 20
1645.000031
 30
0.0
 11
1031.9105159999999
 21
1640.000031
 31
0.0
  0
TEXT
  5
F41
  8
SIZE
  6
CONTINUOUS
 62
    30
 10
1017.505754
 20
1434.5357422857139
 30
0.0
 40
55.0
  1
(240)
 50
90.0
 41
0.9
 72
     1
 11
1017.505754
 21
1530.0000279999999
 31
0.0
  0
POINT
  5
F42
  8
DEFPOINTS
  6
CONTINUOUS
 62
     7
 10
610.00000899999986
 20
1410.0000259999999
 30
0.0
  0
POINT
  5
F43
  8
DEFPOINTS
  6
CONTINUOUS
 62
     7
 10
0.0
 20
1650.000031
 30
0.0
  0
POINT
  5
F44
  8
DEFPOINTS
  6
CONTINUOUS
 62
     7
 10
1031.9105159999999
 20
1650.000031
 30
0.0
  0
LINE
  5
F45
  8
SIZE
  6
CONTINUOUS
 62
    30
 10
20.0
 20
1650.000031
 30
0.0
 11
1184.014283
 21
1650.000031
 31
0.0
  0
LINE
  5
F46
  8
SIZE
  6
CONTINUOUS
 62
    30
 10
619.50000799999975
 20
0.0
 30
0.0
 11
1184.014283
 21
0.0
 31
0.0
  0
LINE
  5
F47
  8
SIZE
  6
CONTINUOUS
 62
    30
 10
1154.014283
 20
1640.000031
 30
0.0
 11
1154.014283
 21
10.0
 31
0.0
  0
CIRCLE
  5
F48
  8
SIZE
  6
CONTINUOUS
 62
    30
 10
1154.014283
 20
1650.000031
 30
0.0
 40
5.0
  0
LINE
  5
F49
  8
SIZE
  6
CONTINUOUS
 62
    30
 10
1154.014283
 20
1645.000031
 30
0.0
 11
1154.014283
 21
1640.000031
 31
0.0
  0
CIRCLE
  5
F4A
  8
SIZE
  6
CONTINUOUS
 62
    30
 10
1154.014283
 20
0.0
 30
0.0
 40
5.0
  0
LINE
  5
F4B
  8
SIZE
  6
CONTINUOUS
 62
    30
 10
1154.014283
 20
5.0
 30
0.0
 11
1154.014283
 21
10.0
 31
0.0
  0
TEXT
  5
F4C
  8
SIZE
  6
CONTINUOUS
 62
    30
 10
1139.014283
 20
742.50001499999985
 30
0.0
 40
55.0
  1
1650
 50
90.0
 41
0.9
 72
     1
 11
1139.014283
 21
825.00001499999985
 31
0.0
  0
POINT
  5
F4D
  8
DEFPOINTS
  6
CONTINUOUS
 62
     7
 10
0.0
 20
1650.000031
 30
0.0
  0
POINT
  5
F4E
  8
DEFPOINTS
  6
CONTINUOUS
 62
     7
 10
599.50000799999975
 20
0.0
 30
0.0
  0
POINT
  5
F4F
  8
DEFPOINTS
  6
CONTINUOUS
 62
     7
 10
1154.014283
 20
0.0
 30
0.0
  0
LINE
  5
F50
  8
SIZE
  6
CONTINUOUS
 62
    30
 10
-610.00000899999986
 20
290.00003800000002
 30
0.0
 11
-610.00000899999986
 21
601.72335299999975
 31
0.0
  0
LINE
  5
F51
  8
SIZE
  6
CONTINUOUS
 62
    30
 10
-308.99999100000002
 20
309.75003800000002
 30
0.0
 11
-308.99999100000002
 21
601.72335299999975
 31
0.0
  0
LINE
  5
F52
  8
SIZE
  6
CONTINUOUS
 62
    30
 10
-600.00000899999998
 20
571.72335299999975
 30
0.0
 11
-318.99999100000002
 21
571.72335299999975
 31
0.0
  0
CIRCLE
  5
F53
  8
SIZE
  6
CONTINUOUS
 62
    30
 10
-610.00000899999986
 20
571.72335299999975
 30
0.0
 40
5.0
  0
LINE
  5
F54
  8
SIZE
  6
CONTINUOUS
 62
    30
 10
-605.00000899999998
 20
571.72335299999975
 30
0.0
 11
-600.00000899999998
 21
571.72335299999975
 31
0.0
  0
CIRCLE
  5
F55
  8
SIZE
  6
CONTINUOUS
 62
    30
 10
-308.99999100000002
 20
571.72335299999975
 30
0.0
 40
5.0
  0
LINE
  5
F56
  8
SIZE
  6
CONTINUOUS
 62
    30
 10
-313.99999100000002
 20
571.72335299999975
 30
0.0
 11
-318.99999100000002
 21
571.72335299999975
 31
0.0
  0
TEXT
  5
F57
  8
SIZE
  6
CONTINUOUS
 62
    30
 10
-513.55760128571421
 20
586.72335299999997
 30
0.0
 40
55.0
  1
301
 41
0.9
 72
     1
 11
-460.52188699999988
 21
586.72335299999997
 31
0.0
  0
POINT
  5
F58
  8
DEFPOINTS
  6
CONTINUOUS
 62
     7
 10
-610.00000899999986
 20
270.00003800000002
 30
0.0
  0
POINT
  5
F59
  8
DEFPOINTS
  6
CONTINUOUS
 62
     7
 10
-308.99999100000002
 20
177.75
 30
0.0
  0
POINT
  5
F5A
  8
DEFPOINTS
  6
CONTINUOUS
 62
     7
 10
-308.99999100000002
 20
571.72335299999975
 30
0.0
  0
LINE
  5
F5B
  8
SIZE
  6
CONTINUOUS
 62
    30
 10
-308.99999100000002
 20
309.75003800000002
 30
0.0
 11
-308.99999100000002
 21
601.72335299999975
 31
0.0
  0
LINE
  5
F5C
  8
SIZE
  6
CONTINUOUS
 62
    30
 10
-226.00000199999999
 20
214.75000800000001
 30
0.0
 11
-226.00000199999999
 21
601.72335299999975
 31
0.0
  0
LINE
  5
F5D
  8
SIZE
  6
CONTINUOUS
 62
    30
 10
-318.99999100000002
 20
571.72335299999975
 30
0.0
 11
-328.99999100000002
 21
571.72335299999975
 31
0.0
  0
LINE
  5
F5E
  8
SIZE
  6
CONTINUOUS
 62
    30
 10
-216.00000199999999
 20
571.72335299999975
 30
0.0
 11
-206.00000199999999
 21
571.72335299999975
 31
0.0
  0
LINE
  5
F5F
  8
SIZE
  6
CONTINUOUS
 62
    30
 10
-308.99999100000002
 20
571.72335299999975
 30
0.0
 11
-226.00000199999999
 21
571.72335299999975
 31
0.0
  0
CIRCLE
  5
F60
  8
SIZE
  6
CONTINUOUS
 62
    30
 10
-308.99999100000002
 20
571.72335299999975
 30
0.0
 40
5.0
  0
LINE
  5
F61
  8
SIZE
  6
CONTINUOUS
 62
    30
 10
-313.99999100000002
 20
571.72335299999975
 30
0.0
 11
-318.99999100000002
 21
571.72335299999975
 31
0.0
  0
CIRCLE
  5
F62
  8
SIZE
  6
CONTINUOUS
 62
    30
 10
-226.00000199999999
 20
571.72335299999975
 30
0.0
 40
5.0
  0
LINE
  5
F63
  8
SIZE
  6
CONTINUOUS
 62
    30
 10
-221.00000199999999
 20
571.72335299999975
 30
0.0
 11
-216.00000199999999
 21
571.72335299999975
 31
0.0
  0
TEXT
  5
F64
  8
SIZE
  6
CONTINUOUS
 62
    30
 10
-307.57142557142862
 20
586.72335299999997
 30
0.0
 40
55.0
  1
83
 41
0.9
 72
     1
 11
-267.49999700000001
 21
586.72335299999997
 31
0.0
  0
POINT
  5
F65
  8
DEFPOINTS
  6
CONTINUOUS
 62
     7
 10
-308.99999100000002
 20
177.75
 30
0.0
  0
POINT
  5
F66
  8
DEFPOINTS
  6
CONTINUOUS
 62
     7
 10
-226.00000199999999
 20
191.7500051409715
 30
0.0
  0
POINT
  5
F67
  8
DEFPOINTS
  6
CONTINUOUS
 62
     7
 10
-226.00000199999999
 20
571.72335299999975
 30
0.0
  0
TEXT
  5
F6A
  8
NOTE
  6
CONTINUOUS
 62
     4
 10
-87.811815999999993
 20
1745.6611499999999
 30
0.0
 40
55.0
  1
空気吹出
 50
359.99999700000001
 41
0.703125
  7
STANDARD1
  0
LINE
  5
F6B
  8
NOTE
  6
CONTINUOUS
 62
     4
 10
255.75718900000001
 20
1785.8494639999999
 30
0.0
 11
205.75718800000001
 21
1735.9534169999999
 31
0.0
  0
LINE
  5
F6C
  8
NOTE
  6
CONTINUOUS
 62
     4
 10
305.75718999999998
 20
1735.9534169999999
 30
0.0
 11
255.75718900000001
 21
1785.8494639999999
 31
0.0
  0
LINE
  5
F6D
  8
NOTE
  6
CONTINUOUS
 62
     4
 10
305.75718999999998
 20
1735.9534169999999
 30
0.0
 11
280.75718999999998
 21
1735.9534169999999
 31
0.0
  0
LINE
  5
F6E
  8
NOTE
  6
CONTINUOUS
 62
     4
 10
230.75718900000001
 20
1735.9534169999999
 30
0.0
 11
205.75718800000001
 21
1735.9534169999999
 31
0.0
  0
LINE
  5
F6F
  8
NOTE
  6
CONTINUOUS
 62
     4
 10
230.75718900000001
 20
1735.9534169999999
 30
0.0
 11
230.75718900000001
 21
1695.267329
 31
0.0
  0
LINE
  5
F70
  8
NOTE
  6
CONTINUOUS
 62
     4
 10
280.75718999999998
 20
1735.9534169999999
 30
0.0
 11
280.75718999999998
 21
1695.267329
 31
0.0
  0
LINE
  5
F71
  8
NOTE
  6
CONTINUOUS
 62
     4
 10
230.75718900000001
 20
1695.267329
 30
0.0
 11
280.75718999999998
 21
1695.267329
 31
0.0
  0
LINE
  5
F72
  8
NOTE
  6
CONTINUOUS
 62
     4
 10
-225.894609
 20
1695.267329
 30
0.0
 11
-275.89461
 21
1695.267329
 31
0.0
  0
LINE
  5
F73
  8
NOTE
  6
CONTINUOUS
 62
     4
 10
-275.89461
 20
1735.9534169999999
 30
0.0
 11
-275.89461
 21
1695.267329
 31
0.0
  0
LINE
  5
F74
  8
NOTE
  6
CONTINUOUS
 62
     4
 10
-225.894609
 20
1735.9534169999999
 30
0.0
 11
-225.894609
 21
1695.267329
 31
0.0
  0
LINE
  5
F75
  8
NOTE
  6
CONTINUOUS
 62
     4
 10
-225.894609
 20
1735.9534169999999
 30
0.0
 11
-200.89460800000001
 21
1735.9534169999999
 31
0.0
  0
LINE
  5
F76
  8
NOTE
  6
CONTINUOUS
 62
     4
 10
-300.89461
 20
1735.9534169999999
 30
0.0
 11
-275.89461
 21
1735.9534169999999
 31
0.0
  0
LINE
  5
F77
  8
NOTE
  6
CONTINUOUS
 62
     4
 10
-300.89461
 20
1735.9534169999999
 30
0.0
 11
-250.894609
 21
1785.8494639999999
 31
0.0
  0
LINE
  5
F78
  8
NOTE
  6
CONTINUOUS
 62
     4
 10
-250.894609
 20
1785.8494639999999
 30
0.0
 11
-200.89460800000001
 21
1735.9534169999999
 31
0.0
  0
TEXT
  5
10B8
  8
NOTE
  6
CONTINUOUS
 62
     4
 10
66.173653210424845
 20
-187.39482275596549
 30
0.0
 40
55.0
  1
RL %%C9.52
 50
0.000003
 41
0.6309520000000001
  7
STANDARD1
  0
LINE
  5
10B9
  8
NOTE
  6
CONTINUOUS
 62
     4
 10
56.634066210424862
 20
-199.95833175596539
 30
0.0
 11
464.37453020462578
 21
-199.95833175596539
 31
0.0
  0
TEXT
  5
10BA
  8
NOTE
  6
CONTINUOUS
 62
     4
 10
64.373270198368573
 20
-269.42756184405391
 30
0.0
 40
55.0
  1
※主管長90ｍ以上の
 50
0.000003
 41
0.6309520000000001
  7
STANDARD1
  0
TEXT
  5
10BB
  8
NOTE
  6
CONTINUOUS
 62
     4
 10
106.9842916516222
 20
-341.69688051479471
 30
0.0
 40
55.0
  1
場合は%%C12.7
 50
0.000003
 41
0.6309520000000001
  7
STANDARD1
  0
LINE
  5
10E6
  8
OUTLINE
  6
CONTINUOUS
 62
     3
 10
-604.50000799999998
 20
54.0
 30
0.0
 11
-605.20000584031459
 21
54.000001901447831
 31
0.0
  0
LINE
  5
10EC
  8
OUTLINE
  6
CONTINUOUS
 62
     3
 10
605.20000800000003
 20
54.00000099999999
 30
0.0
 11
604.50001015968485
 21
54.000109901447829
 31
0.0
  0
ARC
  5
11EC
  8
OUTLINE
  6
CONTINUOUS
 62
     3
 10
-186.1466401247026
 20
1543.003041178531
 30
0.0
 40
174.99282610378009
 50
147.9737614580242
 51
177.708450225088
  0
ARC
  5
11ED
  8
OUTLINE
  6
CONTINUOUS
 62
     3
 10
-326.028410000002
 20
1630.500029999949
 30
0.0
 40
10.0
 50
90.0
 51
147.97406799999831
  0
ARC
  5
11F4
  8
OUTLINE
  6
CONTINUOUS
 62
     3
 10
186.14664012470209
 20
1543.0030411785669
 30
0.0
 40
174.99282610377901
 50
2.2915497749119682
 51
32.026238541975637
  0
ARC
  5
11F5
  8
OUTLINE
  6
CONTINUOUS
 62
     3
 10
326.02841000000058
 20
1630.5000299999849
 30
0.0
 40
10.0
 50
32.025932000001852
 51
90.0
  0
ENDSEC
  0
EOF
